  0
SECTION
  2
HEADER
  9
$ACADVER
  1
AC1024
  9
$ACADMAINTVER
 70
     6
  9
$DWGCODEPAGE
  3
ANSI_1252
  9
$INSBASE
 10
0.0
 20
0.0
 30
0.0
  9
$EXTMIN
 10
1.000000000000000E+20
 20
1.000000000000000E+20
 30
1.000000000000000E+20
  9
$EXTMAX
 10
-1.000000000000000E+20
 20
-1.000000000000000E+20
 30
-1.000000000000000E+20
  9
$LIMMIN
 10
0.0
 20
0.0
  9
$LIMMAX
 10
12.0
 20
9.0
  9
$ORTHOMODE
 70
     0
  9
$REGENMODE
 70
     1
  9
$FILLMODE
 70
     1
  9
$QTEXTMODE
 70
     0
  9
$MIRRTEXT
 70
     1
  9
$LTSCALE
 40
1.0
  9
$ATTMODE
 70
     1
  9
$TEXTSIZE
 40
0.2
  9
$TRACEWID
 40
0.05
  9
$TEXTSTYLE
  7
Standard
  9
$CLAYER
  8
0
  9
$CELTYPE
  6
ByLayer
  9
$CECOLOR
 62
   256
  9
$CELTSCALE
 40
1.0
  9
$DISPSILH
 70
     0
  9
$DIMSCALE
 40
1.0
  9
$DIMASZ
 40
0.18
  9
$DIMEXO
 40
0.0625
  9
$DIMDLI
 40
0.38
  9
$DIMRND
 40
0.0
  9
$DIMDLE
 40
0.0
  9
$DIMEXE
 40
0.18
  9
$DIMTP
 40
0.0
  9
$DIMTM
 40
0.0
  9
$DIMTXT
 40
0.18
  9
$DIMCEN
 40
0.09
  9
$DIMTSZ
 40
0.0
  9
$DIMTOL
 70
     0
  9
$DIMLIM
 70
     0
  9
$DIMTIH
 70
     1
  9
$DIMTOH
 70
     1
  9
$DIMSE1
 70
     0
  9
$DIMSE2
 70
     0
  9
$DIMTAD
 70
     0
  9
$DIMZIN
 70
     0
  9
$DIMBLK
  1

  9
$DIMASO
 70
     1
  9
$DIMSHO
 70
     1
  9
$DIMPOST
  1

  9
$DIMAPOST
  1

  9
$DIMALT
 70
     0
  9
$DIMALTD
 70
     2
  9
$DIMALTF
 40
25.4
  9
$DIMLFAC
 40
1.0
  9
$DIMTOFL
 70
     0
  9
$DIMTVP
 40
0.0
  9
$DIMTIX
 70
     0
  9
$DIMSOXD
 70
     0
  9
$DIMSAH
 70
     0
  9
$DIMBLK1
  1

  9
$DIMBLK2
  1

  9
$DIMSTYLE
  2
Standard
  9
$DIMCLRD
 70
     0
  9
$DIMCLRE
 70
     0
  9
$DIMCLRT
 70
     0
  9
$DIMTFAC
 40
1.0
  9
$DIMGAP
 40
0.09
  9
$DIMJUST
 70
     0
  9
$DIMSD1
 70
     0
  9
$DIMSD2
 70
     0
  9
$DIMTOLJ
 70
     1
  9
$DIMTZIN
 70
     0
  9
$DIMALTZ
 70
     0
  9
$DIMALTTZ
 70
     0
  9
$DIMUPT
 70
     0
  9
$DIMDEC
 70
     4
  9
$DIMTDEC
 70
     4
  9
$DIMALTU
 70
     2
  9
$DIMALTTD
 70
     2
  9
$DIMTXSTY
  7
Standard
  9
$DIMAUNIT
 70
     0
  9
$DIMADEC
 70
     0
  9
$DIMALTRND
 40
0.0
  9
$DIMAZIN
 70
     0
  9
$DIMDSEP
 70
    46
  9
$DIMATFIT
 70
     3
  9
$DIMFRAC
 70
     0
  9
$DIMLDRBLK
  1

  9
$DIMLUNIT
 70
     2
  9
$DIMLWD
 70
    -2
  9
$DIMLWE
 70
    -2
  9
$DIMTMOVE
 70
     0
  9
$DIMFXL
 40
1.0
  9
$DIMFXLON
 70
     0
  9
$DIMJOGANG
 40
0.7853981633974483
  9
$DIMTFILL
 70
     0
  9
$DIMTFILLCLR
 70
     0
  9
$DIMARCSYM
 70
     0
  9
$DIMLTYPE
  6

  9
$DIMLTEX1
  6

  9
$DIMLTEX2
  6

  9
$DIMTXTDIRECTION
 70
     0
  9
$LUNITS
 70
     2
  9
$LUPREC
 70
     4
  9
$SKETCHINC
 40
0.1
  9
$FILLETRAD
 40
0.5
  9
$AUNITS
 70
     0
  9
$AUPREC
 70
     0
  9
$MENU
  1
.
  9
$ELEVATION
 40
0.0
  9
$PELEVATION
 40
0.0
  9
$THICKNESS
 40
0.0
  9
$LIMCHECK
 70
     0
  9
$CHAMFERA
 40
0.5
  9
$CHAMFERB
 40
0.5
  9
$CHAMFERC
 40
1.0
  9
$CHAMFERD
 40
0.0
  9
$SKPOLY
 70
     0
  9
$TDCREATE
 40
2458774.661346968
  9
$TDUCREATE
 40
2458774.119680301
  9
$TDUPDATE
 40
2458774.661347118
  9
$TDUUPDATE
 40
2458774.119680451
  9
$TDINDWG
 40
0.0000000116
  9
$TDUSRTIMER
 40
0.0000000116
  9
$USRTIMER
 70
     1
  9
$ANGBASE
 50
0.0
  9
$ANGDIR
 70
     0
  9
$PDMODE
 70
     0
  9
$PDSIZE
 40
0.0
  9
$PLINEWID
 40
0.0
  9
$SPLFRAME
 70
     0
  9
$SPLINETYPE
 70
     6
  9
$SPLINESEGS
 70
     8
  9
$HANDSEED
  5
15B
  9
$SURFTAB1
 70
     6
  9
$SURFTAB2
 70
     6
  9
$SURFTYPE
 70
     6
  9
$SURFU
 70
     6
  9
$SURFV
 70
     6
  9
$UCSBASE
  2

  9
$UCSNAME
  2

  9
$UCSORG
 10
0.0
 20
0.0
 30
0.0
  9
$UCSXDIR
 10
1.0
 20
0.0
 30
0.0
  9
$UCSYDIR
 10
0.0
 20
1.0
 30
0.0
  9
$UCSORTHOREF
  2

  9
$UCSORTHOVIEW
 70
     0
  9
$UCSORGTOP
 10
0.0
 20
0.0
 30
0.0
  9
$UCSORGBOTTOM
 10
0.0
 20
0.0
 30
0.0
  9
$UCSORGLEFT
 10
0.0
 20
0.0
 30
0.0
  9
$UCSORGRIGHT
 10
0.0
 20
0.0
 30
0.0
  9
$UCSORGFRONT
 10
0.0
 20
0.0
 30
0.0
  9
$UCSORGBACK
 10
0.0
 20
0.0
 30
0.0
  9
$PUCSBASE
  2

  9
$PUCSNAME
  2

  9
$PUCSORG
 10
0.0
 20
0.0
 30
0.0
  9
$PUCSXDIR
 10
1.0
 20
0.0
 30
0.0
  9
$PUCSYDIR
 10
0.0
 20
1.0
 30
0.0
  9
$PUCSORTHOREF
  2

  9
$PUCSORTHOVIEW
 70
     0
  9
$PUCSORGTOP
 10
0.0
 20
0.0
 30
0.0
  9
$PUCSORGBOTTOM
 10
0.0
 20
0.0
 30
0.0
  9
$PUCSORGLEFT
 10
0.0
 20
0.0
 30
0.0
  9
$PUCSORGRIGHT
 10
0.0
 20
0.0
 30
0.0
  9
$PUCSORGFRONT
 10
0.0
 20
0.0
 30
0.0
  9
$PUCSORGBACK
 10
0.0
 20
0.0
 30
0.0
  9
$USERI1
 70
     0
  9
$USERI2
 70
     0
  9
$USERI3
 70
     0
  9
$USERI4
 70
     0
  9
$USERI5
 70
     0
  9
$USERR1
 40
0.0
  9
$USERR2
 40
0.0
  9
$USERR3
 40
0.0
  9
$USERR4
 40
0.0
  9
$USERR5
 40
0.0
  9
$WORLDVIEW
 70
     1
  9
$SHADEDGE
 70
     3
  9
$SHADEDIF
 70
    70
  9
$TILEMODE
 70
     1
  9
$MAXACTVP
 70
    64
  9
$PINSBASE
 10
0.0
 20
0.0
 30
0.0
  9
$PLIMCHECK
 70
     0
  9
$PEXTMIN
 10
1.000000000000000E+20
 20
1.000000000000000E+20
 30
1.000000000000000E+20
  9
$PEXTMAX
 10
-1.000000000000000E+20
 20
-1.000000000000000E+20
 30
-1.000000000000000E+20
  9
$PLIMMIN
 10
0.0
 20
0.0
  9
$PLIMMAX
 10
12.0
 20
9.0
  9
$UNITMODE
 70
     0
  9
$VISRETAIN
 70
     1
  9
$PLINEGEN
 70
     0
  9
$PSLTSCALE
 70
     1
  9
$TREEDEPTH
 70
  3020
  9
$CMLSTYLE
  2
Standard
  9
$CMLJUST
 70
     0
  9
$CMLSCALE
 40
1.0
  9
$PROXYGRAPHICS
 70
     1
  9
$MEASUREMENT
 70
     0
  9
$CELWEIGHT
370
    -1
  9
$ENDCAPS
280
     0
  9
$JOINSTYLE
280
     0
  9
$LWDISPLAY
290
     1
  9
$INSUNITS
 70
     1
  9
$HYPERLINKBASE
  1

  9
$STYLESHEET
  1

  9
$XEDIT
290
     1
  9
$CEPSNTYPE
380
     0
  9
$PSTYLEMODE
290
     1
  9
$FINGERPRINTGUID
  2
{A772CAD8-61B1-448F-8475-5F053E74B721}
  9
$VERSIONGUID
  2
{FAEB1C32-E019-11D5-929B-00C0DF256EC4}
  9
$EXTNAMES
290
     1
  9
$PSVPSCALE
 40
0.0
  9
$OLESTARTUP
290
     0
  9
$SORTENTS
280
   127
  9
$INDEXCTL
280
     0
  9
$HIDETEXT
280
     1
  9
$XCLIPFRAME
280
     2
  9
$HALOGAP
280
     0
  9
$OBSCOLOR
 70
   257
  9
$OBSLTYPE
280
     0
  9
$INTERSECTIONDISPLAY
280
     0
  9
$INTERSECTIONCOLOR
 70
   257
  9
$DIMASSOC
280
     2
  9
$PROJECTNAME
  1

  9
$CAMERADISPLAY
290
     0
  9
$LENSLENGTH
 40
50.0
  9
$CAMERAHEIGHT
 40
0.0
  9
$STEPSPERSEC
 40
2.0
  9
$STEPSIZE
 40
6.0
  9
$3DDWFPREC
 40
2.0
  9
$PSOLWIDTH
 40
0.25
  9
$PSOLHEIGHT
 40
4.0
  9
$LOFTANG1
 40
1.570796326794897
  9
$LOFTANG2
 40
1.570796326794897
  9
$LOFTMAG1
 40
0.0
  9
$LOFTMAG2
 40
0.0
  9
$LOFTPARAM
 70
     7
  9
$LOFTNORMALS
280
     1
  9
$LATITUDE
 40
37.795
  9
$LONGITUDE
 40
-122.394
  9
$NORTHDIRECTION
 40
0.0
  9
$TIMEZONE
 70
 -8000
  9
$LIGHTGLYPHDISPLAY
280
     1
  9
$TILEMODELIGHTSYNCH
280
     1
  9
$CMATERIAL
347
3C
  9
$SOLIDHIST
280
     1
  9
$SHOWHIST
280
     1
  9
$DWFFRAME
280
     2
  9
$DGNFRAME
280
     2
  9
$REALWORLDSCALE
290
     1
  9
$INTERFERECOLOR
 62
   256
  9
$CSHADOW
280
     0
  9
$SHADOWPLANELOCATION
 40
0.0
  0
ENDSEC
  0
SECTION
  2
CLASSES
  0
CLASS
  1
ACDBDICTIONARYWDFLT
  2
AcDbDictionaryWithDefault
  3
ObjectDBX Classes
 90
        0
 91
        4
280
     0
281
     0
  0
CLASS
  1
VISUALSTYLE
  2
AcDbVisualStyle
  3
ObjectDBX Classes
 90
     4095
 91
        4
280
     0
281
     0
  0
CLASS
  1
MATERIAL
  2
AcDbMaterial
  3
ObjectDBX Classes
 90
     1153
 91
        4
280
     0
281
     0
  0
CLASS
  1
SUN
  2
AcDbSun
  3
SCENEOE
 90
     1024
 91
        4
280
     0
281
     0
  0
ENDSEC
  0
SECTION
  2
TABLES
  0
TABLE
  2
VPORT
  5
8
330
0
100
AcDbSymbolTable
 70
     1
  0
VPORT
  5
29
330
8
100
AcDbSymbolTableRecord
100
AcDbViewportTableRecord
  2
*Active
 70
     0
 10
0.0
 20
0.0
 11
1.0
 21
1.0
 12
0.0
 22
0.0
 13
0.0
 23
0.0
 14
0.5
 24
0.5
 15
0.5
 25
0.5
 16
0.0
 26
0.0
 36
1.0
 17
1.847222222222222
 27
-1.770833333333333
 37
0.0
 40
11.69291338582677
 41
0.7070707070707065
 42
50.0
 43
0.0
 44
0.0
 50
0.0
 51
0.0
 71
     0
 72
   100
 73
     1
 74
     3
 75
     0
 76
     0
 77
     0
 78
     0
281
     0
 65
     1
110
0.0
120
0.0
130
0.0
111
1.0
121
0.0
131
0.0
112
0.0
122
1.0
132
0.0
 79
     0
146
0.0
 60
     3
 61
     5
292
     1
282
     1
141
0.0
142
0.0
 63
   250
361
3F
  0
ENDTAB
  0
TABLE
  2
LTYPE
  5
5
330
0
100
AcDbSymbolTable
 70
     1
  0
LTYPE
  5
14
330
5
100
AcDbSymbolTableRecord
100
AcDbLinetypeTableRecord
  2
ByBlock
 70
     0
  3

 72
    65
 73
     0
 40
0.0
  0
LTYPE
  5
15
330
5
100
AcDbSymbolTableRecord
100
AcDbLinetypeTableRecord
  2
ByLayer
 70
     0
  3

 72
    65
 73
     0
 40
0.0
  0
LTYPE
  5
16
330
5
100
AcDbSymbolTableRecord
100
AcDbLinetypeTableRecord
  2
Continuous
 70
     0
  3
Solid line
 72
    65
 73
     0
 40
0.0
  0
ENDTAB
  0
TABLE
  2
LAYER
  5
2
330
0
100
AcDbSymbolTable
 70
     4
  0
LAYER
  5
10
330
2
100
AcDbSymbolTableRecord
100
AcDbLayerTableRecord
  2
0
 70
     0
 62
     7
  6
Continuous
370
    -3
390
F
347
3E
  0
LAYER
  5
40
330
2
100
AcDbSymbolTableRecord
100
AcDbLayerTableRecord
  2
Wood
 70
     0
 62
     7
  6
Continuous
370
    -3
390
F
347
3E
  0
LAYER
  5
DA
330
2
100
AcDbSymbolTableRecord
100
AcDbLayerTableRecord
  2
ULT-RT
 70
     0
 62
     7
  6
Continuous
370
    -3
390
F
347
3E
  0
LAYER
  5
119
330
2
100
AcDbSymbolTableRecord
100
AcDbLayerTableRecord
  2
callout
 70
     0
 62
     7
  6
Continuous
370
    -3
390
F
347
3E
  0
ENDTAB
  0
TABLE
  2
STYLE
  5
3
330
0
100
AcDbSymbolTable
 70
     1
  0
STYLE
  5
11
330
3
100
AcDbSymbolTableRecord
100
AcDbTextStyleTableRecord
  2
Standard
 70
     0
 40
0.0
 41
1.0
 50
0.0
 71
     0
 42
0.2
  3
txt
  4

  0
ENDTAB
  0
TABLE
  2
VIEW
  5
6
330
0
100
AcDbSymbolTable
 70
     0
  0
ENDTAB
  0
TABLE
  2
UCS
  5
7
330
0
100
AcDbSymbolTable
 70
     0
  0
ENDTAB
  0
TABLE
  2
APPID
  5
9
330
0
100
AcDbSymbolTable
 70
     1
  0
APPID
  5
12
330
9
100
AcDbSymbolTableRecord
100
AcDbRegAppTableRecord
  2
ACAD
 70
     0
  0
ENDTAB
  0
TABLE
  2
DIMSTYLE
  5
A
330
0
100
AcDbSymbolTable
 70
     1
100
AcDbDimStyleTable
  0
DIMSTYLE
105
27
330
A
100
AcDbSymbolTableRecord
100
AcDbDimStyleTableRecord
  2
Standard
 70
     0
178
     0
340
11
  0
ENDTAB
  0
TABLE
  2
BLOCK_RECORD
  5
1
330
0
100
AcDbSymbolTable
 70
     3
  0
BLOCK_RECORD
  5
1F
330
1
100
AcDbSymbolTableRecord
100
AcDbBlockTableRecord
  2
*Model_Space
340
22
 70
     0
280
     1
281
     0
  0
BLOCK_RECORD
  5
1B
330
1
100
AcDbSymbolTableRecord
100
AcDbBlockTableRecord
  2
*Paper_Space
340
1E
 70
     0
280
     1
281
     0
  0
BLOCK_RECORD
  5
23
330
1
100
AcDbSymbolTableRecord
100
AcDbBlockTableRecord
  2
*Paper_Space0
340
26
 70
     0
280
     1
281
     0
  0
BLOCK_RECORD
  5
11A
330
1
100
AcDbSymbolTableRecord
100
AcDbBlockTableRecord
  2
block 2
340
0
102
{BLKREFS
331
11B
102
}
 70
     0
280
     1
281
     0
  0
BLOCK_RECORD
  5
131
330
1
100
AcDbSymbolTableRecord
100
AcDbBlockTableRecord
  2
block 3
340
0
102
{BLKREFS
331
132
102
}
 70
     0
280
     1
281
     0
  0
ENDTAB
  0
ENDSEC
  0
SECTION
  2
BLOCKS
  0
BLOCK
  5
20
330
1F
100
AcDbEntity
  8
0
100
AcDbBlockBegin
  2
*Model_Space
 70
     0
 10
0.0
 20
0.0
 30
0.0
  3
*Model_Space
  1

  0
ENDBLK
  5
21
330
1F
100
AcDbEntity
  8
0
100
AcDbBlockEnd
  0
BLOCK
  5
1C
330
1B
100
AcDbEntity
 67
     1
  8
0
100
AcDbBlockBegin
  2
*Paper_Space
 70
     0
 10
0.0
 20
0.0
 30
0.0
  3
*Paper_Space
  1

  0
ENDBLK
  5
1D
330
1B
100
AcDbEntity
 67
     1
  8
0
100
AcDbBlockEnd
  0
BLOCK
  5
24
330
23
100
AcDbEntity
  8
0
100
AcDbBlockBegin
  2
*Paper_Space0
 70
     0
 10
0.0
 20
0.0
 30
0.0
  3
*Paper_Space0
  1

  0
ENDBLK
  5
25
330
23
100
AcDbEntity
  8
0
100
AcDbBlockEnd
  0
BLOCK
  5
11C
330
11A
100
AcDbEntity
  8
0
100
AcDbBlockBegin
  2
block 2
 70
     0
 10
0.0
 20
0.0
 30
0.0
  3
block 2
  1

  0
POLYLINE
  5
11E
330
11A
100
AcDbEntity
  8
callout
 62
   250
420
  2301728
370
    80
100
AcDb2dPolyline
 66
     1
 10
0.0
 20
0.0
 30
0.0
  0
VERTEX
  5
11F
330
11E
100
AcDbEntity
  8
callout
 62
   250
420
  2301728
370
    80
100
AcDbVertex
100
AcDb2dVertex
 10
1.341756069414499
 20
-2.718477083333305
 30
0.0
  0
VERTEX
  5
120
330
11E
100
AcDbEntity
  8
callout
 62
   250
420
  2301728
370
    80
100
AcDbVertex
100
AcDb2dVertex
 10
1.735122726143888
 20
-2.997495833333333
 30
0.0
  0
SEQEND
  5
121
330
11E
100
AcDbEntity
  8
callout
 62
   250
420
  2301728
370
    80
  0
POLYLINE
  5
122
330
11A
100
AcDbEntity
  8
callout
370
     0
100
AcDb2dPolyline
 66
     1
 10
0.0
 20
0.0
 30
0.0
  0
VERTEX
  5
123
330
122
100
AcDbEntity
  8
callout
370
     0
100
AcDbVertex
100
AcDb2dVertex
 10
1.306283153643954
 20
-2.757456250000005
 30
0.0
  0
VERTEX
  5
124
330
122
100
AcDbEntity
  8
callout
370
     0
100
AcDbVertex
100
AcDb2dVertex
 10
1.436031067032913
 20
-2.71529166666667
 30
0.0
  0
VERTEX
  5
125
330
122
100
AcDbEntity
  8
callout
370
     0
100
AcDbVertex
100
AcDb2dVertex
 10
1.244066488549012
 20
-2.65372291666669
 30
0.0
  0
VERTEX
  5
126
330
122
100
AcDbEntity
  8
callout
370
     0
100
AcDbVertex
100
AcDb2dVertex
 10
1.306283153643954
 20
-2.757456250000005
 30
0.0
  0
SEQEND
  5
128
330
122
100
AcDbEntity
  8
callout
370
     0
  0
HATCH
  5
127
330
11A
100
AcDbEntity
  8
callout
 62
   250
420
  2301728
100
AcDbHatch
 10
0.0
 20
0.0
 30
0.0
210
0.0
220
0.0
230
1.0
  2
SOLID
 70
     1
 71
     0
 91
        1
 92
        1
 93
        3
 72
     1
 10
1.306283153643954
 20
-2.757456250000005
 11
1.436031067032913
 21
-2.71529166666667
 72
     1
 10
1.436031067032913
 20
-2.71529166666667
 11
1.244066488549012
 21
-2.65372291666669
 72
     1
 10
1.244066488549012
 20
-2.65372291666669
 11
1.306283153643954
 21
-2.757456250000005
 97
        0
 75
     2
 76
     1
 98
        0
  0
POLYLINE
  5
129
330
11A
100
AcDbEntity
  8
callout
370
     0
100
AcDb2dPolyline
 66
     1
 10
0.0
 20
0.0
 30
0.0
  0
VERTEX
  5
12A
330
129
100
AcDbEntity
  8
callout
370
     0
100
AcDbVertex
100
AcDb2dVertex
 10
1.743606059262914
 20
-2.937231250000018
 30
0.0
  0
VERTEX
  5
12B
330
129
100
AcDbEntity
  8
callout
370
     0
100
AcDbVertex
100
AcDb2dVertex
 10
1.613858145873956
 20
-2.979395833333355
 30
0.0
  0
VERTEX
  5
12C
330
129
100
AcDbEntity
  8
callout
370
     0
100
AcDbVertex
100
AcDb2dVertex
 10
1.845589390019932
 20
-3.065416666666705
 30
0.0
  0
VERTEX
  5
12D
330
129
100
AcDbEntity
  8
callout
370
     0
100
AcDbVertex
100
AcDb2dVertex
 10
1.743606059262914
 20
-2.937231250000018
 30
0.0
  0
SEQEND
  5
12F
330
129
100
AcDbEntity
  8
callout
370
     0
  0
HATCH
  5
12E
330
11A
100
AcDbEntity
  8
callout
 62
   250
420
  2301728
100
AcDbHatch
 10
0.0
 20
0.0
 30
0.0
210
0.0
220
0.0
230
1.0
  2
SOLID
 70
     1
 71
     0
 91
        1
 92
        1
 93
        3
 72
     1
 10
1.743606059262914
 20
-2.937231250000018
 11
1.613858145873956
 21
-2.979395833333355
 72
     1
 10
1.613858145873956
 20
-2.979395833333355
 11
1.845589390019932
 21
-3.065416666666705
 72
     1
 10
1.845589390019932
 20
-3.065416666666705
 11
1.743606059262914
 21
-2.937231250000018
 97
        0
 75
     2
 76
     1
 98
        0
  0
MTEXT
  5
130
330
11A
100
AcDbEntity
  8
callout
 62
   250
420
  2301728
100
AcDbMText
 10
1.148841114704232
 20
-2.890153529740928
 30
0.0
 40
0.1635948356207628
 41
0.0
 46
0.0
 71
     7
 72
     1
  1
\fHelvetica Neue LT Std 67 Medium Condensed|b0|i0|c0|p34;\W1.10372;F\H0.128539;1
 11
0.8441219769620187
 21
-0.5361511801812368
 31
0.0
 73
     1
 44
1.0
  0
ENDBLK
  5
11D
330
11A
100
AcDbEntity
  8
0
100
AcDbBlockEnd
  0
BLOCK
  5
133
330
131
100
AcDbEntity
  8
0
100
AcDbBlockBegin
  2
block 3
 70
     0
 10
0.0
 20
0.0
 30
0.0
  3
block 3
  1

  0
POLYLINE
  5
135
330
131
100
AcDbEntity
  8
callout
 62
   250
420
  2301728
370
    80
100
AcDb2dPolyline
 66
     1
 10
0.0
 20
0.0
 30
0.0
  0
VERTEX
  5
136
330
135
100
AcDbEntity
  8
callout
 62
   250
420
  2301728
370
    80
100
AcDbVertex
100
AcDb2dVertex
 10
0.918089413450553
 20
-1.874322916666693
 30
0.0
  0
VERTEX
  5
137
330
135
100
AcDbEntity
  8
callout
 62
   250
420
  2301728
370
    80
100
AcDbVertex
100
AcDb2dVertex
 10
1.333295652961561
 20
-1.666589583333348
 30
0.0
  0
SEQEND
  5
138
330
135
100
AcDbEntity
  8
callout
 62
   250
420
  2301728
370
    80
  0
POLYLINE
  5
139
330
131
100
AcDbEntity
  8
callout
370
     0
100
AcDb2dPolyline
 66
     1
 10
0.0
 20
0.0
 30
0.0
  0
VERTEX
  5
13A
330
139
100
AcDbEntity
  8
callout
370
     0
100
AcDbVertex
100
AcDb2dVertex
 10
0.9497602459838137
 20
-1.927633333333334
 30
0.0
  0
VERTEX
  5
13B
330
139
100
AcDbEntity
  8
callout
370
     0
100
AcDbVertex
100
AcDb2dVertex
 10
0.9560581624913816
 20
-1.778774999999983
 30
0.0
  0
VERTEX
  5
13C
330
139
100
AcDbEntity
  8
callout
370
     0
100
AcDbVertex
100
AcDb2dVertex
 10
0.8202414992557325
 20
-1.905572916666693
 30
0.0
  0
VERTEX
  5
13D
330
139
100
AcDbEntity
  8
callout
370
     0
100
AcDbVertex
100
AcDb2dVertex
 10
0.9497602459838137
 20
-1.927633333333334
 30
0.0
  0
SEQEND
  5
13F
330
139
100
AcDbEntity
  8
callout
370
     0
  0
HATCH
  5
13E
330
131
100
AcDbEntity
  8
callout
 62
   250
420
  2301728
100
AcDbHatch
 10
0.0
 20
0.0
 30
0.0
210
0.0
220
0.0
230
1.0
  2
SOLID
 70
     1
 71
     0
 91
        1
 92
        1
 93
        3
 72
     1
 10
0.9497602459838137
 20
-1.927633333333334
 11
0.9560581624913816
 21
-1.778774999999983
 72
     1
 10
0.9560581624913816
 20
-1.778774999999983
 11
0.8202414992557325
 21
-1.905572916666693
 72
     1
 10
0.8202414992557325
 20
-1.905572916666693
 11
0.9497602459838137
 21
-1.927633333333334
 97
        0
 75
     2
 76
     1
 98
        0
  0
POLYLINE
  5
140
330
131
100
AcDbEntity
  8
callout
370
     0
100
AcDb2dPolyline
 66
     1
 10
0.0
 20
0.0
 30
0.0
  0
VERTEX
  5
141
330
140
100
AcDbEntity
  8
callout
370
     0
100
AcDbVertex
100
AcDb2dVertex
 10
1.315995653398595
 20
-1.593441666666662
 30
0.0
  0
VERTEX
  5
142
330
140
100
AcDbEntity
  8
callout
370
     0
100
AcDbVertex
100
AcDb2dVertex
 10
1.309697736891028
 20
-1.742304166666663
 30
0.0
  0
VERTEX
  5
143
330
140
100
AcDbEntity
  8
callout
370
     0
100
AcDbVertex
100
AcDb2dVertex
 10
1.445512316793409
 20
-1.615508333333347
 30
0.0
  0
VERTEX
  5
144
330
140
100
AcDbEntity
  8
callout
370
     0
100
AcDbVertex
100
AcDb2dVertex
 10
1.315995653398595
 20
-1.593441666666662
 30
0.0
  0
SEQEND
  5
146
330
140
100
AcDbEntity
  8
callout
370
     0
  0
HATCH
  5
145
330
131
100
AcDbEntity
  8
callout
 62
   250
420
  2301728
100
AcDbHatch
 10
0.0
 20
0.0
 30
0.0
210
0.0
220
0.0
230
1.0
  2
SOLID
 70
     1
 71
     0
 91
        1
 92
        1
 93
        3
 72
     1
 10
1.315995653398595
 20
-1.593441666666662
 11
1.309697736891028
 21
-1.742304166666663
 72
     1
 10
1.309697736891028
 20
-1.742304166666663
 11
1.445512316793409
 21
-1.615508333333347
 72
     1
 10
1.445512316793409
 20
-1.615508333333347
 11
1.315995653398595
 21
-1.593441666666662
 97
        0
 75
     2
 76
     1
 98
        0
  0
MTEXT
  5
147
330
131
100
AcDbEntity
  8
callout
 62
   250
420
  2301728
100
AcDbMText
 10
1.018233736924635
 20
-2.1935240608792
 30
0.0
 40
0.1973606934294657
 41
0.0
 46
0.0
 71
     7
 72
     1
  1
\fHelvetica Neue LT Std 67 Medium Condensed|b0|i0|c0|p34;\W1.17568;F\H0.155069;2
 11
0.87078121279007
 21
0.4916707022508609
 31
0.0
 73
     1
 44
1.0
  0
ENDBLK
  5
134
330
131
100
AcDbEntity
  8
0
100
AcDbBlockEnd
  0
ENDSEC
  0
SECTION
  2
ENTITIES
  0
POLYLINE
  5
41
330
1F
100
AcDbEntity
  8
Wood
 62
     7
420
 16777215
370
    40
100
AcDb2dPolyline
 66
     1
 10
0.0
 20
0.0
 30
0.0
  0
VERTEX
  5
42
330
41
100
AcDbEntity
  8
Wood
 62
     7
420
 16777215
370
    40
100
AcDbVertex
100
AcDb2dVertex
 10
0.9315207632824164
 20
-0.8906354166666435
 30
0.0
  0
VERTEX
  5
43
330
41
100
AcDbEntity
  8
Wood
 62
     7
420
 16777215
370
    40
100
AcDbVertex
100
AcDb2dVertex
 10
0.7266457632824136
 20
-0.9305520833333578
 30
0.0
  0
VERTEX
  5
44
330
41
100
AcDbEntity
  8
Wood
 62
     7
420
 16777215
370
    40
100
AcDbVertex
100
AcDb2dVertex
 10
0.5947290966157526
 20
-0.9166770833333101
 30
0.0
  0
VERTEX
  5
45
330
41
100
AcDbEntity
  8
Wood
 62
     7
420
 16777215
370
    40
100
AcDbVertex
100
AcDb2dVertex
 10
0.5947290966157526
 20
-0.9774270833333578
 30
0.0
  0
VERTEX
  5
46
330
41
100
AcDbEntity
  8
Wood
 62
     7
420
 16777215
370
    40
100
AcDbVertex
100
AcDb2dVertex
 10
0.504437429949083
 20
-0.9670104166666912
 30
0.0
  0
VERTEX
  5
47
330
41
100
AcDbEntity
  8
Wood
 62
     7
420
 16777215
370
    40
100
AcDbVertex
100
AcDb2dVertex
 10
0.2683332632824179
 20
-1.008677083333358
 30
0.0
  0
VERTEX
  5
48
330
41
100
AcDbEntity
  8
Wood
 62
     7
420
 16777215
370
    40
100
AcDbVertex
100
AcDb2dVertex
 10
0.2683332632824179
 20
-1.217010416666691
 30
0.0
  0
VERTEX
  5
49
330
41
100
AcDbEntity
  8
Wood
 62
     7
420
 16777215
370
    40
100
AcDbVertex
100
AcDb2dVertex
 10
0.1919374299490831
 20
-1.234385416666643
 30
0.0
  0
VERTEX
  5
4A
330
41
100
AcDbEntity
  8
Wood
 62
     7
420
 16777215
370
    40
100
AcDbVertex
100
AcDb2dVertex
 10
0.1919374299490831
 20
-1.505218749999977
 30
0.0
  0
VERTEX
  5
4B
330
41
100
AcDbEntity
  8
Wood
 62
     7
420
 16777215
370
    40
100
AcDbVertex
100
AcDb2dVertex
 10
2.417645763282406
 20
-3.251739583333347
 30
0.0
  0
VERTEX
  5
4C
330
41
100
AcDbEntity
  8
Wood
 62
     7
420
 16777215
370
    40
100
AcDbVertex
100
AcDb2dVertex
 10
2.784691449629564
 20
-3.112864583333299
 30
0.0
  0
VERTEX
  5
4D
330
41
100
AcDbEntity
  8
Wood
 62
     7
420
 16777215
370
    40
100
AcDbVertex
100
AcDb2dVertex
 10
2.784691449629564
 20
-3.067697916666677
 30
0.0
  0
VERTEX
  5
4E
330
41
100
AcDbEntity
  8
Wood
 62
     7
420
 16777215
370
    40
100
AcDbVertex
100
AcDb2dVertex
 10
2.994041596615766
 20
-3.102447916666632
 30
0.0
  0
VERTEX
  5
4F
330
41
100
AcDbEntity
  8
Wood
 62
     7
420
 16777215
370
    40
100
AcDbVertex
100
AcDb2dVertex
 10
2.994041596615766
 20
-3.036447916666677
 30
0.0
  0
VERTEX
  5
50
330
41
100
AcDbEntity
  8
Wood
 62
     7
420
 16777215
370
    40
100
AcDbVertex
100
AcDb2dVertex
 10
3.289166596615764
 20
-2.921864583333344
 30
0.0
  0
VERTEX
  5
51
330
41
100
AcDbEntity
  8
Wood
 62
     7
420
 16777215
370
    40
100
AcDbVertex
100
AcDb2dVertex
 10
3.289166596615764
 20
-2.49132291666668
 30
0.0
  0
VERTEX
  5
52
330
41
100
AcDbEntity
  8
Wood
 62
     7
420
 16777215
370
    40
100
AcDbVertex
100
AcDb2dVertex
 10
3.091249929949097
 20
-2.394114583333299
 30
0.0
  0
VERTEX
  5
53
330
41
100
AcDbEntity
  8
Wood
 62
     7
420
 16777215
370
    40
100
AcDbVertex
100
AcDb2dVertex
 10
3.091249929949097
 20
-2.011912500000006
 30
0.0
  0
VERTEX
  5
54
330
41
100
AcDbEntity
  8
Wood
 62
     7
420
 16777215
370
    40
100
AcDbVertex
100
AcDb2dVertex
 10
0.9315207632824164
 20
-0.8906354166666435
 30
0.0
  0
SEQEND
  5
56
330
41
100
AcDbEntity
  8
Wood
 62
     7
420
 16777215
370
    40
  0
HATCH
  5
55
330
1F
100
AcDbEntity
  8
Wood
 62
    43
420
 15510365
100
AcDbHatch
 10
0.0
 20
0.0
 30
0.0
210
0.0
220
0.0
230
1.0
  2
SOLID
 70
     1
 71
     0
 91
        1
 92
        1
 93
       18
 72
     1
 10
0.9315207632824164
 20
-0.8906354166666435
 11
0.7266457632824136
 21
-0.9305520833333578
 72
     1
 10
0.7266457632824136
 20
-0.9305520833333578
 11
0.5947290966157526
 21
-0.9166770833333101
 72
     1
 10
0.5947290966157526
 20
-0.9166770833333101
 11
0.5947290966157526
 21
-0.9774270833333578
 72
     1
 10
0.5947290966157526
 20
-0.9774270833333578
 11
0.504437429949083
 21
-0.9670104166666912
 72
     1
 10
0.504437429949083
 20
-0.9670104166666912
 11
0.2683332632824179
 21
-1.008677083333358
 72
     1
 10
0.2683332632824179
 20
-1.008677083333358
 11
0.2683332632824179
 21
-1.217010416666691
 72
     1
 10
0.2683332632824179
 20
-1.217010416666691
 11
0.1919374299490831
 21
-1.234385416666643
 72
     1
 10
0.1919374299490831
 20
-1.234385416666643
 11
0.1919374299490831
 21
-1.505218749999977
 72
     1
 10
0.1919374299490831
 20
-1.505218749999977
 11
2.417645763282406
 21
-3.251739583333347
 72
     1
 10
2.417645763282406
 20
-3.251739583333347
 11
2.784691449629564
 21
-3.112864583333299
 72
     1
 10
2.784691449629564
 20
-3.112864583333299
 11
2.784691449629564
 21
-3.067697916666677
 72
     1
 10
2.784691449629564
 20
-3.067697916666677
 11
2.994041596615766
 21
-3.102447916666632
 72
     1
 10
2.994041596615766
 20
-3.102447916666632
 11
2.994041596615766
 21
-3.036447916666677
 72
     1
 10
2.994041596615766
 20
-3.036447916666677
 11
3.289166596615764
 21
-2.921864583333344
 72
     1
 10
3.289166596615764
 20
-2.921864583333344
 11
3.289166596615764
 21
-2.49132291666668
 72
     1
 10
3.289166596615764
 20
-2.49132291666668
 11
3.091249929949097
 21
-2.394114583333299
 72
     1
 10
3.091249929949097
 20
-2.394114583333299
 11
3.091249929949097
 21
-2.011912500000006
 72
     1
 10
3.091249929949097
 20
-2.011912500000006
 11
0.9315207632824163
 21
-0.8906354166666435
 97
        0
 75
     2
 76
     1
 98
        0
  0
POLYLINE
  5
57
330
1F
100
AcDbEntity
  8
Wood
 62
     7
420
 16777215
370
    30
100
AcDb2dPolyline
 66
     1
 10
0.0
 20
0.0
 30
0.0
  0
VERTEX
  5
58
330
57
100
AcDbEntity
  8
Wood
 62
     7
420
 16777215
370
    30
100
AcDbVertex
100
AcDb2dVertex
 10
3.091249929949097
 20
-2.011912500000006
 30
0.0
  0
VERTEX
  5
59
330
57
100
AcDbEntity
  8
Wood
 62
     7
420
 16777215
370
    30
100
AcDbVertex
100
AcDb2dVertex
 10
2.803062429949073
 20
-2.095489583333347
 30
0.0
  0
VERTEX
  5
5A
330
57
100
AcDbEntity
  8
Wood
 62
     7
420
 16777215
370
    30
100
AcDbVertex
100
AcDb2dVertex
 10
2.803062429949073
 20
-2.140614583333344
 30
0.0
  0
VERTEX
  5
5B
330
57
100
AcDbEntity
  8
Wood
 62
     7
420
 16777215
370
    30
100
AcDbVertex
100
AcDb2dVertex
 10
2.619041596615766
 20
-2.102447916666632
 30
0.0
  0
VERTEX
  5
5C
330
57
100
AcDbEntity
  8
Wood
 62
     7
420
 16777215
370
    30
100
AcDbVertex
100
AcDb2dVertex
 10
2.622499929949097
 20
-2.14757291666668
 30
0.0
  0
VERTEX
  5
5D
330
57
100
AcDbEntity
  8
Wood
 62
     7
420
 16777215
370
    30
100
AcDbVertex
100
AcDb2dVertex
 10
2.244041596615766
 20
-2.256704166666673
 30
0.0
  0
VERTEX
  5
5E
330
57
100
AcDbEntity
  8
Wood
 62
     7
420
 16777215
370
    30
100
AcDbVertex
100
AcDb2dVertex
 10
0.2683332632824179
 20
-1.008677083333358
 30
0.0
  0
SEQEND
  5
5F
330
57
100
AcDbEntity
  8
Wood
 62
     7
420
 16777215
370
    30
  0
POLYLINE
  5
60
330
1F
100
AcDbEntity
  8
Wood
 62
     7
420
 16777215
370
    30
100
AcDb2dPolyline
 66
     1
 10
0.0
 20
0.0
 30
0.0
  0
VERTEX
  5
61
330
60
100
AcDbEntity
  8
Wood
 62
     7
420
 16777215
370
    30
100
AcDbVertex
100
AcDb2dVertex
 10
0.1919374299490831
 20
-1.234385416666643
 30
0.0
  0
VERTEX
  5
62
330
60
100
AcDbEntity
  8
Wood
 62
     7
420
 16777215
370
    30
100
AcDbVertex
100
AcDb2dVertex
 10
2.414166596615764
 20
-2.796864583333344
 30
0.0
  0
VERTEX
  5
63
330
60
100
AcDbEntity
  8
Wood
 62
     7
420
 16777215
370
    30
100
AcDbVertex
100
AcDb2dVertex
 10
2.78222909661574
 20
-2.671864583333344
 30
0.0
  0
VERTEX
  5
64
330
60
100
AcDbEntity
  8
Wood
 62
     7
420
 16777215
370
    30
100
AcDbVertex
100
AcDb2dVertex
 10
2.78222909661574
 20
-2.623281249999966
 30
0.0
  0
VERTEX
  5
65
330
60
100
AcDbEntity
  8
Wood
 62
     7
420
 16777215
370
    30
100
AcDbVertex
100
AcDb2dVertex
 10
2.990562429949073
 20
-2.654531249999966
 30
0.0
  0
VERTEX
  5
66
330
60
100
AcDbEntity
  8
Wood
 62
     7
420
 16777215
370
    30
100
AcDbVertex
100
AcDb2dVertex
 10
2.994041596615766
 20
-2.598947916666677
 30
0.0
  0
VERTEX
  5
67
330
60
100
AcDbEntity
  8
Wood
 62
     7
420
 16777215
370
    30
100
AcDbVertex
100
AcDb2dVertex
 10
3.289166596615764
 20
-2.49132291666668
 30
0.0
  0
SEQEND
  5
68
330
60
100
AcDbEntity
  8
Wood
 62
     7
420
 16777215
370
    30
  0
POLYLINE
  5
69
330
1F
100
AcDbEntity
  8
Wood
 62
     7
420
 16777215
370
    30
100
AcDb2dPolyline
 66
     1
 10
0.0
 20
0.0
 30
0.0
  0
VERTEX
  5
6A
330
69
100
AcDbEntity
  8
Wood
 62
     7
420
 16777215
370
    30
100
AcDbVertex
100
AcDb2dVertex
 10
3.091249929949097
 20
-2.394114583333299
 30
0.0
  0
VERTEX
  5
6B
330
69
100
AcDbEntity
  8
Wood
 62
     7
420
 16777215
370
    30
100
AcDbVertex
100
AcDb2dVertex
 10
2.804018532474654
 20
-2.489368750000014
 30
0.0
  0
VERTEX
  5
6C
330
69
100
AcDbEntity
  8
Wood
 62
     7
420
 16777215
370
    30
100
AcDbVertex
100
AcDb2dVertex
 10
2.804018532474654
 20
-2.541452083333347
 30
0.0
  0
VERTEX
  5
6D
330
69
100
AcDbEntity
  8
Wood
 62
     7
420
 16777215
370
    30
100
AcDbVertex
100
AcDb2dVertex
 10
2.622012287072519
 20
-2.501739583333347
 30
0.0
  0
VERTEX
  5
6E
330
69
100
AcDbEntity
  8
Wood
 62
     7
420
 16777215
370
    30
100
AcDbVertex
100
AcDb2dVertex
 10
2.622012287072519
 20
-2.550364583333299
 30
0.0
  0
VERTEX
  5
6F
330
69
100
AcDbEntity
  8
Wood
 62
     7
420
 16777215
370
    30
100
AcDbVertex
100
AcDb2dVertex
 10
2.244041596615766
 20
-2.675364583333299
 30
0.0
  0
VERTEX
  5
70
330
69
100
AcDbEntity
  8
Wood
 62
     7
420
 16777215
370
    30
100
AcDbVertex
100
AcDb2dVertex
 10
2.244041596615766
 20
-2.264231249999991
 30
0.0
  0
SEQEND
  5
71
330
69
100
AcDbEntity
  8
Wood
 62
     7
420
 16777215
370
    30
  0
POLYLINE
  5
72
330
1F
100
AcDbEntity
  8
Wood
 62
     7
420
 16777215
370
    40
100
AcDb2dPolyline
 66
     1
 10
0.0
 20
0.0
 30
0.0
  0
VERTEX
  5
73
330
72
100
AcDbEntity
  8
Wood
 62
     7
420
 16777215
370
    40
100
AcDbVertex
100
AcDb2dVertex
 10
0.2681706798688815
 20
-1.215220833333344
 30
0.0
  0
VERTEX
  5
74
330
72
100
AcDbEntity
  8
Wood
 62
     7
420
 16777215
370
    40
100
AcDbVertex
100
AcDb2dVertex
 10
0.2681706798688815
 20
-1.284433333333317
 30
0.0
  0
SEQEND
  5
75
330
72
100
AcDbEntity
  8
Wood
 62
     7
420
 16777215
370
    40
  0
POLYLINE
  5
76
330
1F
100
AcDbEntity
  8
Wood
 62
     7
420
 16777215
370
    30
100
AcDb2dPolyline
 66
     1
 10
0.0
 20
0.0
 30
0.0
  0
VERTEX
  5
77
330
76
100
AcDbEntity
  8
Wood
 62
     7
420
 16777215
370
    30
100
AcDbVertex
100
AcDb2dVertex
 10
2.414166596615764
 20
-2.796864583333344
 30
0.0
  0
VERTEX
  5
78
330
76
100
AcDbEntity
  8
Wood
 62
     7
420
 16777215
370
    30
100
AcDbVertex
100
AcDb2dVertex
 10
2.414166596615764
 20
-3.251739583333347
 30
0.0
  0
SEQEND
  5
79
330
76
100
AcDbEntity
  8
Wood
 62
     7
420
 16777215
370
    30
  0
POLYLINE
  5
7A
330
1F
100
AcDbEntity
  8
Wood
 62
     7
420
 16777215
370
    30
100
AcDb2dPolyline
 66
     1
 10
0.0
 20
0.0
 30
0.0
  0
VERTEX
  5
7B
330
7A
100
AcDbEntity
  8
Wood
 62
     7
420
 16777215
370
    30
100
AcDbVertex
100
AcDb2dVertex
 10
2.990562429949073
 20
-2.654531249999966
 30
0.0
  0
VERTEX
  5
7C
330
7A
100
AcDbEntity
  8
Wood
 62
     7
420
 16777215
370
    30
100
AcDbVertex
100
AcDb2dVertex
 10
2.990562429949073
 20
-3.036447916666677
 30
0.0
  0
SEQEND
  5
7D
330
7A
100
AcDbEntity
  8
Wood
 62
     7
420
 16777215
370
    30
  0
POLYLINE
  5
7E
330
1F
100
AcDbEntity
  8
Wood
 62
     7
420
 16777215
370
    30
100
AcDb2dPolyline
 66
     1
 10
0.0
 20
0.0
 30
0.0
  0
VERTEX
  5
7F
330
7E
100
AcDbEntity
  8
Wood
 62
     7
420
 16777215
370
    30
100
AcDbVertex
100
AcDb2dVertex
 10
2.78222909661574
 20
-2.671864583333344
 30
0.0
  0
VERTEX
  5
80
330
7E
100
AcDbEntity
  8
Wood
 62
     7
420
 16777215
370
    30
100
AcDbVertex
100
AcDb2dVertex
 10
2.78222909661574
 20
-3.067697916666677
 30
0.0
  0
SEQEND
  5
81
330
7E
100
AcDbEntity
  8
Wood
 62
     7
420
 16777215
370
    30
  0
POLYLINE
  5
82
330
1F
100
AcDbEntity
  8
Wood
 62
     7
420
 16777215
370
    30
100
AcDb2dPolyline
 66
     1
 10
0.0
 20
0.0
 30
0.0
  0
VERTEX
  5
83
330
82
100
AcDbEntity
  8
Wood
 62
     7
420
 16777215
370
    30
100
AcDbVertex
100
AcDb2dVertex
 10
2.803062429949073
 20
-2.140614583333344
 30
0.0
  0
VERTEX
  5
84
330
82
100
AcDbEntity
  8
Wood
 62
     7
420
 16777215
370
    30
100
AcDbVertex
100
AcDb2dVertex
 10
2.803062429949073
 20
-2.489572916666677
 30
0.0
  0
SEQEND
  5
85
330
82
100
AcDbEntity
  8
Wood
 62
     7
420
 16777215
370
    30
  0
POLYLINE
  5
86
330
1F
100
AcDbEntity
  8
Wood
 62
     7
420
 16777215
370
    30
100
AcDb2dPolyline
 66
     1
 10
0.0
 20
0.0
 30
0.0
  0
VERTEX
  5
87
330
86
100
AcDbEntity
  8
Wood
 62
     7
420
 16777215
370
    30
100
AcDbVertex
100
AcDb2dVertex
 10
2.622499929949097
 20
-2.14757291666668
 30
0.0
  0
VERTEX
  5
88
330
86
100
AcDbEntity
  8
Wood
 62
     7
420
 16777215
370
    30
100
AcDbVertex
100
AcDb2dVertex
 10
2.622499929949097
 20
-2.501739583333347
 30
0.0
  0
SEQEND
  5
89
330
86
100
AcDbEntity
  8
Wood
 62
     7
420
 16777215
370
    30
  0
POLYLINE
  5
8A
330
1F
100
AcDbEntity
  8
Wood
 62
     7
420
 16777215
370
    25
100
AcDb2dPolyline
 66
     1
 10
0.0
 20
0.0
 30
0.0
  0
VERTEX
  5
8B
330
8A
100
AcDbEntity
  8
Wood
 62
     7
420
 16777215
370
    25
100
AcDbVertex
100
AcDb2dVertex
 10
0.5973332632824192
 20
-0.9189562499999763
 30
0.0
  0
VERTEX
  5
8C
330
8A
100
AcDbEntity
  8
Wood
 62
     7
420
 16777215
370
    25
100
AcDbVertex
100
AcDb2dVertex
 10
0.6194685876610163
 20
-0.9833270833333421
 30
0.0
  0
VERTEX
  5
8D
330
8A
100
AcDbEntity
  8
Wood
 62
     7
420
 16777215
370
    25
100
AcDbVertex
100
AcDb2dVertex
 10
0.5915144217005314
 20
-0.9795833333333297
 30
0.0
  0
SEQEND
  5
8E
330
8A
100
AcDbEntity
  8
Wood
 62
     7
420
 16777215
370
    25
  0
SPLINE
  5
8F
330
1F
100
AcDbEntity
  8
Wood
 62
     7
420
 16777215
370
    20
100
AcDbSpline
210
0.0
220
0.0
230
1.0
 70
     8
 71
     3
 72
    14
 73
    10
 74
     0
 42
0.0000000001
 43
0.0000000001
 12
1.0
 22
0.0
 32
0.0
 13
1.0
 23
0.0
 33
0.0
 40
0.0
 40
0.0
 40
0.0
 40
0.0
 40
1.0
 40
1.0
 40
1.0
 40
2.0
 40
2.0
 40
2.0
 40
3.0
 40
3.0
 40
3.0
 40
3.0
 10
3.089520763282406
 20
-2.086822916666632
 30
0.0
 10
3.089520763282406
 20
-2.086822916666632
 30
0.0
 10
3.045778943033939
 20
-2.074737499999982
 30
0.0
 10
2.990562429949073
 20
-2.087229166666677
 30
0.0
 10
2.952985195378106
 20
-2.095733333333303
 30
0.0
 10
2.92458326328243
 20
-2.101389583333356
 30
0.0
 10
2.884666596615766
 20
-2.109852083333307
 30
0.0
 10
2.84472909661574
 20
-2.118316666666689
 30
0.0
 10
2.804791596615764
 20
-2.116404166666649
 30
0.0
 10
2.804791596615764
 20
-2.116404166666649
 30
0.0
  0
SPLINE
  5
90
330
1F
100
AcDbEntity
  8
Wood
 62
     7
420
 16777215
370
    20
100
AcDbSpline
210
0.0
220
0.0
230
1.0
 70
     8
 71
     3
 72
    14
 73
    10
 74
     0
 42
0.0000000001
 43
0.0000000001
 12
1.0
 22
0.0
 32
0.0
 13
1.0
 23
0.0
 33
0.0
 40
0.0
 40
0.0
 40
0.0
 40
0.0
 40
1.0
 40
1.0
 40
1.0
 40
2.0
 40
2.0
 40
2.0
 40
3.0
 40
3.0
 40
3.0
 40
3.0
 10
3.089520763282406
 20
-2.14757291666668
 30
0.0
 10
3.089520763282406
 20
-2.14757291666668
 30
0.0
 10
3.041953943130566
 20
-2.135893749999974
 30
0.0
 10
2.990562429949073
 20
-2.147979166666674
 30
0.0
 10
2.953066445376054
 20
-2.156789583333345
 30
0.0
 10
2.92458326328243
 20
-2.162139583333303
 30
0.0
 10
2.884666596615766
 20
-2.170604166666686
 30
0.0
 10
2.84472909661574
 20
-2.179108333333311
 30
0.0
 10
2.804791596615764
 20
-2.177154166666646
 30
0.0
 10
2.804791596615764
 20
-2.177154166666646
 30
0.0
  0
SPLINE
  5
91
330
1F
100
AcDbEntity
  8
Wood
 62
     7
420
 16777215
370
    20
100
AcDbSpline
210
0.0
220
0.0
230
1.0
 70
     8
 71
     3
 72
    14
 73
    10
 74
     0
 42
0.0000000001
 43
0.0000000001
 12
1.0
 22
0.0
 32
0.0
 13
1.0
 23
0.0
 33
0.0
 40
0.0
 40
0.0
 40
0.0
 40
0.0
 40
1.0
 40
1.0
 40
1.0
 40
2.0
 40
2.0
 40
2.0
 40
3.0
 40
3.0
 40
3.0
 40
3.0
 10
3.089520763282406
 20
-2.21007291666668
 30
0.0
 10
3.089520763282406
 20
-2.21007291666668
 30
0.0
 10
3.038128943227194
 20
-2.204722916666671
 30
0.0
 10
2.988833263282433
 20
-2.217356249999991
 30
0.0
 10
2.951499929949073
 20
-2.226918749999994
 30
0.0
 10
2.92458326328243
 20
-2.224639583333303
 30
0.0
 10
2.884666596615766
 20
-2.233104166666685
 30
0.0
 10
2.84472909661574
 20
-2.241608333333311
 30
0.0
 10
2.804791596615764
 20
-2.239654166666646
 30
0.0
 10
2.804791596615764
 20
-2.239654166666646
 30
0.0
  0
SPLINE
  5
92
330
1F
100
AcDbEntity
  8
Wood
 62
     7
420
 16777215
370
    20
100
AcDbSpline
210
0.0
220
0.0
230
1.0
 70
     8
 71
     3
 72
    14
 73
    10
 74
     0
 42
0.0000000001
 43
0.0000000001
 12
1.0
 22
0.0
 32
0.0
 13
1.0
 23
0.0
 33
0.0
 40
0.0
 40
0.0
 40
0.0
 40
0.0
 40
1.0
 40
1.0
 40
1.0
 40
2.0
 40
2.0
 40
2.0
 40
3.0
 40
3.0
 40
3.0
 40
3.0
 10
3.089520763282406
 20
-2.262156250000013
 30
0.0
 10
3.089520763282406
 20
-2.262156250000013
 30
0.0
 10
3.034303943323822
 20
-2.262054166666682
 30
0.0
 10
2.995770763282406
 20
-2.273222916666681
 30
0.0
 10
2.958762278565498
 20
-2.283945833333342
 30
0.0
 10
2.92458326328243
 20
-2.276722916666636
 30
0.0
 10
2.884666596615766
 20
-2.285187500000019
 30
0.0
 10
2.84472909661574
 20
-2.293691666666644
 30
0.0
 10
2.803062429949073
 20
-2.30382291666668
 30
0.0
 10
2.803062429949073
 20
-2.30382291666668
 30
0.0
  0
SPLINE
  5
93
330
1F
100
AcDbEntity
  8
Wood
 62
     7
420
 16777215
370
    20
100
AcDbSpline
210
0.0
220
0.0
230
1.0
 70
     8
 71
     3
 72
    14
 73
    10
 74
     0
 42
0.0000000001
 43
0.0000000001
 12
1.0
 22
0.0
 32
0.0
 13
1.0
 23
0.0
 33
0.0
 40
0.0
 40
0.0
 40
0.0
 40
0.0
 40
1.0
 40
1.0
 40
1.0
 40
2.0
 40
2.0
 40
2.0
 40
3.0
 40
3.0
 40
3.0
 40
3.0
 10
3.089520763282406
 20
-2.326406249999966
 30
0.0
 10
3.089520763282406
 20
-2.326406249999966
 30
0.0
 10
3.045778943033939
 20
-2.327037499999986
 30
0.0
 10
2.995770763282406
 20
-2.338937500000005
 30
0.0
 10
2.958295611910621
 20
-2.347850000000006
 30
0.0
 10
2.912437429949073
 20
-2.340362499999982
 30
0.0
 10
2.872499929949097
 20
-2.348827083333365
 30
0.0
 10
2.832583263282433
 20
-2.35733124999999
 30
0.0
 10
2.803062429949073
 20
-2.368031250000008
 30
0.0
 10
2.803062429949073
 20
-2.368031250000008
 30
0.0
  0
SPLINE
  5
94
330
1F
100
AcDbEntity
  8
Wood
 62
     7
420
 16777215
370
    20
100
AcDbSpline
210
0.0
220
0.0
230
1.0
 70
     8
 71
     3
 72
    14
 73
    10
 74
     0
 42
0.0000000001
 43
0.0000000001
 12
1.0
 22
0.0
 32
0.0
 13
1.0
 23
0.0
 33
0.0
 40
0.0
 40
0.0
 40
0.0
 40
0.0
 40
1.0
 40
1.0
 40
1.0
 40
2.0
 40
2.0
 40
2.0
 40
3.0
 40
3.0
 40
3.0
 40
3.0
 10
3.089520763282406
 20
-2.383697916666632
 30
0.0
 10
3.089520763282406
 20
-2.383697916666632
 30
0.0
 10
3.03395826328243
 20
-2.394154166666693
 30
0.0
 10
2.995770763282406
 20
-2.399241666666664
 30
0.0
 10
2.957583263282433
 20
-2.404327083333303
 30
0.0
 10
2.90895826328243
 20
-2.397491666666661
 30
0.0
 10
2.869041596615766
 20
-2.405954166666662
 30
0.0
 10
2.82910409661574
 20
-2.414458333333338
 30
0.0
 10
2.803062429949073
 20
-2.420806250000017
 30
0.0
 10
2.803062429949073
 20
-2.420806250000017
 30
0.0
  0
SPLINE
  5
95
330
1F
100
AcDbEntity
  8
Wood
 62
     7
420
 16777215
370
    20
100
AcDbSpline
210
0.0
220
0.0
230
1.0
 70
     8
 71
     3
 72
    11
 73
     7
 74
     0
 42
0.0000000001
 43
0.0000000001
 12
1.0
 22
0.0
 32
0.0
 13
1.0
 23
0.0
 33
0.0
 40
0.0
 40
0.0
 40
0.0
 40
0.0
 40
1.0
 40
1.0
 40
1.0
 40
2.0
 40
2.0
 40
2.0
 40
2.0
 10
2.801333263282433
 20
-2.160879166666644
 30
0.0
 10
2.801333263282433
 20
-2.160879166666644
 30
0.0
 10
2.759666596615766
 20
-2.150462499999978
 30
0.0
 10
2.728416596615766
 20
-2.150462499999978
 30
0.0
 10
2.728416596615766
 20
-2.150462499999978
 30
0.0
 10
2.654420619587149
 20
-2.148712500000026
 30
0.0
 10
2.624899786999574
 20
-2.145254166666644
 30
0.0
  0
SPLINE
  5
96
330
1F
100
AcDbEntity
  8
Wood
 62
     7
420
 16777215
370
    20
100
AcDbSpline
210
0.0
220
0.0
230
1.0
 70
     8
 71
     3
 72
    11
 73
     7
 74
     0
 42
0.0000000001
 43
0.0000000001
 12
1.0
 22
0.0
 32
0.0
 13
1.0
 23
0.0
 33
0.0
 40
0.0
 40
0.0
 40
0.0
 40
0.0
 40
1.0
 40
1.0
 40
1.0
 40
2.0
 40
2.0
 40
2.0
 40
2.0
 10
2.801333263282433
 20
-2.216420833333359
 30
0.0
 10
2.801333263282433
 20
-2.216420833333359
 30
0.0
 10
2.759666596615766
 20
-2.206004166666692
 30
0.0
 10
2.728416596615766
 20
-2.206004166666692
 30
0.0
 10
2.728416596615766
 20
-2.206004166666692
 30
0.0
 10
2.654420619587149
 20
-2.204254166666689
 30
0.0
 10
2.624899786999574
 20
-2.200795833333359
 30
0.0
  0
SPLINE
  5
97
330
1F
100
AcDbEntity
  8
Wood
 62
     7
420
 16777215
370
    20
100
AcDbSpline
210
0.0
220
0.0
230
1.0
 70
     8
 71
     3
 72
    11
 73
     7
 74
     0
 42
0.0000000001
 43
0.0000000001
 12
1.0
 22
0.0
 32
0.0
 13
1.0
 23
0.0
 33
0.0
 40
0.0
 40
0.0
 40
0.0
 40
0.0
 40
1.0
 40
1.0
 40
1.0
 40
2.0
 40
2.0
 40
2.0
 40
2.0
 10
2.801333263282433
 20
-2.336212500000026
 30
0.0
 10
2.801333263282433
 20
-2.336212500000026
 30
0.0
 10
2.759666596615766
 20
-2.325795833333359
 30
0.0
 10
2.728416596615766
 20
-2.325795833333359
 30
0.0
 10
2.728416596615766
 20
-2.325795833333359
 30
0.0
 10
2.654420619587149
 20
-2.324045833333356
 30
0.0
 10
2.624899786999574
 20
-2.320587500000026
 30
0.0
  0
SPLINE
  5
98
330
1F
100
AcDbEntity
  8
Wood
 62
     7
420
 16777215
370
    20
100
AcDbSpline
210
0.0
220
0.0
230
1.0
 70
     8
 71
     3
 72
    11
 73
     7
 74
     0
 42
0.0000000001
 43
0.0000000001
 12
1.0
 22
0.0
 32
0.0
 13
1.0
 23
0.0
 33
0.0
 40
0.0
 40
0.0
 40
0.0
 40
0.0
 40
1.0
 40
1.0
 40
1.0
 40
2.0
 40
2.0
 40
2.0
 40
2.0
 10
2.801333263282433
 20
-2.398712500000026
 30
0.0
 10
2.801333263282433
 20
-2.398712500000026
 30
0.0
 10
2.759666596615766
 20
-2.388295833333359
 30
0.0
 10
2.728416596615766
 20
-2.388295833333359
 30
0.0
 10
2.728416596615766
 20
-2.388295833333359
 30
0.0
 10
2.654420619587149
 20
-2.391185416666657
 30
0.0
 10
2.624899786999574
 20
-2.387724999999995
 30
0.0
  0
SPLINE
  5
99
330
1F
100
AcDbEntity
  8
Wood
 62
     7
420
 16777215
370
    20
100
AcDbSpline
210
0.0
220
0.0
230
1.0
 70
     8
 71
     3
 72
    11
 73
     7
 74
     0
 42
0.0000000001
 43
0.0000000001
 12
1.0
 22
0.0
 32
0.0
 13
1.0
 23
0.0
 33
0.0
 40
0.0
 40
0.0
 40
0.0
 40
0.0
 40
1.0
 40
1.0
 40
1.0
 40
2.0
 40
2.0
 40
2.0
 40
2.0
 10
2.801333263282433
 20
-2.462962499999978
 30
0.0
 10
2.801333263282433
 20
-2.462962499999978
 30
0.0
 10
2.759666596615766
 20
-2.452545833333311
 30
0.0
 10
2.728416596615766
 20
-2.452545833333311
 30
0.0
 10
2.728416596615766
 20
-2.452545833333311
 30
0.0
 10
2.654420619587149
 20
-2.455393750000035
 30
0.0
 10
2.624899786999574
 20
-2.451935416666654
 30
0.0
  0
SPLINE
  5
9A
330
1F
100
AcDbEntity
  8
Wood
 62
     7
420
 16777215
370
    20
100
AcDbSpline
210
0.0
220
0.0
230
1.0
 70
     8
 71
     3
 72
    11
 73
     7
 74
     0
 42
0.0000000001
 43
0.0000000001
 12
1.0
 22
0.0
 32
0.0
 13
1.0
 23
0.0
 33
0.0
 40
0.0
 40
0.0
 40
0.0
 40
0.0
 40
1.0
 40
1.0
 40
1.0
 40
2.0
 40
2.0
 40
2.0
 40
2.0
 10
2.79958326328243
 20
-2.285879166666644
 30
0.0
 10
2.79958326328243
 20
-2.285879166666644
 30
0.0
 10
2.75097909661574
 20
-2.265045833333311
 30
0.0
 10
2.71972909661574
 20
-2.265045833333311
 30
0.0
 10
2.71972909661574
 20
-2.265045833333311
 30
0.0
 10
2.652020763282406
 20
-2.265045833333311
 30
0.0
 10
2.622499929949097
 20
-2.261587500000031
 30
0.0
  0
SPLINE
  5
9B
330
1F
100
AcDbEntity
  8
Wood
 62
     7
420
 16777215
370
    20
100
AcDbSpline
210
0.0
220
0.0
230
1.0
 70
     8
 71
     3
 72
    14
 73
    10
 74
     0
 42
0.0000000001
 43
0.0000000001
 12
1.0
 22
0.0
 32
0.0
 13
1.0
 23
0.0
 33
0.0
 40
0.0
 40
0.0
 40
0.0
 40
0.0
 40
1.0
 40
1.0
 40
1.0
 40
2.0
 40
2.0
 40
2.0
 40
3.0
 40
3.0
 40
3.0
 40
3.0
 10
2.620770763282406
 20
-2.176381250000001
 30
0.0
 10
2.620770763282406
 20
-2.176381250000001
 30
0.0
 10
2.548810205588425
 20
-2.212352083333321
 30
0.0
 10
2.495770763282406
 20
-2.220570833333315
 30
0.0
 10
2.447939374803304
 20
-2.227977083333321
 30
0.0
 10
2.396812429949073
 20
-2.247345833333333
 30
0.0
 10
2.356874929949097
 20
-2.26431250000001
 30
0.0
 10
2.316958263282433
 20
-2.281320833333312
 30
0.0
 10
2.245770763282406
 20
-2.322866666666667
 30
0.0
 10
2.245770763282406
 20
-2.322866666666667
 30
0.0
  0
SPLINE
  5
9C
330
1F
100
AcDbEntity
  8
Wood
 62
     7
420
 16777215
370
    20
100
AcDbSpline
210
0.0
220
0.0
230
1.0
 70
     8
 71
     3
 72
    14
 73
    10
 74
     0
 42
0.0000000001
 43
0.0000000001
 12
1.0
 22
0.0
 32
0.0
 13
1.0
 23
0.0
 33
0.0
 40
0.0
 40
0.0
 40
0.0
 40
0.0
 40
1.0
 40
1.0
 40
1.0
 40
2.0
 40
2.0
 40
2.0
 40
3.0
 40
3.0
 40
3.0
 40
3.0
 10
2.620770763282406
 20
-2.238881250000001
 30
0.0
 10
2.620770763282406
 20
-2.238881250000001
 30
0.0
 10
2.560264371965736
 20
-2.281179166666687
 30
0.0
 10
2.504458263282433
 20
-2.28347708333336
 30
0.0
 10
2.456118541263347
 20
-2.285470833333319
 30
0.0
 10
2.403749929949097
 20
-2.312245833333337
 30
0.0
 10
2.363833263282433
 20
-2.329254166666689
 30
0.0
 10
2.323895763282406
 20
-2.346222916666698
 30
0.0
 10
2.245770763282406
 20
-2.385366666666667
 30
0.0
 10
2.245770763282406
 20
-2.385366666666667
 30
0.0
  0
SPLINE
  5
9D
330
1F
100
AcDbEntity
  8
Wood
 62
     7
420
 16777215
370
    20
100
AcDbSpline
210
0.0
220
0.0
230
1.0
 70
     8
 71
     3
 72
    14
 73
    10
 74
     0
 42
0.0000000001
 43
0.0000000001
 12
1.0
 22
0.0
 32
0.0
 13
1.0
 23
0.0
 33
0.0
 40
0.0
 40
0.0
 40
0.0
 40
0.0
 40
1.0
 40
1.0
 40
1.0
 40
2.0
 40
2.0
 40
2.0
 40
3.0
 40
3.0
 40
3.0
 40
3.0
 10
2.620770763282406
 20
-2.303131250000004
 30
0.0
 10
2.620770763282406
 20
-2.303131250000004
 30
0.0
 10
2.552635205491798
 20
-2.342335416666679
 30
0.0
 10
2.504458263282433
 20
-2.347727083333312
 30
0.0
 10
2.45636229125719
 20
-2.353118749999996
 30
0.0
 10
2.403749929949097
 20
-2.37649583333334
 30
0.0
 10
2.363833263282433
 20
-2.393462500000017
 30
0.0
 10
2.323895763282406
 20
-2.410470833333319
 30
0.0
 10
2.245770763282406
 20
-2.449574999999994
 30
0.0
 10
2.245770763282406
 20
-2.449574999999994
 30
0.0
  0
SPLINE
  5
9E
330
1F
100
AcDbEntity
  8
Wood
 62
     7
420
 16777215
370
    20
100
AcDbSpline
210
0.0
220
0.0
230
1.0
 70
     8
 71
     3
 72
    14
 73
    10
 74
     0
 42
0.0000000001
 43
0.0000000001
 12
1.0
 22
0.0
 32
0.0
 13
1.0
 23
0.0
 33
0.0
 40
0.0
 40
0.0
 40
0.0
 40
0.0
 40
1.0
 40
1.0
 40
1.0
 40
2.0
 40
2.0
 40
2.0
 40
3.0
 40
3.0
 40
3.0
 40
3.0
 10
2.620770763282406
 20
-2.36632291666668
 30
0.0
 10
2.620770763282406
 20
-2.36632291666668
 30
0.0
 10
2.56791437177248
 20
-2.407318750000033
 30
0.0
 10
2.504458263282433
 20
-2.415435416666646
 30
0.0
 10
2.456464374587944
 20
-2.421579166666662
 30
0.0
 10
2.403749929949097
 20
-2.438181249999969
 30
0.0
 10
2.363833263282433
 20
-2.455149999999978
 30
0.0
 10
2.323895763282406
 20
-2.47215833333333
 30
0.0
 10
2.245770763282406
 20
-2.517283333333328
 30
0.0
 10
2.245770763282406
 20
-2.517283333333328
 30
0.0
  0
SPLINE
  5
9F
330
1F
100
AcDbEntity
  8
Wood
 62
     7
420
 16777215
370
    20
100
AcDbSpline
210
0.0
220
0.0
230
1.0
 70
     8
 71
     3
 72
    14
 73
    10
 74
     0
 42
0.0000000001
 43
0.0000000001
 12
1.0
 22
0.0
 32
0.0
 13
1.0
 23
0.0
 33
0.0
 40
0.0
 40
0.0
 40
0.0
 40
0.0
 40
1.0
 40
1.0
 40
1.0
 40
2.0
 40
2.0
 40
2.0
 40
3.0
 40
3.0
 40
3.0
 40
3.0
 10
2.620770763282406
 20
-2.42882291666668
 30
0.0
 10
2.620770763282406
 20
-2.42882291666668
 30
0.0
 10
2.552635205491798
 20
-2.468495833333337
 30
0.0
 10
2.504458263282433
 20
-2.477935416666646
 30
0.0
 10
2.456810207912541
 20
-2.487275000000004
 30
0.0
 10
2.395083263282433
 20
-2.510487499999979
 30
0.0
 10
2.355145763282406
 20
-2.527456249999987
 30
0.0
 10
2.31520826328243
 20
-2.54446458333334
 30
0.0
 10
2.245770763282406
 20
-2.579783333333328
 30
0.0
 10
2.245770763282406
 20
-2.579783333333328
 30
0.0
  0
SPLINE
  5
A0
330
1F
100
AcDbEntity
  8
Wood
 62
     7
420
 16777215
370
    20
100
AcDbSpline
210
0.0
220
0.0
230
1.0
 70
     8
 71
     3
 72
    14
 73
    10
 74
     0
 42
0.0000000001
 43
0.0000000001
 12
1.0
 22
0.0
 32
0.0
 13
1.0
 23
0.0
 33
0.0
 40
0.0
 40
0.0
 40
0.0
 40
0.0
 40
1.0
 40
1.0
 40
1.0
 40
2.0
 40
2.0
 40
2.0
 40
3.0
 40
3.0
 40
3.0
 40
3.0
 10
2.620770763282406
 20
-2.490754166666698
 30
0.0
 10
2.620770763282406
 20
-2.490754166666698
 30
0.0
 10
2.551333263282433
 20
-2.532337500000014
 30
0.0
 10
2.504458263282433
 20
-2.544383333333321
 30
0.0
 10
2.457583263282433
 20
-2.556385416666672
 30
0.0
 10
2.403749929949097
 20
-2.570139583333356
 30
0.0
 10
2.363833263282433
 20
-2.587108333333365
 30
0.0
 10
2.323895763282406
 20
-2.604116666666667
 30
0.0
 10
2.245770763282406
 20
-2.649241666666664
 30
0.0
 10
2.245770763282406
 20
-2.649241666666664
 30
0.0
  0
SPLINE
  5
A1
330
1F
100
AcDbEntity
  8
Wood
 62
     7
420
 16777215
370
    20
100
AcDbSpline
210
0.0
220
0.0
230
1.0
 70
     8
 71
     3
 72
    14
 73
    10
 74
     0
 42
0.0000000001
 43
0.0000000001
 12
1.0
 22
0.0
 32
0.0
 13
1.0
 23
0.0
 33
0.0
 40
0.0
 40
0.0
 40
0.0
 40
0.0
 40
1.0
 40
1.0
 40
1.0
 40
2.0
 40
2.0
 40
2.0
 40
3.0
 40
3.0
 40
3.0
 40
3.0
 10
3.285097686988239
 20
-2.854643749999973
 30
0.0
 10
3.285097686988239
 20
-2.854643749999973
 30
0.0
 10
3.223737271871666
 20
-2.900502083333322
 30
0.0
 10
3.18512268951382
 20
-2.920237500000035
 30
0.0
 10
3.146506023822692
 20
-2.939972916666698
 30
0.0
 10
3.118389357866312
 20
-2.943714583333329
 30
0.0
 10
3.078024775552674
 20
-2.960764583333356
 30
0.0
 10
3.037660193239036
 20
-2.977814583333333
 30
0.0
 10
2.992841444371253
 20
-3.011383333333368
 30
0.0
 10
2.992841444371253
 20
-3.011383333333368
 30
0.0
  0
SPLINE
  5
A2
330
1F
100
AcDbEntity
  8
Wood
 62
     7
420
 16777215
370
    20
100
AcDbSpline
210
0.0
220
0.0
230
1.0
 70
     8
 71
     3
 72
    14
 73
    10
 74
     0
 42
0.0000000001
 43
0.0000000001
 12
1.0
 22
0.0
 32
0.0
 13
1.0
 23
0.0
 33
0.0
 40
0.0
 40
0.0
 40
0.0
 40
0.0
 40
1.0
 40
1.0
 40
1.0
 40
2.0
 40
2.0
 40
2.0
 40
3.0
 40
3.0
 40
3.0
 40
3.0
 10
3.284731020330835
 20
-2.77684583333333
 30
0.0
 10
3.284731020330835
 20
-2.77684583333333
 30
0.0
 10
3.252199771152643
 20
-2.820200000000012
 30
0.0
 10
3.184795606188749
 20
-2.845408333333328
 30
0.0
 10
3.145306023853006
 20
-2.860179166666664
 30
0.0
 10
3.118064357874522
 20
-2.879466666666657
 30
0.0
 10
3.077699775560884
 20
-2.896514583333303
 30
0.0
 10
3.037335193247246
 20
-2.913522916666655
 30
0.0
 10
2.992514361046182
 20
-2.942577083333365
 30
0.0
 10
2.992514361046182
 20
-2.942577083333365
 30
0.0
  0
SPLINE
  5
A3
330
1F
100
AcDbEntity
  8
Wood
 62
     7
420
 16777215
370
    20
100
AcDbSpline
210
0.0
220
0.0
230
1.0
 70
     8
 71
     3
 72
    14
 73
    10
 74
     0
 42
0.0000000001
 43
0.0000000001
 12
1.0
 22
0.0
 32
0.0
 13
1.0
 23
0.0
 33
0.0
 40
0.0
 40
0.0
 40
0.0
 40
0.0
 40
1.0
 40
1.0
 40
1.0
 40
2.0
 40
2.0
 40
2.0
 40
3.0
 40
3.0
 40
3.0
 40
3.0
 10
3.284406020339045
 20
-2.715118750000026
 30
0.0
 10
3.284406020339045
 20
-2.715118750000026
 30
0.0
 10
3.216147688730062
 20
-2.743581250000009
 30
0.0
 10
3.182639356243221
 20
-2.771108333333359
 30
0.0
 10
3.145164357189919
 20
-2.801889583333327
 30
0.0
 10
3.117739357882733
 20
-2.808706249999987
 30
0.0
 10
3.0773749299491
 20
-2.825754166666684
 30
0.0
 10
3.036968526589842
 20
-2.842804166666661
 30
0.0
 10
2.992168527721585
 20
-2.871856249999988
 30
0.0
 10
2.992168527721585
 20
-2.871856249999988
 30
0.0
  0
SPLINE
  5
A4
330
1F
100
AcDbEntity
  8
Wood
 62
     7
420
 16777215
370
    20
100
AcDbSpline
210
0.0
220
0.0
230
1.0
 70
     8
 71
     3
 72
    14
 73
    10
 74
     0
 42
0.0000000001
 43
0.0000000001
 12
1.0
 22
0.0
 32
0.0
 13
1.0
 23
0.0
 33
0.0
 40
0.0
 40
0.0
 40
0.0
 40
0.0
 40
1.0
 40
1.0
 40
1.0
 40
2.0
 40
2.0
 40
2.0
 40
3.0
 40
3.0
 40
3.0
 40
3.0
 10
3.284120603679589
 20
-2.656158333333325
 30
0.0
 10
3.284120603679589
 20
-2.656158333333325
 30
0.0
 10
3.223349771881455
 20
-2.668731249999988
 30
0.0
 10
3.189354096615766
 20
-2.695668749999994
 30
0.0
 10
3.152814356996664
 20
-2.724618749999991
 30
0.0
 10
3.117414357890943
 20
-2.749745833333337
 30
0.0
 10
3.077049775577305
 20
-2.766795833333365
 30
0.0
 10
3.036685193263666
 20
-2.78384375000001
 30
0.0
 10
2.991558111070339
 20
-2.800364583333299
 30
0.0
 10
2.991558111070339
 20
-2.800364583333299
 30
0.0
  0
SPLINE
  5
A5
330
1F
100
AcDbEntity
  8
Wood
 62
     7
420
 16777215
370
    20
100
AcDbSpline
210
0.0
220
0.0
230
1.0
 70
     8
 71
     3
 72
    14
 73
    10
 74
     0
 42
0.0000000001
 43
0.0000000001
 12
1.0
 22
0.0
 32
0.0
 13
1.0
 23
0.0
 33
0.0
 40
0.0
 40
0.0
 40
0.0
 40
0.0
 40
1.0
 40
1.0
 40
1.0
 40
2.0
 40
2.0
 40
2.0
 40
3.0
 40
3.0
 40
3.0
 40
3.0
 10
3.283753937022185
 20
-2.583445833333321
 30
0.0
 10
3.283753937022185
 20
-2.583445833333321
 30
0.0
 10
3.227562429949052
 20
-2.60696458333334
 30
0.0
 10
3.188947689417192
 20
-2.626697916666672
 30
0.0
 10
3.150372690391678
 20
-2.646433333333334
 30
0.0
 10
3.104799774876281
 20
-2.68582083333336
 30
0.0
 10
3.064435192562642
 20
-2.702870833333337
 30
0.0
 10
3.024070610249004
 20
-2.719920833333365
 30
0.0
 10
2.994162277671219
 20
-2.727487500000027
 30
0.0
 10
2.994162277671219
 20
-2.727487500000027
 30
0.0
  0
SPLINE
  5
A6
330
1F
100
AcDbEntity
  8
Wood
 62
     7
420
 16777215
370
    20
100
AcDbSpline
210
0.0
220
0.0
230
1.0
 70
     8
 71
     3
 72
    14
 73
    10
 74
     0
 42
0.0000000001
 43
0.0000000001
 12
1.0
 22
0.0
 32
0.0
 13
1.0
 23
0.0
 33
0.0
 40
0.0
 40
0.0
 40
0.0
 40
0.0
 40
1.0
 40
1.0
 40
1.0
 40
2.0
 40
2.0
 40
2.0
 40
3.0
 40
3.0
 40
3.0
 40
3.0
 10
3.283428937030395
 20
-2.518585416666661
 30
0.0
 10
3.283428937030395
 20
-2.518585416666661
 30
0.0
 10
3.227276855115583
 20
-2.543812500000008
 30
0.0
 10
3.188662272757735
 20
-2.56354791666667
 30
0.0
 10
3.150047690399889
 20
-2.583283333333333
 30
0.0
 10
3.100974774972908
 20
-2.623483333333347
 30
0.0
 10
3.06061019265927
 20
-2.640533333333325
 30
0.0
 10
3.020245610345632
 20
-2.657541666666677
 30
0.0
 10
2.993878944345043
 20
-2.661772916666652
 30
0.0
 10
2.993878944345043
 20
-2.661772916666652
 30
0.0
  0
SPLINE
  5
A7
330
1F
100
AcDbEntity
  8
Wood
 62
     7
420
 16777215
370
    20
100
AcDbSpline
210
0.0
220
0.0
230
1.0
 70
     8
 71
     3
 72
    11
 73
     7
 74
     0
 42
0.0000000001
 43
0.0000000001
 12
1.0
 22
0.0
 32
0.0
 13
1.0
 23
0.0
 33
0.0
 40
0.0
 40
0.0
 40
0.0
 40
0.0
 40
1.0
 40
1.0
 40
1.0
 40
2.0
 40
2.0
 40
2.0
 40
2.0
 10
2.986553944530088
 20
-3.048777083333334
 30
0.0
 10
2.986553944530088
 20
-3.048777083333334
 30
0.0
 10
2.940166596615755
 20
-3.053579166666673
 30
0.0
 10
2.905337279915127
 20
-3.048491666666652
 30
0.0
 10
2.905337279915127
 20
-3.048491666666652
 30
0.0
 10
2.822939365330007
 20
-3.038402083333342
 30
0.0
 10
2.790062429949052
 20
-3.037425000000035
 30
0.0
  0
SPLINE
  5
A8
330
1F
100
AcDbEntity
  8
Wood
 62
     7
420
 16777215
370
    20
100
AcDbSpline
210
0.0
220
0.0
230
1.0
 70
     8
 71
     3
 72
    11
 73
     7
 74
     0
 42
0.0000000001
 43
0.0000000001
 12
1.0
 22
0.0
 32
0.0
 13
1.0
 23
0.0
 33
0.0
 40
0.0
 40
0.0
 40
0.0
 40
0.0
 40
1.0
 40
1.0
 40
1.0
 40
2.0
 40
2.0
 40
2.0
 40
2.0
 10
2.986553944530088
 20
-2.986887499999991
 30
0.0
 10
2.986553944530088
 20
-2.986887499999991
 30
0.0
 10
2.940166596615755
 20
-2.99168958333333
 30
0.0
 10
2.905337279915127
 20
-2.98660208333336
 30
0.0
 10
2.905337279915127
 20
-2.98660208333336
 30
0.0
 10
2.822939365330007
 20
-2.976470833333325
 30
0.0
 10
2.790062429949052
 20
-2.975535416666692
 30
0.0
  0
SPLINE
  5
A9
330
1F
100
AcDbEntity
  8
Wood
 62
     7
420
 16777215
370
    20
100
AcDbSpline
210
0.0
220
0.0
230
1.0
 70
     8
 71
     3
 72
    11
 73
     7
 74
     0
 42
0.0000000001
 43
0.0000000001
 12
1.0
 22
0.0
 32
0.0
 13
1.0
 23
0.0
 33
0.0
 40
0.0
 40
0.0
 40
0.0
 40
0.0
 40
1.0
 40
1.0
 40
1.0
 40
2.0
 40
2.0
 40
2.0
 40
2.0
 10
2.986553944530088
 20
-2.85342499999999
 30
0.0
 10
2.986553944530088
 20
-2.85342499999999
 30
0.0
 10
2.940166596615755
 20
-2.858266666666673
 30
0.0
 10
2.905337279915127
 20
-2.853139583333359
 30
0.0
 10
2.905337279915127
 20
-2.853139583333359
 30
0.0
 10
2.822939365330007
 20
-2.843047916666667
 30
0.0
 10
2.790062429949052
 20
-2.84207083333336
 30
0.0
  0
SPLINE
  5
AA
330
1F
100
AcDbEntity
  8
Wood
 62
     7
420
 16777215
370
    20
100
AcDbSpline
210
0.0
220
0.0
230
1.0
 70
     8
 71
     3
 72
    11
 73
     7
 74
     0
 42
0.0000000001
 43
0.0000000001
 12
1.0
 22
0.0
 32
0.0
 13
1.0
 23
0.0
 33
0.0
 40
0.0
 40
0.0
 40
0.0
 40
0.0
 40
1.0
 40
1.0
 40
1.0
 40
2.0
 40
2.0
 40
2.0
 40
2.0
 10
2.986553944530088
 20
-2.783804166666667
 30
0.0
 10
2.986553944530088
 20
-2.783804166666667
 30
0.0
 10
2.940166596615755
 20
-2.788645833333299
 30
0.0
 10
2.905337279915127
 20
-2.783518750000035
 30
0.0
 10
2.905337279915127
 20
-2.783518750000035
 30
0.0
 10
2.822939365330007
 20
-2.768299999999979
 30
0.0
 10
2.790062429949052
 20
-2.767322916666672
 30
0.0
  0
SPLINE
  5
AB
330
1F
100
AcDbEntity
  8
Wood
 62
     7
420
 16777215
370
    20
100
AcDbSpline
210
0.0
220
0.0
230
1.0
 70
     8
 71
     3
 72
    11
 73
     7
 74
     0
 42
0.0000000001
 43
0.0000000001
 12
1.0
 22
0.0
 32
0.0
 13
1.0
 23
0.0
 33
0.0
 40
0.0
 40
0.0
 40
0.0
 40
0.0
 40
1.0
 40
1.0
 40
1.0
 40
2.0
 40
2.0
 40
2.0
 40
2.0
 10
2.986553944530088
 20
-2.712270833333352
 30
0.0
 10
2.986553944530088
 20
-2.712270833333352
 30
0.0
 10
2.940166596615755
 20
-2.71707083333336
 30
0.0
 10
2.905337279915127
 20
-2.71198541666667
 30
0.0
 10
2.905337279915127
 20
-2.71198541666667
 30
0.0
 10
2.822939365330007
 20
-2.696727083333321
 30
0.0
 10
2.790062429949052
 20
-2.695789583333307
 30
0.0
  0
SPLINE
  5
AC
330
1F
100
AcDbEntity
  8
Wood
 62
     7
420
 16777215
370
    20
100
AcDbSpline
210
0.0
220
0.0
230
1.0
 70
     8
 71
     3
 72
    11
 73
     7
 74
     0
 42
0.0000000001
 43
0.0000000001
 12
1.0
 22
0.0
 32
0.0
 13
1.0
 23
0.0
 33
0.0
 40
0.0
 40
0.0
 40
0.0
 40
0.0
 40
1.0
 40
1.0
 40
1.0
 40
2.0
 40
2.0
 40
2.0
 40
2.0
 10
2.984641444578402
 20
-2.909250000000005
 30
0.0
 10
2.984641444578402
 20
-2.909250000000005
 30
0.0
 10
2.930483112613223
 20
-2.924510416666685
 30
0.0
 10
2.895693530158749
 20
-2.919422916666665
 30
0.0
 10
2.895693530158749
 20
-2.919422916666665
 30
0.0
 10
2.82025394873118
 20
-2.908395833333341
 30
0.0
 10
2.787376866228391
 20
-2.907460416666658
 30
0.0
  0
SPLINE
  5
AD
330
1F
100
AcDbEntity
  8
Wood
 62
     7
420
 16777215
370
    20
100
AcDbSpline
210
0.0
220
0.0
230
1.0
 70
     8
 71
     3
 72
    14
 73
    10
 74
     0
 42
0.0000000001
 43
0.0000000001
 12
1.0
 22
0.0
 32
0.0
 13
1.0
 23
0.0
 33
0.0
 40
0.0
 40
0.0
 40
0.0
 40
0.0
 40
1.0
 40
1.0
 40
1.0
 40
2.0
 40
2.0
 40
2.0
 40
3.0
 40
3.0
 40
3.0
 40
3.0
 10
2.777060199822345
 20
-3.079050000000027
 30
0.0
 10
2.777060199822345
 20
-3.079050000000027
 30
0.0
 10
2.70127686840346
 20
-3.088937500000005
 30
0.0
 10
2.655803952885536
 20
-3.102204166666676
 30
0.0
 10
2.610333263282377
 20
-3.11550833333336
 30
0.0
 10
2.575564371579225
 20
-3.137481249999988
 30
0.0
 10
2.521099789621783
 20
-3.137970833333333
 30
0.0
 10
2.482097707273725
 20
-3.138316666666671
 30
0.0
 10
2.4133124299491
 20
-3.139231249999991
 30
0.0
 10
2.4133124299491
 20
-3.139231249999991
 30
0.0
  0
SPLINE
  5
AE
330
1F
100
AcDbEntity
  8
Wood
 62
     7
420
 16777215
370
    20
100
AcDbSpline
210
0.0
220
0.0
230
1.0
 70
     8
 71
     3
 72
    14
 73
    10
 74
     0
 42
0.0000000001
 43
0.0000000001
 12
1.0
 22
0.0
 32
0.0
 13
1.0
 23
0.0
 33
0.0
 40
0.0
 40
0.0
 40
0.0
 40
0.0
 40
1.0
 40
1.0
 40
1.0
 40
2.0
 40
2.0
 40
2.0
 40
3.0
 40
3.0
 40
3.0
 40
3.0
 10
2.777060199822345
 20
-3.016020833333338
 30
0.0
 10
2.777060199822345
 20
-3.016020833333338
 30
0.0
 10
2.709697701524065
 20
-3.020783333333333
 30
0.0
 10
2.664226869339422
 20
-3.034087500000017
 30
0.0
 10
2.618756037154779
 20
-3.047393749999982
 30
0.0
 10
2.58321437138597
 20
-3.068675000000035
 30
0.0
 10
2.527814372785492
 20
-3.068756250000004
 30
0.0
 10
2.48881242994907
 20
-3.06881666666666
 30
0.0
 10
2.4133124299491
 20
-3.076202083333303
 30
0.0
 10
2.4133124299491
 20
-3.076202083333303
 30
0.0
  0
SPLINE
  5
AF
330
1F
100
AcDbEntity
  8
Wood
 62
     7
420
 16777215
370
    20
100
AcDbSpline
210
0.0
220
0.0
230
1.0
 70
     8
 71
     3
 72
    14
 73
    10
 74
     0
 42
0.0000000001
 43
0.0000000001
 12
1.0
 22
0.0
 32
0.0
 13
1.0
 23
0.0
 33
0.0
 40
0.0
 40
0.0
 40
0.0
 40
0.0
 40
1.0
 40
1.0
 40
1.0
 40
2.0
 40
2.0
 40
2.0
 40
3.0
 40
3.0
 40
3.0
 40
3.0
 10
2.777060199822345
 20
-2.949737499999982
 30
0.0
 10
2.777060199822345
 20
-2.949737499999982
 30
0.0
 10
2.709697701524065
 20
-2.956004166666692
 30
0.0
 10
2.664226869339422
 20
-2.969310416666657
 30
0.0
 10
2.618756037154779
 20
-2.982614583333341
 30
0.0
 10
2.575564371579225
 20
-3.007516666666662
 30
0.0
 10
2.527814372785492
 20
-3.003977083333312
 30
0.0
 10
2.488914373768188
 20
-3.001087500000014
 30
0.0
 10
2.4133124299491
 20
-3.011422916666662
 30
0.0
 10
2.4133124299491
 20
-3.011422916666662
 30
0.0
  0
SPLINE
  5
B0
330
1F
100
AcDbEntity
  8
Wood
 62
     7
420
 16777215
370
    20
100
AcDbSpline
210
0.0
220
0.0
230
1.0
 70
     8
 71
     3
 72
    14
 73
    10
 74
     0
 42
0.0000000001
 43
0.0000000001
 12
1.0
 22
0.0
 32
0.0
 13
1.0
 23
0.0
 33
0.0
 40
0.0
 40
0.0
 40
0.0
 40
0.0
 40
1.0
 40
1.0
 40
1.0
 40
2.0
 40
2.0
 40
2.0
 40
3.0
 40
3.0
 40
3.0
 40
3.0
 10
2.777060199822345
 20
-2.887481249999988
 30
0.0
 10
2.777060199822345
 20
-2.887481249999988
 30
0.0
 10
2.709697701524065
 20
-2.887724999999995
 30
0.0
 10
2.664226869339422
 20
-2.90103125000001
 30
0.0
 10
2.618756037154779
 20
-2.914337500000026
 30
0.0
 10
2.58321437138597
 20
-2.938710416666658
 30
0.0
 10
2.527814372785492
 20
-2.941762499999994
 30
0.0
 10
2.488872707102574
 20
-2.943897916666679
 30
0.0
 10
2.4133124299491
 20
-2.943145833333347
 30
0.0
 10
2.4133124299491
 20
-2.943145833333347
 30
0.0
  0
SPLINE
  5
B1
330
1F
100
AcDbEntity
  8
Wood
 62
     7
420
 16777215
370
    20
100
AcDbSpline
210
0.0
220
0.0
230
1.0
 70
     8
 71
     3
 72
    14
 73
    10
 74
     0
 42
0.0000000001
 43
0.0000000001
 12
1.0
 22
0.0
 32
0.0
 13
1.0
 23
0.0
 33
0.0
 40
0.0
 40
0.0
 40
0.0
 40
0.0
 40
1.0
 40
1.0
 40
1.0
 40
2.0
 40
2.0
 40
2.0
 40
3.0
 40
3.0
 40
3.0
 40
3.0
 10
2.777060199822345
 20
-2.821441666666689
 30
0.0
 10
2.777060199822345
 20
-2.821441666666689
 30
0.0
 10
2.713076868105367
 20
-2.82990416666664
 30
0.0
 10
2.664226869339422
 20
-2.838002083333322
 30
0.0
 10
2.62018103711878
 20
-2.845285416666684
 30
0.0
 10
2.575564371579225
 20
-2.873708333333323
 30
0.0
 10
2.519391456331606
 20
-2.873525000000023
 30
0.0
 10
2.480410207316355
 20
-2.873402083333329
 30
0.0
 10
2.4133124299491
 20
-2.880116666666658
 30
0.0
 10
2.4133124299491
 20
-2.880116666666658
 30
0.0
  0
SPLINE
  5
B2
330
1F
100
AcDbEntity
  8
Wood
 62
     7
420
 16777215
370
    20
100
AcDbSpline
210
0.0
220
0.0
230
1.0
 70
     8
 71
     3
 72
    14
 73
    10
 74
     0
 42
0.0000000001
 43
0.0000000001
 12
1.0
 22
0.0
 32
0.0
 13
1.0
 23
0.0
 33
0.0
 40
0.0
 40
0.0
 40
0.0
 40
0.0
 40
1.0
 40
1.0
 40
1.0
 40
2.0
 40
2.0
 40
2.0
 40
3.0
 40
3.0
 40
3.0
 40
3.0
 10
2.777060199822345
 20
-2.756012499999997
 30
0.0
 10
2.777060199822345
 20
-2.756012499999997
 30
0.0
 10
2.709697701524065
 20
-2.757681250000031
 30
0.0
 10
2.664226869339422
 20
-2.770985416666665
 30
0.0
 10
2.618756037154779
 20
-2.78429166666668
 30
0.0
 10
2.587039371289342
 20
-2.808725000000019
 30
0.0
 10
2.527814372785492
 20
-2.808664583333312
 30
0.0
 10
2.48881242994907
 20
-2.808625000000019
 30
0.0
 10
2.4133124299491
 20
-2.810047916666665
 30
0.0
 10
2.4133124299491
 20
-2.810047916666665
 30
0.0
  0
POLYLINE
  5
B3
330
1F
100
AcDbEntity
  8
Wood
 62
     7
420
 16777215
370
    40
100
AcDb2dPolyline
 66
     1
 10
0.0
 20
0.0
 30
0.0
  0
VERTEX
  5
B4
330
B3
100
AcDbEntity
  8
Wood
 62
     7
420
 16777215
370
    40
100
AcDbVertex
100
AcDb2dVertex
 10
2.650291596615766
 20
-1.387156250000001
 30
0.0
  0
VERTEX
  5
B5
330
B3
100
AcDbEntity
  8
Wood
 62
     7
420
 16777215
370
    40
100
AcDbVertex
100
AcDb2dVertex
 10
2.553062429949073
 20
-0.9982604166666912
 30
0.0
  0
VERTEX
  5
B6
330
B3
100
AcDbEntity
  8
Wood
 62
     7
420
 16777215
370
    40
100
AcDbVertex
100
AcDb2dVertex
 10
2.622499929949097
 20
-0.9010520833333101
 30
0.0
  0
VERTEX
  5
B7
330
B3
100
AcDbEntity
  8
Wood
 62
     7
420
 16777215
370
    40
100
AcDbVertex
100
AcDb2dVertex
 10
2.48708326328243
 20
-0.845489583333334
 30
0.0
  0
VERTEX
  5
B8
330
B3
100
AcDbEntity
  8
Wood
 62
     7
420
 16777215
370
    40
100
AcDbVertex
100
AcDb2dVertex
 10
2.507916596615764
 20
-0.814239583333334
 30
0.0
  0
VERTEX
  5
B9
330
B3
100
AcDbEntity
  8
Wood
 62
     7
420
 16777215
370
    40
100
AcDbVertex
100
AcDb2dVertex
 10
2.400291596615766
 20
-0.3732604166666912
 30
0.0
  0
VERTEX
  5
BA
330
B3
100
AcDbEntity
  8
Wood
 62
     7
420
 16777215
370
    40
100
AcDbVertex
100
AcDb2dVertex
 10
2.122499929949097
 20
-0.2899270833333579
 30
0.0
  0
VERTEX
  5
BB
330
B3
100
AcDbEntity
  8
Wood
 62
     7
420
 16777215
370
    40
100
AcDbVertex
100
AcDb2dVertex
 10
0.5044582632824459
 20
-1.223968749999977
 30
0.0
  0
VERTEX
  5
BC
330
B3
100
AcDbEntity
  8
Wood
 62
     7
420
 16777215
370
    40
100
AcDbVertex
100
AcDb2dVertex
 10
0.50144775730914
 20
-2.50568541666664
 30
0.0
  0
VERTEX
  5
BD
330
B3
100
AcDbEntity
  8
Wood
 62
     7
420
 16777215
370
    40
100
AcDbVertex
100
AcDb2dVertex
 10
0.7370832632824178
 20
-2.723947916666677
 30
0.0
  0
VERTEX
  5
BE
330
B3
100
AcDbEntity
  8
Wood
 62
     7
420
 16777215
370
    40
100
AcDbVertex
100
AcDb2dVertex
 10
1.528749929949085
 20
-2.171864583333344
 30
0.0
  0
VERTEX
  5
BF
330
B3
100
AcDbEntity
  8
Wood
 62
     7
420
 16777215
370
    40
100
AcDbVertex
100
AcDb2dVertex
 10
1.528749929949085
 20
-1.80728125000001
 30
0.0
  0
VERTEX
  5
C0
330
B3
100
AcDbEntity
  8
Wood
 62
     7
420
 16777215
370
    40
100
AcDbVertex
100
AcDb2dVertex
 10
2.33083326328243
 20
-1.612843750000025
 30
0.0
  0
VERTEX
  5
C1
330
B3
100
AcDbEntity
  8
Wood
 62
     7
420
 16777215
370
    40
100
AcDbVertex
100
AcDb2dVertex
 10
2.650291596615766
 20
-1.387156250000001
 30
0.0
  0
SEQEND
  5
C3
330
B3
100
AcDbEntity
  8
Wood
 62
     7
420
 16777215
370
    40
  0
HATCH
  5
C2
330
1F
100
AcDbEntity
  8
Wood
 62
    43
420
 15510365
100
AcDbHatch
 10
0.0
 20
0.0
 30
0.0
210
0.0
220
0.0
230
1.0
  2
SOLID
 70
     1
 71
     0
 91
        1
 92
        1
 93
       13
 72
     1
 10
2.650291596615766
 20
-1.387156250000001
 11
2.553062429949073
 21
-0.9982604166666912
 72
     1
 10
2.553062429949073
 20
-0.9982604166666912
 11
2.622499929949097
 21
-0.9010520833333101
 72
     1
 10
2.622499929949097
 20
-0.9010520833333101
 11
2.48708326328243
 21
-0.845489583333334
 72
     1
 10
2.48708326328243
 20
-0.845489583333334
 11
2.507916596615764
 21
-0.814239583333334
 72
     1
 10
2.507916596615764
 20
-0.814239583333334
 11
2.400291596615766
 21
-0.3732604166666912
 72
     1
 10
2.400291596615766
 20
-0.3732604166666912
 11
2.122499929949097
 21
-0.2899270833333579
 72
     1
 10
2.122499929949097
 20
-0.2899270833333579
 11
0.5044582632824459
 21
-1.223968749999977
 72
     1
 10
0.5044582632824459
 20
-1.223968749999977
 11
0.50144775730914
 21
-2.50568541666664
 72
     1
 10
0.50144775730914
 20
-2.50568541666664
 11
0.7370832632824178
 21
-2.723947916666677
 72
     1
 10
0.7370832632824178
 20
-2.723947916666677
 11
1.528749929949085
 21
-2.171864583333344
 72
     1
 10
1.528749929949085
 20
-2.171864583333344
 11
1.528749929949085
 21
-1.80728125000001
 72
     1
 10
1.528749929949085
 20
-1.80728125000001
 11
2.33083326328243
 21
-1.612843750000025
 72
     1
 10
2.33083326328243
 20
-1.612843750000025
 11
2.650291596615766
 21
-1.387156250000001
 97
        0
 75
     2
 76
     1
 98
        0
  0
POLYLINE
  5
C4
330
1F
100
AcDbEntity
  8
Wood
 62
     7
420
 16777215
370
    30
100
AcDb2dPolyline
 66
     1
 10
0.0
 20
0.0
 30
0.0
  0
VERTEX
  5
C5
330
C4
100
AcDbEntity
  8
Wood
 62
     7
420
 16777215
370
    30
100
AcDbVertex
100
AcDb2dVertex
 10
2.400291596615766
 20
-0.3732604166666912
 30
0.0
  0
VERTEX
  5
C6
330
C4
100
AcDbEntity
  8
Wood
 62
     7
420
 16777215
370
    30
100
AcDbVertex
100
AcDb2dVertex
 10
0.7370832632824178
 20
-1.373260416666691
 30
0.0
  0
VERTEX
  5
C7
330
C4
100
AcDbEntity
  8
Wood
 62
     7
420
 16777215
370
    30
100
AcDbVertex
100
AcDb2dVertex
 10
0.7370832632824178
 20
-2.723947916666677
 30
0.0
  0
SEQEND
  5
C8
330
C4
100
AcDbEntity
  8
Wood
 62
     7
420
 16777215
370
    30
  0
POLYLINE
  5
C9
330
1F
100
AcDbEntity
  8
Wood
 62
     7
420
 16777215
370
    30
100
AcDb2dPolyline
 66
     1
 10
0.0
 20
0.0
 30
0.0
  0
VERTEX
  5
CA
330
C9
100
AcDbEntity
  8
Wood
 62
     7
420
 16777215
370
    30
100
AcDbVertex
100
AcDb2dVertex
 10
0.5044582632824459
 20
-1.223968749999977
 30
0.0
  0
VERTEX
  5
CB
330
C9
100
AcDbEntity
  8
Wood
 62
     7
420
 16777215
370
    30
100
AcDbVertex
100
AcDb2dVertex
 10
0.7370832632824178
 20
-1.373260416666691
 30
0.0
  0
SEQEND
  5
CC
330
C9
100
AcDbEntity
  8
Wood
 62
     7
420
 16777215
370
    30
  0
POLYLINE
  5
CD
330
1F
100
AcDbEntity
  8
Wood
 62
     7
420
 16777215
370
    30
100
AcDb2dPolyline
 66
     1
 10
0.0
 20
0.0
 30
0.0
  0
VERTEX
  5
CE
330
CD
100
AcDbEntity
  8
Wood
 62
     7
420
 16777215
370
    30
100
AcDbVertex
100
AcDb2dVertex
 10
2.612958263282406
 20
-0.9066270833333444
 30
0.0
  0
VERTEX
  5
CF
330
CD
100
AcDbEntity
  8
Wood
 62
     7
420
 16777215
370
    30
100
AcDbVertex
100
AcDb2dVertex
 10
2.451499929949073
 20
-0.8932395833333101
 30
0.0
  0
VERTEX
  5
D0
330
CD
100
AcDbEntity
  8
Wood
 62
     7
420
 16777215
370
    30
100
AcDbVertex
100
AcDb2dVertex
 10
2.48708326328243
 20
-0.8440041666666754
 30
0.0
  0
SEQEND
  5
D1
330
CD
100
AcDbEntity
  8
Wood
 62
     7
420
 16777215
370
    30
  0
SPLINE
  5
D2
330
1F
100
AcDbEntity
  8
Wood
 62
     7
420
 16777215
370
    20
100
AcDbSpline
210
0.0
220
0.0
230
1.0
 70
     8
 71
     3
 72
     8
 73
     4
 74
     0
 42
0.0000000001
 43
0.0000000001
 12
1.0
 22
0.0
 32
0.0
 13
1.0
 23
0.0
 33
0.0
 40
0.0
 40
0.0
 40
0.0
 40
0.0
 40
1.0
 40
1.0
 40
1.0
 40
1.0
 10
2.55566659661574
 20
-0.8776145833333101
 30
0.0
 10
2.55566659661574
 20
-0.8776145833333101
 30
0.0
 10
2.534833263282406
 20
-0.8828229166666435
 30
0.0
 10
2.46972909661574
 20
-0.8671979166666435
 30
0.0
  0
SPLINE
  5
D3
330
1F
100
AcDbEntity
  8
Wood
 62
     7
420
 16777215
370
    20
100
AcDbSpline
210
0.0
220
0.0
230
1.0
 70
     8
 71
     3
 72
    11
 73
     7
 74
     0
 42
0.0000000001
 43
0.0000000001
 12
1.0
 22
0.0
 32
0.0
 13
1.0
 23
0.0
 33
0.0
 40
0.0
 40
0.0
 40
0.0
 40
0.0
 40
1.0
 40
1.0
 40
1.0
 40
2.0
 40
2.0
 40
2.0
 40
2.0
 10
0.6954165966157512
 20
-1.352427083333358
 30
0.0
 10
0.6954165966157512
 20
-1.352427083333358
 30
0.0
 10
0.6988957632824192
 20
-1.419281249999977
 30
0.0
 10
0.7050394188326486
 20
-1.501739583333334
 30
0.0
 10
0.7094956687200743
 20
-1.561533333333336
 30
0.0
 10
0.7370832632824178
 20
-1.762135416666663
 30
0.0
 10
0.7370832632824178
 20
-1.86978125000001
 30
0.0
  0
SPLINE
  5
D4
330
1F
100
AcDbEntity
  8
Wood
 62
     7
420
 16777215
370
    20
100
AcDbSpline
210
0.0
220
0.0
230
1.0
 70
     8
 71
     3
 72
    11
 73
     7
 74
     0
 42
0.0000000001
 43
0.0000000001
 12
1.0
 22
0.0
 32
0.0
 13
1.0
 23
0.0
 33
0.0
 40
0.0
 40
0.0
 40
0.0
 40
0.0
 40
1.0
 40
1.0
 40
1.0
 40
2.0
 40
2.0
 40
2.0
 40
2.0
 10
0.7336040966157498
 20
-2.230906250000013
 30
0.0
 10
0.7336040966157498
 20
-2.230906250000013
 30
0.0
 10
0.7093124299490859
 20
-2.425364583333299
 30
0.0
 10
0.7058332632824178
 20
-2.477447916666632
 30
0.0
 10
0.7023540966157498
 20
-2.529531249999966
 30
0.0
 10
0.690106085876563
 20
-2.67837500000001
 30
0.0
 10
0.690106085876563
 20
-2.67837500000001
 30
0.0
  0
SPLINE
  5
D5
330
1F
100
AcDbEntity
  8
Wood
 62
     7
420
 16777215
370
    20
100
AcDbSpline
210
0.0
220
0.0
230
1.0
 70
     8
 71
     3
 72
    20
 73
    16
 74
     0
 42
0.0000000001
 43
0.0000000001
 12
1.0
 22
0.0
 32
0.0
 13
1.0
 23
0.0
 33
0.0
 40
0.0
 40
0.0
 40
0.0
 40
0.0
 40
1.0
 40
1.0
 40
1.0
 40
2.0
 40
2.0
 40
2.0
 40
3.0
 40
3.0
 40
3.0
 40
4.0
 40
4.0
 40
4.0
 40
5.0
 40
5.0
 40
5.0
 40
5.0
 10
0.6572290966157526
 20
-1.328135416666643
 30
0.0
 10
0.6572290966157526
 20
-1.328135416666643
 30
0.0
 10
0.6641874299490887
 20
-1.543385416666663
 30
0.0
 10
0.6780624299490859
 20
-1.65105208333331
 30
0.0
 10
0.691937429949083
 20
-1.758677083333358
 30
0.0
 10
0.6870748359531388
 20
-1.849191666666684
 30
0.0
 10
0.6978373356812552
 20
-1.942697916666677
 30
0.0
 10
0.7065665021274046
 20
-2.018606250000023
 30
0.0
 10
0.6928727524733378
 20
-2.258656250000008
 30
0.0
 10
0.6824560860698182
 20
-2.30728125000001
 30
0.0
 10
0.6720394196662988
 20
-2.355906250000013
 30
0.0
 10
0.660687429949083
 20
-2.463572916666685
 30
0.0
 10
0.6537499299490844
 20
-2.52257291666668
 30
0.0
 10
0.6468124299490859
 20
-2.581614583333299
 30
0.0
 10
0.6502707632824164
 20
-2.644114583333299
 30
0.0
 10
0.6502707632824164
 20
-2.644114583333299
 30
0.0
  0
SPLINE
  5
D6
330
1F
100
AcDbEntity
  8
Wood
 62
     7
420
 16777215
370
    20
100
AcDbSpline
210
0.0
220
0.0
230
1.0
 70
     8
 71
     3
 72
    20
 73
    16
 74
     0
 42
0.0000000001
 43
0.0000000001
 12
1.0
 22
0.0
 32
0.0
 13
1.0
 23
0.0
 33
0.0
 40
0.0
 40
0.0
 40
0.0
 40
0.0
 40
1.0
 40
1.0
 40
1.0
 40
2.0
 40
2.0
 40
2.0
 40
3.0
 40
3.0
 40
3.0
 40
4.0
 40
4.0
 40
4.0
 40
5.0
 40
5.0
 40
5.0
 40
5.0
 10
0.6086249299491125
 20
-1.286468749999977
 30
0.0
 10
0.6086249299491125
 20
-1.286468749999977
 30
0.0
 10
0.6155832632823982
 20
-1.501718749999996
 30
0.0
 10
0.6294582632824459
 20
-1.609385416666643
 30
0.0
 10
0.6433332632824178
 20
-1.717010416666691
 30
0.0
 10
0.6385123371799307
 20
-1.825408333333346
 30
0.0
 10
0.6492331702424331
 20
-1.90103125000001
 30
0.0
 10
0.6603206699623393
 20
-1.979177083333323
 30
0.0
 10
0.6526706701555945
 20
-2.208547916666652
 30
0.0
 10
0.6338519206309962
 20
-2.265614583333344
 30
0.0
 10
0.618289421024138
 20
-2.312835416666682
 30
0.0
 10
0.6120832632824178
 20
-2.421906250000019
 30
0.0
 10
0.6051457632824192
 20
-2.480906250000013
 30
0.0
 10
0.5982082632824459
 20
-2.539947916666632
 30
0.0
 10
0.6016665966157512
 20
-2.602447916666632
 30
0.0
 10
0.6016665966157512
 20
-2.602447916666632
 30
0.0
  0
SPLINE
  5
D7
330
1F
100
AcDbEntity
  8
Wood
 62
     7
420
 16777215
370
    20
100
AcDbSpline
210
0.0
220
0.0
230
1.0
 70
     8
 71
     3
 72
    20
 73
    16
 74
     0
 42
0.0000000001
 43
0.0000000001
 12
1.0
 22
0.0
 32
0.0
 13
1.0
 23
0.0
 33
0.0
 40
0.0
 40
0.0
 40
0.0
 40
0.0
 40
1.0
 40
1.0
 40
1.0
 40
2.0
 40
2.0
 40
2.0
 40
3.0
 40
3.0
 40
3.0
 40
4.0
 40
4.0
 40
4.0
 40
5.0
 40
5.0
 40
5.0
 40
5.0
 10
0.5669582632824459
 20
-1.262177083333338
 30
0.0
 10
0.5669582632824459
 20
-1.262177083333338
 30
0.0
 10
0.5739165966157316
 20
-1.477427083333358
 30
0.0
 10
0.5877915966157793
 20
-1.585093750000005
 30
0.0
 10
0.6016665966157512
 20
-1.692718749999977
 30
0.0
 10
0.5904352550611267
 20
-1.748931250000004
 30
0.0
 10
0.6006290048036109
 20
-1.824656250000013
 30
0.0
 10
0.6106185878845861
 20
-1.898895833333325
 30
0.0
 10
0.6147894211125554
 20
-2.096506249999998
 30
0.0
 10
0.5986560881867843
 20
-2.143543749999986
 30
0.0
 10
0.5800394219904143
 20
-2.197824999999991
 30
0.0
 10
0.5685644222802971
 20
-2.311758333333323
 30
0.0
 10
0.5694810889238068
 20
-2.373281249999966
 30
0.0
 10
0.5703560889017024
 20
-2.43272916666668
 30
0.0
 10
0.5565207632824164
 20
-2.560781249999966
 30
0.0
 10
0.5565207632824164
 20
-2.560781249999966
 30
0.0
  0
SPLINE
  5
D8
330
1F
100
AcDbEntity
  8
Wood
 62
     7
420
 16777215
370
    20
100
AcDbSpline
210
0.0
220
0.0
230
1.0
 70
     8
 71
     3
 72
    20
 73
    16
 74
     0
 42
0.0000000001
 43
0.0000000001
 12
1.0
 22
0.0
 32
0.0
 13
1.0
 23
0.0
 33
0.0
 40
0.0
 40
0.0
 40
0.0
 40
0.0
 40
1.0
 40
1.0
 40
1.0
 40
2.0
 40
2.0
 40
2.0
 40
3.0
 40
3.0
 40
3.0
 40
4.0
 40
4.0
 40
4.0
 40
5.0
 40
5.0
 40
5.0
 40
5.0
 10
0.5257394233621476
 20
-1.24288958333332
 30
0.0
 10
0.5257394233621476
 20
-1.24288958333332
 30
0.0
 10
0.5251685900432348
 20
-1.446177083333358
 30
0.0
 10
0.5390435896927228
 20
-1.553843750000005
 30
0.0
 10
0.5529206726754915
 20
-1.661468749999977
 30
0.0
 10
0.5400415966157526
 20
-1.761912499999994
 30
0.0
 10
0.5494602560962423
 20
-1.83771666666664
 30
0.0
 10
0.5595310891751649
 20
-1.918874999999995
 30
0.0
 10
0.5601415058264112
 20
-1.986866666666679
 30
0.0
 10
0.557110255902987
 20
-2.036508333333333
 30
0.0
 10
0.5526956726811755
 20
-2.108979166666662
 30
0.0
 10
0.530683173237258
 20
-2.28302916666664
 30
0.0
 10
0.523745673412514
 20
-2.342031249999966
 30
0.0
 10
0.51680817358777
 20
-2.401072916666685
 30
0.0
 10
0.5153019236258211
 20
-2.51748749999999
 30
0.0
 10
0.5153019236258211
 20
-2.51748749999999
 30
0.0
  0
SPLINE
  5
D9
330
1F
100
AcDbEntity
  8
Wood
 62
     7
420
 16777215
370
    20
100
AcDbSpline
210
0.0
220
0.0
230
1.0
 70
     8
 71
     3
 72
     8
 73
     4
 74
     0
 42
0.0000000001
 43
0.0000000001
 12
1.0
 22
0.0
 32
0.0
 13
1.0
 23
0.0
 33
0.0
 40
0.0
 40
0.0
 40
0.0
 40
0.0
 40
1.0
 40
1.0
 40
1.0
 40
1.0
 10
2.417645763282406
 20
-3.21007291666668
 30
0.0
 10
2.417645763282406
 20
-3.21007291666668
 30
0.0
 10
2.502320623429518
 20
-3.206614583333299
 30
0.0
 10
2.543987289043596
 20
-3.203114583333344
 30
0.0
  0
SPLINE
  5
DB
330
1F
100
AcDbEntity
  8
ULT-RT
 62
     7
420
 16777215
370
    40
100
AcDbSpline
210
0.0
220
0.0
230
1.0
 70
    11
 71
     3
 72
    56
 73
    52
 74
     0
 42
0.0000000001
 43
0.0000000001
 12
1.0
 22
0.0
 32
0.0
 13
1.0
 23
0.0
 33
0.0
 40
0.0
 40
0.0
 40
0.0
 40
0.0
 40
1.0
 40
1.0
 40
1.0
 40
2.0
 40
2.0
 40
2.0
 40
3.0
 40
3.0
 40
3.0
 40
4.0
 40
4.0
 40
4.0
 40
5.0
 40
5.0
 40
5.0
 40
6.0
 40
6.0
 40
6.0
 40
7.0
 40
7.0
 40
7.0
 40
8.0
 40
8.0
 40
8.0
 40
9.0
 40
9.0
 40
9.0
 40
10.0
 40
10.0
 40
10.0
 40
11.0
 40
11.0
 40
11.0
 40
12.0
 40
12.0
 40
12.0
 40
13.0
 40
13.0
 40
13.0
 40
14.0
 40
14.0
 40
14.0
 40
15.0
 40
15.0
 40
15.0
 40
16.0
 40
16.0
 40
16.0
 40
17.0
 40
17.0
 40
17.0
 40
17.0
 10
1.795493557952126
 20
-0.8984479166666435
 30
0.0
 10
1.795493557952126
 20
-0.8984479166666435
 30
0.0
 10
1.756370642273787
 20
-0.8848979166666469
 30
0.0
 10
1.756370642273787
 20
-0.8848979166666469
 30
0.0
 10
1.756370642273787
 20
-0.8848979166666469
 30
0.0
 10
1.550722730802224
 20
-0.9255874999999807
 30
0.0
 10
1.550722730802224
 20
-0.9255874999999807
 30
0.0
 10
1.550722730802224
 20
-0.9255874999999807
 30
0.0
 10
1.537701897797825
 20
-0.9287416666666735
 30
0.0
 10
1.537701897797825
 20
-0.9457708333333382
 30
0.0
 10
1.537701897797825
 20
-0.9640000000000049
 30
0.0
 10
1.537701897797825
 20
-1.794260416666677
 30
0.0
 10
1.537701897797825
 20
-1.794260416666677
 30
0.0
 10
1.537701897797825
 20
-1.794260416666677
 30
0.0
 10
1.556785230649072
 20
-1.812489583333344
 30
0.0
 10
1.558535230604864
 20
-1.840281250000013
 30
0.0
 10
1.559266480586391
 20
-1.851877083333319
 30
0.0
 10
1.558535230604864
 20
-2.190093750000011
 30
0.0
 10
1.558535230604864
 20
-2.190093750000011
 30
0.0
 10
1.558535230604864
 20
-2.190093750000011
 30
0.0
 10
1.600181062886135
 20
-2.296458333333299
 30
0.0
 10
1.600181062886135
 20
-2.296458333333299
 30
0.0
 10
1.600181062886135
 20
-2.296458333333299
 30
0.0
 10
1.784364391566606
 20
-2.427887499999997
 30
0.0
 10
1.784364391566606
 20
-2.427887499999997
 30
0.0
 10
1.784364391566606
 20
-2.427887499999997
 30
0.0
 10
1.812237307529143
 20
-2.41747083333333
 30
0.0
 10
1.812237307529143
 20
-2.41747083333333
 30
0.0
 10
1.812237307529143
 20
-2.41747083333333
 30
0.0
 10
1.812237307529143
 20
-1.953114583333344
 30
0.0
 10
1.812237307529143
 20
-1.953114583333344
 30
0.0
 10
1.812237307529143
 20
-1.953114583333344
 30
0.0
 10
1.910076888390853
 20
-1.968739583333344
 30
0.0
 10
1.910076888390853
 20
-1.968739583333344
 30
0.0
 10
1.910076888390853
 20
-1.968739583333344
 30
0.0
 10
2.160076882075322
 20
-1.903635416666677
 30
0.0
 10
2.160076882075322
 20
-1.903635416666677
 30
0.0
 10
2.160076882075322
 20
-1.903635416666677
 30
0.0
 10
2.160076882075322
 20
-1.874583333333299
 30
0.0
 10
2.160076882075322
 20
-1.874583333333299
 30
0.0
 10
2.160076882075322
 20
-1.874583333333299
 30
0.0
 10
1.907472721789974
 20
-1.73698958333331
 30
0.0
 10
1.907472721789974
 20
-1.73698958333331
 30
0.0
 10
1.907472721789974
 20
-1.73698958333331
 30
0.0
 10
1.889243555583814
 20
-1.727874999999977
 30
0.0
 10
1.889243555583814
 20
-1.703664583333332
 30
0.0
 10
1.889243555583814
 20
-1.669810416666665
 30
0.0
 10
1.889243555583814
 20
-1.450531249999977
 30
0.0
 10
1.889243555583814
 20
-1.450531249999977
 30
0.0
 10
1.889243555583814
 20
-1.450531249999977
 30
0.0
 10
1.795493557952126
 20
-0.8984479166666435
 30
0.0
 10
1.795493557952126
 20
-0.8984479166666435
 30
0.0
  0
HATCH
  5
DC
330
1F
100
AcDbEntity
  8
ULT-RT
 62
   254
420
 13358815
100
AcDbHatch
 10
0.0
 20
0.0
 30
0.0
210
0.0
220
0.0
230
1.0
  2
SOLID
 70
     1
 71
     0
 91
        1
 92
        1
 93
        1
 72
     4
 94
        3
 73
     0
 74
     1
 95
       56
 96
       52
 40
0.0
 40
0.0
 40
0.0
 40
0.0
 40
1.0
 40
1.0
 40
1.0
 40
2.0
 40
2.0
 40
2.0
 40
3.0
 40
3.0
 40
3.0
 40
4.0
 40
4.0
 40
4.0
 40
5.0
 40
5.0
 40
5.0
 40
6.0
 40
6.0
 40
6.0
 40
7.0
 40
7.0
 40
7.0
 40
8.0
 40
8.0
 40
8.0
 40
9.0
 40
9.0
 40
9.0
 40
10.0
 40
10.0
 40
10.0
 40
11.0
 40
11.0
 40
11.0
 40
12.0
 40
12.0
 40
12.0
 40
13.0
 40
13.0
 40
13.0
 40
14.0
 40
14.0
 40
14.0
 40
15.0
 40
15.0
 40
15.0
 40
16.0
 40
16.0
 40
16.0
 40
17.0
 40
17.0
 40
17.0
 40
17.0
 10
1.795493557952126
 20
-0.8984479166666435
 10
1.795493557952126
 20
-0.8984479166666435
 10
1.756370642273787
 20
-0.8848979166666469
 10
1.756370642273787
 20
-0.8848979166666469
 10
1.756370642273787
 20
-0.8848979166666469
 10
1.550722730802224
 20
-0.9255874999999807
 10
1.550722730802224
 20
-0.9255874999999807
 10
1.550722730802224
 20
-0.9255874999999807
 10
1.537701897797825
 20
-0.9287416666666735
 10
1.537701897797825
 20
-0.9457708333333382
 10
1.537701897797825
 20
-0.9640000000000049
 10
1.537701897797825
 20
-1.794260416666677
 10
1.537701897797825
 20
-1.794260416666677
 10
1.537701897797825
 20
-1.794260416666677
 10
1.556785230649072
 20
-1.812489583333344
 10
1.558535230604864
 20
-1.840281250000013
 10
1.559266480586391
 20
-1.851877083333319
 10
1.558535230604864
 20
-2.190093750000011
 10
1.558535230604864
 20
-2.190093750000011
 10
1.558535230604864
 20
-2.190093750000011
 10
1.600181062886135
 20
-2.296458333333299
 10
1.600181062886135
 20
-2.296458333333299
 10
1.600181062886135
 20
-2.296458333333299
 10
1.784364391566606
 20
-2.427887499999997
 10
1.784364391566606
 20
-2.427887499999997
 10
1.784364391566606
 20
-2.427887499999997
 10
1.812237307529143
 20
-2.41747083333333
 10
1.812237307529143
 20
-2.41747083333333
 10
1.812237307529143
 20
-2.41747083333333
 10
1.812237307529143
 20
-1.953114583333344
 10
1.812237307529143
 20
-1.953114583333344
 10
1.812237307529143
 20
-1.953114583333344
 10
1.910076888390853
 20
-1.968739583333344
 10
1.910076888390853
 20
-1.968739583333344
 10
1.910076888390853
 20
-1.968739583333344
 10
2.160076882075322
 20
-1.903635416666677
 10
2.160076882075322
 20
-1.903635416666677
 10
2.160076882075322
 20
-1.903635416666677
 10
2.160076882075322
 20
-1.874583333333299
 10
2.160076882075322
 20
-1.874583333333299
 10
2.160076882075322
 20
-1.874583333333299
 10
1.907472721789974
 20
-1.73698958333331
 10
1.907472721789974
 20
-1.73698958333331
 10
1.907472721789974
 20
-1.73698958333331
 10
1.889243555583814
 20
-1.727874999999977
 10
1.889243555583814
 20
-1.703664583333332
 10
1.889243555583814
 20
-1.669810416666665
 10
1.889243555583814
 20
-1.450531249999977
 10
1.889243555583814
 20
-1.450531249999977
 10
1.889243555583814
 20
-1.450531249999977
 10
1.795493557952126
 20
-0.8984479166666435
 10
1.795493557952126
 20
-0.8984479166666435
 97
        0
 97
        0
 75
     2
 76
     1
 98
        0
  0
POLYLINE
  5
DD
330
1F
100
AcDbEntity
  8
ULT-RT
 62
     7
420
 16777215
370
    40
100
AcDb2dPolyline
 66
     1
 10
0.0
 20
0.0
 30
0.0
  0
VERTEX
  5
DE
330
DD
100
AcDbEntity
  8
ULT-RT
 62
     7
420
 16777215
370
    40
100
AcDbVertex
100
AcDb2dVertex
 10
1.811993557535301
 20
-1.949533333333319
 30
0.0
  0
VERTEX
  5
DF
330
DD
100
AcDbEntity
  8
ULT-RT
 62
     7
420
 16777215
370
    40
100
AcDbVertex
100
AcDb2dVertex
 10
1.811993557535301
 20
-1.704843749999996
 30
0.0
  0
VERTEX
  5
E0
330
DD
100
AcDbEntity
  8
ULT-RT
 62
     7
420
 16777215
370
    40
100
AcDbVertex
100
AcDb2dVertex
 10
1.742535225956633
 20
-1.02605208333331
 30
0.0
  0
VERTEX
  5
E1
330
DD
100
AcDbEntity
  8
ULT-RT
 62
     7
420
 16777215
370
    40
100
AcDbVertex
100
AcDb2dVertex
 10
1.582806063325064
 20
-0.9513854166666912
 30
0.0
  0
SEQEND
  5
E2
330
DD
100
AcDbEntity
  8
ULT-RT
 62
     7
420
 16777215
370
    40
  0
SPLINE
  5
E3
330
1F
100
AcDbEntity
  8
ULT-RT
 62
     7
420
 16777215
370
    30
100
AcDbSpline
210
0.0
220
0.0
230
1.0
 70
     8
 71
     3
 72
    17
 73
    13
 74
     0
 42
0.0000000001
 43
0.0000000001
 12
1.0
 22
0.0
 32
0.0
 13
1.0
 23
0.0
 33
0.0
 40
0.0
 40
0.0
 40
0.0
 40
0.0
 40
1.0
 40
1.0
 40
1.0
 40
2.0
 40
2.0
 40
2.0
 40
3.0
 40
3.0
 40
3.0
 40
4.0
 40
4.0
 40
4.0
 40
4.0
 10
1.785951891526502
 20
-2.418406250000013
 30
0.0
 10
1.785951891526502
 20
-2.418406250000013
 30
0.0
 10
1.785951891526502
 20
-1.710866666666675
 30
0.0
 10
1.785951891526502
 20
-1.710866666666675
 30
0.0
 10
1.785951891526502
 20
-1.710866666666675
 30
0.0
 10
1.71846647656466
 20
-1.041187500000016
 30
0.0
 10
1.71846647656466
 20
-1.041187500000016
 30
0.0
 10
1.71846647656466
 20
-1.041187500000016
 30
0.0
 10
1.564597730451712
 20
-0.9681499999999863
 30
0.0
 10
1.553143564074402
 20
-0.9627374999999903
 30
0.0
 10
1.534568564543658
 20
-0.953968749999995
 30
0.0
 10
1.533389397906767
 20
-0.931427083333334
 30
0.0
 10
1.55727273063677
 20
-0.9266874999999825
 30
0.0
  0
SPLINE
  5
E4
330
1F
100
AcDbEntity
  8
ULT-RT
 62
     7
420
 16777215
370
    30
100
AcDbSpline
210
0.0
220
0.0
230
1.0
 70
     8
 71
     3
 72
    11
 73
     7
 74
     0
 42
0.0000000001
 43
0.0000000001
 12
1.0
 22
0.0
 32
0.0
 13
1.0
 23
0.0
 33
0.0
 40
0.0
 40
0.0
 40
0.0
 40
0.0
 40
1.0
 40
1.0
 40
1.0
 40
2.0
 40
2.0
 40
2.0
 40
2.0
 10
1.795493557952126
 20
-0.8984479166666435
 30
0.0
 10
1.795493557952126
 20
-0.8984479166666435
 30
0.0
 10
1.61114772927576
 20
-0.9359229166666788
 30
0.0
 10
1.585106063266961
 20
-0.9411312500000122
 30
0.0
 10
1.559064397258162
 20
-0.9463395833333454
 30
0.0
 10
1.573772730219932
 20
-0.9487208333333177
 30
0.0
 10
1.58459772994647
 20
-0.9540312499999825
 30
0.0
  0
SPLINE
  5
E5
330
1F
100
AcDbEntity
  8
ULT-RT
 62
   250
420
  2301728
370
    20
100
AcDbSpline
210
0.0
220
0.0
230
1.0
 70
    11
 71
     3
 72
    23
 73
    19
 74
     0
 42
0.0000000001
 43
0.0000000001
 12
1.0
 22
0.0
 32
0.0
 13
1.0
 23
0.0
 33
0.0
 40
0.0
 40
0.0
 40
0.0
 40
0.0
 40
1.0
 40
1.0
 40
1.0
 40
2.0
 40
2.0
 40
2.0
 40
3.0
 40
3.0
 40
3.0
 40
4.0
 40
4.0
 40
4.0
 40
5.0
 40
5.0
 40
5.0
 40
6.0
 40
6.0
 40
6.0
 40
6.0
 10
1.610558145957321
 20
-2.061472916666692
 30
0.0
 10
1.597820646279097
 20
-2.066966666666657
 30
0.0
 10
1.601849812843966
 20
-2.078806249999969
 30
0.0
 10
1.603476896136208
 20
-2.094554166666664
 30
0.0
 10
1.605064396096117
 20
-2.109852083333307
 30
0.0
 10
1.609174812658933
 20
-2.136750000000019
 30
0.0
 10
1.620118562382471
 20
-2.134958333333341
 30
0.0
 10
1.624168562280147
 20
-2.13430833333334
 30
0.0
 10
1.629479096615733
 20
-2.132597916666681
 30
0.0
 10
1.637189395284559
 20
-2.129466666666657
 30
0.0
 10
1.655845644813262
 20
-2.121897916666664
 30
0.0
 10
1.660849811353513
 20
-2.111318750000009
 30
0.0
 10
1.658693561407985
 20
-2.090362499999982
 30
0.0
 10
1.656516478129649
 20
-2.069366666666661
 30
0.0
 10
1.641278978514581
 20
-2.053741666666661
 30
0.0
 10
1.626466478888776
 20
-2.055287500000001
 30
0.0
 10
1.622803978981311
 20
-2.055654166666702
 30
0.0
 10
1.613995645870482
 20
-2.059966666666646
 30
0.0
 10
1.610558145957321
 20
-2.061472916666692
 30
0.0
  0
HATCH
  5
E6
330
1F
100
AcDbEntity
  8
ULT-RT
 62
   254
420
 13358815
100
AcDbHatch
 10
0.0
 20
0.0
 30
0.0
210
0.0
220
0.0
230
1.0
  2
SOLID
 70
     1
 71
     0
 91
        1
 92
        1
 93
        1
 72
     4
 94
        3
 73
     0
 74
     1
 95
       23
 96
       19
 40
0.0
 40
0.0
 40
0.0
 40
0.0
 40
1.0
 40
1.0
 40
1.0
 40
2.0
 40
2.0
 40
2.0
 40
3.0
 40
3.0
 40
3.0
 40
4.0
 40
4.0
 40
4.0
 40
5.0
 40
5.0
 40
5.0
 40
6.0
 40
6.0
 40
6.0
 40
6.0
 10
1.610558145957321
 20
-2.061472916666692
 10
1.597820646279097
 20
-2.066966666666657
 10
1.601849812843966
 20
-2.078806249999969
 10
1.603476896136208
 20
-2.094554166666664
 10
1.605064396096117
 20
-2.109852083333307
 10
1.609174812658933
 20
-2.136750000000019
 10
1.620118562382471
 20
-2.134958333333341
 10
1.624168562280147
 20
-2.13430833333334
 10
1.629479096615733
 20
-2.132597916666681
 10
1.637189395284559
 20
-2.129466666666657
 10
1.655845644813262
 20
-2.121897916666664
 10
1.660849811353513
 20
-2.111318750000009
 10
1.658693561407985
 20
-2.090362499999982
 10
1.656516478129649
 20
-2.069366666666661
 10
1.641278978514581
 20
-2.053741666666661
 10
1.626466478888776
 20
-2.055287500000001
 10
1.622803978981311
 20
-2.055654166666702
 10
1.613995645870482
 20
-2.059966666666646
 10
1.610558145957321
 20
-2.061472916666692
 97
        0
 97
        0
 75
     2
 76
     1
 98
        0
  0
SPLINE
  5
E7
330
1F
100
AcDbEntity
  8
ULT-RT
 62
   250
420
  2301728
370
    20
100
AcDbSpline
210
0.0
220
0.0
230
1.0
 70
    11
 71
     3
 72
    17
 73
    13
 74
     0
 42
0.0000000001
 43
0.0000000001
 12
1.0
 22
0.0
 32
0.0
 13
1.0
 23
0.0
 33
0.0
 40
0.0
 40
0.0
 40
0.0
 40
0.0
 40
1.0
 40
1.0
 40
1.0
 40
2.0
 40
2.0
 40
2.0
 40
3.0
 40
3.0
 40
3.0
 40
4.0
 40
4.0
 40
4.0
 40
4.0
 10
1.58960189648672
 20
-2.101633333333312
 30
0.0
 10
1.591676896434301
 20
-2.121570833333307
 30
0.0
 10
1.605328979422754
 20
-2.136504166666681
 30
0.0
 10
1.620118562382471
 20
-2.134958333333341
 30
0.0
 10
1.634910228675469
 20
-2.133412500000001
 30
0.0
 10
1.645224811748234
 20
-2.116037499999998
 30
0.0
 10
1.643149811800653
 20
-2.096100000000004
 30
0.0
 10
1.641095645185879
 20
-2.076162500000009
 30
0.0
 10
1.627443562197426
 20
-2.061229166666686
 30
0.0
 10
1.612651895904428
 20
-2.062775000000026
 30
0.0
 10
1.597862312944711
 20
-2.06427916666664
 30
0.0
 10
1.587547729871946
 20
-2.081695833333368
 30
0.0
 10
1.58960189648672
 20
-2.101633333333312
 30
0.0
  0
HATCH
  5
E8
330
1F
100
AcDbEntity
  8
ULT-RT
 62
   254
420
 13358815
100
AcDbHatch
 10
0.0
 20
0.0
 30
0.0
210
0.0
220
0.0
230
1.0
  2
SOLID
 70
     1
 71
     0
 91
        1
 92
        1
 93
        1
 72
     4
 94
        3
 73
     0
 74
     1
 95
       17
 96
       13
 40
0.0
 40
0.0
 40
0.0
 40
0.0
 40
1.0
 40
1.0
 40
1.0
 40
2.0
 40
2.0
 40
2.0
 40
3.0
 40
3.0
 40
3.0
 40
4.0
 40
4.0
 40
4.0
 40
4.0
 10
1.58960189648672
 20
-2.101633333333312
 10
1.591676896434301
 20
-2.121570833333307
 10
1.605328979422754
 20
-2.136504166666681
 10
1.620118562382471
 20
-2.134958333333341
 10
1.634910228675469
 20
-2.133412500000001
 10
1.645224811748234
 20
-2.116037499999998
 10
1.643149811800653
 20
-2.096100000000004
 10
1.641095645185879
 20
-2.076162500000009
 10
1.627443562197426
 20
-2.061229166666686
 10
1.612651895904428
 20
-2.062775000000026
 10
1.597862312944711
 20
-2.06427916666664
 10
1.587547729871946
 20
-2.081695833333368
 10
1.58960189648672
 20
-2.101633333333312
 97
        0
 97
        0
 75
     2
 76
     1
 98
        0
  0
SPLINE
  5
E9
330
1F
100
AcDbEntity
  8
ULT-RT
 62
   250
420
  2301728
370
    20
100
AcDbSpline
210
0.0
220
0.0
230
1.0
 70
    11
 71
     3
 72
    23
 73
    19
 74
     0
 42
0.0000000001
 43
0.0000000001
 12
1.0
 22
0.0
 32
0.0
 13
1.0
 23
0.0
 33
0.0
 40
0.0
 40
0.0
 40
0.0
 40
0.0
 40
1.0
 40
1.0
 40
1.0
 40
2.0
 40
2.0
 40
2.0
 40
3.0
 40
3.0
 40
3.0
 40
4.0
 40
4.0
 40
4.0
 40
5.0
 40
5.0
 40
5.0
 40
6.0
 40
6.0
 40
6.0
 40
6.0
 10
2.041974801725499
 20
-1.836862500000027
 30
0.0
 10
2.041403968406585
 20
-1.828481249999994
 30
0.0
 10
2.018047718996614
 20
-1.822581250000035
 30
0.0
 10
2.002503969389282
 20
-1.822785416666698
 30
0.0
 10
1.986595636457827
 20
-1.822947916666686
 30
0.0
 10
1.962668553728943
 20
-1.827993750000031
 30
0.0
 10
1.962139387075644
 20
-1.836049999999988
 30
0.0
 10
1.961937429949052
 20
-1.839141666666668
 30
0.0
 10
1.962058137077697
 20
-1.851756250000006
 30
0.0
 10
1.962139387075644
 20
-1.854074999999991
 30
0.0
 10
1.962547720398662
 20
-1.862456249999973
 30
0.0
 10
1.98065396994126
 20
-1.86904999999999
 30
0.0
 10
2.00270826328243
 20
-1.868804166666652
 30
0.0
 10
2.024762302160323
 20
-1.868560416666646
 30
0.0
 10
2.042339385049622
 20
-1.861562499999966
 30
0.0
 10
2.041974801725499
 20
-1.853179166666652
 30
0.0
 10
2.041851885061937
 20
-1.85069791666668
 30
0.0
 10
2.042381051715236
 20
-1.84288541666668
 30
0.0
 10
2.041974801725499
 20
-1.836862500000027
 30
0.0
  0
HATCH
  5
EA
330
1F
100
AcDbEntity
  8
ULT-RT
 62
   254
420
 13358815
100
AcDbHatch
 10
0.0
 20
0.0
 30
0.0
210
0.0
220
0.0
230
1.0
  2
SOLID
 70
     1
 71
     0
 91
        1
 92
        1
 93
        1
 72
     4
 94
        3
 73
     0
 74
     1
 95
       23
 96
       19
 40
0.0
 40
0.0
 40
0.0
 40
0.0
 40
1.0
 40
1.0
 40
1.0
 40
2.0
 40
2.0
 40
2.0
 40
3.0
 40
3.0
 40
3.0
 40
4.0
 40
4.0
 40
4.0
 40
5.0
 40
5.0
 40
5.0
 40
6.0
 40
6.0
 40
6.0
 40
6.0
 10
2.041974801725499
 20
-1.836862500000027
 10
2.041403968406585
 20
-1.828481249999994
 10
2.018047718996614
 20
-1.822581250000035
 10
2.002503969389282
 20
-1.822785416666698
 10
1.986595636457827
 20
-1.822947916666686
 10
1.962668553728943
 20
-1.827993750000031
 10
1.962139387075644
 20
-1.836049999999988
 10
1.961937429949052
 20
-1.839141666666668
 10
1.962058137077697
 20
-1.851756250000006
 10
1.962139387075644
 20
-1.854074999999991
 10
1.962547720398662
 20
-1.862456249999973
 10
1.98065396994126
 20
-1.86904999999999
 10
2.00270826328243
 20
-1.868804166666652
 10
2.024762302160323
 20
-1.868560416666646
 10
2.042339385049622
 20
-1.861562499999966
 10
2.041974801725499
 20
-1.853179166666652
 10
2.041851885061937
 20
-1.85069791666668
 10
2.042381051715236
 20
-1.84288541666668
 10
2.041974801725499
 20
-1.836862500000027
 97
        0
 97
        0
 75
     2
 76
     1
 98
        0
  0
SPLINE
  5
EB
330
1F
100
AcDbEntity
  8
ULT-RT
 62
   250
420
  2301728
370
    20
100
AcDbSpline
210
0.0
220
0.0
230
1.0
 70
    11
 71
     3
 72
    17
 73
    13
 74
     0
 42
0.0000000001
 43
0.0000000001
 12
1.0
 22
0.0
 32
0.0
 13
1.0
 23
0.0
 33
0.0
 40
0.0
 40
0.0
 40
0.0
 40
0.0
 40
1.0
 40
1.0
 40
1.0
 40
2.0
 40
2.0
 40
2.0
 40
3.0
 40
3.0
 40
3.0
 40
4.0
 40
4.0
 40
4.0
 40
4.0
 10
2.001406052750351
 20
-1.820464583333331
 30
0.0
 10
1.979393553306434
 20
-1.820708333333338
 30
0.0
 10
1.961814387083854
 20
-1.827708333333299
 30
0.0
 10
1.962139387075644
 20
-1.836049999999988
 30
0.0
 10
1.962547720398662
 20
-1.844472916666644
 30
0.0
 10
1.98065396994126
 20
-1.851022916666655
 30
0.0
 10
2.00270826328243
 20
-1.850779166666648
 30
0.0
 10
2.024762302160323
 20
-1.850535416666692
 30
0.0
 10
2.042339385049622
 20
-1.843535416666681
 30
0.0
 10
2.041974801725499
 20
-1.835154166666648
 30
0.0
 10
2.041608135068095
 20
-1.82681250000001
 30
0.0
 10
2.023418552194269
 20
-1.820220833333325
 30
0.0
 10
2.001406052750351
 20
-1.820464583333331
 30
0.0
  0
HATCH
  5
EC
330
1F
100
AcDbEntity
  8
ULT-RT
 62
   254
420
 13358815
100
AcDbHatch
 10
0.0
 20
0.0
 30
0.0
210
0.0
220
0.0
230
1.0
  2
SOLID
 70
     1
 71
     0
 91
        1
 92
        1
 93
        1
 72
     4
 94
        3
 73
     0
 74
     1
 95
       17
 96
       13
 40
0.0
 40
0.0
 40
0.0
 40
0.0
 40
1.0
 40
1.0
 40
1.0
 40
2.0
 40
2.0
 40
2.0
 40
3.0
 40
3.0
 40
3.0
 40
4.0
 40
4.0
 40
4.0
 40
4.0
 10
2.001406052750351
 20
-1.820464583333331
 10
1.979393553306434
 20
-1.820708333333338
 10
1.961814387083854
 20
-1.827708333333299
 10
1.962139387075644
 20
-1.836049999999988
 10
1.962547720398662
 20
-1.844472916666644
 10
1.98065396994126
 20
-1.851022916666655
 10
2.00270826328243
 20
-1.850779166666648
 10
2.024762302160323
 20
-1.850535416666692
 10
2.042339385049622
 20
-1.843535416666681
 10
2.041974801725499
 20
-1.835154166666648
 10
2.041608135068095
 20
-1.82681250000001
 10
2.023418552194269
 20
-1.820220833333325
 10
2.001406052750351
 20
-1.820464583333331
 97
        0
 97
        0
 75
     2
 76
     1
 98
        0
  0
SPLINE
  5
ED
330
1F
100
AcDbEntity
  8
ULT-RT
 62
   250
420
  2301728
370
    20
100
AcDbSpline
210
0.0
220
0.0
230
1.0
 70
     8
 71
     3
 72
    14
 73
    10
 74
     0
 42
0.0000000001
 43
0.0000000001
 12
1.0
 22
0.0
 32
0.0
 13
1.0
 23
0.0
 33
0.0
 40
0.0
 40
0.0
 40
0.0
 40
0.0
 40
1.0
 40
1.0
 40
1.0
 40
2.0
 40
2.0
 40
2.0
 40
3.0
 40
3.0
 40
3.0
 40
3.0
 10
1.822043557281416
 20
-1.901804166666655
 30
0.0
 10
1.844139390056549
 20
-1.901560416666648
 30
0.0
 10
1.861716472945874
 20
-1.894520833333344
 30
0.0
 10
1.86134980628847
 20
-1.886179166666655
 30
0.0
 10
1.861229096615767
 20
-1.883697916666632
 30
0.0
 10
1.861716472945874
 20
-1.875843750000008
 30
0.0
 10
1.861310222956136
 20
-1.869822916666686
 30
0.0
 10
1.860781056302825
 20
-1.861481249999997
 30
0.0
 10
1.837424806892841
 20
-1.855581249999988
 30
0.0
 10
1.821881057285522
 20
-1.855743750000026
 30
0.0
  0
HATCH
  5
EE
330
1F
100
AcDbEntity
  8
ULT-RT
 62
   254
420
 13358815
100
AcDbHatch
 10
0.0
 20
0.0
 30
0.0
210
0.0
220
0.0
230
1.0
  2
SOLID
 70
     1
 71
     0
 91
        1
 92
        1
 93
        2
 72
     4
 94
        3
 73
     0
 74
     0
 95
       14
 96
       10
 40
0.0
 40
0.0
 40
0.0
 40
0.0
 40
0.0138888888888889
 40
0.0138888888888889
 40
0.0138888888888889
 40
0.0277777777777778
 40
0.0277777777777778
 40
0.0277777777777778
 40
0.0416666666666667
 40
0.0416666666666667
 40
0.0416666666666667
 40
0.0416666666666667
 10
1.822043557281416
 20
-1.901804166666655
 10
1.844139390056549
 20
-1.901560416666648
 10
1.861716472945874
 20
-1.894520833333344
 10
1.86134980628847
 20
-1.886179166666655
 10
1.861229096615767
 20
-1.883697916666632
 10
1.861716472945874
 20
-1.875843750000008
 10
1.861310222956136
 20
-1.869822916666686
 10
1.860781056302825
 20
-1.861481249999997
 10
1.837424806892841
 20
-1.855581249999988
 10
1.821881057285522
 20
-1.855743750000026
 97
        0
 72
     1
 10
1.821881057285522
 20
-1.855743750000026
 11
1.822043557281416
 21
-1.901804166666655
 97
        0
 75
     2
 76
     1
 98
        0
  0
SPLINE
  5
EF
330
1F
100
AcDbEntity
  8
ULT-RT
 62
   250
420
  2301728
370
    20
100
AcDbSpline
210
0.0
220
0.0
230
1.0
 70
     8
 71
     3
 72
    11
 73
     7
 74
     0
 42
0.0000000001
 43
0.0000000001
 12
1.0
 22
0.0
 32
0.0
 13
1.0
 23
0.0
 33
0.0
 40
0.0
 40
0.0
 40
0.0
 40
0.0
 40
1.0
 40
1.0
 40
1.0
 40
2.0
 40
2.0
 40
2.0
 40
2.0
 10
1.822043557281416
 20
-1.883779166666702
 30
0.0
 10
1.844139390056549
 20
-1.883535416666644
 30
0.0
 10
1.861716472945874
 20
-1.876535416666684
 30
0.0
 10
1.86134980628847
 20
-1.868154166666702
 30
0.0
 10
1.860985222964334
 20
-1.859812500000013
 30
0.0
 10
1.842795640090508
 20
-1.853220833333328
 30
0.0
 10
1.820783140646603
 20
-1.853464583333334
 30
0.0
  0
HATCH
  5
F0
330
1F
100
AcDbEntity
  8
ULT-RT
 62
   254
420
 13358815
100
AcDbHatch
 10
0.0
 20
0.0
 30
0.0
210
0.0
220
0.0
230
1.0
  2
SOLID
 70
     1
 71
     0
 91
        1
 92
        1
 93
        2
 72
     4
 94
        3
 73
     0
 74
     0
 95
       11
 96
        7
 40
0.0
 40
0.0
 40
0.0
 40
0.0
 40
0.0138888888888889
 40
0.0138888888888889
 40
0.0138888888888889
 40
0.0277777777777778
 40
0.0277777777777778
 40
0.0277777777777778
 40
0.0277777777777778
 10
1.822043557281416
 20
-1.883779166666702
 10
1.844139390056549
 20
-1.883535416666644
 10
1.861716472945874
 20
-1.876535416666684
 10
1.86134980628847
 20
-1.868154166666702
 10
1.860985222964334
 20
-1.859812500000013
 10
1.842795640090508
 20
-1.853220833333328
 10
1.820783140646603
 20
-1.853464583333334
 97
        0
 72
     1
 10
1.820783140646603
 20
-1.853464583333334
 11
1.822043557281416
 21
-1.883779166666702
 97
        0
 75
     2
 76
     1
 98
        0
  0
SPLINE
  5
F1
330
1F
100
AcDbEntity
  8
ULT-RT
 62
   250
420
  2301728
370
    20
100
AcDbSpline
210
0.0
220
0.0
230
1.0
 70
    11
 71
     3
 72
    23
 73
    19
 74
     0
 42
0.0000000001
 43
0.0000000001
 12
1.0
 22
0.0
 32
0.0
 13
1.0
 23
0.0
 33
0.0
 40
0.0
 40
0.0
 40
0.0
 40
0.0
 40
1.0
 40
1.0
 40
1.0
 40
2.0
 40
2.0
 40
2.0
 40
3.0
 40
3.0
 40
3.0
 40
4.0
 40
4.0
 40
4.0
 40
5.0
 40
5.0
 40
5.0
 40
6.0
 40
6.0
 40
6.0
 40
6.0
 10
1.667685227847503
 20
-1.977324999999988
 30
0.0
 10
1.654970644835367
 20
-1.982900000000023
 30
0.0
 10
1.659060228065389
 20
-1.994699999999991
 30
0.0
 10
1.660768561355566
 20
-2.010447916666686
 30
0.0
 10
1.662437429949086
 20
-2.025787500000004
 30
0.0
 10
1.666668561206519
 20
-2.052602083333315
 30
0.0
 10
1.677614394263337
 20
-2.050770833333344
 30
0.0
 10
1.681643560828219
 20
-2.050120833333342
 30
0.0
 10
1.686972727360259
 20
-2.04837083333334
 30
0.0
 10
1.694664393832631
 20
-2.04519583333336
 30
0.0
 10
1.713258143362901
 20
-2.037545833333348
 30
0.0
 10
1.718222726570818
 20
-2.026966666666693
 30
0.0
 10
1.715945643295009
 20
-2.005970833333322
 30
0.0
 10
1.713666596615755
 20
-1.985016666666676
 30
0.0
 10
1.698366477072429
 20
-1.969472916666644
 30
0.0
 10
1.683556060779905
 20
-1.971058333333328
 30
0.0
 10
1.679893560872427
 20
-1.971466666666654
 30
0.0
 10
1.67110409661575
 20
-1.975820833333324
 30
0.0
 10
1.667685227847503
 20
-1.977324999999988
 30
0.0
  0
HATCH
  5
F2
330
1F
100
AcDbEntity
  8
ULT-RT
 62
   254
420
 13358815
100
AcDbHatch
 10
0.0
 20
0.0
 30
0.0
210
0.0
220
0.0
230
1.0
  2
SOLID
 70
     1
 71
     0
 91
        1
 92
        1
 93
        1
 72
     4
 94
        3
 73
     0
 74
     1
 95
       23
 96
       19
 40
0.0
 40
0.0
 40
0.0
 40
0.0
 40
1.0
 40
1.0
 40
1.0
 40
2.0
 40
2.0
 40
2.0
 40
3.0
 40
3.0
 40
3.0
 40
4.0
 40
4.0
 40
4.0
 40
5.0
 40
5.0
 40
5.0
 40
6.0
 40
6.0
 40
6.0
 40
6.0
 10
1.667685227847503
 20
-1.977324999999988
 10
1.654970644835367
 20
-1.982900000000023
 10
1.659060228065389
 20
-1.994699999999991
 10
1.660768561355566
 20
-2.010447916666686
 10
1.662437429949086
 20
-2.025787500000004
 10
1.666668561206519
 20
-2.052602083333315
 10
1.677614394263337
 20
-2.050770833333344
 10
1.681643560828219
 20
-2.050120833333342
 10
1.686972727360259
 20
-2.04837083333334
 10
1.694664393832631
 20
-2.04519583333336
 10
1.713258143362901
 20
-2.037545833333348
 10
1.718222726570818
 20
-2.026966666666693
 10
1.715945643295009
 20
-2.005970833333322
 10
1.713666596615755
 20
-1.985016666666676
 10
1.698366477072429
 20
-1.969472916666644
 10
1.683556060779905
 20
-1.971058333333328
 10
1.679893560872427
 20
-1.971466666666654
 10
1.67110409661575
 20
-1.975820833333324
 10
1.667685227847503
 20
-1.977324999999988
 97
        0
 97
        0
 75
     2
 76
     1
 98
        0
  0
SPLINE
  5
F3
330
1F
100
AcDbEntity
  8
ULT-RT
 62
   250
420
  2301728
370
    20
100
AcDbSpline
210
0.0
220
0.0
230
1.0
 70
    11
 71
     3
 72
    17
 73
    13
 74
     0
 42
0.0000000001
 43
0.0000000001
 12
1.0
 22
0.0
 32
0.0
 13
1.0
 23
0.0
 33
0.0
 40
0.0
 40
0.0
 40
0.0
 40
0.0
 40
1.0
 40
1.0
 40
1.0
 40
2.0
 40
2.0
 40
2.0
 40
3.0
 40
3.0
 40
3.0
 40
4.0
 40
4.0
 40
4.0
 40
4.0
 10
1.646935228371692
 20
-2.017608333333303
 30
0.0
 10
1.64909147831722
 20
-2.037545833333348
 30
0.0
 10
1.662822727970327
 20
-2.052397916666652
 30
0.0
 10
1.677614394263337
 20
-2.050770833333344
 30
0.0
 10
1.692385227223528
 20
-2.049183333333329
 30
0.0
 10
1.702597726965539
 20
-2.031727083333307
 30
0.0
 10
1.70044147702001
 20
-2.011789583333312
 30
0.0
 10
1.698285227074482
 20
-1.991891666666662
 30
0.0
 10
1.684572727420889
 20
-1.977000000000013
 30
0.0
 10
1.669781061127891
 20
-1.978627083333322
 30
0.0
 10
1.654991478168186
 20
-1.980214583333337
 30
0.0
 10
1.644776895092895
 20
-1.997710416666652
 30
0.0
 10
1.646935228371692
 20
-2.017608333333303
 30
0.0
  0
HATCH
  5
F4
330
1F
100
AcDbEntity
  8
ULT-RT
 62
   254
420
 13358815
100
AcDbHatch
 10
0.0
 20
0.0
 30
0.0
210
0.0
220
0.0
230
1.0
  2
SOLID
 70
     1
 71
     0
 91
        1
 92
        1
 93
        1
 72
     4
 94
        3
 73
     0
 74
     1
 95
       17
 96
       13
 40
0.0
 40
0.0
 40
0.0
 40
0.0
 40
1.0
 40
1.0
 40
1.0
 40
2.0
 40
2.0
 40
2.0
 40
3.0
 40
3.0
 40
3.0
 40
4.0
 40
4.0
 40
4.0
 40
4.0
 10
1.646935228371692
 20
-2.017608333333303
 10
1.64909147831722
 20
-2.037545833333348
 10
1.662822727970327
 20
-2.052397916666652
 10
1.677614394263337
 20
-2.050770833333344
 10
1.692385227223528
 20
-2.049183333333329
 10
1.702597726965539
 20
-2.031727083333307
 10
1.70044147702001
 20
-2.011789583333312
 10
1.698285227074482
 20
-1.991891666666662
 10
1.684572727420889
 20
-1.977000000000013
 10
1.669781061127891
 20
-1.978627083333322
 10
1.654991478168186
 20
-1.980214583333337
 10
1.644776895092895
 20
-1.997710416666652
 10
1.646935228371692
 20
-2.017608333333303
 97
        0
 97
        0
 75
     2
 76
     1
 98
        0
  0
SPLINE
  5
F5
330
1F
100
AcDbEntity
  8
ULT-RT
 62
   250
420
  2301728
370
    20
100
AcDbSpline
210
0.0
220
0.0
230
1.0
 70
     8
 71
     3
 72
    11
 73
     7
 74
     0
 42
0.0000000001
 43
0.0000000001
 12
1.0
 22
0.0
 32
0.0
 13
1.0
 23
0.0
 33
0.0
 40
0.0
 40
0.0
 40
0.0
 40
0.0
 40
1.0
 40
1.0
 40
1.0
 40
2.0
 40
2.0
 40
2.0
 40
2.0
 10
1.811831057539406
 20
-1.614022916666664
 30
0.0
 10
1.826601890499597
 20
-1.615652083333341
 30
0.0
 10
1.836814390241607
 20
-1.633108333333325
 30
0.0
 10
1.834658140296079
 20
-1.653004166666644
 30
0.0
 10
1.833172723666924
 20
-1.66679791666666
 30
0.0
 10
1.826153973844245
 20
-1.678152083333341
 30
0.0
 10
1.817078974073499
 20
-1.683318750000012
 30
0.0
  0
HATCH
  5
F6
330
1F
100
AcDbEntity
  8
ULT-RT
 62
   254
420
 13358815
100
AcDbHatch
 10
0.0
 20
0.0
 30
0.0
210
0.0
220
0.0
230
1.0
  2
SOLID
 70
     1
 71
     0
 91
        1
 92
        1
 93
        2
 72
     4
 94
        3
 73
     0
 74
     0
 95
       11
 96
        7
 40
0.0
 40
0.0
 40
0.0
 40
0.0
 40
0.0138888888888889
 40
0.0138888888888889
 40
0.0138888888888889
 40
0.0277777777777778
 40
0.0277777777777778
 40
0.0277777777777778
 40
0.0277777777777778
 10
1.811831057539406
 20
-1.614022916666664
 10
1.826601890499597
 20
-1.615652083333341
 10
1.836814390241607
 20
-1.633108333333325
 10
1.834658140296079
 20
-1.653004166666644
 10
1.833172723666924
 20
-1.66679791666666
 10
1.826153973844245
 20
-1.678152083333341
 10
1.817078974073499
 20
-1.683318750000012
 97
        0
 72
     1
 10
1.817078974073499
 20
-1.683318750000012
 11
1.811831057539406
 21
-1.614022916666664
 97
        0
 75
     2
 76
     1
 98
        0
  0
SPLINE
  5
F7
330
1F
100
AcDbEntity
  8
ULT-RT
 62
   250
420
  2301728
370
    20
100
AcDbSpline
210
0.0
220
0.0
230
1.0
 70
     8
 71
     3
 72
    14
 73
    10
 74
     0
 42
0.0000000001
 43
0.0000000001
 12
1.0
 22
0.0
 32
0.0
 13
1.0
 23
0.0
 33
0.0
 40
0.0
 40
0.0
 40
0.0
 40
0.0
 40
1.0
 40
1.0
 40
1.0
 40
2.0
 40
2.0
 40
2.0
 40
3.0
 40
3.0
 40
3.0
 40
3.0
 10
1.64186856183302
 20
-0.9695333333333135
 30
0.0
 10
1.647483145024517
 20
-0.9644062500000246
 30
0.0
 10
1.654237311520559
 20
-0.9616604166666572
 30
0.0
 10
1.660891478019127
 20
-0.9623708333333398
 30
0.0
 10
1.664553977926617
 20
-0.9627791666666654
 30
0.0
 10
1.673341477704614
 20
-0.9671333333333096
 30
0.0
 10
1.676760227618249
 20
-0.9686374999999998
 30
0.0
 10
1.686301894043873
 20
-0.9728291666666311
 30
0.0
 10
1.68638314404182
 20
-0.9805187500000127
 30
0.0
 10
1.685122727406994
 20
-0.9907333333333225
 30
0.0
  0
HATCH
  5
F8
330
1F
100
AcDbEntity
  8
ULT-RT
 62
   254
420
 13358815
100
AcDbHatch
 10
0.0
 20
0.0
 30
0.0
210
0.0
220
0.0
230
1.0
  2
SOLID
 70
     1
 71
     0
 91
        1
 92
        1
 93
        2
 72
     4
 94
        3
 73
     0
 74
     0
 95
       14
 96
       10
 40
0.0
 40
0.0
 40
0.0
 40
0.0
 40
0.0138888888888889
 40
0.0138888888888889
 40
0.0138888888888889
 40
0.0277777777777778
 40
0.0277777777777778
 40
0.0277777777777778
 40
0.0416666666666667
 40
0.0416666666666667
 40
0.0416666666666667
 40
0.0416666666666667
 10
1.64186856183302
 20
-0.9695333333333135
 10
1.647483145024517
 20
-0.9644062500000246
 10
1.654237311520559
 20
-0.9616604166666572
 10
1.660891478019127
 20
-0.9623708333333398
 10
1.664553977926617
 20
-0.9627791666666654
 10
1.673341477704614
 20
-0.9671333333333096
 10
1.676760227618249
 20
-0.9686374999999998
 10
1.686301894043873
 20
-0.9728291666666311
 10
1.68638314404182
 20
-0.9805187500000127
 10
1.685122727406994
 20
-0.9907333333333225
 97
        0
 72
     1
 10
1.685122727406994
 20
-0.9907333333333225
 11
1.64186856183302
 21
-0.9695333333333135
 97
        0
 75
     2
 76
     1
 98
        0
  0
SPLINE
  5
F9
330
1F
100
AcDbEntity
  8
ULT-RT
 62
   250
420
  2301728
370
    20
100
AcDbSpline
210
0.0
220
0.0
230
1.0
 70
     8
 71
     3
 72
    11
 73
     7
 74
     0
 42
0.0000000001
 43
0.0000000001
 12
1.0
 22
0.0
 32
0.0
 13
1.0
 23
0.0
 33
0.0
 40
0.0
 40
0.0
 40
0.0
 40
0.0
 40
1.0
 40
1.0
 40
1.0
 40
2.0
 40
2.0
 40
2.0
 40
2.0
 10
1.656597728127597
 20
-0.9764499999999998
 30
0.0
 10
1.661806061329356
 20
-0.971731250000011
 30
0.0
 10
1.668133144502867
 20
-0.9692083333333382
 30
0.0
 10
1.674664394337861
 20
-0.9699395833333331
 30
0.0
 10
1.686199810713131
 20
-0.9712020833333225
 30
0.0
 10
1.694928977159268
 20
-0.9820666666666586
 30
0.0
 10
1.697226893767884
 20
-0.9962250000000065
 30
0.0
  0
HATCH
  5
FA
330
1F
100
AcDbEntity
  8
ULT-RT
 62
   254
420
 13358815
100
AcDbHatch
 10
0.0
 20
0.0
 30
0.0
210
0.0
220
0.0
230
1.0
  2
SOLID
 70
     1
 71
     0
 91
        1
 92
        1
 93
        2
 72
     4
 94
        3
 73
     0
 74
     0
 95
       11
 96
        7
 40
0.0
 40
0.0
 40
0.0
 40
0.0
 40
0.0138888888888889
 40
0.0138888888888889
 40
0.0138888888888889
 40
0.0277777777777778
 40
0.0277777777777778
 40
0.0277777777777778
 40
0.0277777777777778
 10
1.656597728127597
 20
-0.9764499999999998
 10
1.661806061329356
 20
-0.971731250000011
 10
1.668133144502867
 20
-0.9692083333333382
 10
1.674664394337861
 20
-0.9699395833333331
 10
1.686199810713131
 20
-0.9712020833333225
 10
1.694928977159268
 20
-0.9820666666666586
 10
1.697226893767884
 20
-0.9962250000000065
 97
        0
 72
     1
 10
1.697226893767884
 20
-0.9962250000000065
 11
1.656597728127597
 21
-0.9764499999999998
 97
        0
 75
     2
 76
     1
 98
        0
  0
SPLINE
  5
FB
330
1F
100
AcDbEntity
  8
ULT-RT
 62
   250
420
  2301728
370
    20
100
AcDbSpline
210
0.0
220
0.0
230
1.0
 70
    11
 71
     3
 72
    23
 73
    19
 74
     0
 42
0.0000000001
 43
0.0000000001
 12
1.0
 22
0.0
 32
0.0
 13
1.0
 23
0.0
 33
0.0
 40
0.0
 40
0.0
 40
0.0
 40
0.0
 40
1.0
 40
1.0
 40
1.0
 40
2.0
 40
2.0
 40
2.0
 40
3.0
 40
3.0
 40
3.0
 40
4.0
 40
4.0
 40
4.0
 40
5.0
 40
5.0
 40
5.0
 40
6.0
 40
6.0
 40
6.0
 40
6.0
 10
1.696168560461286
 20
-2.212108333333365
 30
0.0
 10
1.684001894101976
 20
-2.2187
 30
0.0
 10
1.689047727307853
 20
-2.230133333333368
 30
0.0
 10
1.692060227231738
 20
-2.245677083333299
 30
0.0
 10
1.694989393824408
 20
-2.260812500000005
 30
0.0
 10
1.701439393661467
 20
-2.287181249999978
 30
0.0
 10
1.712181060056777
 20
-2.284454166666667
 30
0.0
 10
1.716147726623237
 20
-2.28347708333336
 30
0.0
 10
1.721316476492663
 20
-2.281320833333312
 30
0.0
 10
1.728701892972759
 20
-2.277495833333331
 30
0.0
 10
1.746604096615783
 20
-2.268299999999979
 30
0.0
 10
1.750672725751049
 20
-2.257354166666674
 30
0.0
 10
1.746666596615733
 20
-2.236643750000035
 30
0.0
 10
1.742637309287387
 20
-2.215931250000014
 30
0.0
 10
1.726116476371405
 20
-2.201691666666698
 30
0.0
 10
1.71151022674039
 20
-2.204539583333321
 30
0.0
 10
1.70786856016572
 20
-2.205231249999997
 30
0.0
 10
1.69946439371136
 20
-2.210316666666636
 30
0.0
 10
1.696168560461286
 20
-2.212108333333365
 30
0.0
  0
HATCH
  5
FC
330
1F
100
AcDbEntity
  8
ULT-RT
 62
   254
420
 13358815
100
AcDbHatch
 10
0.0
 20
0.0
 30
0.0
210
0.0
220
0.0
230
1.0
  2
SOLID
 70
     1
 71
     0
 91
        1
 92
        1
 93
        1
 72
     4
 94
        3
 73
     0
 74
     1
 95
       23
 96
       19
 40
0.0
 40
0.0
 40
0.0
 40
0.0
 40
1.0
 40
1.0
 40
1.0
 40
2.0
 40
2.0
 40
2.0
 40
3.0
 40
3.0
 40
3.0
 40
4.0
 40
4.0
 40
4.0
 40
5.0
 40
5.0
 40
5.0
 40
6.0
 40
6.0
 40
6.0
 40
6.0
 10
1.696168560461286
 20
-2.212108333333365
 10
1.684001894101976
 20
-2.2187
 10
1.689047727307853
 20
-2.230133333333368
 10
1.692060227231738
 20
-2.245677083333299
 10
1.694989393824408
 20
-2.260812500000005
 10
1.701439393661467
 20
-2.287181249999978
 10
1.712181060056777
 20
-2.284454166666667
 10
1.716147726623237
 20
-2.28347708333336
 10
1.721316476492663
 20
-2.281320833333312
 10
1.728701892972759
 20
-2.277495833333331
 10
1.746604096615783
 20
-2.268299999999979
 10
1.750672725751049
 20
-2.257354166666674
 10
1.746666596615733
 20
-2.236643750000035
 10
1.742637309287387
 20
-2.215931250000014
 10
1.726116476371405
 20
-2.201691666666698
 10
1.71151022674039
 20
-2.204539583333321
 10
1.70786856016572
 20
-2.205231249999997
 10
1.69946439371136
 20
-2.210316666666636
 10
1.696168560461286
 20
-2.212108333333365
 97
        0
 97
        0
 75
     2
 76
     1
 98
        0
  0
SPLINE
  5
FD
330
1F
100
AcDbEntity
  8
ULT-RT
 62
   250
420
  2301728
370
    20
100
AcDbSpline
210
0.0
220
0.0
230
1.0
 70
    11
 71
     3
 72
    17
 73
    13
 74
     0
 42
0.0000000001
 43
0.0000000001
 12
1.0
 22
0.0
 32
0.0
 13
1.0
 23
0.0
 33
0.0
 40
0.0
 40
0.0
 40
0.0
 40
0.0
 40
1.0
 40
1.0
 40
1.0
 40
2.0
 40
2.0
 40
2.0
 40
3.0
 40
3.0
 40
3.0
 40
4.0
 40
4.0
 40
4.0
 40
4.0
 10
1.678876894231444
 20
-2.253977083333312
 30
0.0
 10
1.682660227469202
 20
-2.273631250000006
 30
0.0
 10
1.697593560425288
 20
-2.287302083333341
 30
0.0
 10
1.712181060056777
 20
-2.284454166666667
 30
0.0
 10
1.726789393021072
 20
-2.281645833333338
 30
0.0
 10
1.735516476133941
 20
-2.263377083333328
 30
0.0
 10
1.731712309563376
 20
-2.243722916666684
 30
0.0
 10
1.72790814299281
 20
-2.224029166666646
 30
0.0
 10
1.712974810036725
 20
-2.210358333333311
 30
0.0
 10
1.698366477072429
 20
-2.213206250000035
 30
0.0
 10
1.68377897744094
 20
-2.216014583333365
 30
0.0
 10
1.675051894328072
 20
-2.234283333333325
 30
0.0
 10
1.678876894231444
 20
-2.253977083333312
 30
0.0
  0
HATCH
  5
FE
330
1F
100
AcDbEntity
  8
ULT-RT
 62
   254
420
 13358815
100
AcDbHatch
 10
0.0
 20
0.0
 30
0.0
210
0.0
220
0.0
230
1.0
  2
SOLID
 70
     1
 71
     0
 91
        1
 92
        1
 93
        1
 72
     4
 94
        3
 73
     0
 74
     1
 95
       17
 96
       13
 40
0.0
 40
0.0
 40
0.0
 40
0.0
 40
1.0
 40
1.0
 40
1.0
 40
2.0
 40
2.0
 40
2.0
 40
3.0
 40
3.0
 40
3.0
 40
4.0
 40
4.0
 40
4.0
 40
4.0
 10
1.678876894231444
 20
-2.253977083333312
 10
1.682660227469202
 20
-2.273631250000006
 10
1.697593560425288
 20
-2.287302083333341
 10
1.712181060056777
 20
-2.284454166666667
 10
1.726789393021072
 20
-2.281645833333338
 10
1.735516476133941
 20
-2.263377083333328
 10
1.731712309563376
 20
-2.243722916666684
 10
1.72790814299281
 20
-2.224029166666646
 10
1.712974810036725
 20
-2.210358333333311
 10
1.698366477072429
 20
-2.213206250000035
 10
1.68377897744094
 20
-2.216014583333365
 10
1.675051894328072
 20
-2.234283333333325
 10
1.678876894231444
 20
-2.253977083333312
 97
        0
 97
        0
 75
     2
 76
     1
 98
        0
  0
POLYLINE
  5
FF
330
1F
100
AcDbEntity
  8
ULT-RT
 62
     7
420
 16777215
370
    30
100
AcDb2dPolyline
 66
     1
 10
0.0
 20
0.0
 30
0.0
  0
VERTEX
  5
100
330
FF
100
AcDbEntity
  8
ULT-RT
 62
     7
420
 16777215
370
    30
100
AcDbVertex
100
AcDb2dVertex
 10
1.744712309234968
 20
-1.031260416666643
 30
0.0
  0
VERTEX
  5
101
330
FF
100
AcDbEntity
  8
ULT-RT
 62
     7
420
 16777215
370
    30
100
AcDbVertex
100
AcDb2dVertex
 10
1.715660226635552
 20
-1.039439583333345
 30
0.0
  0
SEQEND
  5
102
330
FF
100
AcDbEntity
  8
ULT-RT
 62
     7
420
 16777215
370
    30
  0
POLYLINE
  5
103
330
1F
100
AcDbEntity
  8
ULT-RT
 62
     7
420
 16777215
370
    30
100
AcDb2dPolyline
 66
     1
 10
0.0
 20
0.0
 30
0.0
  0
VERTEX
  5
104
330
103
100
AcDbEntity
  8
ULT-RT
 62
     7
420
 16777215
370
    30
100
AcDbVertex
100
AcDb2dVertex
 10
2.149599799006662
 20
-1.87759375000001
 30
0.0
  0
VERTEX
  5
105
330
103
100
AcDbEntity
  8
ULT-RT
 62
     7
420
 16777215
370
    30
100
AcDbVertex
100
AcDb2dVertex
 10
1.910951888368749
 20
-1.937041666666674
 30
0.0
  0
VERTEX
  5
106
330
103
100
AcDbEntity
  8
ULT-RT
 62
     7
420
 16777215
370
    30
100
AcDbVertex
100
AcDb2dVertex
 10
1.815451890781269
 20
-1.92210833333335
 30
0.0
  0
SEQEND
  5
107
330
103
100
AcDbEntity
  8
ULT-RT
 62
     7
420
 16777215
370
    30
  0
POLYLINE
  5
108
330
1F
100
AcDbEntity
  8
ULT-RT
 62
     7
420
 16777215
370
    30
100
AcDb2dPolyline
 66
     1
 10
0.0
 20
0.0
 30
0.0
  0
VERTEX
  5
109
330
108
100
AcDbEntity
  8
ULT-RT
 62
     7
420
 16777215
370
    30
100
AcDbVertex
100
AcDb2dVertex
 10
1.910951888368749
 20
-1.937041666666674
 30
0.0
  0
VERTEX
  5
10A
330
108
100
AcDbEntity
  8
ULT-RT
 62
     7
420
 16777215
370
    30
100
AcDbVertex
100
AcDb2dVertex
 10
1.910951888368749
 20
-1.968739583333344
 30
0.0
  0
SEQEND
  5
10B
330
108
100
AcDbEntity
  8
ULT-RT
 62
     7
420
 16777215
370
    30
  0
POLYLINE
  5
10C
330
1F
100
AcDbEntity
  8
ULT-RT
 62
     7
420
 16777215
370
    30
100
AcDb2dPolyline
 66
     1
 10
0.0
 20
0.0
 30
0.0
  0
VERTEX
  5
10D
330
10C
100
AcDbEntity
  8
ULT-RT
 62
     7
420
 16777215
370
    30
100
AcDbVertex
100
AcDb2dVertex
 10
1.865806056175895
 20
-1.725718750000005
 30
0.0
  0
VERTEX
  5
10E
330
10C
100
AcDbEntity
  8
ULT-RT
 62
     7
420
 16777215
370
    30
100
AcDbVertex
100
AcDb2dVertex
 10
1.818931057360045
 20
-1.735645833333302
 30
0.0
  0
SEQEND
  5
10F
330
10C
100
AcDbEntity
  8
ULT-RT
 62
     7
420
 16777215
370
    30
  0
POLYLINE
  5
110
330
1F
100
AcDbEntity
  8
ULT-RT
 62
     7
420
 16777215
370
    30
100
AcDb2dPolyline
 66
     1
 10
0.0
 20
0.0
 30
0.0
  0
VERTEX
  5
111
330
110
100
AcDbEntity
  8
ULT-RT
 62
     7
420
 16777215
370
    30
100
AcDbVertex
100
AcDb2dVertex
 10
1.808514390956525
 20
-1.707041666666643
 30
0.0
  0
VERTEX
  5
112
330
110
100
AcDbEntity
  8
ULT-RT
 62
     7
420
 16777215
370
    30
100
AcDbVertex
100
AcDb2dVertex
 10
1.785951891526502
 20
-1.710866666666675
 30
0.0
  0
SEQEND
  5
113
330
110
100
AcDbEntity
  8
ULT-RT
 62
     7
420
 16777215
370
    30
  0
POLYLINE
  5
114
330
1F
100
AcDbEntity
  8
ULT-RT
 62
     7
420
 16777215
370
    30
100
AcDb2dPolyline
 66
     1
 10
0.0
 20
0.0
 30
0.0
  0
VERTEX
  5
115
330
114
100
AcDbEntity
  8
ULT-RT
 62
     7
420
 16777215
370
    30
100
AcDbVertex
100
AcDb2dVertex
 10
2.152264382272683
 20
-1.880197916666677
 30
0.0
  0
VERTEX
  5
116
330
114
100
AcDbEntity
  8
ULT-RT
 62
     7
420
 16777215
370
    30
100
AcDbVertex
100
AcDb2dVertex
 10
1.909201888412958
 20
-1.940745833333343
 30
0.0
  0
VERTEX
  5
117
330
114
100
AcDbEntity
  8
ULT-RT
 62
     7
420
 16777215
370
    30
100
AcDbVertex
100
AcDb2dVertex
 10
1.818931057360045
 20
-1.927072916666677
 30
0.0
  0
SEQEND
  5
118
330
114
100
AcDbEntity
  8
ULT-RT
 62
     7
420
 16777215
370
    30
  0
INSERT
  5
11B
330
1F
100
AcDbEntity
  8
callout
100
AcDbBlockReference
  2
block 2
 10
0.0
 20
0.0
 30
0.0
  0
INSERT
  5
132
330
1F
100
AcDbEntity
  8
callout
100
AcDbBlockReference
  2
block 3
 10
0.0
 20
0.0
 30
0.0
  0
MTEXT
  5
148
330
1F
100
AcDbEntity
  8
callout
 62
   250
420
  2236191
100
AcDbMText
 10
2.823502010769314
 20
-0.5719992717107136
 30
0.0
 40
0.118
 41
0.0
 46
0.0
 71
     7
 72
     1
  1
\fHelvetica Neue LT Std 57 Condensed|b0|i0|c0|p34;\W1;Truss / Rafter
 73
     1
 44
1.0
  0
POLYLINE
  5
149
330
1F
100
AcDbEntity
  8
callout
 62
   250
420
  2236191
370
    18
100
AcDb2dPolyline
 66
     1
 10
0.0
 20
0.0
 30
0.0
  0
VERTEX
  5
14A
330
149
100
AcDbEntity
  8
callout
 62
   250
420
  2236191
370
    18
100
AcDbVertex
100
AcDb2dVertex
 10
2.789226270583387
 20
-0.5418610271154117
 30
0.0
  0
VERTEX
  5
14B
330
149
100
AcDbEntity
  8
callout
 62
   250
420
  2236191
370
    18
100
AcDbVertex
100
AcDb2dVertex
 10
2.47707546773361
 20
-0.6776779673041978
 30
0.0
  0
SEQEND
  5
14C
330
149
100
AcDbEntity
  8
callout
 62
   250
420
  2236191
370
    18
  0
MTEXT
  5
14D
330
1F
100
AcDbEntity
  8
callout
 62
   250
420
  2236191
100
AcDbMText
 10
2.979385375976562
 20
-1.28757651646932
 30
0.0
 40
0.118
 41
0.0
 46
0.0
 71
     7
 72
     1
  1
\fHelvetica Neue LT Std 57 Condensed|b0|i0|c0|p34;\W1;ULT-RT
 73
     1
 44
1.0
  0
MTEXT
  5
14E
330
1F
100
AcDbEntity
  8
callout
 62
   250
420
  2236191
100
AcDbMText
 10
2.993274264865451
 20
-1.56069458855523
 30
0.0
 40
0.118
 41
0.0
 46
0.0
 71
     7
 72
     1
  1
\fHelvetica Neue LT Std 57 Condensed|b0|i0|c0|p34;\W1;Top Plate
 73
     1
 44
1.0
  0
POLYLINE
  5
14F
330
1F
100
AcDbEntity
  8
callout
 62
   250
420
  2236191
370
    18
100
AcDb2dPolyline
 66
     1
 10
0.0
 20
0.0
 30
0.0
  0
VERTEX
  5
150
330
14F
100
AcDbEntity
  8
callout
 62
   250
420
  2236191
370
    18
100
AcDbVertex
100
AcDb2dVertex
 10
2.947156179949085
 20
-1.229802077591848
 30
0.0
  0
VERTEX
  5
151
330
14F
100
AcDbEntity
  8
callout
 62
   250
420
  2236191
370
    18
100
AcDbVertex
100
AcDb2dVertex
 10
1.86870411111656
 20
-1.329576740637208
 30
0.0
  0
SEQEND
  5
152
330
14F
100
AcDbEntity
  8
callout
 62
   250
420
  2236191
370
    18
  0
POLYLINE
  5
153
330
1F
100
AcDbEntity
  8
callout
 62
   250
420
  2236191
370
    18
100
AcDb2dPolyline
 66
     1
 10
0.0
 20
0.0
 30
0.0
  0
VERTEX
  5
154
330
153
100
AcDbEntity
  8
callout
 62
   250
420
  2236191
370
    18
100
AcDbVertex
100
AcDb2dVertex
 10
2.972865773980882
 20
-1.513929343365956
 30
0.0
  0
VERTEX
  5
155
330
153
100
AcDbEntity
  8
callout
 62
   250
420
  2236191
370
    18
100
AcDbVertex
100
AcDb2dVertex
 10
2.582151300236394
 20
-1.735645833333302
 30
0.0
  0
SEQEND
  5
156
330
153
100
AcDbEntity
  8
callout
 62
   250
420
  2236191
370
    18
  0
MTEXT
  5
157
330
1F
100
AcDbEntity
  8
callout
 62
   250
420
  2236191
100
AcDbMText
 10
1.208444966210259
 20
-3.58369673622979
 30
0.0
 40
0.118
 41
0.0
 46
0.0
 71
     7
 72
     1
  1
\fHelvetica Neue LT Std 55 Roman|b0|i0|c0|p34;\W1;SIMPSON Strong-Tie\H0.068794;®\H0.118; ^C
 73
     1
 44
1.0
  0
MTEXT
  5
158
330
1F
100
AcDbEntity
  8
callout
 62
   250
420
  2236191
100
AcDbMText
 10
0.9401547643873426
 20
-3.783688598208957
 30
0.0
 40
0.118
 41
0.0
 46
0.0
 71
     7
 72
     1
  1
\fHelvetica Neue LT Std 55 Roman|b0|i0|c0|p34;\W1;ULT Truss/Rafter-to-Top Plate 
 73
     1
 44
1.0
  0
ENDSEC
  0
SECTION
  2
OBJECTS
  0
DICTIONARY
  5
C
330
0
100
AcDbDictionary
281
     1
  3
ACAD_GROUP
350
D
  3
ACAD_LAYOUT
350
1A
  3
ACAD_MATERIAL
350
3B
  3
ACAD_MLEADERSTYLE
350
15A
  3
ACAD_MLINESTYLE
350
17
  3
ACAD_PLOTSETTINGS
350
19
  3
ACAD_PLOTSTYLENAME
350
E
  3
ACAD_TABLESTYLE
350
159
  3
ACAD_VISUALSTYLE
350
2A
  0
SUN
  5
3F
330
29
100
AcDbSun
 90
        1
290
     0
 63
     7
421
 16777215
 40
1.0
291
     1
 91
  2455826
 92
 54000000
292
     0
 70
     2
 71
   256
280
     1
  0
DICTIONARY
  5
D
102
{ACAD_REACTORS
330
C
102
}
330
C
100
AcDbDictionary
281
     1
  0
DICTIONARY
  5
1A
102
{ACAD_REACTORS
330
C
102
}
330
C
100
AcDbDictionary
281
     1
  3
Layout1
350
1E
  3
Layout2
350
26
  3
Model
350
22
  0
DICTIONARY
  5
3B
102
{ACAD_REACTORS
330
C
102
}
330
C
100
AcDbDictionary
281
     1
  3
ByBlock
350
3D
  3
ByLayer
350
3C
  3
Global
350
3E
  0
DICTIONARY
  5
15A
102
{ACAD_REACTORS
330
C
102
}
330
C
100
AcDbDictionary
281
     1
  0
DICTIONARY
  5
17
102
{ACAD_REACTORS
330
C
102
}
330
C
100
AcDbDictionary
281
     1
  3
Standard
350
18
  0
DICTIONARY
  5
19
102
{ACAD_REACTORS
330
C
102
}
330
C
100
AcDbDictionary
281
     1
  0
ACDBDICTIONARYWDFLT
  5
E
102
{ACAD_REACTORS
330
C
102
}
330
C
100
AcDbDictionary
281
     1
  3
Normal
350
F
100
AcDbDictionaryWithDefault
340
F
  0
DICTIONARY
  5
159
102
{ACAD_REACTORS
330
C
102
}
330
C
100
AcDbDictionary
281
     1
  0
DICTIONARY
  5
2A
102
{ACAD_REACTORS
330
C
102
}
330
C
100
AcDbDictionary
281
     1
  3
2dWireframe
350
2F
  3
3D Hidden
350
31
  3
3dWireframe
350
30
  3
Basic
350
32
  3
Brighten
350
36
  3
ColorChange
350
3A
  3
Conceptual
350
34
  3
Dim
350
35
  3
Facepattern
350
39
  3
Flat
350
2B
  3
FlatWithEdges
350
2C
  3
Gouraud
350
2D
  3
GouraudWithEdges
350
2E
  3
Linepattern
350
38
  3
Realistic
350
33
  3
Thicken
350
37
  0
LAYOUT
  5
1E
102
{ACAD_REACTORS
330
1A
102
}
330
1A
100
AcDbPlotSettings
  1

  2
none_device
  4

  6

 40
0.0
 41
0.0
 42
0.0
 43
0.0
 44
0.0
 45
0.0
 46
0.0
 47
0.0
 48
0.0
 49
0.0
140
0.0
141
0.0
142
1.0
143
1.0
 70
   688
 72
     0
 73
     0
 74
     5
  7

 75
    16
 76
     0
 77
     2
 78
   300
147
1.0
148
0.0
149
0.0
100
AcDbLayout
  1
Layout1
 70
     1
 71
     1
 10
0.0
 20
0.0
 11
12.0
 21
9.0
 12
0.0
 22
0.0
 32
0.0
 14
1.000000000000000E+20
 24
1.000000000000000E+20
 34
1.000000000000000E+20
 15
-1.000000000000000E+20
 25
-1.000000000000000E+20
 35
-1.000000000000000E+20
146
0.0
 13
0.0
 23
0.0
 33
0.0
 16
1.0
 26
0.0
 36
0.0
 17
0.0
 27
1.0
 37
0.0
 76
     0
330
1B
  0
LAYOUT
  5
26
102
{ACAD_REACTORS
330
1A
102
}
330
1A
100
AcDbPlotSettings
  1

  2
none_device
  4

  6

 40
0.0
 41
0.0
 42
0.0
 43
0.0
 44
0.0
 45
0.0
 46
0.0
 47
0.0
 48
0.0
 49
0.0
140
0.0
141
0.0
142
1.0
143
1.0
 70
   688
 72
     0
 73
     0
 74
     5
  7

 75
    16
 76
     0
 77
     2
 78
   300
147
1.0
148
0.0
149
0.0
100
AcDbLayout
  1
Layout2
 70
     1
 71
     2
 10
0.0
 20
0.0
 11
0.0
 21
0.0
 12
0.0
 22
0.0
 32
0.0
 14
0.0
 24
0.0
 34
0.0
 15
0.0
 25
0.0
 35
0.0
146
0.0
 13
0.0
 23
0.0
 33
0.0
 16
1.0
 26
0.0
 36
0.0
 17
0.0
 27
1.0
 37
0.0
 76
     0
330
23
  0
LAYOUT
  5
22
102
{ACAD_REACTORS
330
1A
102
}
330
1A
100
AcDbPlotSettings
  1

  2
none_device
  4

  6

 40
0.0
 41
0.0
 42
0.0
 43
0.0
 44
0.0
 45
0.0
 46
0.0
 47
0.0
 48
0.0
 49
0.0
140
0.0
141
0.0
142
1.0
143
1.0
 70
  1712
 72
     0
 73
     0
 74
     0
  7

 75
     0
 76
     0
 77
     2
 78
   300
147
1.0
148
0.0
149
0.0
100
AcDbLayout
  1
Model
 70
     1
 71
     0
 10
0.0
 20
0.0
 11
12.0
 21
9.0
 12
0.0
 22
0.0
 32
0.0
 14
1.000000000000000E+20
 24
1.000000000000000E+20
 34
1.000000000000000E+20
 15
-1.000000000000000E+20
 25
-1.000000000000000E+20
 35
-1.000000000000000E+20
146
0.0
 13
0.0
 23
0.0
 33
0.0
 16
1.0
 26
0.0
 36
0.0
 17
0.0
 27
1.0
 37
0.0
 76
     0
330
1F
331
29
  0
MATERIAL
  5
3D
102
{ACAD_REACTORS
330
3B
102
}
330
3B
100
AcDbMaterial
  1
ByBlock
 72
     1
 94
      127
  0
MATERIAL
  5
3C
102
{ACAD_REACTORS
330
3B
102
}
330
3B
100
AcDbMaterial
  1
ByLayer
 72
     1
 94
      127
  0
MATERIAL
  5
3E
102
{ACAD_REACTORS
330
3B
102
}
330
3B
100
AcDbMaterial
  1
Global
 72
     1
 94
      127
  0
MLINESTYLE
  5
18
102
{ACAD_REACTORS
330
17
102
}
330
17
100
AcDbMlineStyle
  2
Standard
 70
     0
  3

 62
   256
 51
90.0
 52
90.0
 71
     2
 49
0.5
 62
   256
  6
BYLAYER
 49
-0.5
 62
   256
  6
BYLAYER
  0
ACDBPLACEHOLDER
  5
F
102
{ACAD_REACTORS
330
E
102
}
330
E
  0
VISUALSTYLE
  5
2F
102
{ACAD_REACTORS
330
2A
102
}
330
2A
100
AcDbVisualStyle
  2
2dWireframe
 70
     4
177
     2
291
     0
 71
     0
176
     1
 72
     2
176
     1
 73
     0
176
     1
 90
        0
176
     1
 40
-0.6
176
     1
 41
-30.0
176
     1
 62
     5
 63
     7
421
 16777215
176
     1
 74
     1
176
     1
 91
        4
176
     1
 64
     7
176
     1
 65
   257
176
     1
 75
     1
176
     1
175
     1
176
     1
 42
1.0
176
     1
 92
        0
176
     1
 66
   257
176
     1
 43
1.0
176
     1
 76
     1
176
     1
 77
     6
176
     1
 78
     2
176
     1
 67
     7
176
     1
 79
     5
176
     1
170
     0
176
     1
171
     0
176
     1
290
     0
176
     1
 93
        1
176
     1
 44
0.0
176
     1
173
     0
176
     1
  0
VISUALSTYLE
  5
31
102
{ACAD_REACTORS
330
2A
102
}
330
2A
100
AcDbVisualStyle
  2
3D Hidden
 70
     6
177
     2
291
     0
 71
     1
176
     1
 72
     2
176
     1
 73
     2
176
     1
 90
        0
176
     1
 40
-0.6
176
     1
 41
-30.0
176
     1
 62
     5
 63
     7
421
 16777215
176
     1
 74
     2
176
     1
 91
        2
176
     1
 64
     7
176
     1
 65
   257
176
     1
 75
     2
176
     1
175
     1
176
     1
 42
40.0
176
     1
 92
        0
176
     1
 66
   257
176
     1
 43
1.0
176
     1
 76
     1
176
     1
 77
     6
176
     1
 78
     2
176
     1
 67
     7
176
     1
 79
     3
176
     1
170
     0
176
     1
171
     0
176
     1
290
     0
176
     1
 93
        1
176
     1
 44
0.0
176
     1
173
     0
176
     1
  0
VISUALSTYLE
  5
30
102
{ACAD_REACTORS
330
2A
102
}
330
2A
100
AcDbVisualStyle
  2
3dWireframe
 70
     5
177
     2
291
     0
 71
     0
176
     1
 72
     2
176
     1
 73
     0
176
     1
 90
        0
176
     1
 40
-0.6
176
     1
 41
-30.0
176
     1
 62
     5
 63
     7
421
 16777215
176
     1
 74
     1
176
     1
 91
        4
176
     1
 64
     7
176
     1
 65
   257
176
     1
 75
     1
176
     1
175
     1
176
     1
 42
1.0
176
     1
 92
        0
176
     1
 66
   257
176
     1
 43
1.0
176
     1
 76
     1
176
     1
 77
     6
176
     1
 78
     2
176
     1
 67
     7
176
     1
 79
     5
176
     1
170
     0
176
     1
171
     0
176
     1
290
     0
176
     1
 93
        1
176
     1
 44
0.0
176
     1
173
     0
176
     1
  0
VISUALSTYLE
  5
32
102
{ACAD_REACTORS
330
2A
102
}
330
2A
100
AcDbVisualStyle
  2
Basic
 70
     7
177
     2
291
     1
 71
     1
176
     1
 72
     0
176
     1
 73
     1
176
     1
 90
        0
176
     1
 40
-0.6
176
     1
 41
-30.0
176
     1
 62
     5
 63
     7
421
 16777215
176
     1
 74
     0
176
     1
 91
        4
176
     1
 64
     7
176
     1
 65
   257
176
     1
 75
     1
176
     1
175
     1
176
     1
 42
1.0
176
     1
 92
        8
176
     1
 66
     7
176
     1
 43
1.0
176
     1
 76
     1
176
     1
 77
     6
176
     1
 78
     2
176
     1
 67
     7
176
     1
 79
     5
176
     1
170
     0
176
     1
171
     0
176
     1
290
     0
176
     1
 93
        1
176
     1
 44
0.0
176
     1
173
     0
176
     1
  0
VISUALSTYLE
  5
36
102
{ACAD_REACTORS
330
2A
102
}
330
2A
100
AcDbVisualStyle
  2
Brighten
 70
    12
177
     2
291
     1
 71
     2
176
     1
 72
     2
176
     1
 73
     0
176
     1
 90
        0
176
     1
 40
-0.6
176
     1
 41
-30.0
176
     1
 62
     5
 63
     7
421
 16777215
176
     1
 74
     1
176
     1
 91
        4
176
     1
 64
     7
176
     1
 65
   257
176
     1
 75
     1
176
     1
175
     1
176
     1
 42
1.0
176
     1
 92
        8
176
     1
 66
     7
176
     1
 43
1.0
176
     1
 76
     1
176
     1
 77
     6
176
     1
 78
     2
176
     1
 67
     7
176
     1
 79
     5
176
     1
170
     0
176
     1
171
     0
176
     1
290
     0
176
     1
 93
        1
176
     1
 44
50.0
176
     1
173
     0
176
     1
  0
VISUALSTYLE
  5
3A
102
{ACAD_REACTORS
330
2A
102
}
330
2A
100
AcDbVisualStyle
  2
ColorChange
 70
    16
177
     2
291
     1
 71
     2
176
     1
 72
     2
176
     1
 73
     3
176
     1
 90
        0
176
     1
 40
-0.6
176
     1
 41
-30.0
176
     1
 62
     5
 63
     8
421
  8421504
176
     1
 74
     1
176
     1
 91
        4
176
     1
 64
     7
176
     1
 65
   257
176
     1
 75
     1
176
     1
175
     1
176
     1
 42
1.0
176
     1
 92
        8
176
     1
 66
     8
424
  8421504
176
     1
 43
1.0
176
     1
 76
     1
176
     1
 77
     6
176
     1
 78
     2
176
     1
 67
     7
176
     1
 79
     5
176
     1
170
     0
176
     1
171
     0
176
     1
290
     0
176
     1
 93
        1
176
     1
 44
0.0
176
     1
173
     0
176
     1
  0
VISUALSTYLE
  5
34
102
{ACAD_REACTORS
330
2A
102
}
330
2A
100
AcDbVisualStyle
  2
Conceptual
 70
     9
177
     2
291
     0
 71
     3
176
     1
 72
     2
176
     1
 73
     0
176
     1
 90
        0
176
     1
 40
-0.6
176
     1
 41
-30.0
176
     1
 62
     5
 63
     7
421
 16777215
176
     1
 74
     2
176
     1
 91
        2
176
     1
 64
     7
176
     1
 65
   257
176
     1
 75
     1
176
     1
175
     1
176
     1
 42
40.0
176
     1
 92
        8
176
     1
 66
     7
176
     1
 43
1.0
176
     1
 76
     1
176
     1
 77
     6
176
     1
 78
     2
176
     1
 67
     7
176
     1
 79
     3
176
     1
170
     0
176
     1
171
     0
176
     1
290
     0
176
     1
 93
        1
176
     1
 44
0.0
176
     1
173
     0
176
     1
  0
VISUALSTYLE
  5
35
102
{ACAD_REACTORS
330
2A
102
}
330
2A
100
AcDbVisualStyle
  2
Dim
 70
    11
177
     2
291
     1
 71
     2
176
     1
 72
     2
176
     1
 73
     0
176
     1
 90
        0
176
     1
 40
-0.6
176
     1
 41
-30.0
176
     1
 62
     5
 63
     7
421
 16777215
176
     1
 74
     1
176
     1
 91
        4
176
     1
 64
     7
176
     1
 65
   257
176
     1
 75
     1
176
     1
175
     1
176
     1
 42
1.0
176
     1
 92
        8
176
     1
 66
     7
176
     1
 43
1.0
176
     1
 76
     1
176
     1
 77
     6
176
     1
 78
     2
176
     1
 67
     7
176
     1
 79
     5
176
     1
170
     0
176
     1
171
     0
176
     1
290
     0
176
     1
 93
        1
176
     1
 44
-50.0
176
     1
173
     0
176
     1
  0
VISUALSTYLE
  5
39
102
{ACAD_REACTORS
330
2A
102
}
330
2A
100
AcDbVisualStyle
  2
Facepattern
 70
    15
177
     2
291
     1
 71
     2
176
     1
 72
     2
176
     1
 73
     0
176
     1
 90
        0
176
     1
 40
-0.6
176
     1
 41
-30.0
176
     1
 62
     5
 63
     7
421
 16777215
176
     1
 74
     1
176
     1
 91
        4
176
     1
 64
     7
176
     1
 65
   257
176
     1
 75
     1
176
     1
175
     1
176
     1
 42
1.0
176
     1
 92
        8
176
     1
 66
     7
176
     1
 43
1.0
176
     1
 76
     1
176
     1
 77
     6
176
     1
 78
     2
176
     1
 67
     7
176
     1
 79
     5
176
     1
170
     0
176
     1
171
     0
176
     1
290
     0
176
     1
 93
        1
176
     1
 44
0.0
176
     1
173
     0
176
     1
  0
VISUALSTYLE
  5
2B
102
{ACAD_REACTORS
330
2A
102
}
330
2A
100
AcDbVisualStyle
  2
Flat
 70
     0
177
     2
291
     1
 71
     2
176
     1
 72
     1
176
     1
 73
     1
176
     1
 90
        2
176
     1
 40
-0.6
176
     1
 41
30.0
176
     1
 62
     5
 63
     7
421
 16777215
176
     1
 74
     0
176
     1
 91
        4
176
     1
 64
     7
176
     1
 65
   257
176
     1
 75
     1
176
     1
175
     1
176
     1
 42
1.0
176
     1
 92
        8
176
     1
 66
     7
176
     1
 43
1.0
176
     1
 76
     1
176
     1
 77
     6
176
     1
 78
     2
176
     1
 67
     7
176
     1
 79
     5
176
     1
170
     0
176
     1
171
     0
176
     1
290
     0
176
     1
 93
       13
176
     1
 44
0.0
176
     1
173
     0
176
     1
  0
VISUALSTYLE
  5
2C
102
{ACAD_REACTORS
330
2A
102
}
330
2A
100
AcDbVisualStyle
  2
FlatWithEdges
 70
     1
177
     2
291
     1
 71
     2
176
     1
 72
     1
176
     1
 73
     1
176
     1
 90
        2
176
     1
 40
-0.6
176
     1
 41
30.0
176
     1
 62
     5
 63
     7
421
 16777215
176
     1
 74
     1
176
     1
 91
        4
176
     1
 64
     7
176
     1
 65
   257
176
     1
 75
     1
176
     1
175
     1
176
     1
 42
1.0
176
     1
 92
        0
176
     1
 66
   257
176
     1
 43
1.0
176
     1
 76
     1
176
     1
 77
     6
176
     1
 78
     2
176
     1
 67
     7
176
     1
 79
     5
176
     1
170
     0
176
     1
171
     0
176
     1
290
     0
176
     1
 93
       13
176
     1
 44
0.0
176
     1
173
     0
176
     1
  0
VISUALSTYLE
  5
2D
102
{ACAD_REACTORS
330
2A
102
}
330
2A
100
AcDbVisualStyle
  2
Gouraud
 70
     2
177
     2
291
     1
 71
     2
176
     1
 72
     2
176
     1
 73
     1
176
     1
 90
        2
176
     1
 40
-0.6
176
     1
 41
30.0
176
     1
 62
     5
 63
     7
421
 16777215
176
     1
 74
     0
176
     1
 91
        4
176
     1
 64
     7
176
     1
 65
   257
176
     1
 75
     1
176
     1
175
     1
176
     1
 42
1.0
176
     1
 92
        0
176
     1
 66
     7
176
     1
 43
1.0
176
     1
 76
     1
176
     1
 77
     6
176
     1
 78
     2
176
     1
 67
     7
176
     1
 79
     5
176
     1
170
     0
176
     1
171
     0
176
     1
290
     0
176
     1
 93
       13
176
     1
 44
0.0
176
     1
173
     0
176
     1
  0
VISUALSTYLE
  5
2E
102
{ACAD_REACTORS
330
2A
102
}
330
2A
100
AcDbVisualStyle
  2
GouraudWithEdges
 70
     3
177
     2
291
     1
 71
     2
176
     1
 72
     2
176
     1
 73
     1
176
     1
 90
        2
176
     1
 40
-0.6
176
     1
 41
30.0
176
     1
 62
     5
 63
     7
421
 16777215
176
     1
 74
     1
176
     1
 91
        4
176
     1
 64
     7
176
     1
 65
   257
176
     1
 75
     1
176
     1
175
     1
176
     1
 42
1.0
176
     1
 92
        0
176
     1
 66
   257
176
     1
 43
1.0
176
     1
 76
     1
176
     1
 77
     6
176
     1
 78
     2
176
     1
 67
     7
176
     1
 79
     5
176
     1
170
     0
176
     1
171
     0
176
     1
290
     0
176
     1
 93
       13
176
     1
 44
0.0
176
     1
173
     0
176
     1
  0
VISUALSTYLE
  5
38
102
{ACAD_REACTORS
330
2A
102
}
330
2A
100
AcDbVisualStyle
  2
Linepattern
 70
    14
177
     2
291
     1
 71
     2
176
     1
 72
     2
176
     1
 73
     0
176
     1
 90
        0
176
     1
 40
-0.6
176
     1
 41
-30.0
176
     1
 62
     5
 63
     7
421
 16777215
176
     1
 74
     1
176
     1
 91
        4
176
     1
 64
     7
176
     1
 65
   257
176
     1
 75
     7
176
     1
175
     7
176
     1
 42
1.0
176
     1
 92
        8
176
     1
 66
     7
176
     1
 43
1.0
176
     1
 76
     1
176
     1
 77
     6
176
     1
 78
     2
176
     1
 67
     7
176
     1
 79
     5
176
     1
170
     0
176
     1
171
     0
176
     1
290
     0
176
     1
 93
        1
176
     1
 44
0.0
176
     1
173
     0
176
     1
  0
VISUALSTYLE
  5
33
102
{ACAD_REACTORS
330
2A
102
}
330
2A
100
AcDbVisualStyle
  2
Realistic
 70
     8
177
     2
291
     0
 71
     2
176
     1
 72
     2
176
     1
 73
     0
176
     1
 90
        0
176
     1
 40
-0.6
176
     1
 41
-30.0
176
     1
 62
     5
 63
     7
421
 16777215
176
     1
 74
     1
176
     1
 91
        0
176
     1
 64
     7
176
     1
 65
   257
176
     1
 75
     1
176
     1
175
     1
176
     1
 42
1.0
176
     1
 92
        8
176
     1
 66
     8
424
  7895160
176
     1
 43
1.0
176
     1
 76
     1
176
     1
 77
     6
176
     1
 78
     2
176
     1
 67
     7
176
     1
 79
     5
176
     1
170
     0
176
     1
171
     0
176
     1
290
     0
176
     1
 93
       13
176
     1
 44
0.0
176
     1
173
     0
176
     1
  0
VISUALSTYLE
  5
37
102
{ACAD_REACTORS
330
2A
102
}
330
2A
100
AcDbVisualStyle
  2
Thicken
 70
    13
177
     2
291
     1
 71
     2
176
     1
 72
     2
176
     1
 73
     0
176
     1
 90
        0
176
     1
 40
-0.6
176
     1
 41
-30.0
176
     1
 62
     5
 63
     7
421
 16777215
176
     1
 74
     1
176
     1
 91
        4
176
     1
 64
     7
176
     1
 65
   257
176
     1
 75
     1
176
     1
175
     1
176
     1
 42
1.0
176
     1
 92
       12
176
     1
 66
     7
176
     1
 43
1.0
176
     1
 76
     1
176
     1
 77
     6
176
     1
 78
     2
176
     1
 67
     7
176
     1
 79
     5
176
     1
170
     0
176
     1
171
     0
176
     1
290
     0
176
     1
 93
        1
176
     1
 44
0.0
176
     1
173
     0
176
     1
  0
ENDSEC
  0
EOF
