  0
SECTION
  2
HEADER
  9
$ACADVER
  1
AC1024
  9
$ACADMAINTVER
 70
     6
  9
$DWGCODEPAGE
  3
ANSI_1252
  9
$INSBASE
 10
0.0
 20
0.0
 30
0.0
  9
$EXTMIN
 10
1.000000000000000E+20
 20
1.000000000000000E+20
 30
1.000000000000000E+20
  9
$EXTMAX
 10
-1.000000000000000E+20
 20
-1.000000000000000E+20
 30
-1.000000000000000E+20
  9
$LIMMIN
 10
0.0
 20
0.0
  9
$LIMMAX
 10
12.0
 20
9.0
  9
$ORTHOMODE
 70
     0
  9
$REGENMODE
 70
     1
  9
$FILLMODE
 70
     1
  9
$QTEXTMODE
 70
     0
  9
$MIRRTEXT
 70
     1
  9
$LTSCALE
 40
1.0
  9
$ATTMODE
 70
     1
  9
$TEXTSIZE
 40
0.2
  9
$TRACEWID
 40
0.05
  9
$TEXTSTYLE
  7
Standard
  9
$CLAYER
  8
0
  9
$CELTYPE
  6
ByLayer
  9
$CECOLOR
 62
   256
  9
$CELTSCALE
 40
1.0
  9
$DISPSILH
 70
     0
  9
$DIMSCALE
 40
1.0
  9
$DIMASZ
 40
0.18
  9
$DIMEXO
 40
0.0625
  9
$DIMDLI
 40
0.38
  9
$DIMRND
 40
0.0
  9
$DIMDLE
 40
0.0
  9
$DIMEXE
 40
0.18
  9
$DIMTP
 40
0.0
  9
$DIMTM
 40
0.0
  9
$DIMTXT
 40
0.18
  9
$DIMCEN
 40
0.09
  9
$DIMTSZ
 40
0.0
  9
$DIMTOL
 70
     0
  9
$DIMLIM
 70
     0
  9
$DIMTIH
 70
     1
  9
$DIMTOH
 70
     1
  9
$DIMSE1
 70
     0
  9
$DIMSE2
 70
     0
  9
$DIMTAD
 70
     0
  9
$DIMZIN
 70
     0
  9
$DIMBLK
  1

  9
$DIMASO
 70
     1
  9
$DIMSHO
 70
     1
  9
$DIMPOST
  1

  9
$DIMAPOST
  1

  9
$DIMALT
 70
     0
  9
$DIMALTD
 70
     2
  9
$DIMALTF
 40
25.4
  9
$DIMLFAC
 40
1.0
  9
$DIMTOFL
 70
     0
  9
$DIMTVP
 40
0.0
  9
$DIMTIX
 70
     0
  9
$DIMSOXD
 70
     0
  9
$DIMSAH
 70
     0
  9
$DIMBLK1
  1

  9
$DIMBLK2
  1

  9
$DIMSTYLE
  2
Standard
  9
$DIMCLRD
 70
     0
  9
$DIMCLRE
 70
     0
  9
$DIMCLRT
 70
     0
  9
$DIMTFAC
 40
1.0
  9
$DIMGAP
 40
0.09
  9
$DIMJUST
 70
     0
  9
$DIMSD1
 70
     0
  9
$DIMSD2
 70
     0
  9
$DIMTOLJ
 70
     1
  9
$DIMTZIN
 70
     0
  9
$DIMALTZ
 70
     0
  9
$DIMALTTZ
 70
     0
  9
$DIMUPT
 70
     0
  9
$DIMDEC
 70
     4
  9
$DIMTDEC
 70
     4
  9
$DIMALTU
 70
     2
  9
$DIMALTTD
 70
     2
  9
$DIMTXSTY
  7
Standard
  9
$DIMAUNIT
 70
     0
  9
$DIMADEC
 70
     0
  9
$DIMALTRND
 40
0.0
  9
$DIMAZIN
 70
     0
  9
$DIMDSEP
 70
    46
  9
$DIMATFIT
 70
     3
  9
$DIMFRAC
 70
     0
  9
$DIMLDRBLK
  1

  9
$DIMLUNIT
 70
     2
  9
$DIMLWD
 70
    -2
  9
$DIMLWE
 70
    -2
  9
$DIMTMOVE
 70
     0
  9
$DIMFXL
 40
1.0
  9
$DIMFXLON
 70
     0
  9
$DIMJOGANG
 40
0.7853981633974483
  9
$DIMTFILL
 70
     0
  9
$DIMTFILLCLR
 70
     0
  9
$DIMARCSYM
 70
     0
  9
$DIMLTYPE
  6

  9
$DIMLTEX1
  6

  9
$DIMLTEX2
  6

  9
$DIMTXTDIRECTION
 70
     0
  9
$LUNITS
 70
     2
  9
$LUPREC
 70
     4
  9
$SKETCHINC
 40
0.1
  9
$FILLETRAD
 40
0.5
  9
$AUNITS
 70
     0
  9
$AUPREC
 70
     0
  9
$MENU
  1
.
  9
$ELEVATION
 40
0.0
  9
$PELEVATION
 40
0.0
  9
$THICKNESS
 40
0.0
  9
$LIMCHECK
 70
     0
  9
$CHAMFERA
 40
0.5
  9
$CHAMFERB
 40
0.5
  9
$CHAMFERC
 40
1.0
  9
$CHAMFERD
 40
0.0
  9
$SKPOLY
 70
     0
  9
$TDCREATE
 40
2458774.660596609
  9
$TDUCREATE
 40
2458774.118929942
  9
$TDUPDATE
 40
2458774.660596748
  9
$TDUUPDATE
 40
2458774.118930081
  9
$TDINDWG
 40
0.0000000116
  9
$TDUSRTIMER
 40
0.0000000116
  9
$USRTIMER
 70
     1
  9
$ANGBASE
 50
0.0
  9
$ANGDIR
 70
     0
  9
$PDMODE
 70
     0
  9
$PDSIZE
 40
0.0
  9
$PLINEWID
 40
0.0
  9
$SPLFRAME
 70
     0
  9
$SPLINETYPE
 70
     6
  9
$SPLINESEGS
 70
     8
  9
$HANDSEED
  5
167
  9
$SURFTAB1
 70
     6
  9
$SURFTAB2
 70
     6
  9
$SURFTYPE
 70
     6
  9
$SURFU
 70
     6
  9
$SURFV
 70
     6
  9
$UCSBASE
  2

  9
$UCSNAME
  2

  9
$UCSORG
 10
0.0
 20
0.0
 30
0.0
  9
$UCSXDIR
 10
1.0
 20
0.0
 30
0.0
  9
$UCSYDIR
 10
0.0
 20
1.0
 30
0.0
  9
$UCSORTHOREF
  2

  9
$UCSORTHOVIEW
 70
     0
  9
$UCSORGTOP
 10
0.0
 20
0.0
 30
0.0
  9
$UCSORGBOTTOM
 10
0.0
 20
0.0
 30
0.0
  9
$UCSORGLEFT
 10
0.0
 20
0.0
 30
0.0
  9
$UCSORGRIGHT
 10
0.0
 20
0.0
 30
0.0
  9
$UCSORGFRONT
 10
0.0
 20
0.0
 30
0.0
  9
$UCSORGBACK
 10
0.0
 20
0.0
 30
0.0
  9
$PUCSBASE
  2

  9
$PUCSNAME
  2

  9
$PUCSORG
 10
0.0
 20
0.0
 30
0.0
  9
$PUCSXDIR
 10
1.0
 20
0.0
 30
0.0
  9
$PUCSYDIR
 10
0.0
 20
1.0
 30
0.0
  9
$PUCSORTHOREF
  2

  9
$PUCSORTHOVIEW
 70
     0
  9
$PUCSORGTOP
 10
0.0
 20
0.0
 30
0.0
  9
$PUCSORGBOTTOM
 10
0.0
 20
0.0
 30
0.0
  9
$PUCSORGLEFT
 10
0.0
 20
0.0
 30
0.0
  9
$PUCSORGRIGHT
 10
0.0
 20
0.0
 30
0.0
  9
$PUCSORGFRONT
 10
0.0
 20
0.0
 30
0.0
  9
$PUCSORGBACK
 10
0.0
 20
0.0
 30
0.0
  9
$USERI1
 70
     0
  9
$USERI2
 70
     0
  9
$USERI3
 70
     0
  9
$USERI4
 70
     0
  9
$USERI5
 70
     0
  9
$USERR1
 40
0.0
  9
$USERR2
 40
0.0
  9
$USERR3
 40
0.0
  9
$USERR4
 40
0.0
  9
$USERR5
 40
0.0
  9
$WORLDVIEW
 70
     1
  9
$SHADEDGE
 70
     3
  9
$SHADEDIF
 70
    70
  9
$TILEMODE
 70
     1
  9
$MAXACTVP
 70
    64
  9
$PINSBASE
 10
0.0
 20
0.0
 30
0.0
  9
$PLIMCHECK
 70
     0
  9
$PEXTMIN
 10
1.000000000000000E+20
 20
1.000000000000000E+20
 30
1.000000000000000E+20
  9
$PEXTMAX
 10
-1.000000000000000E+20
 20
-1.000000000000000E+20
 30
-1.000000000000000E+20
  9
$PLIMMIN
 10
0.0
 20
0.0
  9
$PLIMMAX
 10
12.0
 20
9.0
  9
$UNITMODE
 70
     0
  9
$VISRETAIN
 70
     1
  9
$PLINEGEN
 70
     0
  9
$PSLTSCALE
 70
     1
  9
$TREEDEPTH
 70
  3020
  9
$CMLSTYLE
  2
Standard
  9
$CMLJUST
 70
     0
  9
$CMLSCALE
 40
1.0
  9
$PROXYGRAPHICS
 70
     1
  9
$MEASUREMENT
 70
     0
  9
$CELWEIGHT
370
    -1
  9
$ENDCAPS
280
     0
  9
$JOINSTYLE
280
     0
  9
$LWDISPLAY
290
     1
  9
$INSUNITS
 70
     1
  9
$HYPERLINKBASE
  1

  9
$STYLESHEET
  1

  9
$XEDIT
290
     1
  9
$CEPSNTYPE
380
     0
  9
$PSTYLEMODE
290
     1
  9
$FINGERPRINTGUID
  2
{2718CC03-4A40-496B-8035-207A0D5337E0}
  9
$VERSIONGUID
  2
{FAEB1C32-E019-11D5-929B-00C0DF256EC4}
  9
$EXTNAMES
290
     1
  9
$PSVPSCALE
 40
0.0
  9
$OLESTARTUP
290
     0
  9
$SORTENTS
280
   127
  9
$INDEXCTL
280
     0
  9
$HIDETEXT
280
     1
  9
$XCLIPFRAME
280
     2
  9
$HALOGAP
280
     0
  9
$OBSCOLOR
 70
   257
  9
$OBSLTYPE
280
     0
  9
$INTERSECTIONDISPLAY
280
     0
  9
$INTERSECTIONCOLOR
 70
   257
  9
$DIMASSOC
280
     2
  9
$PROJECTNAME
  1

  9
$CAMERADISPLAY
290
     0
  9
$LENSLENGTH
 40
50.0
  9
$CAMERAHEIGHT
 40
0.0
  9
$STEPSPERSEC
 40
2.0
  9
$STEPSIZE
 40
6.0
  9
$3DDWFPREC
 40
2.0
  9
$PSOLWIDTH
 40
0.25
  9
$PSOLHEIGHT
 40
4.0
  9
$LOFTANG1
 40
1.570796326794897
  9
$LOFTANG2
 40
1.570796326794897
  9
$LOFTMAG1
 40
0.0
  9
$LOFTMAG2
 40
0.0
  9
$LOFTPARAM
 70
     7
  9
$LOFTNORMALS
280
     1
  9
$LATITUDE
 40
37.795
  9
$LONGITUDE
 40
-122.394
  9
$NORTHDIRECTION
 40
0.0
  9
$TIMEZONE
 70
 -8000
  9
$LIGHTGLYPHDISPLAY
280
     1
  9
$TILEMODELIGHTSYNCH
280
     1
  9
$CMATERIAL
347
3C
  9
$SOLIDHIST
280
     1
  9
$SHOWHIST
280
     1
  9
$DWFFRAME
280
     2
  9
$DGNFRAME
280
     2
  9
$REALWORLDSCALE
290
     1
  9
$INTERFERECOLOR
 62
   256
  9
$CSHADOW
280
     0
  9
$SHADOWPLANELOCATION
 40
0.0
  0
ENDSEC
  0
SECTION
  2
CLASSES
  0
CLASS
  1
ACDBDICTIONARYWDFLT
  2
AcDbDictionaryWithDefault
  3
ObjectDBX Classes
 90
        0
 91
        4
280
     0
281
     0
  0
CLASS
  1
VISUALSTYLE
  2
AcDbVisualStyle
  3
ObjectDBX Classes
 90
     4095
 91
        4
280
     0
281
     0
  0
CLASS
  1
MATERIAL
  2
AcDbMaterial
  3
ObjectDBX Classes
 90
     1153
 91
        4
280
     0
281
     0
  0
CLASS
  1
SUN
  2
AcDbSun
  3
SCENEOE
 90
     1024
 91
        4
280
     0
281
     0
  0
ENDSEC
  0
SECTION
  2
TABLES
  0
TABLE
  2
VPORT
  5
8
330
0
100
AcDbSymbolTable
 70
     1
  0
VPORT
  5
29
330
8
100
AcDbSymbolTableRecord
100
AcDbViewportTableRecord
  2
*Active
 70
     0
 10
0.0
 20
0.0
 11
1.0
 21
1.0
 12
0.0
 22
0.0
 13
0.0
 23
0.0
 14
0.5
 24
0.5
 15
0.5
 25
0.5
 16
0.0
 26
0.0
 36
1.0
 17
1.847222222222222
 27
-1.770833333333333
 37
0.0
 40
11.69291338582677
 41
0.7070707070707065
 42
50.0
 43
0.0
 44
0.0
 50
0.0
 51
0.0
 71
     0
 72
   100
 73
     1
 74
     3
 75
     0
 76
     0
 77
     0
 78
     0
281
     0
 65
     1
110
0.0
120
0.0
130
0.0
111
1.0
121
0.0
131
0.0
112
0.0
122
1.0
132
0.0
 79
     0
146
0.0
 60
     3
 61
     5
292
     1
282
     1
141
0.0
142
0.0
 63
   250
361
3F
  0
ENDTAB
  0
TABLE
  2
LTYPE
  5
5
330
0
100
AcDbSymbolTable
 70
     1
  0
LTYPE
  5
14
330
5
100
AcDbSymbolTableRecord
100
AcDbLinetypeTableRecord
  2
ByBlock
 70
     0
  3

 72
    65
 73
     0
 40
0.0
  0
LTYPE
  5
15
330
5
100
AcDbSymbolTableRecord
100
AcDbLinetypeTableRecord
  2
ByLayer
 70
     0
  3

 72
    65
 73
     0
 40
0.0
  0
LTYPE
  5
16
330
5
100
AcDbSymbolTableRecord
100
AcDbLinetypeTableRecord
  2
Continuous
 70
     0
  3
Solid line
 72
    65
 73
     0
 40
0.0
  0
ENDTAB
  0
TABLE
  2
LAYER
  5
2
330
0
100
AcDbSymbolTable
 70
     4
  0
LAYER
  5
10
330
2
100
AcDbSymbolTableRecord
100
AcDbLayerTableRecord
  2
0
 70
     0
 62
     7
  6
Continuous
370
    -3
390
F
347
3E
  0
LAYER
  5
40
330
2
100
AcDbSymbolTableRecord
100
AcDbLayerTableRecord
  2
Wood
 70
     0
 62
     7
  6
Continuous
370
    -3
390
F
347
3E
  0
LAYER
  5
DA
330
2
100
AcDbSymbolTableRecord
100
AcDbLayerTableRecord
  2
ULT-LT
 70
     0
 62
     7
  6
Continuous
370
    -3
390
F
347
3E
  0
LAYER
  5
119
330
2
100
AcDbSymbolTableRecord
100
AcDbLayerTableRecord
  2
callout
 70
     0
 62
     7
  6
Continuous
370
    -3
390
F
347
3E
  0
ENDTAB
  0
TABLE
  2
STYLE
  5
3
330
0
100
AcDbSymbolTable
 70
     1
  0
STYLE
  5
11
330
3
100
AcDbSymbolTableRecord
100
AcDbTextStyleTableRecord
  2
Standard
 70
     0
 40
0.0
 41
1.0
 50
0.0
 71
     0
 42
0.2
  3
txt
  4

  0
ENDTAB
  0
TABLE
  2
VIEW
  5
6
330
0
100
AcDbSymbolTable
 70
     0
  0
ENDTAB
  0
TABLE
  2
UCS
  5
7
330
0
100
AcDbSymbolTable
 70
     0
  0
ENDTAB
  0
TABLE
  2
APPID
  5
9
330
0
100
AcDbSymbolTable
 70
     1
  0
APPID
  5
12
330
9
100
AcDbSymbolTableRecord
100
AcDbRegAppTableRecord
  2
ACAD
 70
     0
  0
ENDTAB
  0
TABLE
  2
DIMSTYLE
  5
A
330
0
100
AcDbSymbolTable
 70
     1
100
AcDbDimStyleTable
  0
DIMSTYLE
105
27
330
A
100
AcDbSymbolTableRecord
100
AcDbDimStyleTableRecord
  2
Standard
 70
     0
178
     0
340
11
  0
ENDTAB
  0
TABLE
  2
BLOCK_RECORD
  5
1
330
0
100
AcDbSymbolTable
 70
     6
  0
BLOCK_RECORD
  5
1F
330
1
100
AcDbSymbolTableRecord
100
AcDbBlockTableRecord
  2
*Model_Space
340
22
 70
     0
280
     1
281
     0
  0
BLOCK_RECORD
  5
1B
330
1
100
AcDbSymbolTableRecord
100
AcDbBlockTableRecord
  2
*Paper_Space
340
1E
 70
     0
280
     1
281
     0
  0
BLOCK_RECORD
  5
23
330
1
100
AcDbSymbolTableRecord
100
AcDbBlockTableRecord
  2
*Paper_Space0
340
26
 70
     0
280
     1
281
     0
  0
BLOCK_RECORD
  5
11A
330
1
100
AcDbSymbolTableRecord
100
AcDbBlockTableRecord
  2
block 2
340
0
102
{BLKREFS
331
11B
102
}
 70
     0
280
     1
281
     0
  0
BLOCK_RECORD
  5
11F
330
1
100
AcDbSymbolTableRecord
100
AcDbBlockTableRecord
  2
block 3
340
0
102
{BLKREFS
331
120
102
}
 70
     0
280
     1
281
     0
  0
BLOCK_RECORD
  5
123
330
1
100
AcDbSymbolTableRecord
100
AcDbBlockTableRecord
  2
block 4
340
0
102
{BLKREFS
331
124
102
}
 70
     0
280
     1
281
     0
  0
BLOCK_RECORD
  5
128
330
1
100
AcDbSymbolTableRecord
100
AcDbBlockTableRecord
  2
block 5
340
0
102
{BLKREFS
331
129
102
}
 70
     0
280
     1
281
     0
  0
BLOCK_RECORD
  5
13E
330
1
100
AcDbSymbolTableRecord
100
AcDbBlockTableRecord
  2
block 6
340
0
102
{BLKREFS
331
13F
102
}
 70
     0
280
     1
281
     0
  0
ENDTAB
  0
ENDSEC
  0
SECTION
  2
BLOCKS
  0
BLOCK
  5
20
330
1F
100
AcDbEntity
  8
0
100
AcDbBlockBegin
  2
*Model_Space
 70
     0
 10
0.0
 20
0.0
 30
0.0
  3
*Model_Space
  1

  0
ENDBLK
  5
21
330
1F
100
AcDbEntity
  8
0
100
AcDbBlockEnd
  0
BLOCK
  5
1C
330
1B
100
AcDbEntity
 67
     1
  8
0
100
AcDbBlockBegin
  2
*Paper_Space
 70
     0
 10
0.0
 20
0.0
 30
0.0
  3
*Paper_Space
  1

  0
ENDBLK
  5
1D
330
1B
100
AcDbEntity
 67
     1
  8
0
100
AcDbBlockEnd
  0
BLOCK
  5
24
330
23
100
AcDbEntity
  8
0
100
AcDbBlockBegin
  2
*Paper_Space0
 70
     0
 10
0.0
 20
0.0
 30
0.0
  3
*Paper_Space0
  1

  0
ENDBLK
  5
25
330
23
100
AcDbEntity
  8
0
100
AcDbBlockEnd
  0
BLOCK
  5
11C
330
11A
100
AcDbEntity
  8
0
100
AcDbBlockBegin
  2
block 2
 70
     0
 10
0.0
 20
0.0
 30
0.0
  3
block 2
  1

  0
MTEXT
  5
11E
330
11A
100
AcDbEntity
  8
callout
 62
   250
420
  2301728
100
AcDbMText
 10
2.090300910945593
 20
-1.000365846581796
 30
0.0
 40
0.2087193065181085
 41
0.0
 46
0.0
 71
     7
 72
     1
  1
\fHelvetica Neue LT Std 67 Medium Condensed|b0|i0|c0|p34;\W1.1117;F\H0.163994;2
 11
0.8787018488782463
 21
-0.4773709886220061
 31
0.0
 73
     1
 44
1.0
  0
ENDBLK
  5
11D
330
11A
100
AcDbEntity
  8
0
100
AcDbBlockEnd
  0
BLOCK
  5
121
330
11F
100
AcDbEntity
  8
0
100
AcDbBlockBegin
  2
block 3
 70
     0
 10
0.0
 20
0.0
 30
0.0
  3
block 3
  1

  0
INSERT
  5
124
330
11F
100
AcDbEntity
  8
callout
100
AcDbBlockReference
  2
block 4
 10
0.0
 20
0.0
 30
0.0
  0
ENDBLK
  5
122
330
11F
100
AcDbEntity
  8
0
100
AcDbBlockEnd
  0
BLOCK
  5
125
330
123
100
AcDbEntity
  8
0
100
AcDbBlockBegin
  2
block 4
 70
     0
 10
0.0
 20
0.0
 30
0.0
  3
block 4
  1

  0
MTEXT
  5
127
330
123
100
AcDbEntity
  8
callout
 62
   250
420
  2301728
100
AcDbMText
 10
2.044274418006858
 20
-1.951672279504742
 30
0.0
 40
0.1674700858646512
 41
0.0
 46
0.0
 71
     7
 72
     1
  1
\fHelvetica Neue LT Std 67 Medium Condensed|b0|i0|c0|p34;\W1.16301;F\H0.131584;1
 11
0.8267170215544654
 21
0.5626179576516499
 31
0.0
 73
     1
 44
1.0
  0
ENDBLK
  5
126
330
123
100
AcDbEntity
  8
0
100
AcDbBlockEnd
  0
BLOCK
  5
12A
330
128
100
AcDbEntity
  8
0
100
AcDbBlockBegin
  2
block 5
 70
     0
 10
0.0
 20
0.0
 30
0.0
  3
block 5
  1

  0
POLYLINE
  5
12C
330
128
100
AcDbEntity
  8
callout
 62
   250
420
  2301728
370
    80
100
AcDb2dPolyline
 66
     1
 10
0.0
 20
0.0
 30
0.0
  0
VERTEX
  5
12D
330
12C
100
AcDbEntity
  8
callout
 62
   250
420
  2301728
370
    80
100
AcDbVertex
100
AcDb2dVertex
 10
2.009512216551937
 20
-1.648086707180154
 30
0.0
  0
VERTEX
  5
12E
330
12C
100
AcDbEntity
  8
callout
 62
   250
420
  2301728
370
    80
100
AcDbVertex
100
AcDb2dVertex
 10
1.61614555982256
 20
-1.927105457180182
 30
0.0
  0
SEQEND
  5
12F
330
12C
100
AcDbEntity
  8
callout
 62
   250
420
  2301728
370
    80
  0
POLYLINE
  5
130
330
128
100
AcDbEntity
  8
callout
370
     0
100
AcDb2dPolyline
 66
     1
 10
0.0
 20
0.0
 30
0.0
  0
VERTEX
  5
131
330
130
100
AcDbEntity
  8
callout
370
     0
100
AcDbVertex
100
AcDb2dVertex
 10
2.044985132322482
 20
-1.687065873846803
 30
0.0
  0
VERTEX
  5
132
330
130
100
AcDbEntity
  8
callout
370
     0
100
AcDbVertex
100
AcDb2dVertex
 10
1.915237218933523
 20
-1.644901290513467
 30
0.0
  0
VERTEX
  5
133
330
130
100
AcDbEntity
  8
callout
370
     0
100
AcDbVertex
100
AcDb2dVertex
 10
2.107201797417424
 20
-1.583332540513488
 30
0.0
  0
VERTEX
  5
134
330
130
100
AcDbEntity
  8
callout
370
     0
100
AcDbVertex
100
AcDb2dVertex
 10
2.044985132322482
 20
-1.687065873846803
 30
0.0
  0
SEQEND
  5
136
330
130
100
AcDbEntity
  8
callout
370
     0
  0
HATCH
  5
135
330
128
100
AcDbEntity
  8
callout
 62
   250
420
  2301728
100
AcDbHatch
 10
0.0
 20
0.0
 30
0.0
210
0.0
220
0.0
230
1.0
  2
SOLID
 70
     1
 71
     0
 91
        1
 92
        1
 93
        3
 72
     1
 10
2.044985132322482
 20
-1.687065873846803
 11
1.915237218933523
 21
-1.644901290513467
 72
     1
 10
1.915237218933523
 20
-1.644901290513467
 11
2.107201797417424
 21
-1.583332540513488
 72
     1
 10
2.107201797417424
 20
-1.583332540513488
 11
2.044985132322482
 21
-1.687065873846803
 97
        0
 75
     2
 76
     1
 98
        0
  0
POLYLINE
  5
137
330
128
100
AcDbEntity
  8
callout
370
     0
100
AcDb2dPolyline
 66
     1
 10
0.0
 20
0.0
 30
0.0
  0
VERTEX
  5
138
330
137
100
AcDbEntity
  8
callout
370
     0
100
AcDbVertex
100
AcDb2dVertex
 10
1.607662226703521
 20
-1.866840873846842
 30
0.0
  0
VERTEX
  5
139
330
137
100
AcDbEntity
  8
callout
370
     0
100
AcDbVertex
100
AcDb2dVertex
 10
1.73741014009248
 20
-1.909005457180178
 30
0.0
  0
VERTEX
  5
13A
330
137
100
AcDbEntity
  8
callout
370
     0
100
AcDbVertex
100
AcDb2dVertex
 10
1.505678895946517
 20
-1.995026290513477
 30
0.0
  0
VERTEX
  5
13B
330
137
100
AcDbEntity
  8
callout
370
     0
100
AcDbVertex
100
AcDb2dVertex
 10
1.607662226703521
 20
-1.866840873846842
 30
0.0
  0
SEQEND
  5
13D
330
137
100
AcDbEntity
  8
callout
370
     0
  0
HATCH
  5
13C
330
128
100
AcDbEntity
  8
callout
 62
   250
420
  2301728
100
AcDbHatch
 10
0.0
 20
0.0
 30
0.0
210
0.0
220
0.0
230
1.0
  2
SOLID
 70
     1
 71
     0
 91
        1
 92
        1
 93
        3
 72
     1
 10
1.607662226703521
 20
-1.866840873846842
 11
1.73741014009248
 21
-1.909005457180178
 72
     1
 10
1.73741014009248
 20
-1.909005457180178
 11
1.505678895946517
 21
-1.995026290513477
 72
     1
 10
1.505678895946517
 20
-1.995026290513477
 11
1.607662226703521
 21
-1.866840873846842
 97
        0
 75
     2
 76
     1
 98
        0
  0
ENDBLK
  5
12B
330
128
100
AcDbEntity
  8
0
100
AcDbBlockEnd
  0
BLOCK
  5
140
330
13E
100
AcDbEntity
  8
0
100
AcDbBlockBegin
  2
block 6
 70
     0
 10
0.0
 20
0.0
 30
0.0
  3
block 6
  1

  0
POLYLINE
  5
142
330
13E
100
AcDbEntity
  8
callout
 62
   250
420
  2301728
370
    80
100
AcDb2dPolyline
 66
     1
 10
0.0
 20
0.0
 30
0.0
  0
VERTEX
  5
143
330
142
100
AcDbEntity
  8
callout
 62
   250
420
  2301728
370
    80
100
AcDbVertex
100
AcDb2dVertex
 10
2.433178872515883
 20
-0.803932540513516
 30
0.0
  0
VERTEX
  5
144
330
142
100
AcDbEntity
  8
callout
 62
   250
420
  2301728
370
    80
100
AcDbVertex
100
AcDb2dVertex
 10
2.017972633004875
 20
-0.5961992071801837
 30
0.0
  0
SEQEND
  5
145
330
142
100
AcDbEntity
  8
callout
 62
   250
420
  2301728
370
    80
  0
POLYLINE
  5
146
330
13E
100
AcDbEntity
  8
callout
370
     0
100
AcDb2dPolyline
 66
     1
 10
0.0
 20
0.0
 30
0.0
  0
VERTEX
  5
147
330
146
100
AcDbEntity
  8
callout
370
     0
100
AcDbVertex
100
AcDb2dVertex
 10
2.401508039982622
 20
-0.8572429571801825
 30
0.0
  0
VERTEX
  5
148
330
146
100
AcDbEntity
  8
callout
370
     0
100
AcDbVertex
100
AcDb2dVertex
 10
2.395210123475054
 20
-0.7083846238468191
 30
0.0
  0
VERTEX
  5
149
330
146
100
AcDbEntity
  8
callout
370
     0
100
AcDbVertex
100
AcDb2dVertex
 10
2.531026786710703
 20
-0.835182540513516
 30
0.0
  0
VERTEX
  5
14A
330
146
100
AcDbEntity
  8
callout
370
     0
100
AcDbVertex
100
AcDb2dVertex
 10
2.401508039982622
 20
-0.8572429571801825
 30
0.0
  0
SEQEND
  5
14C
330
146
100
AcDbEntity
  8
callout
370
     0
  0
HATCH
  5
14B
330
13E
100
AcDbEntity
  8
callout
 62
   250
420
  2301728
100
AcDbHatch
 10
0.0
 20
0.0
 30
0.0
210
0.0
220
0.0
230
1.0
  2
SOLID
 70
     1
 71
     0
 91
        1
 92
        1
 93
        3
 72
     1
 10
2.401508039982622
 20
-0.8572429571801825
 11
2.395210123475054
 21
-0.7083846238468191
 72
     1
 10
2.395210123475054
 20
-0.7083846238468191
 11
2.531026786710703
 21
-0.835182540513516
 72
     1
 10
2.531026786710703
 20
-0.835182540513516
 11
2.401508039982622
 21
-0.8572429571801825
 97
        0
 75
     2
 76
     1
 98
        0
  0
POLYLINE
  5
14D
330
13E
100
AcDbEntity
  8
callout
370
     0
100
AcDb2dPolyline
 66
     1
 10
0.0
 20
0.0
 30
0.0
  0
VERTEX
  5
14E
330
14D
100
AcDbEntity
  8
callout
370
     0
100
AcDbVertex
100
AcDb2dVertex
 10
2.03527263256784
 20
-0.5230512905134724
 30
0.0
  0
VERTEX
  5
14F
330
14D
100
AcDbEntity
  8
callout
370
     0
100
AcDbVertex
100
AcDb2dVertex
 10
2.041570549075408
 20
-0.6719137905134983
 30
0.0
  0
VERTEX
  5
150
330
14D
100
AcDbEntity
  8
callout
370
     0
100
AcDbVertex
100
AcDb2dVertex
 10
1.90575596917304
 20
-0.5451179571801832
 30
0.0
  0
VERTEX
  5
151
330
14D
100
AcDbEntity
  8
callout
370
     0
100
AcDbVertex
100
AcDb2dVertex
 10
2.03527263256784
 20
-0.5230512905134724
 30
0.0
  0
SEQEND
  5
153
330
14D
100
AcDbEntity
  8
callout
370
     0
  0
HATCH
  5
152
330
13E
100
AcDbEntity
  8
callout
 62
   250
420
  2301728
100
AcDbHatch
 10
0.0
 20
0.0
 30
0.0
210
0.0
220
0.0
230
1.0
  2
SOLID
 70
     1
 71
     0
 91
        1
 92
        1
 93
        3
 72
     1
 10
2.03527263256784
 20
-0.5230512905134724
 11
2.041570549075408
 21
-0.6719137905134983
 72
     1
 10
2.041570549075408
 20
-0.6719137905134983
 11
1.90575596917304
 21
-0.5451179571801832
 72
     1
 10
1.90575596917304
 20
-0.5451179571801832
 11
2.03527263256784
 21
-0.5230512905134724
 97
        0
 75
     2
 76
     1
 98
        0
  0
ENDBLK
  5
141
330
13E
100
AcDbEntity
  8
0
100
AcDbBlockEnd
  0
ENDSEC
  0
SECTION
  2
ENTITIES
  0
POLYLINE
  5
41
330
1F
100
AcDbEntity
  8
Wood
 62
     7
420
 16777215
370
    40
100
AcDb2dPolyline
 66
     1
 10
0.0
 20
0.0
 30
0.0
  0
VERTEX
  5
42
330
41
100
AcDbEntity
  8
Wood
 62
     7
420
 16777215
370
    40
100
AcDbVertex
100
AcDb2dVertex
 10
2.419747762411084
 20
0.1797966261531706
 30
0.0
  0
VERTEX
  5
43
330
41
100
AcDbEntity
  8
Wood
 62
     7
420
 16777215
370
    40
100
AcDbVertex
100
AcDb2dVertex
 10
2.624622762411086
 20
0.1398382928198569
 30
0.0
  0
VERTEX
  5
44
330
41
100
AcDbEntity
  8
Wood
 62
     7
420
 16777215
370
    40
100
AcDbVertex
100
AcDb2dVertex
 10
2.756539429077748
 20
0.1537549594865039
 30
0.0
  0
VERTEX
  5
45
330
41
100
AcDbEntity
  8
Wood
 62
     7
420
 16777215
370
    40
100
AcDbVertex
100
AcDb2dVertex
 10
2.756539429077748
 20
0.0929841261531945
 30
0.0
  0
VERTEX
  5
46
330
41
100
AcDbEntity
  8
Wood
 62
     7
420
 16777215
370
    40
100
AcDbVertex
100
AcDb2dVertex
 10
2.846831095744417
 20
0.1034007928198611
 30
0.0
  0
VERTEX
  5
47
330
41
100
AcDbEntity
  8
Wood
 62
     7
420
 16777215
370
    40
100
AcDbVertex
100
AcDb2dVertex
 10
3.082935262411057
 20
0.0617132928198569
 30
0.0
  0
VERTEX
  5
48
330
41
100
AcDbEntity
  8
Wood
 62
     7
420
 16777215
370
    40
100
AcDbVertex
100
AcDb2dVertex
 10
3.082935262411057
 20
-0.1466200405134764
 30
0.0
  0
VERTEX
  5
49
330
41
100
AcDbEntity
  8
Wood
 62
     7
420
 16777215
370
    40
100
AcDbVertex
100
AcDb2dVertex
 10
3.159331095744417
 20
-0.1639533738468294
 30
0.0
  0
VERTEX
  5
4A
330
41
100
AcDbEntity
  8
Wood
 62
     7
420
 16777215
370
    40
100
AcDbVertex
100
AcDb2dVertex
 10
3.159331095744417
 20
-0.4347867071801627
 30
0.0
  0
VERTEX
  5
4B
330
41
100
AcDbEntity
  8
Wood
 62
     7
420
 16777215
370
    40
100
AcDbVertex
100
AcDb2dVertex
 10
0.9336227624110682
 20
-2.181328373846857
 30
0.0
  0
VERTEX
  5
4C
330
41
100
AcDbEntity
  8
Wood
 62
     7
420
 16777215
370
    40
100
AcDbVertex
100
AcDb2dVertex
 10
0.5665768363368973
 20
-2.04245337384681
 30
0.0
  0
VERTEX
  5
4D
330
41
100
AcDbEntity
  8
Wood
 62
     7
420
 16777215
370
    40
100
AcDbVertex
100
AcDb2dVertex
 10
0.5665768363368973
 20
-1.997286707180163
 30
0.0
  0
VERTEX
  5
4E
330
41
100
AcDbEntity
  8
Wood
 62
     7
420
 16777215
370
    40
100
AcDbVertex
100
AcDb2dVertex
 10
0.3572269290777083
 20
-2.032036707180143
 30
0.0
  0
VERTEX
  5
4F
330
41
100
AcDbEntity
  8
Wood
 62
     7
420
 16777215
370
    40
100
AcDbVertex
100
AcDb2dVertex
 10
0.3572269290777083
 20
-1.966036707180163
 30
0.0
  0
VERTEX
  5
50
330
41
100
AcDbEntity
  8
Wood
 62
     7
420
 16777215
370
    40
100
AcDbVertex
100
AcDb2dVertex
 10
0.0621019290777364
 20
-1.851453373846829
 30
0.0
  0
VERTEX
  5
51
330
41
100
AcDbEntity
  8
Wood
 62
     7
420
 16777215
370
    40
100
AcDbVertex
100
AcDb2dVertex
 10
0.0621019290777364
 20
-1.420911707180166
 30
0.0
  0
VERTEX
  5
52
330
41
100
AcDbEntity
  8
Wood
 62
     7
420
 16777215
370
    40
100
AcDbVertex
100
AcDb2dVertex
 10
0.2600185957444031
 20
-1.32370337384681
 30
0.0
  0
VERTEX
  5
53
330
41
100
AcDbEntity
  8
Wood
 62
     7
420
 16777215
370
    40
100
AcDbVertex
100
AcDb2dVertex
 10
0.2600185957444031
 20
-0.9415012905134921
 30
0.0
  0
VERTEX
  5
54
330
41
100
AcDbEntity
  8
Wood
 62
     7
420
 16777215
370
    40
100
AcDbVertex
100
AcDb2dVertex
 10
2.419747762411084
 20
0.1797966261531706
 30
0.0
  0
SEQEND
  5
56
330
41
100
AcDbEntity
  8
Wood
 62
     7
420
 16777215
370
    40
  0
HATCH
  5
55
330
1F
100
AcDbEntity
  8
Wood
 62
    43
420
 15510365
100
AcDbHatch
 10
0.0
 20
0.0
 30
0.0
210
0.0
220
0.0
230
1.0
  2
SOLID
 70
     1
 71
     0
 91
        1
 92
        1
 93
       18
 72
     1
 10
2.419747762411084
 20
0.1797966261531706
 11
2.624622762411086
 21
0.1398382928198569
 72
     1
 10
2.624622762411086
 20
0.1398382928198569
 11
2.756539429077748
 21
0.1537549594865039
 72
     1
 10
2.756539429077748
 20
0.1537549594865039
 11
2.756539429077748
 21
0.0929841261531945
 72
     1
 10
2.756539429077748
 20
0.0929841261531945
 11
2.846831095744417
 21
0.1034007928198611
 72
     1
 10
2.846831095744417
 20
0.1034007928198611
 11
3.082935262411057
 21
0.0617132928198569
 72
     1
 10
3.082935262411057
 20
0.0617132928198569
 11
3.082935262411057
 21
-0.1466200405134764
 72
     1
 10
3.082935262411057
 20
-0.1466200405134764
 11
3.159331095744417
 21
-0.1639533738468294
 72
     1
 10
3.159331095744417
 20
-0.1639533738468294
 11
3.159331095744417
 21
-0.4347867071801628
 72
     1
 10
3.159331095744417
 20
-0.4347867071801627
 11
0.9336227624110682
 21
-2.181328373846857
 72
     1
 10
0.9336227624110682
 20
-2.181328373846857
 11
0.5665768363368973
 21
-2.04245337384681
 72
     1
 10
0.5665768363368973
 20
-2.04245337384681
 11
0.5665768363368973
 21
-1.997286707180163
 72
     1
 10
0.5665768363368973
 20
-1.997286707180163
 11
0.3572269290777083
 21
-2.032036707180143
 72
     1
 10
0.3572269290777083
 20
-2.032036707180143
 11
0.3572269290777083
 21
-1.966036707180163
 72
     1
 10
0.3572269290777083
 20
-1.966036707180163
 11
0.0621019290777364
 21
-1.851453373846829
 72
     1
 10
0.0621019290777364
 20
-1.851453373846829
 11
0.0621019290777364
 21
-1.420911707180166
 72
     1
 10
0.0621019290777364
 20
-1.420911707180166
 11
0.2600185957444031
 21
-1.32370337384681
 72
     1
 10
0.2600185957444031
 20
-1.32370337384681
 11
0.2600185957444031
 21
-0.9415012905134921
 72
     1
 10
0.2600185957444031
 20
-0.9415012905134921
 11
2.419747762411084
 21
0.1797966261531707
 97
        0
 75
     2
 76
     1
 98
        0
  0
POLYLINE
  5
57
330
1F
100
AcDbEntity
  8
Wood
 62
     7
420
 16777215
370
    30
100
AcDb2dPolyline
 66
     1
 10
0.0
 20
0.0
 30
0.0
  0
VERTEX
  5
58
330
57
100
AcDbEntity
  8
Wood
 62
     7
420
 16777215
370
    30
100
AcDbVertex
100
AcDb2dVertex
 10
0.2600185957444031
 20
-0.9415012905134921
 30
0.0
  0
VERTEX
  5
59
330
57
100
AcDbEntity
  8
Wood
 62
     7
420
 16777215
370
    30
100
AcDbVertex
100
AcDb2dVertex
 10
0.5482060957444016
 20
-1.025078373846832
 30
0.0
  0
VERTEX
  5
5A
330
57
100
AcDbEntity
  8
Wood
 62
     7
420
 16777215
370
    30
100
AcDbVertex
100
AcDb2dVertex
 10
0.5482060957444016
 20
-1.070203373846829
 30
0.0
  0
VERTEX
  5
5B
330
57
100
AcDbEntity
  8
Wood
 62
     7
420
 16777215
370
    30
100
AcDbVertex
100
AcDb2dVertex
 10
0.7322269290777083
 20
-1.032036707180143
 30
0.0
  0
VERTEX
  5
5C
330
57
100
AcDbEntity
  8
Wood
 62
     7
420
 16777215
370
    30
100
AcDbVertex
100
AcDb2dVertex
 10
0.728768595744403
 20
-1.077161707180166
 30
0.0
  0
VERTEX
  5
5D
330
57
100
AcDbEntity
  8
Wood
 62
     7
420
 16777215
370
    30
100
AcDbVertex
100
AcDb2dVertex
 10
1.107226929077708
 20
-1.186292957180159
 30
0.0
  0
VERTEX
  5
5E
330
57
100
AcDbEntity
  8
Wood
 62
     7
420
 16777215
370
    30
100
AcDbVertex
100
AcDb2dVertex
 10
3.082935262411057
 20
0.0617132928198569
 30
0.0
  0
SEQEND
  5
5F
330
57
100
AcDbEntity
  8
Wood
 62
     7
420
 16777215
370
    30
  0
POLYLINE
  5
60
330
1F
100
AcDbEntity
  8
Wood
 62
     7
420
 16777215
370
    30
100
AcDb2dPolyline
 66
     1
 10
0.0
 20
0.0
 30
0.0
  0
VERTEX
  5
61
330
60
100
AcDbEntity
  8
Wood
 62
     7
420
 16777215
370
    30
100
AcDbVertex
100
AcDb2dVertex
 10
3.159331095744417
 20
-0.1639533738468294
 30
0.0
  0
VERTEX
  5
62
330
60
100
AcDbEntity
  8
Wood
 62
     7
420
 16777215
370
    30
100
AcDbVertex
100
AcDb2dVertex
 10
0.9371019290777364
 20
-1.726453373846829
 30
0.0
  0
VERTEX
  5
63
330
60
100
AcDbEntity
  8
Wood
 62
     7
420
 16777215
370
    30
100
AcDbVertex
100
AcDb2dVertex
 10
0.569039429077735
 20
-1.601453373846829
 30
0.0
  0
VERTEX
  5
64
330
60
100
AcDbEntity
  8
Wood
 62
     7
420
 16777215
370
    30
100
AcDbVertex
100
AcDb2dVertex
 10
0.569039429077735
 20
-1.552870040513476
 30
0.0
  0
VERTEX
  5
65
330
60
100
AcDbEntity
  8
Wood
 62
     7
420
 16777215
370
    30
100
AcDbVertex
100
AcDb2dVertex
 10
0.3607060957444017
 20
-1.584120040513476
 30
0.0
  0
VERTEX
  5
66
330
60
100
AcDbEntity
  8
Wood
 62
     7
420
 16777215
370
    30
100
AcDbVertex
100
AcDb2dVertex
 10
0.3572269290777083
 20
-1.528536707180163
 30
0.0
  0
VERTEX
  5
67
330
60
100
AcDbEntity
  8
Wood
 62
     7
420
 16777215
370
    30
100
AcDbVertex
100
AcDb2dVertex
 10
0.0621019290777364
 20
-1.420911707180166
 30
0.0
  0
SEQEND
  5
68
330
60
100
AcDbEntity
  8
Wood
 62
     7
420
 16777215
370
    30
  0
POLYLINE
  5
69
330
1F
100
AcDbEntity
  8
Wood
 62
     7
420
 16777215
370
    30
100
AcDb2dPolyline
 66
     1
 10
0.0
 20
0.0
 30
0.0
  0
VERTEX
  5
6A
330
69
100
AcDbEntity
  8
Wood
 62
     7
420
 16777215
370
    30
100
AcDbVertex
100
AcDb2dVertex
 10
0.2600185957444031
 20
-1.32370337384681
 30
0.0
  0
VERTEX
  5
6B
330
69
100
AcDbEntity
  8
Wood
 62
     7
420
 16777215
370
    30
100
AcDbVertex
100
AcDb2dVertex
 10
0.5472497534918072
 20
-1.4189575405135
 30
0.0
  0
VERTEX
  5
6C
330
69
100
AcDbEntity
  8
Wood
 62
     7
420
 16777215
370
    30
100
AcDbVertex
100
AcDb2dVertex
 10
0.5472497534918072
 20
-1.471040873846833
 30
0.0
  0
VERTEX
  5
6D
330
69
100
AcDbEntity
  8
Wood
 62
     7
420
 16777215
370
    30
100
AcDbVertex
100
AcDb2dVertex
 10
0.7292559988939425
 20
-1.431328373846832
 30
0.0
  0
VERTEX
  5
6E
330
69
100
AcDbEntity
  8
Wood
 62
     7
420
 16777215
370
    30
100
AcDbVertex
100
AcDb2dVertex
 10
0.7292559988939425
 20
-1.47995337384681
 30
0.0
  0
VERTEX
  5
6F
330
69
100
AcDbEntity
  8
Wood
 62
     7
420
 16777215
370
    30
100
AcDbVertex
100
AcDb2dVertex
 10
1.107226929077708
 20
-1.60495337384681
 30
0.0
  0
VERTEX
  5
70
330
69
100
AcDbEntity
  8
Wood
 62
     7
420
 16777215
370
    30
100
AcDbVertex
100
AcDb2dVertex
 10
1.107226929077708
 20
-1.193820040513502
 30
0.0
  0
SEQEND
  5
71
330
69
100
AcDbEntity
  8
Wood
 62
     7
420
 16777215
370
    30
  0
POLYLINE
  5
72
330
1F
100
AcDbEntity
  8
Wood
 62
     7
420
 16777215
370
    40
100
AcDb2dPolyline
 66
     1
 10
0.0
 20
0.0
 30
0.0
  0
VERTEX
  5
73
330
72
100
AcDbEntity
  8
Wood
 62
     7
420
 16777215
370
    40
100
AcDbVertex
100
AcDb2dVertex
 10
3.083097606097554
 20
-0.1448283738468237
 30
0.0
  0
VERTEX
  5
74
330
72
100
AcDbEntity
  8
Wood
 62
     7
420
 16777215
370
    40
100
AcDbVertex
100
AcDb2dVertex
 10
3.083097606097554
 20
-0.2140429571801532
 30
0.0
  0
SEQEND
  5
75
330
72
100
AcDbEntity
  8
Wood
 62
     7
420
 16777215
370
    40
  0
POLYLINE
  5
76
330
1F
100
AcDbEntity
  8
Wood
 62
     7
420
 16777215
370
    30
100
AcDb2dPolyline
 66
     1
 10
0.0
 20
0.0
 30
0.0
  0
VERTEX
  5
77
330
76
100
AcDbEntity
  8
Wood
 62
     7
420
 16777215
370
    30
100
AcDbVertex
100
AcDb2dVertex
 10
0.9371019290777364
 20
-1.726453373846829
 30
0.0
  0
VERTEX
  5
78
330
76
100
AcDbEntity
  8
Wood
 62
     7
420
 16777215
370
    30
100
AcDbVertex
100
AcDb2dVertex
 10
0.9371019290777364
 20
-2.181328373846857
 30
0.0
  0
SEQEND
  5
79
330
76
100
AcDbEntity
  8
Wood
 62
     7
420
 16777215
370
    30
  0
POLYLINE
  5
7A
330
1F
100
AcDbEntity
  8
Wood
 62
     7
420
 16777215
370
    30
100
AcDb2dPolyline
 66
     1
 10
0.0
 20
0.0
 30
0.0
  0
VERTEX
  5
7B
330
7A
100
AcDbEntity
  8
Wood
 62
     7
420
 16777215
370
    30
100
AcDbVertex
100
AcDb2dVertex
 10
0.3607060957444017
 20
-1.584120040513476
 30
0.0
  0
VERTEX
  5
7C
330
7A
100
AcDbEntity
  8
Wood
 62
     7
420
 16777215
370
    30
100
AcDbVertex
100
AcDb2dVertex
 10
0.3607060957444017
 20
-1.966036707180163
 30
0.0
  0
SEQEND
  5
7D
330
7A
100
AcDbEntity
  8
Wood
 62
     7
420
 16777215
370
    30
  0
POLYLINE
  5
7E
330
1F
100
AcDbEntity
  8
Wood
 62
     7
420
 16777215
370
    30
100
AcDb2dPolyline
 66
     1
 10
0.0
 20
0.0
 30
0.0
  0
VERTEX
  5
7F
330
7E
100
AcDbEntity
  8
Wood
 62
     7
420
 16777215
370
    30
100
AcDbVertex
100
AcDb2dVertex
 10
0.569039429077735
 20
-1.601453373846829
 30
0.0
  0
VERTEX
  5
80
330
7E
100
AcDbEntity
  8
Wood
 62
     7
420
 16777215
370
    30
100
AcDbVertex
100
AcDb2dVertex
 10
0.569039429077735
 20
-1.997286707180163
 30
0.0
  0
SEQEND
  5
81
330
7E
100
AcDbEntity
  8
Wood
 62
     7
420
 16777215
370
    30
  0
POLYLINE
  5
82
330
1F
100
AcDbEntity
  8
Wood
 62
     7
420
 16777215
370
    30
100
AcDb2dPolyline
 66
     1
 10
0.0
 20
0.0
 30
0.0
  0
VERTEX
  5
83
330
82
100
AcDbEntity
  8
Wood
 62
     7
420
 16777215
370
    30
100
AcDbVertex
100
AcDb2dVertex
 10
0.5482060957444016
 20
-1.070203373846829
 30
0.0
  0
VERTEX
  5
84
330
82
100
AcDbEntity
  8
Wood
 62
     7
420
 16777215
370
    30
100
AcDbVertex
100
AcDb2dVertex
 10
0.5482060957444016
 20
-1.419161707180163
 30
0.0
  0
SEQEND
  5
85
330
82
100
AcDbEntity
  8
Wood
 62
     7
420
 16777215
370
    30
  0
POLYLINE
  5
86
330
1F
100
AcDbEntity
  8
Wood
 62
     7
420
 16777215
370
    30
100
AcDb2dPolyline
 66
     1
 10
0.0
 20
0.0
 30
0.0
  0
VERTEX
  5
87
330
86
100
AcDbEntity
  8
Wood
 62
     7
420
 16777215
370
    30
100
AcDbVertex
100
AcDb2dVertex
 10
0.728768595744403
 20
-1.077161707180166
 30
0.0
  0
VERTEX
  5
88
330
86
100
AcDbEntity
  8
Wood
 62
     7
420
 16777215
370
    30
100
AcDbVertex
100
AcDb2dVertex
 10
0.728768595744403
 20
-1.431328373846832
 30
0.0
  0
SEQEND
  5
89
330
86
100
AcDbEntity
  8
Wood
 62
     7
420
 16777215
370
    30
  0
POLYLINE
  5
8A
330
1F
100
AcDbEntity
  8
Wood
 62
     7
420
 16777215
370
    25
100
AcDb2dPolyline
 66
     1
 10
0.0
 20
0.0
 30
0.0
  0
VERTEX
  5
8B
330
8A
100
AcDbEntity
  8
Wood
 62
     7
420
 16777215
370
    25
100
AcDbVertex
100
AcDb2dVertex
 10
2.753935262411081
 20
0.1514757928198631
 30
0.0
  0
VERTEX
  5
8C
330
8A
100
AcDbEntity
  8
Wood
 62
     7
420
 16777215
370
    25
100
AcDbVertex
100
AcDb2dVertex
 10
2.73179969830542
 20
0.0871049594864972
 30
0.0
  0
VERTEX
  5
8D
330
8A
100
AcDbEntity
  8
Wood
 62
     7
420
 16777215
370
    25
100
AcDbVertex
100
AcDb2dVertex
 10
2.759753864265905
 20
0.090827876153172
 30
0.0
  0
SEQEND
  5
8E
330
8A
100
AcDbEntity
  8
Wood
 62
     7
420
 16777215
370
    25
  0
SPLINE
  5
8F
330
1F
100
AcDbEntity
  8
Wood
 62
     7
420
 16777215
370
    20
100
AcDbSpline
210
0.0
220
0.0
230
1.0
 70
     8
 71
     3
 72
    14
 73
    10
 74
     0
 42
0.0000000001
 43
0.0000000001
 12
1.0
 22
0.0
 32
0.0
 13
1.0
 23
0.0
 33
0.0
 40
0.0
 40
0.0
 40
0.0
 40
0.0
 40
1.0
 40
1.0
 40
1.0
 40
2.0
 40
2.0
 40
2.0
 40
3.0
 40
3.0
 40
3.0
 40
3.0
 10
0.2617477624110683
 20
-1.016411707180143
 30
0.0
 10
0.2617477624110683
 20
-1.016411707180143
 30
0.0
 10
0.3241872591268399
 20
-1.004530457180155
 30
0.0
 10
0.3607060957444017
 20
-1.016817957180163
 30
0.0
 10
0.3947435073444391
 20
-1.028272123846844
 30
0.0
 10
0.4266852624110697
 20
-1.030978373846842
 30
0.0
 10
0.4666019290777083
 20
-1.039440873846817
 30
0.0
 10
0.506539429077735
 20
-1.047905457180175
 30
0.0
 10
0.5464769290777364
 20
-1.045992957180159
 30
0.0
 10
0.5464769290777364
 20
-1.045992957180159
 30
0.0
  0
SPLINE
  5
90
330
1F
100
AcDbEntity
  8
Wood
 62
     7
420
 16777215
370
    20
100
AcDbSpline
210
0.0
220
0.0
230
1.0
 70
     8
 71
     3
 72
    14
 73
    10
 74
     0
 42
0.0000000001
 43
0.0000000001
 12
1.0
 22
0.0
 32
0.0
 13
1.0
 23
0.0
 33
0.0
 40
0.0
 40
0.0
 40
0.0
 40
0.0
 40
1.0
 40
1.0
 40
1.0
 40
2.0
 40
2.0
 40
2.0
 40
3.0
 40
3.0
 40
3.0
 40
3.0
 10
0.2617477624110683
 20
-1.077161707180166
 30
0.0
 10
0.2617477624110683
 20
-1.077161707180166
 30
0.0
 10
0.3248580924432266
 20
-1.063449207180181
 30
0.0
 10
0.3607060957444017
 20
-1.077567957180135
 30
0.0
 10
0.4009476738543754
 20
-1.093417957180135
 30
0.0
 10
0.4266852624110697
 20
-1.088717957180153
 30
0.0
 10
0.4666019290777083
 20
-1.097180457180179
 30
0.0
 10
0.506539429077735
 20
-1.10568462384683
 30
0.0
 10
0.5464769290777364
 20
-1.10373254051347
 30
0.0
 10
0.5464769290777364
 20
-1.10373254051347
 30
0.0
  0
SPLINE
  5
91
330
1F
100
AcDbEntity
  8
Wood
 62
     7
420
 16777215
370
    20
100
AcDbSpline
210
0.0
220
0.0
230
1.0
 70
     8
 71
     3
 72
    14
 73
    10
 74
     0
 42
0.0000000001
 43
0.0000000001
 12
1.0
 22
0.0
 32
0.0
 13
1.0
 23
0.0
 33
0.0
 40
0.0
 40
0.0
 40
0.0
 40
0.0
 40
1.0
 40
1.0
 40
1.0
 40
2.0
 40
2.0
 40
2.0
 40
3.0
 40
3.0
 40
3.0
 40
3.0
 10
0.2617477624110683
 20
-1.139661707180166
 30
0.0
 10
0.2617477624110683
 20
-1.139661707180166
 30
0.0
 10
0.3234144290777168
 20
-1.133720040513506
 30
0.0
 10
0.3624352624110416
 20
-1.146945040513502
 30
0.0
 10
0.3989352624110501
 20
-1.159313790513478
 30
0.0
 10
0.4266852624110697
 20
-1.154228373846814
 30
0.0
 10
0.4666019290777083
 20
-1.162692957180171
 30
0.0
 10
0.506539429077735
 20
-1.171197123846822
 30
0.0
 10
0.5464769290777364
 20
-1.169242957180156
 30
0.0
 10
0.5464769290777364
 20
-1.169242957180156
 30
0.0
  0
SPLINE
  5
92
330
1F
100
AcDbEntity
  8
Wood
 62
     7
420
 16777215
370
    20
100
AcDbSpline
210
0.0
220
0.0
230
1.0
 70
     8
 71
     3
 72
    14
 73
    10
 74
     0
 42
0.0000000001
 43
0.0000000001
 12
1.0
 22
0.0
 32
0.0
 13
1.0
 23
0.0
 33
0.0
 40
0.0
 40
0.0
 40
0.0
 40
0.0
 40
1.0
 40
1.0
 40
1.0
 40
2.0
 40
2.0
 40
2.0
 40
3.0
 40
3.0
 40
3.0
 40
3.0
 10
0.2617477624110683
 20
-1.191745040513499
 30
0.0
 10
0.2617477624110683
 20
-1.191745040513499
 30
0.0
 10
0.3172080926364818
 20
-1.189567957180139
 30
0.0
 10
0.3554977624110683
 20
-1.202811707180167
 30
0.0
 10
0.3919164240825239
 20
-1.215405457180143
 30
0.0
 10
0.4266852624110697
 20
-1.206311707180147
 30
0.0
 10
0.4666019290777083
 20
-1.214776290513504
 30
0.0
 10
0.506539429077735
 20
-1.223280457180155
 30
0.0
 10
0.5482060957444016
 20
-1.233411707180166
 30
0.0
 10
0.5482060957444016
 20
-1.233411707180166
 30
0.0
  0
SPLINE
  5
93
330
1F
100
AcDbEntity
  8
Wood
 62
     7
420
 16777215
370
    20
100
AcDbSpline
210
0.0
220
0.0
230
1.0
 70
     8
 71
     3
 72
    14
 73
    10
 74
     0
 42
0.0000000001
 43
0.0000000001
 12
1.0
 22
0.0
 32
0.0
 13
1.0
 23
0.0
 33
0.0
 40
0.0
 40
0.0
 40
0.0
 40
0.0
 40
1.0
 40
1.0
 40
1.0
 40
2.0
 40
2.0
 40
2.0
 40
3.0
 40
3.0
 40
3.0
 40
3.0
 10
0.2617477624110683
 20
-1.255995040513476
 30
0.0
 10
0.2617477624110683
 20
-1.255995040513476
 30
0.0
 10
0.3203205925578534
 20
-1.256380457180158
 30
0.0
 10
0.3554977624110683
 20
-1.26852629051349
 30
0.0
 10
0.3919164240825239
 20
-1.281101290513511
 30
0.0
 10
0.4388310957444017
 20
-1.269951290513493
 30
0.0
 10
0.4787685957444031
 20
-1.278413790513494
 30
0.0
 10
0.5186852624110416
 20
-1.286917957180145
 30
0.0
 10
0.5482060957444016
 20
-1.297620040513468
 30
0.0
 10
0.5482060957444016
 20
-1.297620040513468
 30
0.0
  0
SPLINE
  5
94
330
1F
100
AcDbEntity
  8
Wood
 62
     7
420
 16777215
370
    20
100
AcDbSpline
210
0.0
220
0.0
230
1.0
 70
     8
 71
     3
 72
    14
 73
    10
 74
     0
 42
0.0000000001
 43
0.0000000001
 12
1.0
 22
0.0
 32
0.0
 13
1.0
 23
0.0
 33
0.0
 40
0.0
 40
0.0
 40
0.0
 40
0.0
 40
1.0
 40
1.0
 40
1.0
 40
2.0
 40
2.0
 40
2.0
 40
3.0
 40
3.0
 40
3.0
 40
3.0
 10
0.2617477624110683
 20
-1.313286707180143
 30
0.0
 10
0.2617477624110683
 20
-1.313286707180143
 30
0.0
 10
0.3203205925578534
 20
-1.312207540513504
 30
0.0
 10
0.3554977624110683
 20
-1.324313790513492
 30
0.0
 10
0.3919352624110893
 20
-1.336845040513506
 30
0.0
 10
0.4423102624110697
 20
-1.327080457180172
 30
0.0
 10
0.4822269290777083
 20
-1.335542957180173
 30
0.0
 10
0.522164429077735
 20
-1.344047123846824
 30
0.0
 10
0.5482060957444016
 20
-1.350395040513503
 30
0.0
 10
0.5482060957444016
 20
-1.350395040513503
 30
0.0
  0
SPLINE
  5
95
330
1F
100
AcDbEntity
  8
Wood
 62
     7
420
 16777215
370
    20
100
AcDbSpline
210
0.0
220
0.0
230
1.0
 70
     8
 71
     3
 72
    11
 73
     7
 74
     0
 42
0.0000000001
 43
0.0000000001
 12
1.0
 22
0.0
 32
0.0
 13
1.0
 23
0.0
 33
0.0
 40
0.0
 40
0.0
 40
0.0
 40
0.0
 40
1.0
 40
1.0
 40
1.0
 40
2.0
 40
2.0
 40
2.0
 40
2.0
 10
0.5499352624110416
 20
-1.090467957180155
 30
0.0
 10
0.5499352624110416
 20
-1.090467957180155
 30
0.0
 10
0.5916019290777083
 20
-1.080051290513489
 30
0.0
 10
0.6228519290777083
 20
-1.080051290513489
 30
0.0
 10
0.6228519290777083
 20
-1.080051290513489
 30
0.0
 10
0.6968476663793126
 20
-1.078301290513486
 30
0.0
 10
0.7263684989668869
 20
-1.074842957180155
 30
0.0
  0
SPLINE
  5
96
330
1F
100
AcDbEntity
  8
Wood
 62
     7
420
 16777215
370
    20
100
AcDbSpline
210
0.0
220
0.0
230
1.0
 70
     8
 71
     3
 72
    11
 73
     7
 74
     0
 42
0.0000000001
 43
0.0000000001
 12
1.0
 22
0.0
 32
0.0
 13
1.0
 23
0.0
 33
0.0
 40
0.0
 40
0.0
 40
0.0
 40
0.0
 40
1.0
 40
1.0
 40
1.0
 40
2.0
 40
2.0
 40
2.0
 40
2.0
 10
0.5499352624110416
 20
-1.146009623846819
 30
0.0
 10
0.5499352624110416
 20
-1.146009623846819
 30
0.0
 10
0.5916019290777083
 20
-1.135592957180153
 30
0.0
 10
0.6228519290777083
 20
-1.135592957180153
 30
0.0
 10
0.6228519290777083
 20
-1.135592957180153
 30
0.0
 10
0.6968476663793126
 20
-1.133842957180175
 30
0.0
 10
0.7263684989668869
 20
-1.130384623846819
 30
0.0
  0
SPLINE
  5
97
330
1F
100
AcDbEntity
  8
Wood
 62
     7
420
 16777215
370
    20
100
AcDbSpline
210
0.0
220
0.0
230
1.0
 70
     8
 71
     3
 72
    11
 73
     7
 74
     0
 42
0.0000000001
 43
0.0000000001
 12
1.0
 22
0.0
 32
0.0
 13
1.0
 23
0.0
 33
0.0
 40
0.0
 40
0.0
 40
0.0
 40
0.0
 40
1.0
 40
1.0
 40
1.0
 40
2.0
 40
2.0
 40
2.0
 40
2.0
 10
0.5499352624110416
 20
-1.265801290513486
 30
0.0
 10
0.5499352624110416
 20
-1.265801290513486
 30
0.0
 10
0.5916019290777083
 20
-1.255384623846819
 30
0.0
 10
0.6228519290777083
 20
-1.255384623846819
 30
0.0
 10
0.6228519290777083
 20
-1.255384623846819
 30
0.0
 10
0.6968476663793126
 20
-1.253634623846842
 30
0.0
 10
0.7263684989668869
 20
-1.250176290513486
 30
0.0
  0
SPLINE
  5
98
330
1F
100
AcDbEntity
  8
Wood
 62
     7
420
 16777215
370
    20
100
AcDbSpline
210
0.0
220
0.0
230
1.0
 70
     8
 71
     3
 72
    11
 73
     7
 74
     0
 42
0.0000000001
 43
0.0000000001
 12
1.0
 22
0.0
 32
0.0
 13
1.0
 23
0.0
 33
0.0
 40
0.0
 40
0.0
 40
0.0
 40
0.0
 40
1.0
 40
1.0
 40
1.0
 40
2.0
 40
2.0
 40
2.0
 40
2.0
 10
0.5499352624110416
 20
-1.328301290513486
 30
0.0
 10
0.5499352624110416
 20
-1.328301290513486
 30
0.0
 10
0.5916019290777083
 20
-1.317884623846819
 30
0.0
 10
0.6228519290777083
 20
-1.317884623846819
 30
0.0
 10
0.6228519290777083
 20
-1.317884623846819
 30
0.0
 10
0.6968476663793126
 20
-1.320772123846811
 30
0.0
 10
0.7263684989668869
 20
-1.317313790513506
 30
0.0
  0
SPLINE
  5
99
330
1F
100
AcDbEntity
  8
Wood
 62
     7
420
 16777215
370
    20
100
AcDbSpline
210
0.0
220
0.0
230
1.0
 70
     8
 71
     3
 72
    11
 73
     7
 74
     0
 42
0.0000000001
 43
0.0000000001
 12
1.0
 22
0.0
 32
0.0
 13
1.0
 23
0.0
 33
0.0
 40
0.0
 40
0.0
 40
0.0
 40
0.0
 40
1.0
 40
1.0
 40
1.0
 40
2.0
 40
2.0
 40
2.0
 40
2.0
 10
0.5499352624110416
 20
-1.392551290513489
 30
0.0
 10
0.5499352624110416
 20
-1.392551290513489
 30
0.0
 10
0.5916019290777083
 20
-1.382134623846822
 30
0.0
 10
0.6228519290777083
 20
-1.382134623846822
 30
0.0
 10
0.6228519290777083
 20
-1.382134623846822
 30
0.0
 10
0.6968476663793126
 20
-1.38498254051347
 30
0.0
 10
0.7263684989668869
 20
-1.381524207180165
 30
0.0
  0
SPLINE
  5
9A
330
1F
100
AcDbEntity
  8
Wood
 62
     7
420
 16777215
370
    20
100
AcDbSpline
210
0.0
220
0.0
230
1.0
 70
     8
 71
     3
 72
    11
 73
     7
 74
     0
 42
0.0000000001
 43
0.0000000001
 12
1.0
 22
0.0
 32
0.0
 13
1.0
 23
0.0
 33
0.0
 40
0.0
 40
0.0
 40
0.0
 40
0.0
 40
1.0
 40
1.0
 40
1.0
 40
2.0
 40
2.0
 40
2.0
 40
2.0
 10
0.5516852624110697
 20
-1.215467957180155
 30
0.0
 10
0.5516852624110697
 20
-1.215467957180155
 30
0.0
 10
0.600289429077735
 20
-1.194634623846822
 30
0.0
 10
0.631539429077735
 20
-1.194634623846822
 30
0.0
 10
0.631539429077735
 20
-1.194634623846822
 30
0.0
 10
0.6992477624110683
 20
-1.194634623846822
 30
0.0
 10
0.728768595744403
 20
-1.19117420718016
 30
0.0
  0
SPLINE
  5
9B
330
1F
100
AcDbEntity
  8
Wood
 62
     7
420
 16777215
370
    20
100
AcDbSpline
210
0.0
220
0.0
230
1.0
 70
     8
 71
     3
 72
    14
 73
    10
 74
     0
 42
0.0000000001
 43
0.0000000001
 12
1.0
 22
0.0
 32
0.0
 13
1.0
 23
0.0
 33
0.0
 40
0.0
 40
0.0
 40
0.0
 40
0.0
 40
1.0
 40
1.0
 40
1.0
 40
2.0
 40
2.0
 40
2.0
 40
3.0
 40
3.0
 40
3.0
 40
3.0
 10
0.7304977624110683
 20
-1.105970040513486
 30
0.0
 10
0.7304977624110683
 20
-1.105970040513486
 30
0.0
 10
0.8072393302572511
 20
-1.15123879051349
 30
0.0
 10
0.8554977624110682
 20
-1.154676290513508
 30
0.0
 10
0.9096164110043219
 20
-1.158540873846833
 30
0.0
 10
0.9544560957444016
 20
-1.176934623846844
 30
0.0
 10
0.994393595744403
 20
-1.193901290513496
 30
0.0
 10
1.034310262411042
 20
-1.210909623846823
 30
0.0
 10
1.105497762411068
 20
-1.252455457180177
 30
0.0
 10
1.105497762411068
 20
-1.252455457180177
 30
0.0
  0
SPLINE
  5
9C
330
1F
100
AcDbEntity
  8
Wood
 62
     7
420
 16777215
370
    20
100
AcDbSpline
210
0.0
220
0.0
230
1.0
 70
     8
 71
     3
 72
    14
 73
    10
 74
     0
 42
0.0000000001
 43
0.0000000001
 12
1.0
 22
0.0
 32
0.0
 13
1.0
 23
0.0
 33
0.0
 40
0.0
 40
0.0
 40
0.0
 40
0.0
 40
1.0
 40
1.0
 40
1.0
 40
2.0
 40
2.0
 40
2.0
 40
3.0
 40
3.0
 40
3.0
 40
3.0
 10
0.7304977624110683
 20
-1.168470040513486
 30
0.0
 10
0.7304977624110683
 20
-1.168470040513486
 30
0.0
 10
0.7985122471443825
 20
-1.214713790513492
 30
0.0
 10
0.8468102624110416
 20
-1.217582540513503
 30
0.0
 10
0.897224744650695
 20
-1.220574207180157
 30
0.0
 10
0.947518595744403
 20
-1.241834623846848
 30
0.0
 10
0.9874352624110416
 20
-1.258842957180175
 30
0.0
 10
1.027372762411068
 20
-1.275809623846827
 30
0.0
 10
1.105497762411068
 20
-1.314955457180177
 30
0.0
 10
1.105497762411068
 20
-1.314955457180177
 30
0.0
  0
SPLINE
  5
9D
330
1F
100
AcDbEntity
  8
Wood
 62
     7
420
 16777215
370
    20
100
AcDbSpline
210
0.0
220
0.0
230
1.0
 70
     8
 71
     3
 72
    14
 73
    10
 74
     0
 42
0.0000000001
 43
0.0000000001
 12
1.0
 22
0.0
 32
0.0
 13
1.0
 23
0.0
 33
0.0
 40
0.0
 40
0.0
 40
0.0
 40
0.0
 40
1.0
 40
1.0
 40
1.0
 40
2.0
 40
2.0
 40
2.0
 40
3.0
 40
3.0
 40
3.0
 40
3.0
 10
0.7304977624110683
 20
-1.232720040513515
 30
0.0
 10
0.7304977624110683
 20
-1.232720040513515
 30
0.0
 10
0.798572663809523
 20
-1.277865873846824
 30
0.0
 10
0.8468102624110416
 20
-1.28183254051348
 30
0.0
 10
0.8941122447293234
 20
-1.285717957180143
 30
0.0
 10
0.947518595744403
 20
-1.306084623846825
 30
0.0
 10
0.9874352624110416
 20
-1.323051290513503
 30
0.0
 10
1.027372762411068
 20
-1.34005962384683
 30
0.0
 10
1.105497762411068
 20
-1.379163790513505
 30
0.0
 10
1.105497762411068
 20
-1.379163790513505
 30
0.0
  0
SPLINE
  5
9E
330
1F
100
AcDbEntity
  8
Wood
 62
     7
420
 16777215
370
    20
100
AcDbSpline
210
0.0
220
0.0
230
1.0
 70
     8
 71
     3
 72
    14
 73
    10
 74
     0
 42
0.0000000001
 43
0.0000000001
 12
1.0
 22
0.0
 32
0.0
 13
1.0
 23
0.0
 33
0.0
 40
0.0
 40
0.0
 40
0.0
 40
0.0
 40
1.0
 40
1.0
 40
1.0
 40
2.0
 40
2.0
 40
2.0
 40
3.0
 40
3.0
 40
3.0
 40
3.0
 10
0.7304977624110683
 20
-1.295911707180166
 30
0.0
 10
0.7304977624110683
 20
-1.295911707180166
 30
0.0
 10
0.79859349714233
 20
-1.345330457180151
 30
0.0
 10
0.8468102624110416
 20
-1.349540873846814
 30
0.0
 10
0.897224744650695
 20
-1.353934623846827
 30
0.0
 10
0.947518595744403
 20
-1.36777004051348
 30
0.0
 10
0.9874352624110416
 20
-1.384738790513489
 30
0.0
 10
1.027372762411068
 20
-1.401747123846816
 30
0.0
 10
1.105497762411068
 20
-1.446872123846838
 30
0.0
 10
1.105497762411068
 20
-1.446872123846838
 30
0.0
  0
SPLINE
  5
9F
330
1F
100
AcDbEntity
  8
Wood
 62
     7
420
 16777215
370
    20
100
AcDbSpline
210
0.0
220
0.0
230
1.0
 70
     8
 71
     3
 72
    14
 73
    10
 74
     0
 42
0.0000000001
 43
0.0000000001
 12
1.0
 22
0.0
 32
0.0
 13
1.0
 23
0.0
 33
0.0
 40
0.0
 40
0.0
 40
0.0
 40
0.0
 40
1.0
 40
1.0
 40
1.0
 40
2.0
 40
2.0
 40
2.0
 40
3.0
 40
3.0
 40
3.0
 40
3.0
 10
0.7304977624110683
 20
-1.358411707180166
 30
0.0
 10
0.7304977624110683
 20
-1.358411707180166
 30
0.0
 10
0.7940351639241499
 20
-1.401440873846822
 30
0.0
 10
0.8468102624110416
 20
-1.412040873846814
 30
0.0
 10
0.897224744650695
 20
-1.422172123846824
 30
0.0
 10
0.9561852624110416
 20
-1.44007629051349
 30
0.0
 10
0.9961227624110682
 20
-1.457045040513498
 30
0.0
 10
1.03606026241107
 20
-1.474053373846825
 30
0.0
 10
1.105497762411068
 20
-1.509372123846838
 30
0.0
 10
1.105497762411068
 20
-1.509372123846838
 30
0.0
  0
SPLINE
  5
A0
330
1F
100
AcDbEntity
  8
Wood
 62
     7
420
 16777215
370
    20
100
AcDbSpline
210
0.0
220
0.0
230
1.0
 70
     8
 71
     3
 72
    14
 73
    10
 74
     0
 42
0.0000000001
 43
0.0000000001
 12
1.0
 22
0.0
 32
0.0
 13
1.0
 23
0.0
 33
0.0
 40
0.0
 40
0.0
 40
0.0
 40
0.0
 40
1.0
 40
1.0
 40
1.0
 40
2.0
 40
2.0
 40
2.0
 40
3.0
 40
3.0
 40
3.0
 40
3.0
 10
0.7304977624110683
 20
-1.420340873846827
 30
0.0
 10
0.7304977624110683
 20
-1.420340873846827
 30
0.0
 10
0.7984914138115755
 20
-1.475803373846828
 30
0.0
 10
0.8468102624110416
 20
-1.478488790513489
 30
0.0
 10
0.8941122447293234
 20
-1.481111707180137
 30
0.0
 10
0.947518595744403
 20
-1.499728373846842
 30
0.0
 10
0.9874352624110416
 20
-1.516695040513494
 30
0.0
 10
1.027372762411068
 20
-1.533705457180177
 30
0.0
 10
1.105497762411068
 20
-1.578830457180149
 30
0.0
 10
1.105497762411068
 20
-1.578830457180149
 30
0.0
  0
SPLINE
  5
A1
330
1F
100
AcDbEntity
  8
Wood
 62
     7
420
 16777215
370
    20
100
AcDbSpline
210
0.0
220
0.0
230
1.0
 70
     8
 71
     3
 72
    14
 73
    10
 74
     0
 42
0.0000000001
 43
0.0000000001
 12
1.0
 22
0.0
 32
0.0
 13
1.0
 23
0.0
 33
0.0
 40
0.0
 40
0.0
 40
0.0
 40
0.0
 40
1.0
 40
1.0
 40
1.0
 40
2.0
 40
2.0
 40
2.0
 40
3.0
 40
3.0
 40
3.0
 40
3.0
 10
0.0661705989782225
 20
-1.784232540513484
 30
0.0
 10
0.0661705989782225
 20
-1.784232540513484
 30
0.0
 10
0.1232185142037376
 20
-1.843620040513492
 30
0.0
 10
0.1661455964526415
 20
-1.84982629051347
 30
0.0
 10
0.2117601786336536
 20
-1.856417957180181
 30
0.0
 10
0.2328789281001491
 20
-1.877820040513496
 30
0.0
 10
0.2732435104137872
 20
-1.894870040513499
 30
0.0
 10
0.3136080927274255
 20
-1.911917957180145
 30
0.0
 10
0.3584268415952086
 20
-1.940972123846803
 30
0.0
 10
0.3584268415952086
 20
-1.940972123846803
 30
0.0
  0
SPLINE
  5
A2
330
1F
100
AcDbEntity
  8
Wood
 62
     7
420
 16777215
370
    20
100
AcDbSpline
210
0.0
220
0.0
230
1.0
 70
     8
 71
     3
 72
    14
 73
    10
 74
     0
 42
0.0000000001
 43
0.0000000001
 12
1.0
 22
0.0
 32
0.0
 13
1.0
 23
0.0
 33
0.0
 40
0.0
 40
0.0
 40
0.0
 40
0.0
 40
1.0
 40
1.0
 40
1.0
 40
2.0
 40
2.0
 40
2.0
 40
3.0
 40
3.0
 40
3.0
 40
3.0
 10
0.0665372656356264
 20
-1.715467957180155
 30
0.0
 10
0.0665372656356264
 20
-1.715467957180155
 30
0.0
 10
0.1249060141611077
 20
-1.768751290513491
 30
0.0
 10
0.1664726797777121
 20
-1.78101795718016
 30
0.0
 10
0.2117601786336536
 20
-1.794384623846832
 30
0.0
 10
0.2332039280919389
 20
-1.809053373846811
 30
0.0
 10
0.2735685104055771
 20
-1.826103373846814
 30
0.0
 10
0.3139330927192153
 20
-1.843111707180141
 30
0.0
 10
0.3587539249202791
 20
-1.872163790513494
 30
0.0
 10
0.3587539249202791
 20
-1.872163790513494
 30
0.0
  0
SPLINE
  5
A3
330
1F
100
AcDbEntity
  8
Wood
 62
     7
420
 16777215
370
    20
100
AcDbSpline
210
0.0
220
0.0
230
1.0
 70
     8
 71
     3
 72
    14
 73
    10
 74
     0
 42
0.0000000001
 43
0.0000000001
 12
1.0
 22
0.0
 32
0.0
 13
1.0
 23
0.0
 33
0.0
 40
0.0
 40
0.0
 40
0.0
 40
0.0
 40
1.0
 40
1.0
 40
1.0
 40
2.0
 40
2.0
 40
2.0
 40
3.0
 40
3.0
 40
3.0
 40
3.0
 10
0.0668622656274162
 20
-1.644707540513486
 30
0.0
 10
0.0668622656274162
 20
-1.644707540513486
 30
0.0
 10
0.1265560141194252
 20
-1.693167957180145
 30
0.0
 10
0.1686289297232406
 20
-1.70370754051348
 30
0.0
 10
0.208647678712282
 20
-1.71373879051349
 30
0.0
 10
0.2335289280837287
 20
-1.738295040513498
 30
0.0
 10
0.273893595744375
 20
-1.755342957180169
 30
0.0
 10
0.3142997593766191
 20
-1.772392957180172
 30
0.0
 10
0.3590997582448759
 20
-1.801445040513474
 30
0.0
 10
0.3590997582448759
 20
-1.801445040513474
 30
0.0
  0
SPLINE
  5
A4
330
1F
100
AcDbEntity
  8
Wood
 62
     7
420
 16777215
370
    20
100
AcDbSpline
210
0.0
220
0.0
230
1.0
 70
     8
 71
     3
 72
    14
 73
    10
 74
     0
 42
0.0000000001
 43
0.0000000001
 12
1.0
 22
0.0
 32
0.0
 13
1.0
 23
0.0
 33
0.0
 40
0.0
 40
0.0
 40
0.0
 40
0.0
 40
1.0
 40
1.0
 40
1.0
 40
2.0
 40
2.0
 40
2.0
 40
3.0
 40
3.0
 40
3.0
 40
3.0
 10
0.0671476822868726
 20
-1.585747123846835
 30
0.0
 10
0.0671476822868726
 20
-1.585747123846835
 30
0.0
 10
0.1205539309377173
 20
-1.615207540513489
 30
0.0
 10
0.1619144290777083
 20
-1.628267957180141
 30
0.0
 10
0.202441428869065
 20
-1.64106587384683
 30
0.0
 10
0.2338539280755185
 20
-1.679334623846848
 30
0.0
 10
0.2742185103891567
 20
-1.696382540513494
 30
0.0
 10
0.3145830927027949
 20
-1.713432540513496
 30
0.0
 10
0.3597101748961222
 20
-1.72995337384681
 30
0.0
 10
0.3597101748961222
 20
-1.72995337384681
 30
0.0
  0
SPLINE
  5
A5
330
1F
100
AcDbEntity
  8
Wood
 62
     7
420
 16777215
370
    20
100
AcDbSpline
210
0.0
220
0.0
230
1.0
 70
     8
 71
     3
 72
    14
 73
    10
 74
     0
 42
0.0000000001
 43
0.0000000001
 12
1.0
 22
0.0
 32
0.0
 13
1.0
 23
0.0
 33
0.0
 40
0.0
 40
0.0
 40
0.0
 40
0.0
 40
1.0
 40
1.0
 40
1.0
 40
2.0
 40
2.0
 40
2.0
 40
3.0
 40
3.0
 40
3.0
 40
3.0
 10
0.0675143489442765
 20
-1.513034623846832
 30
0.0
 10
0.0675143489442765
 20
-1.513034623846832
 30
0.0
 10
0.1216310142438412
 20
-1.541313790513515
 30
0.0
 10
0.1623205965492692
 20
-1.556286707180157
 30
0.0
 10
0.202441428869065
 20
-1.571057540513468
 30
0.0
 10
0.2464685110901807
 20
-1.615409623846846
 30
0.0
 10
0.2868330934038189
 20
-1.632459623846848
 30
0.0
 10
0.3271976757174571
 20
-1.649507540513494
 30
0.0
 10
0.3571060082952423
 20
-1.657076290513512
 30
0.0
 10
0.3571060082952423
 20
-1.657076290513512
 30
0.0
  0
SPLINE
  5
A6
330
1F
100
AcDbEntity
  8
Wood
 62
     7
420
 16777215
370
    20
100
AcDbSpline
210
0.0
220
0.0
230
1.0
 70
     8
 71
     3
 72
    14
 73
    10
 74
     0
 42
0.0000000001
 43
0.0000000001
 12
1.0
 22
0.0
 32
0.0
 13
1.0
 23
0.0
 33
0.0
 40
0.0
 40
0.0
 40
0.0
 40
0.0
 40
1.0
 40
1.0
 40
1.0
 40
2.0
 40
2.0
 40
2.0
 40
3.0
 40
3.0
 40
3.0
 40
3.0
 10
0.0678393489360663
 20
-1.448174207180172
 30
0.0
 10
0.0678393489360663
 20
-1.448174207180172
 30
0.0
 10
0.1204914309392962
 20
-1.482822123846846
 30
0.0
 10
0.1626060132087256
 20
-1.493136707180181
 30
0.0
 10
0.214851929077756
 20
-1.505932540513514
 30
0.0
 10
0.250293510993553
 20
-1.553072123846833
 30
0.0
 10
0.2906580933071912
 20
-1.570122123846835
 30
0.0
 10
0.3310226756208294
 20
-1.587130457180163
 30
0.0
 10
0.3573893416214181
 20
-1.597384623846842
 30
0.0
 10
0.3573893416214181
 20
-1.597384623846842
 30
0.0
  0
SPLINE
  5
A7
330
1F
100
AcDbEntity
  8
Wood
 62
     7
420
 16777215
370
    20
100
AcDbSpline
210
0.0
220
0.0
230
1.0
 70
     8
 71
     3
 72
    11
 73
     7
 74
     0
 42
0.0000000001
 43
0.0000000001
 12
1.0
 22
0.0
 32
0.0
 13
1.0
 23
0.0
 33
0.0
 40
0.0
 40
0.0
 40
0.0
 40
0.0
 40
1.0
 40
1.0
 40
1.0
 40
2.0
 40
2.0
 40
2.0
 40
2.0
 10
0.364714341436373
 20
-1.97836587384682
 30
0.0
 10
0.364714341436373
 20
-1.97836587384682
 30
0.0
 10
0.4111019290777449
 20
-1.983167957180159
 30
0.0
 10
0.4459310060513341
 20
-1.978080457180163
 30
0.0
 10
0.4459310060513341
 20
-1.978080457180163
 30
0.0
 10
0.5283289206364543
 20
-1.967990873846828
 30
0.0
 10
0.5612060957444226
 20
-1.96701379051347
 30
0.0
  0
SPLINE
  5
A8
330
1F
100
AcDbEntity
  8
Wood
 62
     7
420
 16777215
370
    20
100
AcDbSpline
210
0.0
220
0.0
230
1.0
 70
     8
 71
     3
 72
    11
 73
     7
 74
     0
 42
0.0000000001
 43
0.0000000001
 12
1.0
 22
0.0
 32
0.0
 13
1.0
 23
0.0
 33
0.0
 40
0.0
 40
0.0
 40
0.0
 40
0.0
 40
1.0
 40
1.0
 40
1.0
 40
2.0
 40
2.0
 40
2.0
 40
2.0
 10
0.364714341436373
 20
-1.916476290513502
 30
0.0
 10
0.364714341436373
 20
-1.916476290513502
 30
0.0
 10
0.4111019290777449
 20
-1.921278373846816
 30
0.0
 10
0.4459310060513341
 20
-1.916190873846846
 30
0.0
 10
0.4459310060513341
 20
-1.916190873846846
 30
0.0
 10
0.5283289206364543
 20
-1.906059623846835
 30
0.0
 10
0.5612060957444226
 20
-1.905124207180153
 30
0.0
  0
SPLINE
  5
A9
330
1F
100
AcDbEntity
  8
Wood
 62
     7
420
 16777215
370
    20
100
AcDbSpline
210
0.0
220
0.0
230
1.0
 70
     8
 71
     3
 72
    11
 73
     7
 74
     0
 42
0.0000000001
 43
0.0000000001
 12
1.0
 22
0.0
 32
0.0
 13
1.0
 23
0.0
 33
0.0
 40
0.0
 40
0.0
 40
0.0
 40
0.0
 40
1.0
 40
1.0
 40
1.0
 40
2.0
 40
2.0
 40
2.0
 40
2.0
 10
0.364714341436373
 20
-1.783011707180145
 30
0.0
 10
0.364714341436373
 20
-1.783011707180145
 30
0.0
 10
0.4111019290777449
 20
-1.787855457180159
 30
0.0
 10
0.4459310060513341
 20
-1.782728373846819
 30
0.0
 10
0.4459310060513341
 20
-1.782728373846819
 30
0.0
 10
0.5283289206364543
 20
-1.772636707180153
 30
0.0
 10
0.5612060957444226
 20
-1.771659623846846
 30
0.0
  0
SPLINE
  5
AA
330
1F
100
AcDbEntity
  8
Wood
 62
     7
420
 16777215
370
    20
100
AcDbSpline
210
0.0
220
0.0
230
1.0
 70
     8
 71
     3
 72
    11
 73
     7
 74
     0
 42
0.0000000001
 43
0.0000000001
 12
1.0
 22
0.0
 32
0.0
 13
1.0
 23
0.0
 33
0.0
 40
0.0
 40
0.0
 40
0.0
 40
0.0
 40
1.0
 40
1.0
 40
1.0
 40
2.0
 40
2.0
 40
2.0
 40
2.0
 10
0.364714341436373
 20
-1.713392957180177
 30
0.0
 10
0.364714341436373
 20
-1.713392957180177
 30
0.0
 10
0.4111019290777449
 20
-1.71823462384681
 30
0.0
 10
0.4459310060513341
 20
-1.71310754051347
 30
0.0
 10
0.4459310060513341
 20
-1.71310754051347
 30
0.0
 10
0.5283289206364543
 20
-1.69788879051349
 30
0.0
 10
0.5612060957444226
 20
-1.696911707180157
 30
0.0
  0
SPLINE
  5
AB
330
1F
100
AcDbEntity
  8
Wood
 62
     7
420
 16777215
370
    20
100
AcDbSpline
210
0.0
220
0.0
230
1.0
 70
     8
 71
     3
 72
    11
 73
     7
 74
     0
 42
0.0000000001
 43
0.0000000001
 12
1.0
 22
0.0
 32
0.0
 13
1.0
 23
0.0
 33
0.0
 40
0.0
 40
0.0
 40
0.0
 40
0.0
 40
1.0
 40
1.0
 40
1.0
 40
2.0
 40
2.0
 40
2.0
 40
2.0
 10
0.364714341436373
 20
-1.641859623846838
 30
0.0
 10
0.364714341436373
 20
-1.641859623846838
 30
0.0
 10
0.4111019290777449
 20
-1.646659623846846
 30
0.0
 10
0.4459310060513341
 20
-1.641574207180181
 30
0.0
 10
0.4459310060513341
 20
-1.641574207180181
 30
0.0
 10
0.5283289206364543
 20
-1.626315873846832
 30
0.0
 10
0.5612060957444226
 20
-1.625378373846817
 30
0.0
  0
SPLINE
  5
AC
330
1F
100
AcDbEntity
  8
Wood
 62
     7
420
 16777215
370
    20
100
AcDbSpline
210
0.0
220
0.0
230
1.0
 70
     8
 71
     3
 72
    11
 73
     7
 74
     0
 42
0.0000000001
 43
0.0000000001
 12
1.0
 22
0.0
 32
0.0
 13
1.0
 23
0.0
 33
0.0
 40
0.0
 40
0.0
 40
0.0
 40
0.0
 40
1.0
 40
1.0
 40
1.0
 40
2.0
 40
2.0
 40
2.0
 40
2.0
 10
0.3666268413880592
 20
-1.83883879051349
 30
0.0
 10
0.3666268413880592
 20
-1.83883879051349
 30
0.0
 10
0.420785173353238
 20
-1.854099207180171
 30
0.0
 10
0.4555747558077125
 20
-1.84901170718015
 30
0.0
 10
0.4555747558077125
 20
-1.84901170718015
 30
0.0
 10
0.5310143372352816
 20
-1.837984623846801
 30
0.0
 10
0.56389141973807
 20
-1.837049207180169
 30
0.0
  0
SPLINE
  5
AD
330
1F
100
AcDbEntity
  8
Wood
 62
     7
420
 16777215
370
    20
100
AcDbSpline
210
0.0
220
0.0
230
1.0
 70
     8
 71
     3
 72
    14
 73
    10
 74
     0
 42
0.0000000001
 43
0.0000000001
 12
1.0
 22
0.0
 32
0.0
 13
1.0
 23
0.0
 33
0.0
 40
0.0
 40
0.0
 40
0.0
 40
0.0
 40
1.0
 40
1.0
 40
1.0
 40
2.0
 40
2.0
 40
2.0
 40
3.0
 40
3.0
 40
3.0
 40
3.0
 10
0.5742080861441157
 20
-2.008638790513512
 30
0.0
 10
0.5742080861441157
 20
-2.008638790513512
 30
0.0
 10
0.6530247508197059
 20
-2.010776290513503
 30
0.0
 10
0.6954643330809251
 20
-2.031792957180162
 30
0.0
 10
0.7421351652352541
 20
-2.05490337384683
 30
0.0
 10
0.7914518306560769
 20
-2.06308254051348
 30
0.0
 10
0.8301684963446784
 20
-2.067559623846844
 30
0.0
 10
0.8689059953660868
 20
-2.07211587384682
 30
0.0
 10
0.9379560957443749
 20
-2.068820040513502
 30
0.0
 10
0.9379560957443749
 20
-2.068820040513502
 30
0.0
  0
SPLINE
  5
AE
330
1F
100
AcDbEntity
  8
Wood
 62
     7
420
 16777215
370
    20
100
AcDbSpline
210
0.0
220
0.0
230
1.0
 70
     8
 71
     3
 72
    14
 73
    10
 74
     0
 42
0.0000000001
 43
0.0000000001
 12
1.0
 22
0.0
 32
0.0
 13
1.0
 23
0.0
 33
0.0
 40
0.0
 40
0.0
 40
0.0
 40
0.0
 40
1.0
 40
1.0
 40
1.0
 40
2.0
 40
2.0
 40
2.0
 40
3.0
 40
3.0
 40
3.0
 40
3.0
 10
0.5742080861441157
 20
-1.945609623846824
 30
0.0
 10
0.5742080861441157
 20
-1.945609623846824
 30
0.0
 10
0.6425664177505723
 20
-1.947359623846801
 30
0.0
 10
0.6870414166270393
 20
-1.963676290513503
 30
0.0
 10
0.7328372488034726
 20
-1.980482540513498
 30
0.0
 10
0.7847164141595613
 20
-1.993786707180157
 30
0.0
 10
0.8234539131809697
 20
-1.998345040513515
 30
0.0
 10
0.8621914122023782
 20
-2.002861707180172
 30
0.0
 10
0.9379560957443749
 20
-2.005790873846814
 30
0.0
 10
0.9379560957443749
 20
-2.005790873846814
 30
0.0
  0
SPLINE
  5
AF
330
1F
100
AcDbEntity
  8
Wood
 62
     7
420
 16777215
370
    20
100
AcDbSpline
210
0.0
220
0.0
230
1.0
 70
     8
 71
     3
 72
    14
 73
    10
 74
     0
 42
0.0000000001
 43
0.0000000001
 12
1.0
 22
0.0
 32
0.0
 13
1.0
 23
0.0
 33
0.0
 40
0.0
 40
0.0
 40
0.0
 40
0.0
 40
1.0
 40
1.0
 40
1.0
 40
2.0
 40
2.0
 40
2.0
 40
3.0
 40
3.0
 40
3.0
 40
3.0
 10
0.5742080861441157
 20
-1.879326290513493
 30
0.0
 10
0.5742080861441157
 20
-1.879326290513493
 30
0.0
 10
0.643462251061275
 20
-1.880303373846825
 30
0.0
 10
0.6870414166270393
 20
-1.898897123846811
 30
0.0
 10
0.7328372488034726
 20
-1.918449207180149
 30
0.0
 10
0.7847164141595613
 20
-1.929049207180141
 30
0.0
 10
0.8234539131809697
 20
-1.933565873846823
 30
0.0
 10
0.8621914122023782
 20
-1.93808254051348
 30
0.0
 10
0.9379560957443749
 20
-1.941011707180173
 30
0.0
 10
0.9379560957443749
 20
-1.941011707180173
 30
0.0
  0
SPLINE
  5
B0
330
1F
100
AcDbEntity
  8
Wood
 62
     7
420
 16777215
370
    20
100
AcDbSpline
210
0.0
220
0.0
230
1.0
 70
     8
 71
     3
 72
    14
 73
    10
 74
     0
 42
0.0000000001
 43
0.0000000001
 12
1.0
 22
0.0
 32
0.0
 13
1.0
 23
0.0
 33
0.0
 40
0.0
 40
0.0
 40
0.0
 40
0.0
 40
1.0
 40
1.0
 40
1.0
 40
2.0
 40
2.0
 40
2.0
 40
3.0
 40
3.0
 40
3.0
 40
3.0
 10
0.5742080861441157
 20
-1.817070040513474
 30
0.0
 10
0.5742080861441157
 20
-1.817070040513474
 30
0.0
 10
0.6445810957444311
 20
-1.8095825405135
 30
0.0
 10
0.6870414166270393
 20
-1.830620040513496
 30
0.0
 10
0.7328372488034726
 20
-1.853305457180163
 30
0.0
 10
0.7847164141595613
 20
-1.866834623846848
 30
0.0
 10
0.8234539131809697
 20
-1.871351290513505
 30
0.0
 10
0.8621914122023782
 20
-1.875867957180137
 30
0.0
 10
0.9379560957443749
 20
-1.872734623846832
 30
0.0
 10
0.9379560957443749
 20
-1.872734623846832
 30
0.0
  0
SPLINE
  5
B1
330
1F
100
AcDbEntity
  8
Wood
 62
     7
420
 16777215
370
    20
100
AcDbSpline
210
0.0
220
0.0
230
1.0
 70
     8
 71
     3
 72
    14
 73
    10
 74
     0
 42
0.0000000001
 43
0.0000000001
 12
1.0
 22
0.0
 32
0.0
 13
1.0
 23
0.0
 33
0.0
 40
0.0
 40
0.0
 40
0.0
 40
0.0
 40
1.0
 40
1.0
 40
1.0
 40
2.0
 40
2.0
 40
2.0
 40
3.0
 40
3.0
 40
3.0
 40
3.0
 10
0.5742080861441157
 20
-1.751030457180175
 30
0.0
 10
0.5742080861441157
 20
-1.751030457180175
 30
0.0
 10
0.643053917738257
 20
-1.744845040513484
 30
0.0
 10
0.6870414166270393
 20
-1.767590873846807
 30
0.0
 10
0.7328372488034726
 20
-1.791272123846839
 30
0.0
 10
0.7931393306134471
 20
-1.798597123846826
 30
0.0
 10
0.8318768296348555
 20
-1.803113790513508
 30
0.0
 10
0.870593495323457
 20
-1.807670040513484
 30
0.0
 10
0.9379560957443749
 20
-1.809705457180169
 30
0.0
 10
0.9379560957443749
 20
-1.809705457180169
 30
0.0
  0
SPLINE
  5
B2
330
1F
100
AcDbEntity
  8
Wood
 62
     7
420
 16777215
370
    20
100
AcDbSpline
210
0.0
220
0.0
230
1.0
 70
     8
 71
     3
 72
    14
 73
    10
 74
     0
 42
0.0000000001
 43
0.0000000001
 12
1.0
 22
0.0
 32
0.0
 13
1.0
 23
0.0
 33
0.0
 40
0.0
 40
0.0
 40
0.0
 40
0.0
 40
1.0
 40
1.0
 40
1.0
 40
2.0
 40
2.0
 40
2.0
 40
3.0
 40
3.0
 40
3.0
 40
3.0
 10
0.5742080861441157
 20
-1.685601290513483
 30
0.0
 10
0.5742080861441157
 20
-1.685601290513483
 30
0.0
 10
0.6415705844423958
 20
-1.68726795718016
 30
0.0
 10
0.6870414166270393
 20
-1.70057420718015
 30
0.0
 10
0.7325122488116828
 20
-1.713880457180165
 30
0.0
 10
0.7863455807850717
 20
-1.726270040513504
 30
0.0
 10
0.8234539131809697
 20
-1.738253373846823
 30
0.0
 10
0.8724039119443887
 20
-1.754061707180148
 30
0.0
 10
0.9379560957443749
 20
-1.73963670718015
 30
0.0
 10
0.9379560957443749
 20
-1.73963670718015
 30
0.0
  0
POLYLINE
  5
B3
330
1F
100
AcDbEntity
  8
Wood
 62
     7
420
 16777215
370
    40
100
AcDb2dPolyline
 66
     1
 10
0.0
 20
0.0
 30
0.0
  0
VERTEX
  5
B4
330
B3
100
AcDbEntity
  8
Wood
 62
     7
420
 16777215
370
    40
100
AcDbVertex
100
AcDb2dVertex
 10
0.7009769290777083
 20
-0.3167450405134989
 30
0.0
  0
VERTEX
  5
B5
330
B3
100
AcDbEntity
  8
Wood
 62
     7
420
 16777215
370
    40
100
AcDbVertex
100
AcDb2dVertex
 10
0.7982060957444016
 20
0.0721299594865236
 30
0.0
  0
VERTEX
  5
B6
330
B3
100
AcDbEntity
  8
Wood
 62
     7
420
 16777215
370
    40
100
AcDbVertex
100
AcDb2dVertex
 10
0.728768595744403
 20
0.1693799594865039
 30
0.0
  0
VERTEX
  5
B7
330
B3
100
AcDbEntity
  8
Wood
 62
     7
420
 16777215
370
    40
100
AcDbVertex
100
AcDb2dVertex
 10
0.8641852624110697
 20
0.2249216261531678
 30
0.0
  0
VERTEX
  5
B8
330
B3
100
AcDbEntity
  8
Wood
 62
     7
420
 16777215
370
    40
100
AcDbVertex
100
AcDb2dVertex
 10
0.8433519290777364
 20
0.2561716261531678
 30
0.0
  0
VERTEX
  5
B9
330
B3
100
AcDbEntity
  8
Wood
 62
     7
420
 16777215
370
    40
100
AcDbVertex
100
AcDb2dVertex
 10
0.9509769290777083
 20
0.6971299594865236
 30
0.0
  0
VERTEX
  5
BA
330
B3
100
AcDbEntity
  8
Wood
 62
     7
420
 16777215
370
    40
100
AcDbVertex
100
AcDb2dVertex
 10
1.228768595744403
 20
0.7804632928198568
 30
0.0
  0
VERTEX
  5
BB
330
B3
100
AcDbEntity
  8
Wood
 62
     7
420
 16777215
370
    40
100
AcDbVertex
100
AcDb2dVertex
 10
2.846810262411054
 20
-0.1535367071801627
 30
0.0
  0
VERTEX
  5
BC
330
B3
100
AcDbEntity
  8
Wood
 62
     7
420
 16777215
370
    40
100
AcDbVertex
100
AcDb2dVertex
 10
2.849820528657296
 20
-1.435274207180151
 30
0.0
  0
VERTEX
  5
BD
330
B3
100
AcDbEntity
  8
Wood
 62
     7
420
 16777215
370
    40
100
AcDbVertex
100
AcDb2dVertex
 10
2.614185262411057
 20
-1.653536707180163
 30
0.0
  0
VERTEX
  5
BE
330
B3
100
AcDbEntity
  8
Wood
 62
     7
420
 16777215
370
    40
100
AcDbVertex
100
AcDb2dVertex
 10
1.822518595744403
 20
-1.101453373846829
 30
0.0
  0
VERTEX
  5
BF
330
B3
100
AcDbEntity
  8
Wood
 62
     7
420
 16777215
370
    40
100
AcDbVertex
100
AcDb2dVertex
 10
1.822518595744403
 20
-0.736870040513496
 30
0.0
  0
VERTEX
  5
C0
330
B3
100
AcDbEntity
  8
Wood
 62
     7
420
 16777215
370
    40
100
AcDbVertex
100
AcDb2dVertex
 10
1.02043526241107
 20
-0.5424533738468098
 30
0.0
  0
VERTEX
  5
C1
330
B3
100
AcDbEntity
  8
Wood
 62
     7
420
 16777215
370
    40
100
AcDbVertex
100
AcDb2dVertex
 10
0.7009769290777083
 20
-0.3167450405134989
 30
0.0
  0
SEQEND
  5
C3
330
B3
100
AcDbEntity
  8
Wood
 62
     7
420
 16777215
370
    40
  0
HATCH
  5
C2
330
1F
100
AcDbEntity
  8
Wood
 62
    43
420
 15510365
100
AcDbHatch
 10
0.0
 20
0.0
 30
0.0
210
0.0
220
0.0
230
1.0
  2
SOLID
 70
     1
 71
     0
 91
        1
 92
        1
 93
       13
 72
     1
 10
0.7009769290777083
 20
-0.3167450405134989
 11
0.7982060957444016
 21
0.0721299594865236
 72
     1
 10
0.7982060957444016
 20
0.0721299594865236
 11
0.728768595744403
 21
0.1693799594865039
 72
     1
 10
0.728768595744403
 20
0.1693799594865039
 11
0.8641852624110697
 21
0.2249216261531678
 72
     1
 10
0.8641852624110697
 20
0.2249216261531678
 11
0.8433519290777364
 21
0.2561716261531678
 72
     1
 10
0.8433519290777364
 20
0.2561716261531678
 11
0.9509769290777083
 21
0.6971299594865236
 72
     1
 10
0.9509769290777083
 20
0.6971299594865236
 11
1.228768595744403
 21
0.7804632928198568
 72
     1
 10
1.228768595744403
 20
0.7804632928198568
 11
2.846810262411054
 21
-0.1535367071801627
 72
     1
 10
2.846810262411054
 20
-0.1535367071801627
 11
2.849820528657296
 21
-1.435274207180151
 72
     1
 10
2.849820528657296
 20
-1.435274207180151
 11
2.614185262411057
 21
-1.653536707180163
 72
     1
 10
2.614185262411057
 20
-1.653536707180163
 11
1.822518595744403
 21
-1.101453373846829
 72
     1
 10
1.822518595744403
 20
-1.101453373846829
 11
1.822518595744403
 21
-0.736870040513496
 72
     1
 10
1.822518595744403
 20
-0.736870040513496
 11
1.02043526241107
 21
-0.5424533738468098
 72
     1
 10
1.02043526241107
 20
-0.5424533738468098
 11
0.7009769290777083
 21
-0.3167450405134989
 97
        0
 75
     2
 76
     1
 98
        0
  0
POLYLINE
  5
C4
330
1F
100
AcDbEntity
  8
Wood
 62
     7
420
 16777215
370
    30
100
AcDb2dPolyline
 66
     1
 10
0.0
 20
0.0
 30
0.0
  0
VERTEX
  5
C5
330
C4
100
AcDbEntity
  8
Wood
 62
     7
420
 16777215
370
    30
100
AcDbVertex
100
AcDb2dVertex
 10
0.9509769290777083
 20
0.6971299594865236
 30
0.0
  0
VERTEX
  5
C6
330
C4
100
AcDbEntity
  8
Wood
 62
     7
420
 16777215
370
    30
100
AcDbVertex
100
AcDb2dVertex
 10
2.614185262411057
 20
-0.3028700405134764
 30
0.0
  0
VERTEX
  5
C7
330
C4
100
AcDbEntity
  8
Wood
 62
     7
420
 16777215
370
    30
100
AcDbVertex
100
AcDb2dVertex
 10
2.614185262411057
 20
-1.653536707180163
 30
0.0
  0
SEQEND
  5
C8
330
C4
100
AcDbEntity
  8
Wood
 62
     7
420
 16777215
370
    30
  0
POLYLINE
  5
C9
330
1F
100
AcDbEntity
  8
Wood
 62
     7
420
 16777215
370
    30
100
AcDb2dPolyline
 66
     1
 10
0.0
 20
0.0
 30
0.0
  0
VERTEX
  5
CA
330
C9
100
AcDbEntity
  8
Wood
 62
     7
420
 16777215
370
    30
100
AcDbVertex
100
AcDb2dVertex
 10
2.846810262411054
 20
-0.1535367071801627
 30
0.0
  0
VERTEX
  5
CB
330
C9
100
AcDbEntity
  8
Wood
 62
     7
420
 16777215
370
    30
100
AcDbVertex
100
AcDb2dVertex
 10
2.614185262411057
 20
-0.3028700405134764
 30
0.0
  0
SEQEND
  5
CC
330
C9
100
AcDbEntity
  8
Wood
 62
     7
420
 16777215
370
    30
  0
POLYLINE
  5
CD
330
1F
100
AcDbEntity
  8
Wood
 62
     7
420
 16777215
370
    30
100
AcDb2dPolyline
 66
     1
 10
0.0
 20
0.0
 30
0.0
  0
VERTEX
  5
CE
330
CD
100
AcDbEntity
  8
Wood
 62
     7
420
 16777215
370
    30
100
AcDbVertex
100
AcDb2dVertex
 10
0.7383102624110683
 20
0.1637653761531763
 30
0.0
  0
VERTEX
  5
CF
330
CD
100
AcDbEntity
  8
Wood
 62
     7
420
 16777215
370
    30
100
AcDbVertex
100
AcDb2dVertex
 10
0.8997685957444016
 20
0.1771924594865039
 30
0.0
  0
VERTEX
  5
D0
330
CD
100
AcDbEntity
  8
Wood
 62
     7
420
 16777215
370
    30
100
AcDbVertex
100
AcDb2dVertex
 10
0.8641852624110697
 20
0.2264278761531639
 30
0.0
  0
SEQEND
  5
D1
330
CD
100
AcDbEntity
  8
Wood
 62
     7
420
 16777215
370
    30
  0
SPLINE
  5
D2
330
1F
100
AcDbEntity
  8
Wood
 62
     7
420
 16777215
370
    20
100
AcDbSpline
210
0.0
220
0.0
230
1.0
 70
     8
 71
     3
 72
     8
 73
     4
 74
     0
 42
0.0000000001
 43
0.0000000001
 12
1.0
 22
0.0
 32
0.0
 13
1.0
 23
0.0
 33
0.0
 40
0.0
 40
0.0
 40
0.0
 40
0.0
 40
1.0
 40
1.0
 40
1.0
 40
1.0
 10
0.795601929077735
 20
0.1928174594865039
 30
0.0
 10
0.795601929077735
 20
0.1928174594865039
 30
0.0
 10
0.8164352624110682
 20
0.1876091261531706
 30
0.0
 10
0.881539429077735
 20
0.2032341261531706
 30
0.0
  0
SPLINE
  5
D3
330
1F
100
AcDbEntity
  8
Wood
 62
     7
420
 16777215
370
    20
100
AcDbSpline
210
0.0
220
0.0
230
1.0
 70
     8
 71
     3
 72
    11
 73
     7
 74
     0
 42
0.0000000001
 43
0.0000000001
 12
1.0
 22
0.0
 32
0.0
 13
1.0
 23
0.0
 33
0.0
 40
0.0
 40
0.0
 40
0.0
 40
0.0
 40
1.0
 40
1.0
 40
1.0
 40
2.0
 40
2.0
 40
2.0
 40
2.0
 10
2.655851929077724
 20
-0.2820367071801431
 30
0.0
 10
2.655851929077724
 20
-0.2820367071801431
 30
0.0
 10
2.652372762411081
 20
-0.3488492071801627
 30
0.0
 10
2.646228867133787
 20
-0.4313283738468322
 30
0.0
 10
2.641772617246362
 20
-0.4911012905134965
 30
0.0
 10
2.614185262411057
 20
-0.6917450405134988
 30
0.0
 10
2.614185262411057
 20
-0.799370040513496
 30
0.0
  0
SPLINE
  5
D4
330
1F
100
AcDbEntity
  8
Wood
 62
     7
420
 16777215
370
    20
100
AcDbSpline
210
0.0
220
0.0
230
1.0
 70
     8
 71
     3
 72
    11
 73
     7
 74
     0
 42
0.0000000001
 43
0.0000000001
 12
1.0
 22
0.0
 32
0.0
 13
1.0
 23
0.0
 33
0.0
 40
0.0
 40
0.0
 40
0.0
 40
0.0
 40
1.0
 40
1.0
 40
1.0
 40
2.0
 40
2.0
 40
2.0
 40
2.0
 10
2.61766442907775
 20
-1.160495040513499
 30
0.0
 10
2.61766442907775
 20
-1.160495040513499
 30
0.0
 10
2.649645533714142
 20
-1.357028373846838
 30
0.0
 10
2.645435262411057
 20
-1.407036707180143
 30
0.0
 10
2.641060262411075
 20
-1.459057540513514
 30
0.0
 10
2.661162200089873
 20
-1.607963790513496
 30
0.0
 10
2.661162200089873
 20
-1.607963790513496
 30
0.0
  0
SPLINE
  5
D5
330
1F
100
AcDbEntity
  8
Wood
 62
     7
420
 16777215
370
    20
100
AcDbSpline
210
0.0
220
0.0
230
1.0
 70
     8
 71
     3
 72
    20
 73
    16
 74
     0
 42
0.0000000001
 43
0.0000000001
 12
1.0
 22
0.0
 32
0.0
 13
1.0
 23
0.0
 33
0.0
 40
0.0
 40
0.0
 40
0.0
 40
0.0
 40
1.0
 40
1.0
 40
1.0
 40
2.0
 40
2.0
 40
2.0
 40
3.0
 40
3.0
 40
3.0
 40
4.0
 40
4.0
 40
4.0
 40
5.0
 40
5.0
 40
5.0
 40
5.0
 10
2.694039429077748
 20
-0.2577033738468294
 30
0.0
 10
2.694039429077748
 20
-0.2577033738468294
 30
0.0
 10
2.687081095744411
 20
-0.4729950405134988
 30
0.0
 10
2.673206095744414
 20
-0.580620040513496
 30
0.0
 10
2.659331095744417
 20
-0.6882867071801431
 30
0.0
 10
2.667591366594125
 20
-0.7500137905134984
 30
0.0
 10
2.652760116968794
 20
-0.8390637905134907
 30
0.0
 10
2.640206095744411
 20
-0.9144408738468175
 30
0.0
 10
2.674447616420922
 20
-1.149224207180143
 30
0.0
 10
2.671353866499076
 20
-1.19884504051351
 30
0.0
 10
2.668262199910512
 20
-1.248486707180165
 30
0.0
 10
2.690581095744417
 20
-1.393161707180171
 30
0.0
 10
2.69751859574439
 20
-1.452161707180166
 30
0.0
 10
2.704456095744414
 20
-1.51120337384681
 30
0.0
 10
2.700997762411084
 20
-1.57370337384681
 30
0.0
 10
2.700997762411084
 20
-1.57370337384681
 30
0.0
  0
SPLINE
  5
D6
330
1F
100
AcDbEntity
  8
Wood
 62
     7
420
 16777215
370
    20
100
AcDbSpline
210
0.0
220
0.0
230
1.0
 70
     8
 71
     3
 72
    20
 73
    16
 74
     0
 42
0.0000000001
 43
0.0000000001
 12
1.0
 22
0.0
 32
0.0
 13
1.0
 23
0.0
 33
0.0
 40
0.0
 40
0.0
 40
0.0
 40
0.0
 40
1.0
 40
1.0
 40
1.0
 40
2.0
 40
2.0
 40
2.0
 40
3.0
 40
3.0
 40
3.0
 40
4.0
 40
4.0
 40
4.0
 40
5.0
 40
5.0
 40
5.0
 40
5.0
 10
2.742643595744387
 20
-0.2160367071801627
 30
0.0
 10
2.742643595744387
 20
-0.2160367071801627
 30
0.0
 10
2.735685262411102
 20
-0.4313283738468322
 30
0.0
 10
2.721810262411054
 20
-0.5389533738468294
 30
0.0
 10
2.707935262411057
 20
-0.6466200405134764
 30
0.0
 10
2.714791365401753
 20
-0.7460262905135046
 30
0.0
 10
2.702035115724003
 20
-0.830620040513496
 30
0.0
 10
2.690641366011833
 20
-0.9061825405135044
 30
0.0
 10
2.716989282012896
 20
-1.145480457180181
 30
0.0
 10
2.71741636533544
 20
-1.195203373846829
 30
0.0
 10
2.717883031990318
 20
-1.248486707180165
 30
0.0
 10
2.739185262411057
 20
-1.351495040513504
 30
0.0
 10
2.746122762411081
 20
-1.410495040513499
 30
0.0
 10
2.753060262411054
 20
-1.469536707180143
 30
0.0
 10
2.749601929077724
 20
-1.532036707180143
 30
0.0
 10
2.749601929077724
 20
-1.532036707180143
 30
0.0
  0
SPLINE
  5
D7
330
1F
100
AcDbEntity
  8
Wood
 62
     7
420
 16777215
370
    20
100
AcDbSpline
210
0.0
220
0.0
230
1.0
 70
     8
 71
     3
 72
    20
 73
    16
 74
     0
 42
0.0000000001
 43
0.0000000001
 12
1.0
 22
0.0
 32
0.0
 13
1.0
 23
0.0
 33
0.0
 40
0.0
 40
0.0
 40
0.0
 40
0.0
 40
1.0
 40
1.0
 40
1.0
 40
2.0
 40
2.0
 40
2.0
 40
3.0
 40
3.0
 40
3.0
 40
4.0
 40
4.0
 40
4.0
 40
5.0
 40
5.0
 40
5.0
 40
5.0
 10
2.784310262411054
 20
-0.1917450405134989
 30
0.0
 10
2.784310262411054
 20
-0.1917450405134989
 30
0.0
 10
2.777351929077768
 20
-0.4070367071801431
 30
0.0
 10
2.763476929077721
 20
-0.5146617071801656
 30
0.0
 10
2.749601929077724
 20
-0.6223283738468378
 30
0.0
 10
2.75666219767734
 20
-0.6778700405134764
 30
0.0
 10
2.75666219767734
 20
-0.7542450405134988
 30
0.0
 10
2.75666219767734
 20
-0.8306617071801712
 30
0.0
 10
2.742195531376132
 20
-0.9625783738468322
 30
0.0
 10
2.752612197779652
 20
-1.01120337384681
 30
0.0
 10
2.763028864183171
 20
-1.059828373846838
 30
0.0
 10
2.774849697217885
 20
-1.243867957180151
 30
0.0
 10
2.781787197042629
 20
-1.302870040513476
 30
0.0
 10
2.788724696867373
 20
-1.361911707180171
 30
0.0
 10
2.794747762411084
 20
-1.490370040513476
 30
0.0
 10
2.794747762411084
 20
-1.490370040513476
 30
0.0
  0
SPLINE
  5
D8
330
1F
100
AcDbEntity
  8
Wood
 62
     7
420
 16777215
370
    20
100
AcDbSpline
210
0.0
220
0.0
230
1.0
 70
     8
 71
     3
 72
    20
 73
    16
 74
     0
 42
0.0000000001
 43
0.0000000001
 12
1.0
 22
0.0
 32
0.0
 13
1.0
 23
0.0
 33
0.0
 40
0.0
 40
0.0
 40
0.0
 40
0.0
 40
1.0
 40
1.0
 40
1.0
 40
2.0
 40
2.0
 40
2.0
 40
3.0
 40
3.0
 40
3.0
 40
4.0
 40
4.0
 40
4.0
 40
5.0
 40
5.0
 40
5.0
 40
5.0
 10
2.825528862604288
 20
-0.1724575405134803
 30
0.0
 10
2.825528862604288
 20
-0.1724575405134803
 30
0.0
 10
2.826099695923201
 20
-0.3757867071801431
 30
0.0
 10
2.812224696273713
 20
-0.4834117071801655
 30
0.0
 10
2.798347613290944
 20
-0.5910783738468378
 30
0.0
 10
2.808745529694938
 20
-0.6327033738468294
 30
0.0
 10
2.808745529694938
 20
-0.7091200405134764
 30
0.0
 10
2.808745529694938
 20
-0.7854950405134988
 30
0.0
 10
2.800770529896403
 20
-0.8668346238468478
 30
0.0
 10
2.801216363218474
 20
-0.916557540513496
 30
0.0
 10
2.801685262411057
 20
-0.9686408738468293
 30
0.0
 10
2.820585112729178
 20
-1.212617957180151
 30
0.0
 10
2.827522612553922
 20
-1.271620040513476
 30
0.0
 10
2.834460112378666
 20
-1.330661707180171
 30
0.0
 10
2.835966362340615
 20
-1.447074207180145
 30
0.0
 10
2.835966362340615
 20
-1.447074207180145
 30
0.0
  0
SPLINE
  5
D9
330
1F
100
AcDbEntity
  8
Wood
 62
     7
420
 16777215
370
    20
100
AcDbSpline
210
0.0
220
0.0
230
1.0
 70
     8
 71
     3
 72
     8
 73
     4
 74
     0
 42
0.0000000001
 43
0.0000000001
 12
1.0
 22
0.0
 32
0.0
 13
1.0
 23
0.0
 33
0.0
 40
0.0
 40
0.0
 40
0.0
 40
0.0
 40
1.0
 40
1.0
 40
1.0
 40
1.0
 10
0.5347048611111328
 20
-1.838342346335695
 30
0.0
 10
0.5347048611111328
 20
-1.838342346335695
 30
0.0
 10
0.4500297612370079
 20
-1.834884013002314
 30
0.0
 10
0.4083630956229298
 20
-1.831384013002359
 30
0.0
  0
SPLINE
  5
DB
330
1F
100
AcDbEntity
  8
ULT-LT
 62
     7
420
 16777215
370
    40
100
AcDbSpline
210
0.0
220
0.0
230
1.0
 70
    11
 71
     3
 72
    56
 73
    52
 74
     0
 42
0.0000000001
 43
0.0000000001
 12
1.0
 22
0.0
 32
0.0
 13
1.0
 23
0.0
 33
0.0
 40
0.0
 40
0.0
 40
0.0
 40
0.0
 40
1.0
 40
1.0
 40
1.0
 40
2.0
 40
2.0
 40
2.0
 40
3.0
 40
3.0
 40
3.0
 40
4.0
 40
4.0
 40
4.0
 40
5.0
 40
5.0
 40
5.0
 40
6.0
 40
6.0
 40
6.0
 40
7.0
 40
7.0
 40
7.0
 40
8.0
 40
8.0
 40
8.0
 40
9.0
 40
9.0
 40
9.0
 40
10.0
 40
10.0
 40
10.0
 40
11.0
 40
11.0
 40
11.0
 40
12.0
 40
12.0
 40
12.0
 40
13.0
 40
13.0
 40
13.0
 40
14.0
 40
14.0
 40
14.0
 40
15.0
 40
15.0
 40
15.0
 40
16.0
 40
16.0
 40
16.0
 40
17.0
 40
17.0
 40
17.0
 40
17.0
 10
1.556018595744401
 20
0.1719841261531706
 30
0.0
 10
1.556018595744401
 20
0.1719841261531706
 30
0.0
 10
1.595141393686504
 20
0.1855341261531925
 30
0.0
 10
1.595141393686504
 20
0.1855341261531925
 30
0.0
 10
1.595141393686504
 20
0.1855341261531925
 30
0.0
 10
1.800810262411068
 20
0.1448237094864958
 30
0.0
 10
1.800810262411068
 20
0.1448237094864958
 30
0.0
 10
1.800810262411068
 20
0.1448237094864958
 30
0.0
 10
1.813831095744401
 20
0.1416695428198283
 30
0.0
 10
1.813831095744401
 20
0.1246403761531635
 30
0.0
 10
1.813831095744401
 20
0.1064112094864969
 30
0.0
 10
1.813831095744401
 20
-0.7238492071801627
 30
0.0
 10
1.813831095744401
 20
-0.7238492071801627
 30
0.0
 10
1.813831095744401
 20
-0.7238492071801627
 30
0.0
 10
1.794747762411071
 20
-0.7420783738468294
 30
0.0
 10
1.792997762411068
 20
-0.7698700405134988
 30
0.0
 10
1.792266388706707
 20
-0.7814658738468299
 30
0.0
 10
1.792997762411068
 20
-1.119682540513496
 30
0.0
 10
1.792997762411068
 20
-1.119682540513496
 30
0.0
 10
1.792997762411068
 20
-1.119682540513496
 30
0.0
 10
1.751331095744401
 20
-1.22604712384681
 30
0.0
 10
1.751331095744401
 20
-1.22604712384681
 30
0.0
 10
1.751331095744401
 20
-1.22604712384681
 30
0.0
 10
1.567147644393685
 20
-1.357476290513483
 30
0.0
 10
1.567147644393685
 20
-1.357476290513483
 30
0.0
 10
1.567147644393685
 20
-1.357476290513483
 30
0.0
 10
1.539274728431148
 20
-1.347059623846816
 30
0.0
 10
1.539274728431148
 20
-1.347059623846816
 30
0.0
 10
1.539274728431148
 20
-1.347059623846816
 30
0.0
 10
1.539274728431148
 20
-0.8827033738468293
 30
0.0
 10
1.539274728431148
 20
-0.8827033738468293
 30
0.0
 10
1.539274728431148
 20
-0.8827033738468293
 30
0.0
 10
1.441435262411068
 20
-0.8983283738468293
 30
0.0
 10
1.441435262411068
 20
-0.8983283738468293
 30
0.0
 10
1.441435262411068
 20
-0.8983283738468293
 30
0.0
 10
1.191435262411068
 20
-0.8332242071801627
 30
0.0
 10
1.191435262411068
 20
-0.8332242071801627
 30
0.0
 10
1.191435262411068
 20
-0.8332242071801627
 30
0.0
 10
1.191435262411068
 20
-0.8041721238468097
 30
0.0
 10
1.191435262411068
 20
-0.8041721238468097
 30
0.0
 10
1.191435262411068
 20
-0.8041721238468097
 30
0.0
 10
1.444039429077735
 20
-0.666557540513496
 30
0.0
 10
1.444039429077735
 20
-0.666557540513496
 30
0.0
 10
1.444039429077735
 20
-0.666557540513496
 30
0.0
 10
1.462268595744401
 20
-0.6574429571801627
 30
0.0
 10
1.462268595744401
 20
-0.6332325405134926
 30
0.0
 10
1.462268595744401
 20
-0.599378373846826
 30
0.0
 10
1.462268595744401
 20
-0.3800992071801627
 30
0.0
 10
1.462268595744401
 20
-0.3800992071801627
 30
0.0
 10
1.462268595744401
 20
-0.3800992071801627
 30
0.0
 10
1.556018595744401
 20
0.1719841261531706
 30
0.0
 10
1.556018595744401
 20
0.1719841261531706
 30
0.0
  0
HATCH
  5
DC
330
1F
100
AcDbEntity
  8
ULT-LT
 62
   254
420
 13358815
100
AcDbHatch
 10
0.0
 20
0.0
 30
0.0
210
0.0
220
0.0
230
1.0
  2
SOLID
 70
     1
 71
     0
 91
        1
 92
        1
 93
        1
 72
     4
 94
        3
 73
     0
 74
     1
 95
       56
 96
       52
 40
0.0
 40
0.0
 40
0.0
 40
0.0
 40
1.0
 40
1.0
 40
1.0
 40
2.0
 40
2.0
 40
2.0
 40
3.0
 40
3.0
 40
3.0
 40
4.0
 40
4.0
 40
4.0
 40
5.0
 40
5.0
 40
5.0
 40
6.0
 40
6.0
 40
6.0
 40
7.0
 40
7.0
 40
7.0
 40
8.0
 40
8.0
 40
8.0
 40
9.0
 40
9.0
 40
9.0
 40
10.0
 40
10.0
 40
10.0
 40
11.0
 40
11.0
 40
11.0
 40
12.0
 40
12.0
 40
12.0
 40
13.0
 40
13.0
 40
13.0
 40
14.0
 40
14.0
 40
14.0
 40
15.0
 40
15.0
 40
15.0
 40
16.0
 40
16.0
 40
16.0
 40
17.0
 40
17.0
 40
17.0
 40
17.0
 10
1.556018595744401
 20
0.1719841261531706
 10
1.556018595744401
 20
0.1719841261531706
 10
1.595141393686504
 20
0.1855341261531925
 10
1.595141393686504
 20
0.1855341261531925
 10
1.595141393686504
 20
0.1855341261531925
 10
1.800810262411068
 20
0.1448237094864958
 10
1.800810262411068
 20
0.1448237094864958
 10
1.800810262411068
 20
0.1448237094864958
 10
1.813831095744401
 20
0.1416695428198283
 10
1.813831095744401
 20
0.1246403761531635
 10
1.813831095744401
 20
0.1064112094864969
 10
1.813831095744401
 20
-0.7238492071801627
 10
1.813831095744401
 20
-0.7238492071801627
 10
1.813831095744401
 20
-0.7238492071801627
 10
1.794747762411071
 20
-0.7420783738468294
 10
1.792997762411068
 20
-0.7698700405134988
 10
1.792266388706707
 20
-0.7814658738468299
 10
1.792997762411068
 20
-1.119682540513496
 10
1.792997762411068
 20
-1.119682540513496
 10
1.792997762411068
 20
-1.119682540513496
 10
1.751331095744401
 20
-1.22604712384681
 10
1.751331095744401
 20
-1.22604712384681
 10
1.751331095744401
 20
-1.22604712384681
 10
1.567147644393685
 20
-1.357476290513483
 10
1.567147644393685
 20
-1.357476290513483
 10
1.567147644393685
 20
-1.357476290513483
 10
1.539274728431148
 20
-1.347059623846816
 10
1.539274728431148
 20
-1.347059623846816
 10
1.539274728431148
 20
-1.347059623846816
 10
1.539274728431148
 20
-0.8827033738468293
 10
1.539274728431148
 20
-0.8827033738468293
 10
1.539274728431148
 20
-0.8827033738468293
 10
1.441435262411068
 20
-0.8983283738468293
 10
1.441435262411068
 20
-0.8983283738468293
 10
1.441435262411068
 20
-0.8983283738468293
 10
1.191435262411068
 20
-0.8332242071801627
 10
1.191435262411068
 20
-0.8332242071801627
 10
1.191435262411068
 20
-0.8332242071801627
 10
1.191435262411068
 20
-0.8041721238468097
 10
1.191435262411068
 20
-0.8041721238468097
 10
1.191435262411068
 20
-0.8041721238468097
 10
1.444039429077735
 20
-0.666557540513496
 10
1.444039429077735
 20
-0.666557540513496
 10
1.444039429077735
 20
-0.666557540513496
 10
1.462268595744401
 20
-0.6574429571801627
 10
1.462268595744401
 20
-0.6332325405134926
 10
1.462268595744401
 20
-0.599378373846826
 10
1.462268595744401
 20
-0.3800992071801627
 10
1.462268595744401
 20
-0.3800992071801627
 10
1.462268595744401
 20
-0.3800992071801627
 10
1.556018595744401
 20
0.1719841261531706
 10
1.556018595744401
 20
0.1719841261531706
 97
        0
 97
        0
 75
     2
 76
     1
 98
        0
  0
POLYLINE
  5
DD
330
1F
100
AcDbEntity
  8
ULT-LT
 62
     7
420
 16777215
370
    40
100
AcDb2dPolyline
 66
     1
 10
0.0
 20
0.0
 30
0.0
  0
VERTEX
  5
DE
330
DD
100
AcDbEntity
  8
ULT-LT
 62
     7
420
 16777215
370
    40
100
AcDbVertex
100
AcDb2dVertex
 10
1.539518595744375
 20
-0.8791221238468299
 30
0.0
  0
VERTEX
  5
DF
330
DD
100
AcDbEntity
  8
ULT-LT
 62
     7
420
 16777215
370
    40
100
AcDbVertex
100
AcDb2dVertex
 10
1.539518595744375
 20
-0.6344533738468322
 30
0.0
  0
VERTEX
  5
E0
330
DD
100
AcDbEntity
  8
ULT-LT
 62
     7
420
 16777215
370
    40
100
AcDbVertex
100
AcDb2dVertex
 10
1.608976929077736
 20
0.0443799594865039
 30
0.0
  0
VERTEX
  5
E1
330
DD
100
AcDbEntity
  8
ULT-LT
 62
     7
420
 16777215
370
    40
100
AcDbVertex
100
AcDb2dVertex
 10
1.768706095744404
 20
0.1190257928198611
 30
0.0
  0
SEQEND
  5
E2
330
DD
100
AcDbEntity
  8
ULT-LT
 62
     7
420
 16777215
370
    40
  0
SPLINE
  5
E3
330
1F
100
AcDbEntity
  8
ULT-LT
 62
     7
420
 16777215
370
    30
100
AcDbSpline
210
0.0
220
0.0
230
1.0
 70
     8
 71
     3
 72
    17
 73
    13
 74
     0
 42
0.0000000001
 43
0.0000000001
 12
1.0
 22
0.0
 32
0.0
 13
1.0
 23
0.0
 33
0.0
 40
0.0
 40
0.0
 40
0.0
 40
0.0
 40
1.0
 40
1.0
 40
1.0
 40
2.0
 40
2.0
 40
2.0
 40
3.0
 40
3.0
 40
3.0
 40
4.0
 40
4.0
 40
4.0
 40
4.0
 10
1.565560262411042
 20
-1.347995040513499
 30
0.0
 10
1.565560262411042
 20
-1.347995040513499
 30
0.0
 10
1.565560262411042
 20
-0.6404762905135107
 30
0.0
 10
1.565560262411042
 20
-0.6404762905135107
 30
0.0
 10
1.565560262411042
 20
-0.6404762905135107
 30
0.0
 10
1.633045559395631
 20
0.0292237094864858
 30
0.0
 10
1.633045559395631
 20
0.0292237094864858
 30
0.0
 10
1.633045559395631
 20
0.0292237094864858
 30
0.0
 10
1.786914429077708
 20
0.1022403761531778
 30
0.0
 10
1.798389305218696
 20
0.1076737094865115
 30
0.0
 10
1.816964304749452
 20
0.116442459486532
 30
0.0
 10
1.818143595744421
 20
0.1389841261531678
 30
0.0
 10
1.794260138656353
 20
0.1437445428198569
 30
0.0
  0
SPLINE
  5
E4
330
1F
100
AcDbEntity
  8
ULT-LT
 62
     7
420
 16777215
370
    30
100
AcDbSpline
210
0.0
220
0.0
230
1.0
 70
     8
 71
     3
 72
    11
 73
     7
 74
     0
 42
0.0000000001
 43
0.0000000001
 12
1.0
 22
0.0
 32
0.0
 13
1.0
 23
0.0
 33
0.0
 40
0.0
 40
0.0
 40
0.0
 40
0.0
 40
1.0
 40
1.0
 40
1.0
 40
2.0
 40
2.0
 40
2.0
 40
2.0
 10
1.556018595744401
 20
0.1719841261531706
 30
0.0
 10
1.556018595744401
 20
0.1719841261531706
 30
0.0
 10
1.740364306684531
 20
0.1345091261531605
 30
0.0
 10
1.76640597269333
 20
0.1293007928198272
 30
0.0
 10
1.792447638702129
 20
0.1240924594864939
 30
0.0
 10
1.777739305740359
 20
0.121690376153184
 30
0.0
 10
1.766916389347102
 20
0.1164007928198569
 30
0.0
  0
SPLINE
  5
E5
330
1F
100
AcDbEntity
  8
ULT-LT
 62
   250
420
  2301728
370
    20
100
AcDbSpline
210
0.0
220
0.0
230
1.0
 70
    11
 71
     3
 72
    23
 73
    19
 74
     0
 42
0.0000000001
 43
0.0000000001
 12
1.0
 22
0.0
 32
0.0
 13
1.0
 23
0.0
 33
0.0
 40
0.0
 40
0.0
 40
0.0
 40
0.0
 40
1.0
 40
1.0
 40
1.0
 40
2.0
 40
2.0
 40
2.0
 40
3.0
 40
3.0
 40
3.0
 40
4.0
 40
4.0
 40
4.0
 40
5.0
 40
5.0
 40
5.0
 40
6.0
 40
6.0
 40
6.0
 40
6.0
 10
1.740956095744385
 20
-0.9910617071801526
 30
0.0
 10
1.753691389681194
 20
-0.9965533738468113
 30
0.0
 10
1.749662223116325
 20
-1.00839504051348
 30
0.0
 10
1.748035139824083
 20
-1.024142957180149
 30
0.0
 10
1.746447639864186
 20
-1.039440873846817
 30
0.0
 10
1.742339306634638
 20
-1.066338790513504
 30
0.0
 10
1.731393595744407
 20
-1.064547123846801
 30
0.0
 10
1.727343473680119
 20
-1.063897123846826
 30
0.0
 10
1.722035140480898
 20
-1.062186707180167
 30
0.0
 10
1.714322640675732
 20
-1.059053373846811
 30
0.0
 10
1.695666391147029
 20
-1.051486707180149
 30
0.0
 10
1.690662224606778
 20
-1.040907540513495
 30
0.0
 10
1.692818474552306
 20
-1.019951290513493
 30
0.0
 10
1.694995557830642
 20
-0.9989554571801716
 30
0.0
 10
1.710235140778991
 20
-0.9833304571801716
 30
0.0
 10
1.725045557071515
 20
-0.9848762905134865
 30
0.0
 10
1.72870805697898
 20
-0.9852429571801369
 30
0.0
 10
1.737516390089809
 20
-0.9895554571801565
 30
0.0
 10
1.740956095744385
 20
-0.9910617071801526
 30
0.0
  0
HATCH
  5
E6
330
1F
100
AcDbEntity
  8
ULT-LT
 62
   254
420
 13358815
100
AcDbHatch
 10
0.0
 20
0.0
 30
0.0
210
0.0
220
0.0
230
1.0
  2
SOLID
 70
     1
 71
     0
 91
        1
 92
        1
 93
        1
 72
     4
 94
        3
 73
     0
 74
     1
 95
       23
 96
       19
 40
0.0
 40
0.0
 40
0.0
 40
0.0
 40
1.0
 40
1.0
 40
1.0
 40
2.0
 40
2.0
 40
2.0
 40
3.0
 40
3.0
 40
3.0
 40
4.0
 40
4.0
 40
4.0
 40
5.0
 40
5.0
 40
5.0
 40
6.0
 40
6.0
 40
6.0
 40
6.0
 10
1.740956095744385
 20
-0.9910617071801526
 10
1.753691389681194
 20
-0.9965533738468113
 10
1.749662223116325
 20
-1.00839504051348
 10
1.748035139824083
 20
-1.024142957180149
 10
1.746447639864186
 20
-1.039440873846817
 10
1.742339306634638
 20
-1.066338790513504
 10
1.731393595744407
 20
-1.064547123846801
 10
1.727343473680119
 20
-1.063897123846826
 10
1.722035140480898
 20
-1.062186707180167
 10
1.714322640675732
 20
-1.059053373846811
 10
1.695666391147029
 20
-1.051486707180149
 10
1.690662224606778
 20
-1.040907540513495
 10
1.692818474552306
 20
-1.019951290513493
 10
1.694995557830642
 20
-0.9989554571801716
 10
1.710235140778991
 20
-0.9833304571801716
 10
1.725045557071515
 20
-0.9848762905134865
 10
1.72870805697898
 20
-0.9852429571801369
 10
1.737516390089809
 20
-0.9895554571801565
 10
1.740956095744385
 20
-0.9910617071801526
 97
        0
 97
        0
 75
     2
 76
     1
 98
        0
  0
SPLINE
  5
E7
330
1F
100
AcDbEntity
  8
ULT-LT
 62
   250
420
  2301728
370
    20
100
AcDbSpline
210
0.0
220
0.0
230
1.0
 70
    11
 71
     3
 72
    17
 73
    13
 74
     0
 42
0.0000000001
 43
0.0000000001
 12
1.0
 22
0.0
 32
0.0
 13
1.0
 23
0.0
 33
0.0
 40
0.0
 40
0.0
 40
0.0
 40
0.0
 40
1.0
 40
1.0
 40
1.0
 40
2.0
 40
2.0
 40
2.0
 40
3.0
 40
3.0
 40
3.0
 40
4.0
 40
4.0
 40
4.0
 40
4.0
 10
1.761910139473571
 20
-1.031222123846823
 30
0.0
 10
1.75983513952599
 20
-1.051159623846817
 30
0.0
 10
1.746183056537537
 20
-1.066092957180167
 30
0.0
 10
1.731393595744407
 20
-1.064547123846801
 30
0.0
 10
1.716601929077708
 20
-1.063001290513486
 30
0.0
 10
1.706287224212057
 20
-1.045626290513484
 30
0.0
 10
1.708362224159638
 20
-1.025688790513515
 30
0.0
 10
1.710416390774412
 20
-1.005751290513495
 30
0.0
 10
1.724068473762865
 20
-0.9908179571801712
 30
0.0
 10
1.738860140055863
 20
-0.9923637905134859
 30
0.0
 10
1.75364972301558
 20
-0.9938679571801509
 30
0.0
 10
1.763966389421626
 20
-1.011284623846804
 30
0.0
 10
1.761910139473571
 20
-1.031222123846823
 30
0.0
  0
HATCH
  5
E8
330
1F
100
AcDbEntity
  8
ULT-LT
 62
   254
420
 13358815
100
AcDbHatch
 10
0.0
 20
0.0
 30
0.0
210
0.0
220
0.0
230
1.0
  2
SOLID
 70
     1
 71
     0
 91
        1
 92
        1
 93
        1
 72
     4
 94
        3
 73
     0
 74
     1
 95
       17
 96
       13
 40
0.0
 40
0.0
 40
0.0
 40
0.0
 40
1.0
 40
1.0
 40
1.0
 40
2.0
 40
2.0
 40
2.0
 40
3.0
 40
3.0
 40
3.0
 40
4.0
 40
4.0
 40
4.0
 40
4.0
 10
1.761910139473571
 20
-1.031222123846823
 10
1.75983513952599
 20
-1.051159623846817
 10
1.746183056537537
 20
-1.066092957180167
 10
1.731393595744407
 20
-1.064547123846801
 10
1.716601929077708
 20
-1.063001290513486
 10
1.706287224212057
 20
-1.045626290513484
 10
1.708362224159638
 20
-1.025688790513515
 10
1.710416390774412
 20
-1.005751290513495
 10
1.724068473762865
 20
-0.9908179571801712
 10
1.738860140055863
 20
-0.9923637905134859
 10
1.75364972301558
 20
-0.9938679571801509
 10
1.763966389421626
 20
-1.011284623846804
 10
1.761910139473571
 20
-1.031222123846823
 97
        0
 97
        0
 75
     2
 76
     1
 98
        0
  0
SPLINE
  5
E9
330
1F
100
AcDbEntity
  8
ULT-LT
 62
   250
420
  2301728
370
    20
100
AcDbSpline
210
0.0
220
0.0
230
1.0
 70
    11
 71
     3
 72
    23
 73
    19
 74
     0
 42
0.0000000001
 43
0.0000000001
 12
1.0
 22
0.0
 32
0.0
 13
1.0
 23
0.0
 33
0.0
 40
0.0
 40
0.0
 40
0.0
 40
0.0
 40
1.0
 40
1.0
 40
1.0
 40
2.0
 40
2.0
 40
2.0
 40
3.0
 40
3.0
 40
3.0
 40
4.0
 40
4.0
 40
4.0
 40
5.0
 40
5.0
 40
5.0
 40
6.0
 40
6.0
 40
6.0
 40
6.0
 10
1.309539429077745
 20
-0.7664512905135122
 30
0.0
 10
1.310108067553718
 20
-0.758070040513505
 30
0.0
 10
1.333464316963689
 20
-0.7521700405134703
 30
0.0
 10
1.349008066571021
 20
-0.7523721238468271
 30
0.0
 10
1.364918482835757
 20
-0.7525367071801712
 30
0.0
 10
1.388843482231361
 20
-0.7575804571801604
 30
0.0
 10
1.389372762411098
 20
-0.7656387905134984
 30
0.0
 10
1.389576815546169
 20
-0.7687304571801531
 30
0.0
 10
1.389453898882607
 20
-0.7813450405134921
 30
0.0
 10
1.389372762411098
 20
-0.7836637905135022
 30
0.0
 10
1.388966398894922
 20
-0.7920450405134841
 30
0.0
 10
1.370858066019044
 20
-0.7986367071801447
 30
0.0
 10
1.348803899909512
 20
-0.7983929571801632
 30
0.0
 10
1.326749733799981
 20
-0.7981492071801565
 30
0.0
 10
1.309172650910682
 20
-0.7911512905134764
 30
0.0
 10
1.309539429077745
 20
-0.7827679571801632
 30
0.0
 10
1.309660150898367
 20
-0.7802867071801655
 30
0.0
 10
1.309130984245068
 20
-0.7724742071801655
 30
0.0
 10
1.309539429077745
 20
-0.7664512905135122
 30
0.0
  0
HATCH
  5
EA
330
1F
100
AcDbEntity
  8
ULT-LT
 62
   254
420
 13358815
100
AcDbHatch
 10
0.0
 20
0.0
 30
0.0
210
0.0
220
0.0
230
1.0
  2
SOLID
 70
     1
 71
     0
 91
        1
 92
        1
 93
        1
 72
     4
 94
        3
 73
     0
 74
     1
 95
       23
 96
       19
 40
0.0
 40
0.0
 40
0.0
 40
0.0
 40
1.0
 40
1.0
 40
1.0
 40
2.0
 40
2.0
 40
2.0
 40
3.0
 40
3.0
 40
3.0
 40
4.0
 40
4.0
 40
4.0
 40
5.0
 40
5.0
 40
5.0
 40
6.0
 40
6.0
 40
6.0
 40
6.0
 10
1.309539429077745
 20
-0.7664512905135122
 10
1.310108067553718
 20
-0.758070040513505
 10
1.333464316963689
 20
-0.7521700405134703
 10
1.349008066571021
 20
-0.7523721238468271
 10
1.364918482835757
 20
-0.7525367071801712
 10
1.388843482231361
 20
-0.7575804571801604
 10
1.389372762411098
 20
-0.7656387905134984
 10
1.389576815546169
 20
-0.7687304571801531
 10
1.389453898882607
 20
-0.7813450405134921
 10
1.389372762411098
 20
-0.7836637905135022
 10
1.388966398894922
 20
-0.7920450405134841
 10
1.370858066019044
 20
-0.7986367071801447
 10
1.348803899909512
 20
-0.7983929571801632
 10
1.326749733799981
 20
-0.7981492071801565
 10
1.309172650910682
 20
-0.7911512905134764
 10
1.309539429077745
 20
-0.7827679571801632
 10
1.309660150898367
 20
-0.7802867071801655
 10
1.309130984245068
 20
-0.7724742071801655
 10
1.309539429077745
 20
-0.7664512905135122
 97
        0
 97
        0
 75
     2
 76
     1
 98
        0
  0
SPLINE
  5
EB
330
1F
100
AcDbEntity
  8
ULT-LT
 62
   250
420
  2301728
370
    20
100
AcDbSpline
210
0.0
220
0.0
230
1.0
 70
    11
 71
     3
 72
    17
 73
    13
 74
     0
 42
0.0000000001
 43
0.0000000001
 12
1.0
 22
0.0
 32
0.0
 13
1.0
 23
0.0
 33
0.0
 40
0.0
 40
0.0
 40
0.0
 40
0.0
 40
1.0
 40
1.0
 40
1.0
 40
2.0
 40
2.0
 40
2.0
 40
3.0
 40
3.0
 40
3.0
 40
4.0
 40
4.0
 40
4.0
 40
4.0
 10
1.350105983209952
 20
-0.750053373846817
 30
0.0
 10
1.37212056598715
 20
-0.7502971238468237
 30
0.0
 10
1.389697648876449
 20
-0.7572971238468097
 30
0.0
 10
1.389372762411098
 20
-0.7656387905134984
 30
0.0
 10
1.388966398894922
 20
-0.7740617071801554
 30
0.0
 10
1.370858066019044
 20
-0.7806117071801407
 30
0.0
 10
1.348803899909512
 20
-0.7803679571801593
 30
0.0
 10
1.326749733799981
 20
-0.7801242071801526
 30
0.0
 10
1.309172650910682
 20
-0.7731242071801666
 30
0.0
 10
1.309539429077745
 20
-0.7647429571801593
 30
0.0
 10
1.309903900892209
 20
-0.756401290513496
 30
0.0
 10
1.328093483766035
 20
-0.7498096238468356
 30
0.0
 10
1.350105983209952
 20
-0.750053373846817
 30
0.0
  0
HATCH
  5
EC
330
1F
100
AcDbEntity
  8
ULT-LT
 62
   254
420
 13358815
100
AcDbHatch
 10
0.0
 20
0.0
 30
0.0
210
0.0
220
0.0
230
1.0
  2
SOLID
 70
     1
 71
     0
 91
        1
 92
        1
 93
        1
 72
     4
 94
        3
 73
     0
 74
     1
 95
       17
 96
       13
 40
0.0
 40
0.0
 40
0.0
 40
0.0
 40
1.0
 40
1.0
 40
1.0
 40
2.0
 40
2.0
 40
2.0
 40
3.0
 40
3.0
 40
3.0
 40
4.0
 40
4.0
 40
4.0
 40
4.0
 10
1.350105983209952
 20
-0.750053373846817
 10
1.37212056598715
 20
-0.7502971238468237
 10
1.389697648876449
 20
-0.7572971238468097
 10
1.389372762411098
 20
-0.7656387905134984
 10
1.388966398894922
 20
-0.7740617071801554
 10
1.370858066019044
 20
-0.7806117071801407
 10
1.348803899909512
 20
-0.7803679571801593
 10
1.326749733799981
 20
-0.7801242071801526
 10
1.309172650910682
 20
-0.7731242071801666
 10
1.309539429077745
 20
-0.7647429571801593
 10
1.309903900892209
 20
-0.756401290513496
 10
1.328093483766035
 20
-0.7498096238468356
 10
1.350105983209952
 20
-0.750053373846817
 97
        0
 97
        0
 75
     2
 76
     1
 98
        0
  0
SPLINE
  5
ED
330
1F
100
AcDbEntity
  8
ULT-LT
 62
   250
420
  2301728
370
    20
100
AcDbSpline
210
0.0
220
0.0
230
1.0
 70
     8
 71
     3
 72
    14
 73
    10
 74
     0
 42
0.0000000001
 43
0.0000000001
 12
1.0
 22
0.0
 32
0.0
 13
1.0
 23
0.0
 33
0.0
 40
0.0
 40
0.0
 40
0.0
 40
0.0
 40
1.0
 40
1.0
 40
1.0
 40
2.0
 40
2.0
 40
2.0
 40
3.0
 40
3.0
 40
3.0
 40
3.0
 10
1.529468478678874
 20
-0.8313929571801407
 30
0.0
 10
1.507372762411061
 20
-0.8311492071801593
 30
0.0
 10
1.48979556301443
 20
-0.8241096238468293
 30
0.0
 10
1.490162229671834
 20
-0.8157679571801407
 30
0.0
 10
1.490283063002115
 20
-0.8132867071801431
 30
0.0
 10
1.48979556301443
 20
-0.8054325405134679
 30
0.0
 10
1.490201813004167
 20
-0.7994117071801712
 30
0.0
 10
1.490730979657466
 20
-0.7910700405134826
 30
0.0
 10
1.51408722906745
 20
-0.7851700405134983
 30
0.0
 10
1.529630978674769
 20
-0.7853325405134859
 30
0.0
  0
HATCH
  5
EE
330
1F
100
AcDbEntity
  8
ULT-LT
 62
   254
420
 13358815
100
AcDbHatch
 10
0.0
 20
0.0
 30
0.0
210
0.0
220
0.0
230
1.0
  2
SOLID
 70
     1
 71
     0
 91
        1
 92
        1
 93
        2
 72
     4
 94
        3
 73
     0
 74
     0
 95
       14
 96
       10
 40
0.0
 40
0.0
 40
0.0
 40
0.0
 40
0.0138888888888889
 40
0.0138888888888889
 40
0.0138888888888889
 40
0.0277777777777778
 40
0.0277777777777778
 40
0.0277777777777778
 40
0.0416666666666667
 40
0.0416666666666667
 40
0.0416666666666667
 40
0.0416666666666667
 10
1.529468478678874
 20
-0.8313929571801407
 10
1.507372762411061
 20
-0.8311492071801593
 10
1.48979556301443
 20
-0.8241096238468293
 10
1.490162229671834
 20
-0.8157679571801407
 10
1.490283063002115
 20
-0.8132867071801431
 10
1.48979556301443
 20
-0.8054325405134679
 10
1.490201813004167
 20
-0.7994117071801712
 10
1.490730979657466
 20
-0.7910700405134826
 10
1.51408722906745
 20
-0.7851700405134983
 10
1.529630978674769
 20
-0.7853325405134859
 97
        0
 72
     1
 10
1.529630978674769
 20
-0.7853325405134859
 11
1.529468478678874
 21
-0.8313929571801407
 97
        0
 75
     2
 76
     1
 98
        0
  0
SPLINE
  5
EF
330
1F
100
AcDbEntity
  8
ULT-LT
 62
   250
420
  2301728
370
    20
100
AcDbSpline
210
0.0
220
0.0
230
1.0
 70
     8
 71
     3
 72
    11
 73
     7
 74
     0
 42
0.0000000001
 43
0.0000000001
 12
1.0
 22
0.0
 32
0.0
 13
1.0
 23
0.0
 33
0.0
 40
0.0
 40
0.0
 40
0.0
 40
0.0
 40
1.0
 40
1.0
 40
1.0
 40
2.0
 40
2.0
 40
2.0
 40
2.0
 10
1.529468478678874
 20
-0.8133679571801369
 30
0.0
 10
1.507372762411061
 20
-0.8131242071801554
 30
0.0
 10
1.48979556301443
 20
-0.8061242071801694
 30
0.0
 10
1.490162229671834
 20
-0.7977429571801369
 30
0.0
 10
1.490528896329238
 20
-0.7894012905134988
 30
0.0
 10
1.508716395869783
 20
-0.7828096238468384
 30
0.0
 10
1.5307288953137
 20
-0.7830533738468198
 30
0.0
  0
HATCH
  5
F0
330
1F
100
AcDbEntity
  8
ULT-LT
 62
   254
420
 13358815
100
AcDbHatch
 10
0.0
 20
0.0
 30
0.0
210
0.0
220
0.0
230
1.0
  2
SOLID
 70
     1
 71
     0
 91
        1
 92
        1
 93
        2
 72
     4
 94
        3
 73
     0
 74
     0
 95
       11
 96
        7
 40
0.0
 40
0.0
 40
0.0
 40
0.0
 40
0.0138888888888889
 40
0.0138888888888889
 40
0.0138888888888889
 40
0.0277777777777778
 40
0.0277777777777778
 40
0.0277777777777778
 40
0.0277777777777778
 10
1.529468478678874
 20
-0.8133679571801369
 10
1.507372762411061
 20
-0.8131242071801554
 10
1.48979556301443
 20
-0.8061242071801694
 10
1.490162229671834
 20
-0.7977429571801369
 10
1.490528896329238
 20
-0.7894012905134988
 10
1.508716395869783
 20
-0.7828096238468384
 10
1.5307288953137
 20
-0.7830533738468198
 97
        0
 72
     1
 10
1.5307288953137
 20
-0.7830533738468198
 11
1.529468478678874
 21
-0.8133679571801369
 97
        0
 75
     2
 76
     1
 98
        0
  0
SPLINE
  5
F1
330
1F
100
AcDbEntity
  8
ULT-LT
 62
   250
420
  2301728
370
    20
100
AcDbSpline
210
0.0
220
0.0
230
1.0
 70
    11
 71
     3
 72
    23
 73
    19
 74
     0
 42
0.0000000001
 43
0.0000000001
 12
1.0
 22
0.0
 32
0.0
 13
1.0
 23
0.0
 33
0.0
 40
0.0
 40
0.0
 40
0.0
 40
0.0
 40
1.0
 40
1.0
 40
1.0
 40
2.0
 40
2.0
 40
2.0
 40
3.0
 40
3.0
 40
3.0
 40
4.0
 40
4.0
 40
4.0
 40
5.0
 40
5.0
 40
5.0
 40
6.0
 40
6.0
 40
6.0
 40
6.0
 10
1.683826808112788
 20
-0.9069137905134741
 30
0.0
 10
1.696541391124937
 20
-0.9124887905135084
 30
0.0
 10
1.692451807894902
 20
-0.9242887905135022
 30
0.0
 10
1.690743474604725
 20
-0.9400367071801712
 30
0.0
 10
1.689074724646869
 20
-0.9553762905135146
 30
0.0
 10
1.684843474753772
 20
-0.982190873846826
 30
0.0
 10
1.673897641696954
 20
-0.9803596238468293
 30
0.0
 10
1.669870558465353
 20
-0.9797096238468282
 30
0.0
 10
1.664539429077738
 20
-0.9779596238468254
 30
0.0
 10
1.656849725460953
 20
-0.9747846238468456
 30
0.0
 10
1.63825389259739
 20
-0.9671346238468332
 30
0.0
 10
1.633289429077738
 20
-0.9565554571801789
 30
0.0
 10
1.635568475998576
 20
-0.9355596238468075
 30
0.0
 10
1.637845559274372
 20
-0.9146054571801616
 30
0.0
 10
1.653145558887862
 20
-0.8990617071801554
 30
0.0
 10
1.667958058513667
 20
-0.9006471238468394
 30
0.0
 10
1.671618475087863
 20
-0.901055457180165
 30
0.0
 10
1.680408058199153
 20
-0.9054075405134779
 30
0.0
 10
1.683826808112788
 20
-0.9069137905134741
 30
0.0
  0
HATCH
  5
F2
330
1F
100
AcDbEntity
  8
ULT-LT
 62
   254
420
 13358815
100
AcDbHatch
 10
0.0
 20
0.0
 30
0.0
210
0.0
220
0.0
230
1.0
  2
SOLID
 70
     1
 71
     0
 91
        1
 92
        1
 93
        1
 72
     4
 94
        3
 73
     0
 74
     1
 95
       23
 96
       19
 40
0.0
 40
0.0
 40
0.0
 40
0.0
 40
1.0
 40
1.0
 40
1.0
 40
2.0
 40
2.0
 40
2.0
 40
3.0
 40
3.0
 40
3.0
 40
4.0
 40
4.0
 40
4.0
 40
5.0
 40
5.0
 40
5.0
 40
6.0
 40
6.0
 40
6.0
 40
6.0
 10
1.683826808112788
 20
-0.9069137905134741
 10
1.696541391124937
 20
-0.9124887905135084
 10
1.692451807894902
 20
-0.9242887905135022
 10
1.690743474604725
 20
-0.9400367071801712
 10
1.689074724646869
 20
-0.9553762905135146
 10
1.684843474753772
 20
-0.982190873846826
 10
1.673897641696954
 20
-0.9803596238468293
 10
1.669870558465353
 20
-0.9797096238468282
 10
1.664539429077738
 20
-0.9779596238468254
 10
1.656849725460953
 20
-0.9747846238468456
 10
1.63825389259739
 20
-0.9671346238468332
 10
1.633289429077738
 20
-0.9565554571801789
 10
1.635568475998576
 20
-0.9355596238468075
 10
1.637845559274372
 20
-0.9146054571801616
 10
1.653145558887862
 20
-0.8990617071801554
 10
1.667958058513667
 20
-0.9006471238468394
 10
1.671618475087863
 20
-0.901055457180165
 10
1.680408058199153
 20
-0.9054075405134779
 10
1.683826808112788
 20
-0.9069137905134741
 97
        0
 97
        0
 75
     2
 76
     1
 98
        0
  0
SPLINE
  5
F3
330
1F
100
AcDbEntity
  8
ULT-LT
 62
   250
420
  2301728
370
    20
100
AcDbSpline
210
0.0
220
0.0
230
1.0
 70
    11
 71
     3
 72
    17
 73
    13
 74
     0
 42
0.0000000001
 43
0.0000000001
 12
1.0
 22
0.0
 32
0.0
 13
1.0
 23
0.0
 33
0.0
 40
0.0
 40
0.0
 40
0.0
 40
0.0
 40
1.0
 40
1.0
 40
1.0
 40
2.0
 40
2.0
 40
2.0
 40
3.0
 40
3.0
 40
3.0
 40
4.0
 40
4.0
 40
4.0
 40
4.0
 10
1.70457889092188
 20
-0.9471971238468136
 30
0.0
 10
1.702422640976351
 20
-0.9671346238468332
 30
0.0
 10
1.688689307989939
 20
-0.9819867071801632
 30
0.0
 10
1.673897641696954
 20
-0.9803596238468293
 30
0.0
 10
1.659126808736763
 20
-0.9787721238468394
 30
0.0
 10
1.648914429077738
 20
-0.9613158738468175
 30
0.0
 10
1.651070558940281
 20
-0.9413783738468231
 30
0.0
 10
1.653226929077732
 20
-0.9214804571801727
 30
0.0
 10
1.666939308539402
 20
-0.9065887905134988
 30
0.0
 10
1.6817309748324
 20
-0.9082158738468075
 30
0.0
 10
1.696520557792117
 20
-0.9098033738468478
 30
0.0
 10
1.706735140867409
 20
-0.9272992071801632
 30
0.0
 10
1.70457889092188
 20
-0.9471971238468136
 30
0.0
  0
HATCH
  5
F4
330
1F
100
AcDbEntity
  8
ULT-LT
 62
   254
420
 13358815
100
AcDbHatch
 10
0.0
 20
0.0
 30
0.0
210
0.0
220
0.0
230
1.0
  2
SOLID
 70
     1
 71
     0
 91
        1
 92
        1
 93
        1
 72
     4
 94
        3
 73
     0
 74
     1
 95
       17
 96
       13
 40
0.0
 40
0.0
 40
0.0
 40
0.0
 40
1.0
 40
1.0
 40
1.0
 40
2.0
 40
2.0
 40
2.0
 40
3.0
 40
3.0
 40
3.0
 40
4.0
 40
4.0
 40
4.0
 40
4.0
 10
1.70457889092188
 20
-0.9471971238468136
 10
1.702422640976351
 20
-0.9671346238468332
 10
1.688689307989939
 20
-0.9819867071801632
 10
1.673897641696954
 20
-0.9803596238468293
 10
1.659126808736763
 20
-0.9787721238468394
 10
1.648914429077738
 20
-0.9613158738468175
 10
1.651070558940281
 20
-0.9413783738468231
 10
1.653226929077732
 20
-0.9214804571801727
 10
1.666939308539402
 20
-0.9065887905134988
 10
1.6817309748324
 20
-0.9082158738468075
 10
1.696520557792117
 20
-0.9098033738468478
 10
1.706735140867409
 20
-0.9272992071801632
 10
1.70457889092188
 20
-0.9471971238468136
 97
        0
 97
        0
 75
     2
 76
     1
 98
        0
  0
SPLINE
  5
F5
330
1F
100
AcDbEntity
  8
ULT-LT
 62
   250
420
  2301728
370
    20
100
AcDbSpline
210
0.0
220
0.0
230
1.0
 70
     8
 71
     3
 72
    11
 73
     7
 74
     0
 42
0.0000000001
 43
0.0000000001
 12
1.0
 22
0.0
 32
0.0
 13
1.0
 23
0.0
 33
0.0
 40
0.0
 40
0.0
 40
0.0
 40
0.0
 40
1.0
 40
1.0
 40
1.0
 40
2.0
 40
2.0
 40
2.0
 40
2.0
 10
1.539680978420885
 20
-0.5436325405134741
 30
0.0
 10
1.524910145460694
 20
-0.5452200405135146
 30
0.0
 10
1.514697645718684
 20
-0.5627158738468299
 30
0.0
 10
1.516853895664212
 20
-0.5826137905134803
 30
0.0
 10
1.518339312293367
 20
-0.596367957180165
 30
0.0
 10
1.525358062116046
 20
-0.6077596238468332
 30
0.0
 10
1.534433061886792
 20
-0.612928373846848
 30
0.0
  0
HATCH
  5
F6
330
1F
100
AcDbEntity
  8
ULT-LT
 62
   254
420
 13358815
100
AcDbHatch
 10
0.0
 20
0.0
 30
0.0
210
0.0
220
0.0
230
1.0
  2
SOLID
 70
     1
 71
     0
 91
        1
 92
        1
 93
        2
 72
     4
 94
        3
 73
     0
 74
     0
 95
       11
 96
        7
 40
0.0
 40
0.0
 40
0.0
 40
0.0
 40
0.0138888888888889
 40
0.0138888888888889
 40
0.0138888888888889
 40
0.0277777777777778
 40
0.0277777777777778
 40
0.0277777777777778
 40
0.0277777777777778
 10
1.539680978420885
 20
-0.5436325405134741
 10
1.524910145460694
 20
-0.5452200405135146
 10
1.514697645718684
 20
-0.5627158738468299
 10
1.516853895664212
 20
-0.5826137905134803
 10
1.518339312293367
 20
-0.596367957180165
 10
1.525358062116046
 20
-0.6077596238468332
 10
1.534433061886792
 20
-0.612928373846848
 97
        0
 72
     1
 10
1.534433061886792
 20
-0.612928373846848
 11
1.539680978420885
 21
-0.5436325405134741
 97
        0
 75
     2
 76
     1
 98
        0
  0
SPLINE
  5
F7
330
1F
100
AcDbEntity
  8
ULT-LT
 62
   250
420
  2301728
370
    20
100
AcDbSpline
210
0.0
220
0.0
230
1.0
 70
     8
 71
     3
 72
    14
 73
    10
 74
     0
 42
0.0000000001
 43
0.0000000001
 12
1.0
 22
0.0
 32
0.0
 13
1.0
 23
0.0
 33
0.0
 40
0.0
 40
0.0
 40
0.0
 40
0.0
 40
1.0
 40
1.0
 40
1.0
 40
2.0
 40
2.0
 40
2.0
 40
3.0
 40
3.0
 40
3.0
 40
3.0
 10
1.709643595744422
 20
0.1008987094865259
 30
0.0
 10
1.704028890935774
 20
0.1060257928198654
 30
0.0
 10
1.697274724439732
 20
0.1087507928198445
 30
0.0
 10
1.690620557941164
 20
0.1080195428198496
 30
0.0
 10
1.686960141366967
 20
0.107652876153174
 30
0.0
 10
1.678170558255677
 20
0.1032591261531605
 30
0.0
 10
1.674751808342042
 20
0.1017528761531644
 30
0.0
 10
1.665210141916418
 20
0.0975820428198454
 30
0.0
 10
1.665128891918471
 20
0.0899112094864955
 30
0.0
 10
1.666391391886577
 20
0.0796987094864916
 30
0.0
  0
HATCH
  5
F8
330
1F
100
AcDbEntity
  8
ULT-LT
 62
   254
420
 13358815
100
AcDbHatch
 10
0.0
 20
0.0
 30
0.0
210
0.0
220
0.0
230
1.0
  2
SOLID
 70
     1
 71
     0
 91
        1
 92
        1
 93
        2
 72
     4
 94
        3
 73
     0
 74
     0
 95
       14
 96
       10
 40
0.0
 40
0.0
 40
0.0
 40
0.0
 40
0.0138888888888889
 40
0.0138888888888889
 40
0.0138888888888889
 40
0.0277777777777778
 40
0.0277777777777778
 40
0.0277777777777778
 40
0.0416666666666667
 40
0.0416666666666667
 40
0.0416666666666667
 40
0.0416666666666667
 10
1.709643595744422
 20
0.1008987094865259
 10
1.704028890935774
 20
0.1060257928198654
 10
1.697274724439732
 20
0.1087507928198445
 10
1.690620557941164
 20
0.1080195428198496
 10
1.686960141366967
 20
0.107652876153174
 10
1.678170558255677
 20
0.1032591261531605
 10
1.674751808342042
 20
0.1017528761531644
 10
1.665210141916418
 20
0.0975820428198454
 10
1.665128891918471
 20
0.0899112094864955
 10
1.666391391886577
 20
0.0796987094864916
 97
        0
 72
     1
 10
1.666391391886577
 20
0.0796987094864916
 11
1.709643595744422
 21
0.1008987094865259
 97
        0
 75
     2
 76
     1
 98
        0
  0
SPLINE
  5
F9
330
1F
100
AcDbEntity
  8
ULT-LT
 62
   250
420
  2301728
370
    20
100
AcDbSpline
210
0.0
220
0.0
230
1.0
 70
     8
 71
     3
 72
    11
 73
     7
 74
     0
 42
0.0000000001
 43
0.0000000001
 12
1.0
 22
0.0
 32
0.0
 13
1.0
 23
0.0
 33
0.0
 40
0.0
 40
0.0
 40
0.0
 40
0.0
 40
1.0
 40
1.0
 40
1.0
 40
2.0
 40
2.0
 40
2.0
 40
2.0
 10
1.694914429077736
 20
0.0939820428198396
 30
0.0
 10
1.689706095744403
 20
0.0987007928198283
 30
0.0
 10
1.683378891457424
 20
0.1011841261531825
 30
0.0
 10
1.67684764162243
 20
0.1004924594865062
 30
0.0
 10
1.665312225247173
 20
0.0992299594864916
 30
0.0
 10
1.656585142134304
 20
0.0883445428198431
 30
0.0
 10
1.654285142192407
 20
0.0742049594865016
 30
0.0
  0
HATCH
  5
FA
330
1F
100
AcDbEntity
  8
ULT-LT
 62
   254
420
 13358815
100
AcDbHatch
 10
0.0
 20
0.0
 30
0.0
210
0.0
220
0.0
230
1.0
  2
SOLID
 70
     1
 71
     0
 91
        1
 92
        1
 93
        2
 72
     4
 94
        3
 73
     0
 74
     0
 95
       11
 96
        7
 40
0.0
 40
0.0
 40
0.0
 40
0.0
 40
0.0138888888888889
 40
0.0138888888888889
 40
0.0138888888888889
 40
0.0277777777777778
 40
0.0277777777777778
 40
0.0277777777777778
 40
0.0277777777777778
 10
1.694914429077736
 20
0.0939820428198396
 10
1.689706095744403
 20
0.0987007928198283
 10
1.683378891457424
 20
0.1011841261531825
 10
1.67684764162243
 20
0.1004924594865062
 10
1.665312225247173
 20
0.0992299594864916
 10
1.656585142134304
 20
0.0883445428198431
 10
1.654285142192407
 20
0.0742049594865016
 97
        0
 72
     1
 10
1.654285142192407
 20
0.0742049594865016
 11
1.694914429077736
 21
0.0939820428198396
 97
        0
 75
     2
 76
     1
 98
        0
  0
SPLINE
  5
FB
330
1F
100
AcDbEntity
  8
ULT-LT
 62
   250
420
  2301728
370
    20
100
AcDbSpline
210
0.0
220
0.0
230
1.0
 70
    11
 71
     3
 72
    23
 73
    19
 74
     0
 42
0.0000000001
 43
0.0000000001
 12
1.0
 22
0.0
 32
0.0
 13
1.0
 23
0.0
 33
0.0
 40
0.0
 40
0.0
 40
0.0
 40
0.0
 40
1.0
 40
1.0
 40
1.0
 40
2.0
 40
2.0
 40
2.0
 40
3.0
 40
3.0
 40
3.0
 40
4.0
 40
4.0
 40
4.0
 40
5.0
 40
5.0
 40
5.0
 40
6.0
 40
6.0
 40
6.0
 40
6.0
 10
1.655343475499004
 20
-1.141695040513494
 30
0.0
 10
1.667510141858315
 20
-1.148288790513511
 30
0.0
 10
1.66246430865245
 20
-1.159722123846804
 30
0.0
 10
1.659453892061833
 20
-1.17526587384681
 30
0.0
 10
1.656522642135883
 20
-1.19040129051349
 30
0.0
 10
1.650074725632117
 20
-1.216770040513489
 30
0.0
 10
1.639331095744422
 20
-1.214042957180153
 30
0.0
 10
1.635364309337054
 20
-1.213065873846846
 30
0.0
 10
1.630197642800908
 20
-1.210909623846823
 30
0.0
 10
1.622812226320826
 20
-1.207084623846817
 30
0.0
 10
1.604908060106444
 20
-1.19788879051349
 30
0.0
 10
1.600839310209216
 20
-1.186942957180135
 30
0.0
 10
1.604847643441303
 20
-1.16623254051347
 30
0.0
 10
1.608874726672904
 20
-1.1455200405135
 30
0.0
 10
1.625395559588886
 20
-1.131278373846827
 30
0.0
 10
1.640003892553182
 20
-1.134128373846832
 30
0.0
 10
1.643645559127852
 20
-1.134820040513483
 30
0.0
 10
1.652047642248931
 20
-1.139905457180147
 30
0.0
 10
1.655343475499004
 20
-1.141695040513494
 30
0.0
  0
HATCH
  5
FC
330
1F
100
AcDbEntity
  8
ULT-LT
 62
   254
420
 13358815
100
AcDbHatch
 10
0.0
 20
0.0
 30
0.0
210
0.0
220
0.0
230
1.0
  2
SOLID
 70
     1
 71
     0
 91
        1
 92
        1
 93
        1
 72
     4
 94
        3
 73
     0
 74
     1
 95
       23
 96
       19
 40
0.0
 40
0.0
 40
0.0
 40
0.0
 40
1.0
 40
1.0
 40
1.0
 40
2.0
 40
2.0
 40
2.0
 40
3.0
 40
3.0
 40
3.0
 40
4.0
 40
4.0
 40
4.0
 40
5.0
 40
5.0
 40
5.0
 40
6.0
 40
6.0
 40
6.0
 40
6.0
 10
1.655343475499004
 20
-1.141695040513494
 10
1.667510141858315
 20
-1.148288790513511
 10
1.66246430865245
 20
-1.159722123846804
 10
1.659453892061833
 20
-1.17526587384681
 10
1.656522642135883
 20
-1.19040129051349
 10
1.650074725632117
 20
-1.216770040513489
 10
1.639331095744422
 20
-1.214042957180153
 10
1.635364309337054
 20
-1.213065873846846
 10
1.630197642800908
 20
-1.210909623846823
 10
1.622812226320826
 20
-1.207084623846817
 10
1.604908060106444
 20
-1.19788879051349
 10
1.600839310209216
 20
-1.186942957180135
 10
1.604847643441303
 20
-1.16623254051347
 10
1.608874726672904
 20
-1.1455200405135
 10
1.625395559588886
 20
-1.131278373846827
 10
1.640003892553182
 20
-1.134128373846832
 10
1.643645559127852
 20
-1.134820040513483
 10
1.652047642248931
 20
-1.139905457180147
 10
1.655343475499004
 20
-1.141695040513494
 97
        0
 97
        0
 75
     2
 76
     1
 98
        0
  0
SPLINE
  5
FD
330
1F
100
AcDbEntity
  8
ULT-LT
 62
   250
420
  2301728
370
    20
100
AcDbSpline
210
0.0
220
0.0
230
1.0
 70
    11
 71
     3
 72
    17
 73
    13
 74
     0
 42
0.0000000001
 43
0.0000000001
 12
1.0
 22
0.0
 32
0.0
 13
1.0
 23
0.0
 33
0.0
 40
0.0
 40
0.0
 40
0.0
 40
0.0
 40
1.0
 40
1.0
 40
1.0
 40
2.0
 40
2.0
 40
2.0
 40
3.0
 40
3.0
 40
3.0
 40
4.0
 40
4.0
 40
4.0
 40
4.0
 10
1.672637225062128
 20
-1.183565873846823
 30
0.0
 10
1.668851929077732
 20
-1.203220040513492
 30
0.0
 10
1.653918475535003
 20
-1.216890873846801
 30
0.0
 10
1.639331095744422
 20
-1.214042957180153
 30
0.0
 10
1.624724726272499
 20
-1.211234623846824
 30
0.0
 10
1.61599555982635
 20
-1.192965873846838
 30
0.0
 10
1.619799726396915
 20
-1.173311707180169
 30
0.0
 10
1.623603892967481
 20
-1.153617957180156
 30
0.0
 10
1.638537225923566
 20
-1.139947123846822
 30
0.0
 10
1.653145558887862
 20
-1.14279504051347
 30
0.0
 10
1.667733058519351
 20
-1.145601290513494
 30
0.0
 10
1.6764622249655
 20
-1.163872123846835
 30
0.0
 10
1.672637225062128
 20
-1.183565873846823
 30
0.0
  0
HATCH
  5
FE
330
1F
100
AcDbEntity
  8
ULT-LT
 62
   254
420
 13358815
100
AcDbHatch
 10
0.0
 20
0.0
 30
0.0
210
0.0
220
0.0
230
1.0
  2
SOLID
 70
     1
 71
     0
 91
        1
 92
        1
 93
        1
 72
     4
 94
        3
 73
     0
 74
     1
 95
       17
 96
       13
 40
0.0
 40
0.0
 40
0.0
 40
0.0
 40
1.0
 40
1.0
 40
1.0
 40
2.0
 40
2.0
 40
2.0
 40
3.0
 40
3.0
 40
3.0
 40
4.0
 40
4.0
 40
4.0
 40
4.0
 10
1.672637225062128
 20
-1.183565873846823
 10
1.668851929077732
 20
-1.203220040513492
 10
1.653918475535003
 20
-1.216890873846801
 10
1.639331095744422
 20
-1.214042957180153
 10
1.624724726272499
 20
-1.211234623846824
 10
1.61599555982635
 20
-1.192965873846838
 10
1.619799726396915
 20
-1.173311707180169
 10
1.623603892967481
 20
-1.153617957180156
 10
1.638537225923566
 20
-1.139947123846822
 10
1.653145558887862
 20
-1.14279504051347
 10
1.667733058519351
 20
-1.145601290513494
 10
1.6764622249655
 20
-1.163872123846835
 10
1.672637225062128
 20
-1.183565873846823
 97
        0
 97
        0
 75
     2
 76
     1
 98
        0
  0
POLYLINE
  5
FF
330
1F
100
AcDbEntity
  8
ULT-LT
 62
     7
420
 16777215
370
    30
100
AcDb2dPolyline
 66
     1
 10
0.0
 20
0.0
 30
0.0
  0
VERTEX
  5
100
330
FF
100
AcDbEntity
  8
ULT-LT
 62
     7
420
 16777215
370
    30
100
AcDbVertex
100
AcDb2dVertex
 10
1.606799726725323
 20
0.0391716261531706
 30
0.0
  0
VERTEX
  5
101
330
FF
100
AcDbEntity
  8
ULT-LT
 62
     7
420
 16777215
370
    30
100
AcDbVertex
100
AcDb2dVertex
 10
1.635851929077754
 20
0.0309528761531763
 30
0.0
  0
SEQEND
  5
102
330
FF
100
AcDbEntity
  8
ULT-LT
 62
     7
420
 16777215
370
    30
  0
POLYLINE
  5
103
330
1F
100
AcDbEntity
  8
ULT-LT
 62
     7
420
 16777215
370
    30
100
AcDb2dPolyline
 66
     1
 10
0.0
 20
0.0
 30
0.0
  0
VERTEX
  5
104
330
103
100
AcDbEntity
  8
ULT-LT
 62
     7
420
 16777215
370
    30
100
AcDbVertex
100
AcDb2dVertex
 10
1.201912236953641
 20
-0.807182540513496
 30
0.0
  0
VERTEX
  5
105
330
103
100
AcDbEntity
  8
ULT-LT
 62
     7
420
 16777215
370
    30
100
AcDbVertex
100
AcDb2dVertex
 10
1.440560262411042
 20
-0.8666304571801345
 30
0.0
  0
VERTEX
  5
106
330
103
100
AcDbEntity
  8
ULT-LT
 62
     7
420
 16777215
370
    30
100
AcDbVertex
100
AcDb2dVertex
 10
1.53606026241107
 20
-0.851697123846836
 30
0.0
  0
SEQEND
  5
107
330
103
100
AcDbEntity
  8
ULT-LT
 62
     7
420
 16777215
370
    30
  0
POLYLINE
  5
108
330
1F
100
AcDbEntity
  8
ULT-LT
 62
     7
420
 16777215
370
    30
100
AcDb2dPolyline
 66
     1
 10
0.0
 20
0.0
 30
0.0
  0
VERTEX
  5
109
330
108
100
AcDbEntity
  8
ULT-LT
 62
     7
420
 16777215
370
    30
100
AcDbVertex
100
AcDb2dVertex
 10
1.440560262411042
 20
-0.8666304571801345
 30
0.0
  0
VERTEX
  5
10A
330
108
100
AcDbEntity
  8
ULT-LT
 62
     7
420
 16777215
370
    30
100
AcDbVertex
100
AcDb2dVertex
 10
1.440560262411042
 20
-0.8983283738468293
 30
0.0
  0
SEQEND
  5
10B
330
108
100
AcDbEntity
  8
ULT-LT
 62
     7
420
 16777215
370
    30
  0
POLYLINE
  5
10C
330
1F
100
AcDbEntity
  8
ULT-LT
 62
     7
420
 16777215
370
    30
100
AcDb2dPolyline
 66
     1
 10
0.0
 20
0.0
 30
0.0
  0
VERTEX
  5
10D
330
10C
100
AcDbEntity
  8
ULT-LT
 62
     7
420
 16777215
370
    30
100
AcDbVertex
100
AcDb2dVertex
 10
1.485706095744401
 20
-0.6552867071801655
 30
0.0
  0
VERTEX
  5
10E
330
10C
100
AcDbEntity
  8
ULT-LT
 62
     7
420
 16777215
370
    30
100
AcDbVertex
100
AcDb2dVertex
 10
1.532581095744401
 20
-0.6652554571801627
 30
0.0
  0
SEQEND
  5
10F
330
10C
100
AcDbEntity
  8
ULT-LT
 62
     7
420
 16777215
370
    30
  0
POLYLINE
  5
110
330
1F
100
AcDbEntity
  8
ULT-LT
 62
     7
420
 16777215
370
    30
100
AcDb2dPolyline
 66
     1
 10
0.0
 20
0.0
 30
0.0
  0
VERTEX
  5
111
330
110
100
AcDbEntity
  8
ULT-LT
 62
     7
420
 16777215
370
    30
100
AcDbVertex
100
AcDb2dVertex
 10
1.542997762411068
 20
-0.6366096238468294
 30
0.0
  0
VERTEX
  5
112
330
110
100
AcDbEntity
  8
ULT-LT
 62
     7
420
 16777215
370
    30
100
AcDbVertex
100
AcDb2dVertex
 10
1.565560262411042
 20
-0.6404762905135107
 30
0.0
  0
SEQEND
  5
113
330
110
100
AcDbEntity
  8
ULT-LT
 62
     7
420
 16777215
370
    30
  0
POLYLINE
  5
114
330
1F
100
AcDbEntity
  8
ULT-LT
 62
     7
420
 16777215
370
    30
100
AcDb2dPolyline
 66
     1
 10
0.0
 20
0.0
 30
0.0
  0
VERTEX
  5
115
330
114
100
AcDbEntity
  8
ULT-LT
 62
     7
420
 16777215
370
    30
100
AcDbVertex
100
AcDb2dVertex
 10
1.199247762411068
 20
-0.8097867071801627
 30
0.0
  0
VERTEX
  5
116
330
114
100
AcDbEntity
  8
ULT-LT
 62
     7
420
 16777215
370
    30
100
AcDbVertex
100
AcDb2dVertex
 10
1.44231026241107
 20
-0.8703346238468282
 30
0.0
  0
VERTEX
  5
117
330
114
100
AcDbEntity
  8
ULT-LT
 62
     7
420
 16777215
370
    30
100
AcDbVertex
100
AcDb2dVertex
 10
1.532581095744401
 20
-0.8566617071801627
 30
0.0
  0
SEQEND
  5
118
330
114
100
AcDbEntity
  8
ULT-LT
 62
     7
420
 16777215
370
    30
  0
INSERT
  5
11B
330
1F
100
AcDbEntity
  8
callout
100
AcDbBlockReference
  2
block 2
 10
0.0
 20
0.0
 30
0.0
  0
INSERT
  5
120
330
1F
100
AcDbEntity
  8
callout
100
AcDbBlockReference
  2
block 3
 10
0.0
 20
0.0
 30
0.0
  0
INSERT
  5
129
330
1F
100
AcDbEntity
  8
callout
100
AcDbBlockReference
  2
block 5
 10
0.0
 20
0.0
 30
0.0
  0
INSERT
  5
13F
330
1F
100
AcDbEntity
  8
callout
100
AcDbBlockReference
  2
block 6
 10
0.0
 20
0.0
 30
0.0
  0
MTEXT
  5
154
330
1F
100
AcDbEntity
  8
callout
 62
   250
420
  2236191
100
AcDbMText
 10
3.223992241753472
 20
-0.9706305132971869
 30
0.0
 40
0.118
 41
0.0
 46
0.0
 71
     7
 72
     1
  1
\fHelvetica Neue LT Std 57 Condensed|b0|i0|c0|p34;\W1;Truss / Rafter
 73
     1
 44
1.0
  0
POLYLINE
  5
155
330
1F
100
AcDbEntity
  8
callout
 62
   250
420
  2236191
370
    18
100
AcDb2dPolyline
 66
     1
 10
0.0
 20
0.0
 30
0.0
  0
VERTEX
  5
156
330
155
100
AcDbEntity
  8
callout
 62
   250
420
  2236191
370
    18
100
AcDbVertex
100
AcDb2dVertex
 10
3.189716312056741
 20
-0.9404923292901356
 30
0.0
  0
VERTEX
  5
157
330
155
100
AcDbEntity
  8
callout
 62
   250
420
  2236191
370
    18
100
AcDbVertex
100
AcDb2dVertex
 10
2.877565509206963
 20
-1.076309269478922
 30
0.0
  0
SEQEND
  5
158
330
155
100
AcDbEntity
  8
callout
 62
   250
420
  2236191
370
    18
  0
MTEXT
  5
159
330
1F
100
AcDbEntity
  8
callout
 62
   250
420
  2236191
100
AcDbMText
 10
-0.0770392947726779
 20
-0.4782058000564575
 30
0.0
 40
0.118
 41
0.0
 46
0.0
 71
     7
 72
     1
  1
\fHelvetica Neue LT Std 57 Condensed|b0|i0|c0|p34;\W1;ULT-LT
 73
     1
 44
1.0
  0
MTEXT
  5
15A
330
1F
100
AcDbEntity
  8
callout
 62
   250
420
  2236191
100
AcDbMText
 10
-0.2020392947726779
 20
-0.7513238588968912
 30
0.0
 40
0.118
 41
0.0
 46
0.0
 71
     7
 72
     1
  1
\fHelvetica Neue LT Std 57 Condensed|b0|i0|c0|p34;\W1;Top Plate
 73
     1
 44
1.0
  0
POLYLINE
  5
15B
330
1F
100
AcDbEntity
  8
callout
 62
   250
420
  2236191
370
    18
100
AcDb2dPolyline
 66
     1
 10
0.0
 20
0.0
 30
0.0
  0
VERTEX
  5
15C
330
15B
100
AcDbEntity
  8
callout
 62
   250
420
  2236191
370
    18
100
AcDbVertex
100
AcDb2dVertex
 10
0.4041123457444024
 20
-0.4249455553316592
 30
0.0
  0
VERTEX
  5
15D
330
15B
100
AcDbEntity
  8
callout
 62
   250
420
  2236191
370
    18
100
AcDbVertex
100
AcDb2dVertex
 10
1.462268595744401
 20
-0.3800992071801627
 30
0.0
  0
SEQEND
  5
15E
330
15B
100
AcDbEntity
  8
callout
 62
   250
420
  2236191
370
    18
  0
POLYLINE
  5
15F
330
1F
100
AcDbEntity
  8
callout
 62
   250
420
  2236191
370
    18
100
AcDb2dPolyline
 66
     1
 10
0.0
 20
0.0
 30
0.0
  0
VERTEX
  5
160
330
15F
100
AcDbEntity
  8
callout
 62
   250
420
  2236191
370
    18
100
AcDbVertex
100
AcDb2dVertex
 10
0.4083630956229298
 20
-0.691367899168717
 30
0.0
  0
VERTEX
  5
161
330
15F
100
AcDbEntity
  8
callout
 62
   250
420
  2236191
370
    18
100
AcDbVertex
100
AcDb2dVertex
 10
0.7383102624110683
 20
-0.6773842124368407
 30
0.0
  0
SEQEND
  5
162
330
15F
100
AcDbEntity
  8
callout
 62
   250
420
  2236191
370
    18
  0
MTEXT
  5
163
330
1F
100
AcDbEntity
  8
callout
 62
   250
420
  2236191
100
AcDbMText
 10
0.6520201100243462
 20
-2.774325903919008
 30
0.0
 40
0.118
 41
0.0
 46
0.0
 71
     7
 72
     1
  1
\fHelvetica Neue LT Std 55 Roman|b0|i0|c0|p34;\W1;SIMPSON Strong-Tie\H0.068794;®\H0.118; ^C
 73
     1
 44
1.0
  0
MTEXT
  5
164
330
1F
100
AcDbEntity
  8
callout
 62
   250
420
  2236191
100
AcDbMText
 10
0.3837299082014295
 20
-2.974317765898175
 30
0.0
 40
0.118
 41
0.0
 46
0.0
 71
     7
 72
     1
  1
\fHelvetica Neue LT Std 55 Roman|b0|i0|c0|p34;\W1;ULT Truss/Rafter-to-Top Plate 
 73
     1
 44
1.0
  0
ENDSEC
  0
SECTION
  2
OBJECTS
  0
DICTIONARY
  5
C
330
0
100
AcDbDictionary
281
     1
  3
ACAD_GROUP
350
D
  3
ACAD_LAYOUT
350
1A
  3
ACAD_MATERIAL
350
3B
  3
ACAD_MLEADERSTYLE
350
166
  3
ACAD_MLINESTYLE
350
17
  3
ACAD_PLOTSETTINGS
350
19
  3
ACAD_PLOTSTYLENAME
350
E
  3
ACAD_TABLESTYLE
350
165
  3
ACAD_VISUALSTYLE
350
2A
  0
SUN
  5
3F
330
29
100
AcDbSun
 90
        1
290
     0
 63
     7
421
 16777215
 40
1.0
291
     1
 91
  2455826
 92
 54000000
292
     0
 70
     2
 71
   256
280
     1
  0
DICTIONARY
  5
D
102
{ACAD_REACTORS
330
C
102
}
330
C
100
AcDbDictionary
281
     1
  0
DICTIONARY
  5
1A
102
{ACAD_REACTORS
330
C
102
}
330
C
100
AcDbDictionary
281
     1
  3
Layout1
350
1E
  3
Layout2
350
26
  3
Model
350
22
  0
DICTIONARY
  5
3B
102
{ACAD_REACTORS
330
C
102
}
330
C
100
AcDbDictionary
281
     1
  3
ByBlock
350
3D
  3
ByLayer
350
3C
  3
Global
350
3E
  0
DICTIONARY
  5
166
102
{ACAD_REACTORS
330
C
102
}
330
C
100
AcDbDictionary
281
     1
  0
DICTIONARY
  5
17
102
{ACAD_REACTORS
330
C
102
}
330
C
100
AcDbDictionary
281
     1
  3
Standard
350
18
  0
DICTIONARY
  5
19
102
{ACAD_REACTORS
330
C
102
}
330
C
100
AcDbDictionary
281
     1
  0
ACDBDICTIONARYWDFLT
  5
E
102
{ACAD_REACTORS
330
C
102
}
330
C
100
AcDbDictionary
281
     1
  3
Normal
350
F
100
AcDbDictionaryWithDefault
340
F
  0
DICTIONARY
  5
165
102
{ACAD_REACTORS
330
C
102
}
330
C
100
AcDbDictionary
281
     1
  0
DICTIONARY
  5
2A
102
{ACAD_REACTORS
330
C
102
}
330
C
100
AcDbDictionary
281
     1
  3
2dWireframe
350
2F
  3
3D Hidden
350
31
  3
3dWireframe
350
30
  3
Basic
350
32
  3
Brighten
350
36
  3
ColorChange
350
3A
  3
Conceptual
350
34
  3
Dim
350
35
  3
Facepattern
350
39
  3
Flat
350
2B
  3
FlatWithEdges
350
2C
  3
Gouraud
350
2D
  3
GouraudWithEdges
350
2E
  3
Linepattern
350
38
  3
Realistic
350
33
  3
Thicken
350
37
  0
LAYOUT
  5
1E
102
{ACAD_REACTORS
330
1A
102
}
330
1A
100
AcDbPlotSettings
  1

  2
none_device
  4

  6

 40
0.0
 41
0.0
 42
0.0
 43
0.0
 44
0.0
 45
0.0
 46
0.0
 47
0.0
 48
0.0
 49
0.0
140
0.0
141
0.0
142
1.0
143
1.0
 70
   688
 72
     0
 73
     0
 74
     5
  7

 75
    16
 76
     0
 77
     2
 78
   300
147
1.0
148
0.0
149
0.0
100
AcDbLayout
  1
Layout1
 70
     1
 71
     1
 10
0.0
 20
0.0
 11
12.0
 21
9.0
 12
0.0
 22
0.0
 32
0.0
 14
1.000000000000000E+20
 24
1.000000000000000E+20
 34
1.000000000000000E+20
 15
-1.000000000000000E+20
 25
-1.000000000000000E+20
 35
-1.000000000000000E+20
146
0.0
 13
0.0
 23
0.0
 33
0.0
 16
1.0
 26
0.0
 36
0.0
 17
0.0
 27
1.0
 37
0.0
 76
     0
330
1B
  0
LAYOUT
  5
26
102
{ACAD_REACTORS
330
1A
102
}
330
1A
100
AcDbPlotSettings
  1

  2
none_device
  4

  6

 40
0.0
 41
0.0
 42
0.0
 43
0.0
 44
0.0
 45
0.0
 46
0.0
 47
0.0
 48
0.0
 49
0.0
140
0.0
141
0.0
142
1.0
143
1.0
 70
   688
 72
     0
 73
     0
 74
     5
  7

 75
    16
 76
     0
 77
     2
 78
   300
147
1.0
148
0.0
149
0.0
100
AcDbLayout
  1
Layout2
 70
     1
 71
     2
 10
0.0
 20
0.0
 11
0.0
 21
0.0
 12
0.0
 22
0.0
 32
0.0
 14
0.0
 24
0.0
 34
0.0
 15
0.0
 25
0.0
 35
0.0
146
0.0
 13
0.0
 23
0.0
 33
0.0
 16
1.0
 26
0.0
 36
0.0
 17
0.0
 27
1.0
 37
0.0
 76
     0
330
23
  0
LAYOUT
  5
22
102
{ACAD_REACTORS
330
1A
102
}
330
1A
100
AcDbPlotSettings
  1

  2
none_device
  4

  6

 40
0.0
 41
0.0
 42
0.0
 43
0.0
 44
0.0
 45
0.0
 46
0.0
 47
0.0
 48
0.0
 49
0.0
140
0.0
141
0.0
142
1.0
143
1.0
 70
  1712
 72
     0
 73
     0
 74
     0
  7

 75
     0
 76
     0
 77
     2
 78
   300
147
1.0
148
0.0
149
0.0
100
AcDbLayout
  1
Model
 70
     1
 71
     0
 10
0.0
 20
0.0
 11
12.0
 21
9.0
 12
0.0
 22
0.0
 32
0.0
 14
1.000000000000000E+20
 24
1.000000000000000E+20
 34
1.000000000000000E+20
 15
-1.000000000000000E+20
 25
-1.000000000000000E+20
 35
-1.000000000000000E+20
146
0.0
 13
0.0
 23
0.0
 33
0.0
 16
1.0
 26
0.0
 36
0.0
 17
0.0
 27
1.0
 37
0.0
 76
     0
330
1F
331
29
  0
MATERIAL
  5
3D
102
{ACAD_REACTORS
330
3B
102
}
330
3B
100
AcDbMaterial
  1
ByBlock
 72
     1
 94
      127
  0
MATERIAL
  5
3C
102
{ACAD_REACTORS
330
3B
102
}
330
3B
100
AcDbMaterial
  1
ByLayer
 72
     1
 94
      127
  0
MATERIAL
  5
3E
102
{ACAD_REACTORS
330
3B
102
}
330
3B
100
AcDbMaterial
  1
Global
 72
     1
 94
      127
  0
MLINESTYLE
  5
18
102
{ACAD_REACTORS
330
17
102
}
330
17
100
AcDbMlineStyle
  2
Standard
 70
     0
  3

 62
   256
 51
90.0
 52
90.0
 71
     2
 49
0.5
 62
   256
  6
BYLAYER
 49
-0.5
 62
   256
  6
BYLAYER
  0
ACDBPLACEHOLDER
  5
F
102
{ACAD_REACTORS
330
E
102
}
330
E
  0
VISUALSTYLE
  5
2F
102
{ACAD_REACTORS
330
2A
102
}
330
2A
100
AcDbVisualStyle
  2
2dWireframe
 70
     4
177
     2
291
     0
 71
     0
176
     1
 72
     2
176
     1
 73
     0
176
     1
 90
        0
176
     1
 40
-0.6
176
     1
 41
-30.0
176
     1
 62
     5
 63
     7
421
 16777215
176
     1
 74
     1
176
     1
 91
        4
176
     1
 64
     7
176
     1
 65
   257
176
     1
 75
     1
176
     1
175
     1
176
     1
 42
1.0
176
     1
 92
        0
176
     1
 66
   257
176
     1
 43
1.0
176
     1
 76
     1
176
     1
 77
     6
176
     1
 78
     2
176
     1
 67
     7
176
     1
 79
     5
176
     1
170
     0
176
     1
171
     0
176
     1
290
     0
176
     1
 93
        1
176
     1
 44
0.0
176
     1
173
     0
176
     1
  0
VISUALSTYLE
  5
31
102
{ACAD_REACTORS
330
2A
102
}
330
2A
100
AcDbVisualStyle
  2
3D Hidden
 70
     6
177
     2
291
     0
 71
     1
176
     1
 72
     2
176
     1
 73
     2
176
     1
 90
        0
176
     1
 40
-0.6
176
     1
 41
-30.0
176
     1
 62
     5
 63
     7
421
 16777215
176
     1
 74
     2
176
     1
 91
        2
176
     1
 64
     7
176
     1
 65
   257
176
     1
 75
     2
176
     1
175
     1
176
     1
 42
40.0
176
     1
 92
        0
176
     1
 66
   257
176
     1
 43
1.0
176
     1
 76
     1
176
     1
 77
     6
176
     1
 78
     2
176
     1
 67
     7
176
     1
 79
     3
176
     1
170
     0
176
     1
171
     0
176
     1
290
     0
176
     1
 93
        1
176
     1
 44
0.0
176
     1
173
     0
176
     1
  0
VISUALSTYLE
  5
30
102
{ACAD_REACTORS
330
2A
102
}
330
2A
100
AcDbVisualStyle
  2
3dWireframe
 70
     5
177
     2
291
     0
 71
     0
176
     1
 72
     2
176
     1
 73
     0
176
     1
 90
        0
176
     1
 40
-0.6
176
     1
 41
-30.0
176
     1
 62
     5
 63
     7
421
 16777215
176
     1
 74
     1
176
     1
 91
        4
176
     1
 64
     7
176
     1
 65
   257
176
     1
 75
     1
176
     1
175
     1
176
     1
 42
1.0
176
     1
 92
        0
176
     1
 66
   257
176
     1
 43
1.0
176
     1
 76
     1
176
     1
 77
     6
176
     1
 78
     2
176
     1
 67
     7
176
     1
 79
     5
176
     1
170
     0
176
     1
171
     0
176
     1
290
     0
176
     1
 93
        1
176
     1
 44
0.0
176
     1
173
     0
176
     1
  0
VISUALSTYLE
  5
32
102
{ACAD_REACTORS
330
2A
102
}
330
2A
100
AcDbVisualStyle
  2
Basic
 70
     7
177
     2
291
     1
 71
     1
176
     1
 72
     0
176
     1
 73
     1
176
     1
 90
        0
176
     1
 40
-0.6
176
     1
 41
-30.0
176
     1
 62
     5
 63
     7
421
 16777215
176
     1
 74
     0
176
     1
 91
        4
176
     1
 64
     7
176
     1
 65
   257
176
     1
 75
     1
176
     1
175
     1
176
     1
 42
1.0
176
     1
 92
        8
176
     1
 66
     7
176
     1
 43
1.0
176
     1
 76
     1
176
     1
 77
     6
176
     1
 78
     2
176
     1
 67
     7
176
     1
 79
     5
176
     1
170
     0
176
     1
171
     0
176
     1
290
     0
176
     1
 93
        1
176
     1
 44
0.0
176
     1
173
     0
176
     1
  0
VISUALSTYLE
  5
36
102
{ACAD_REACTORS
330
2A
102
}
330
2A
100
AcDbVisualStyle
  2
Brighten
 70
    12
177
     2
291
     1
 71
     2
176
     1
 72
     2
176
     1
 73
     0
176
     1
 90
        0
176
     1
 40
-0.6
176
     1
 41
-30.0
176
     1
 62
     5
 63
     7
421
 16777215
176
     1
 74
     1
176
     1
 91
        4
176
     1
 64
     7
176
     1
 65
   257
176
     1
 75
     1
176
     1
175
     1
176
     1
 42
1.0
176
     1
 92
        8
176
     1
 66
     7
176
     1
 43
1.0
176
     1
 76
     1
176
     1
 77
     6
176
     1
 78
     2
176
     1
 67
     7
176
     1
 79
     5
176
     1
170
     0
176
     1
171
     0
176
     1
290
     0
176
     1
 93
        1
176
     1
 44
50.0
176
     1
173
     0
176
     1
  0
VISUALSTYLE
  5
3A
102
{ACAD_REACTORS
330
2A
102
}
330
2A
100
AcDbVisualStyle
  2
ColorChange
 70
    16
177
     2
291
     1
 71
     2
176
     1
 72
     2
176
     1
 73
     3
176
     1
 90
        0
176
     1
 40
-0.6
176
     1
 41
-30.0
176
     1
 62
     5
 63
     8
421
  8421504
176
     1
 74
     1
176
     1
 91
        4
176
     1
 64
     7
176
     1
 65
   257
176
     1
 75
     1
176
     1
175
     1
176
     1
 42
1.0
176
     1
 92
        8
176
     1
 66
     8
424
  8421504
176
     1
 43
1.0
176
     1
 76
     1
176
     1
 77
     6
176
     1
 78
     2
176
     1
 67
     7
176
     1
 79
     5
176
     1
170
     0
176
     1
171
     0
176
     1
290
     0
176
     1
 93
        1
176
     1
 44
0.0
176
     1
173
     0
176
     1
  0
VISUALSTYLE
  5
34
102
{ACAD_REACTORS
330
2A
102
}
330
2A
100
AcDbVisualStyle
  2
Conceptual
 70
     9
177
     2
291
     0
 71
     3
176
     1
 72
     2
176
     1
 73
     0
176
     1
 90
        0
176
     1
 40
-0.6
176
     1
 41
-30.0
176
     1
 62
     5
 63
     7
421
 16777215
176
     1
 74
     2
176
     1
 91
        2
176
     1
 64
     7
176
     1
 65
   257
176
     1
 75
     1
176
     1
175
     1
176
     1
 42
40.0
176
     1
 92
        8
176
     1
 66
     7
176
     1
 43
1.0
176
     1
 76
     1
176
     1
 77
     6
176
     1
 78
     2
176
     1
 67
     7
176
     1
 79
     3
176
     1
170
     0
176
     1
171
     0
176
     1
290
     0
176
     1
 93
        1
176
     1
 44
0.0
176
     1
173
     0
176
     1
  0
VISUALSTYLE
  5
35
102
{ACAD_REACTORS
330
2A
102
}
330
2A
100
AcDbVisualStyle
  2
Dim
 70
    11
177
     2
291
     1
 71
     2
176
     1
 72
     2
176
     1
 73
     0
176
     1
 90
        0
176
     1
 40
-0.6
176
     1
 41
-30.0
176
     1
 62
     5
 63
     7
421
 16777215
176
     1
 74
     1
176
     1
 91
        4
176
     1
 64
     7
176
     1
 65
   257
176
     1
 75
     1
176
     1
175
     1
176
     1
 42
1.0
176
     1
 92
        8
176
     1
 66
     7
176
     1
 43
1.0
176
     1
 76
     1
176
     1
 77
     6
176
     1
 78
     2
176
     1
 67
     7
176
     1
 79
     5
176
     1
170
     0
176
     1
171
     0
176
     1
290
     0
176
     1
 93
        1
176
     1
 44
-50.0
176
     1
173
     0
176
     1
  0
VISUALSTYLE
  5
39
102
{ACAD_REACTORS
330
2A
102
}
330
2A
100
AcDbVisualStyle
  2
Facepattern
 70
    15
177
     2
291
     1
 71
     2
176
     1
 72
     2
176
     1
 73
     0
176
     1
 90
        0
176
     1
 40
-0.6
176
     1
 41
-30.0
176
     1
 62
     5
 63
     7
421
 16777215
176
     1
 74
     1
176
     1
 91
        4
176
     1
 64
     7
176
     1
 65
   257
176
     1
 75
     1
176
     1
175
     1
176
     1
 42
1.0
176
     1
 92
        8
176
     1
 66
     7
176
     1
 43
1.0
176
     1
 76
     1
176
     1
 77
     6
176
     1
 78
     2
176
     1
 67
     7
176
     1
 79
     5
176
     1
170
     0
176
     1
171
     0
176
     1
290
     0
176
     1
 93
        1
176
     1
 44
0.0
176
     1
173
     0
176
     1
  0
VISUALSTYLE
  5
2B
102
{ACAD_REACTORS
330
2A
102
}
330
2A
100
AcDbVisualStyle
  2
Flat
 70
     0
177
     2
291
     1
 71
     2
176
     1
 72
     1
176
     1
 73
     1
176
     1
 90
        2
176
     1
 40
-0.6
176
     1
 41
30.0
176
     1
 62
     5
 63
     7
421
 16777215
176
     1
 74
     0
176
     1
 91
        4
176
     1
 64
     7
176
     1
 65
   257
176
     1
 75
     1
176
     1
175
     1
176
     1
 42
1.0
176
     1
 92
        8
176
     1
 66
     7
176
     1
 43
1.0
176
     1
 76
     1
176
     1
 77
     6
176
     1
 78
     2
176
     1
 67
     7
176
     1
 79
     5
176
     1
170
     0
176
     1
171
     0
176
     1
290
     0
176
     1
 93
       13
176
     1
 44
0.0
176
     1
173
     0
176
     1
  0
VISUALSTYLE
  5
2C
102
{ACAD_REACTORS
330
2A
102
}
330
2A
100
AcDbVisualStyle
  2
FlatWithEdges
 70
     1
177
     2
291
     1
 71
     2
176
     1
 72
     1
176
     1
 73
     1
176
     1
 90
        2
176
     1
 40
-0.6
176
     1
 41
30.0
176
     1
 62
     5
 63
     7
421
 16777215
176
     1
 74
     1
176
     1
 91
        4
176
     1
 64
     7
176
     1
 65
   257
176
     1
 75
     1
176
     1
175
     1
176
     1
 42
1.0
176
     1
 92
        0
176
     1
 66
   257
176
     1
 43
1.0
176
     1
 76
     1
176
     1
 77
     6
176
     1
 78
     2
176
     1
 67
     7
176
     1
 79
     5
176
     1
170
     0
176
     1
171
     0
176
     1
290
     0
176
     1
 93
       13
176
     1
 44
0.0
176
     1
173
     0
176
     1
  0
VISUALSTYLE
  5
2D
102
{ACAD_REACTORS
330
2A
102
}
330
2A
100
AcDbVisualStyle
  2
Gouraud
 70
     2
177
     2
291
     1
 71
     2
176
     1
 72
     2
176
     1
 73
     1
176
     1
 90
        2
176
     1
 40
-0.6
176
     1
 41
30.0
176
     1
 62
     5
 63
     7
421
 16777215
176
     1
 74
     0
176
     1
 91
        4
176
     1
 64
     7
176
     1
 65
   257
176
     1
 75
     1
176
     1
175
     1
176
     1
 42
1.0
176
     1
 92
        0
176
     1
 66
     7
176
     1
 43
1.0
176
     1
 76
     1
176
     1
 77
     6
176
     1
 78
     2
176
     1
 67
     7
176
     1
 79
     5
176
     1
170
     0
176
     1
171
     0
176
     1
290
     0
176
     1
 93
       13
176
     1
 44
0.0
176
     1
173
     0
176
     1
  0
VISUALSTYLE
  5
2E
102
{ACAD_REACTORS
330
2A
102
}
330
2A
100
AcDbVisualStyle
  2
GouraudWithEdges
 70
     3
177
     2
291
     1
 71
     2
176
     1
 72
     2
176
     1
 73
     1
176
     1
 90
        2
176
     1
 40
-0.6
176
     1
 41
30.0
176
     1
 62
     5
 63
     7
421
 16777215
176
     1
 74
     1
176
     1
 91
        4
176
     1
 64
     7
176
     1
 65
   257
176
     1
 75
     1
176
     1
175
     1
176
     1
 42
1.0
176
     1
 92
        0
176
     1
 66
   257
176
     1
 43
1.0
176
     1
 76
     1
176
     1
 77
     6
176
     1
 78
     2
176
     1
 67
     7
176
     1
 79
     5
176
     1
170
     0
176
     1
171
     0
176
     1
290
     0
176
     1
 93
       13
176
     1
 44
0.0
176
     1
173
     0
176
     1
  0
VISUALSTYLE
  5
38
102
{ACAD_REACTORS
330
2A
102
}
330
2A
100
AcDbVisualStyle
  2
Linepattern
 70
    14
177
     2
291
     1
 71
     2
176
     1
 72
     2
176
     1
 73
     0
176
     1
 90
        0
176
     1
 40
-0.6
176
     1
 41
-30.0
176
     1
 62
     5
 63
     7
421
 16777215
176
     1
 74
     1
176
     1
 91
        4
176
     1
 64
     7
176
     1
 65
   257
176
     1
 75
     7
176
     1
175
     7
176
     1
 42
1.0
176
     1
 92
        8
176
     1
 66
     7
176
     1
 43
1.0
176
     1
 76
     1
176
     1
 77
     6
176
     1
 78
     2
176
     1
 67
     7
176
     1
 79
     5
176
     1
170
     0
176
     1
171
     0
176
     1
290
     0
176
     1
 93
        1
176
     1
 44
0.0
176
     1
173
     0
176
     1
  0
VISUALSTYLE
  5
33
102
{ACAD_REACTORS
330
2A
102
}
330
2A
100
AcDbVisualStyle
  2
Realistic
 70
     8
177
     2
291
     0
 71
     2
176
     1
 72
     2
176
     1
 73
     0
176
     1
 90
        0
176
     1
 40
-0.6
176
     1
 41
-30.0
176
     1
 62
     5
 63
     7
421
 16777215
176
     1
 74
     1
176
     1
 91
        0
176
     1
 64
     7
176
     1
 65
   257
176
     1
 75
     1
176
     1
175
     1
176
     1
 42
1.0
176
     1
 92
        8
176
     1
 66
     8
424
  7895160
176
     1
 43
1.0
176
     1
 76
     1
176
     1
 77
     6
176
     1
 78
     2
176
     1
 67
     7
176
     1
 79
     5
176
     1
170
     0
176
     1
171
     0
176
     1
290
     0
176
     1
 93
       13
176
     1
 44
0.0
176
     1
173
     0
176
     1
  0
VISUALSTYLE
  5
37
102
{ACAD_REACTORS
330
2A
102
}
330
2A
100
AcDbVisualStyle
  2
Thicken
 70
    13
177
     2
291
     1
 71
     2
176
     1
 72
     2
176
     1
 73
     0
176
     1
 90
        0
176
     1
 40
-0.6
176
     1
 41
-30.0
176
     1
 62
     5
 63
     7
421
 16777215
176
     1
 74
     1
176
     1
 91
        4
176
     1
 64
     7
176
     1
 65
   257
176
     1
 75
     1
176
     1
175
     1
176
     1
 42
1.0
176
     1
 92
       12
176
     1
 66
     7
176
     1
 43
1.0
176
     1
 76
     1
176
     1
 77
     6
176
     1
 78
     2
176
     1
 67
     7
176
     1
 79
     5
176
     1
170
     0
176
     1
171
     0
176
     1
290
     0
176
     1
 93
        1
176
     1
 44
0.0
176
     1
173
     0
176
     1
  0
ENDSEC
  0
EOF
