  0
SECTION
  2
HEADER
  9
$ACADVER
  1
AC1032
  9
$ACADMAINTVER
 90
      228
  9
$DWGCODEPAGE
  3
ANSI_1252
  9
$REQUIREDVERSIONS
160
                 0
  9
$INSBASE
 10
0.0
 20
0.0
 30
0.0
  9
$EXTMIN
 10
1.000000000000000E+20
 20
1.000000000000000E+20
 30
1.000000000000000E+20
  9
$EXTMAX
 10
-1.000000000000000E+20
 20
-1.000000000000000E+20
 30
-1.000000000000000E+20
  9
$LIMMIN
 10
0.0
 20
0.0
  9
$LIMMAX
 10
12.0
 20
9.0
  9
$ORTHOMODE
 70
     0
  9
$REGENMODE
 70
     1
  9
$FILLMODE
 70
     1
  9
$QTEXTMODE
 70
     0
  9
$MIRRTEXT
 70
     0
  9
$LTSCALE
 40
1.0
  9
$ATTMODE
 70
     1
  9
$TEXTSIZE
 40
0.2
  9
$TRACEWID
 40
0.05
  9
$TEXTSTYLE
  7
Standard
  9
$CLAYER
  8
0
  9
$CELTYPE
  6
ByLayer
  9
$CECOLOR
 62
   256
  9
$CELTSCALE
 40
1.0
  9
$DISPSILH
 70
     0
  9
$DIMSCALE
 40
1.0
  9
$DIMASZ
 40
0.18
  9
$DIMEXO
 40
0.0625
  9
$DIMDLI
 40
0.38
  9
$DIMRND
 40
0.0
  9
$DIMDLE
 40
0.0
  9
$DIMEXE
 40
0.18
  9
$DIMTP
 40
0.0
  9
$DIMTM
 40
0.0
  9
$DIMTXT
 40
0.18
  9
$DIMCEN
 40
0.09
  9
$DIMTSZ
 40
0.0
  9
$DIMTOL
 70
     0
  9
$DIMLIM
 70
     0
  9
$DIMTIH
 70
     1
  9
$DIMTOH
 70
     1
  9
$DIMSE1
 70
     0
  9
$DIMSE2
 70
     0
  9
$DIMTAD
 70
     0
  9
$DIMZIN
 70
     0
  9
$DIMBLK
  1

  9
$DIMASO
 70
     1
  9
$DIMSHO
 70
     1
  9
$DIMPOST
  1

  9
$DIMAPOST
  1

  9
$DIMALT
 70
     0
  9
$DIMALTD
 70
     2
  9
$DIMALTF
 40
25.4
  9
$DIMLFAC
 40
1.0
  9
$DIMTOFL
 70
     0
  9
$DIMTVP
 40
0.0
  9
$DIMTIX
 70
     0
  9
$DIMSOXD
 70
     0
  9
$DIMSAH
 70
     0
  9
$DIMBLK1
  1

  9
$DIMBLK2
  1

  9
$DIMSTYLE
  2
Standard
  9
$DIMCLRD
 70
     0
  9
$DIMCLRE
 70
     0
  9
$DIMCLRT
 70
     0
  9
$DIMTFAC
 40
1.0
  9
$DIMGAP
 40
0.09
  9
$DIMJUST
 70
     0
  9
$DIMSD1
 70
     0
  9
$DIMSD2
 70
     0
  9
$DIMTOLJ
 70
     1
  9
$DIMTZIN
 70
     0
  9
$DIMALTZ
 70
     0
  9
$DIMALTTZ
 70
     0
  9
$DIMUPT
 70
     0
  9
$DIMDEC
 70
     4
  9
$DIMTDEC
 70
     4
  9
$DIMALTU
 70
     2
  9
$DIMALTTD
 70
     2
  9
$DIMTXSTY
  7
Standard
  9
$DIMAUNIT
 70
     0
  9
$DIMADEC
 70
     0
  9
$DIMALTRND
 40
0.0
  9
$DIMAZIN
 70
     0
  9
$DIMDSEP
 70
    46
  9
$DIMATFIT
 70
     3
  9
$DIMFRAC
 70
     0
  9
$DIMLDRBLK
  1

  9
$DIMLUNIT
 70
     2
  9
$DIMLWD
 70
    -2
  9
$DIMLWE
 70
    -2
  9
$DIMTMOVE
 70
     0
  9
$DIMFXL
 40
1.0
  9
$DIMFXLON
 70
     0
  9
$DIMJOGANG
 40
0.7853981633974483
  9
$DIMTFILL
 70
     0
  9
$DIMTFILLCLR
 70
     0
  9
$DIMARCSYM
 70
     0
  9
$DIMLTYPE
  6

  9
$DIMLTEX1
  6

  9
$DIMLTEX2
  6

  9
$DIMTXTDIRECTION
 70
     0
  9
$LUNITS
 70
     2
  9
$LUPREC
 70
     4
  9
$SKETCHINC
 40
0.1
  9
$FILLETRAD
 40
0.0
  9
$AUNITS
 70
     0
  9
$AUPREC
 70
     0
  9
$MENU
  1
.
  9
$ELEVATION
 40
0.0
  9
$PELEVATION
 40
0.0
  9
$THICKNESS
 40
0.0
  9
$LIMCHECK
 70
     0
  9
$CHAMFERA
 40
0.0
  9
$CHAMFERB
 40
0.0
  9
$CHAMFERC
 40
0.0
  9
$CHAMFERD
 40
0.0
  9
$SKPOLY
 70
     0
  9
$TDCREATE
 40
2460364.443298612
  9
$TDUCREATE
 40
2460363.901631945
  9
$TDUPDATE
 40
2460364.443298612
  9
$TDUUPDATE
 40
2460363.901631945
  9
$TDINDWG
 40
0.0000000000
  9
$TDUSRTIMER
 40
0.0000000000
  9
$USRTIMER
 70
     1
  9
$ANGBASE
 50
0.0
  9
$ANGDIR
 70
     0
  9
$PDMODE
 70
     0
  9
$PDSIZE
 40
0.0
  9
$PLINEWID
 40
0.0
  9
$SPLFRAME
 70
     0
  9
$SPLINETYPE
 70
     6
  9
$SPLINESEGS
 70
     8
  9
$HANDSEED
  5
1E1
  9
$SURFTAB1
 70
     6
  9
$SURFTAB2
 70
     6
  9
$SURFTYPE
 70
     6
  9
$SURFU
 70
     6
  9
$SURFV
 70
     6
  9
$UCSBASE
  2

  9
$UCSNAME
  2

  9
$UCSORG
 10
0.0
 20
0.0
 30
0.0
  9
$UCSXDIR
 10
1.0
 20
0.0
 30
0.0
  9
$UCSYDIR
 10
0.0
 20
1.0
 30
0.0
  9
$UCSORTHOREF
  2

  9
$UCSORTHOVIEW
 70
     0
  9
$UCSORGTOP
 10
0.0
 20
0.0
 30
0.0
  9
$UCSORGBOTTOM
 10
0.0
 20
0.0
 30
0.0
  9
$UCSORGLEFT
 10
0.0
 20
0.0
 30
0.0
  9
$UCSORGRIGHT
 10
0.0
 20
0.0
 30
0.0
  9
$UCSORGFRONT
 10
0.0
 20
0.0
 30
0.0
  9
$UCSORGBACK
 10
0.0
 20
0.0
 30
0.0
  9
$PUCSBASE
  2

  9
$PUCSNAME
  2

  9
$PUCSORG
 10
0.0
 20
0.0
 30
0.0
  9
$PUCSXDIR
 10
1.0
 20
0.0
 30
0.0
  9
$PUCSYDIR
 10
0.0
 20
1.0
 30
0.0
  9
$PUCSORTHOREF
  2

  9
$PUCSORTHOVIEW
 70
     0
  9
$PUCSORGTOP
 10
0.0
 20
0.0
 30
0.0
  9
$PUCSORGBOTTOM
 10
0.0
 20
0.0
 30
0.0
  9
$PUCSORGLEFT
 10
0.0
 20
0.0
 30
0.0
  9
$PUCSORGRIGHT
 10
0.0
 20
0.0
 30
0.0
  9
$PUCSORGFRONT
 10
0.0
 20
0.0
 30
0.0
  9
$PUCSORGBACK
 10
0.0
 20
0.0
 30
0.0
  9
$USERI1
 70
     0
  9
$USERI2
 70
     0
  9
$USERI3
 70
     0
  9
$USERI4
 70
     0
  9
$USERI5
 70
     0
  9
$USERR1
 40
0.0
  9
$USERR2
 40
0.0
  9
$USERR3
 40
0.0
  9
$USERR4
 40
0.0
  9
$USERR5
 40
0.0
  9
$WORLDVIEW
 70
     1
  9
$SHADEDGE
 70
     3
  9
$SHADEDIF
 70
    70
  9
$TILEMODE
 70
     1
  9
$MAXACTVP
 70
    64
  9
$PINSBASE
 10
0.0
 20
0.0
 30
0.0
  9
$PLIMCHECK
 70
     0
  9
$PEXTMIN
 10
1.000000000000000E+20
 20
1.000000000000000E+20
 30
1.000000000000000E+20
  9
$PEXTMAX
 10
-1.000000000000000E+20
 20
-1.000000000000000E+20
 30
-1.000000000000000E+20
  9
$PLIMMIN
 10
0.0
 20
0.0
  9
$PLIMMAX
 10
12.0
 20
9.0
  9
$UNITMODE
 70
     0
  9
$VISRETAIN
 70
     1
  9
$PLINEGEN
 70
     0
  9
$PSLTSCALE
 70
     1
  9
$TREEDEPTH
 70
  3020
  9
$CMLSTYLE
  2
Standard
  9
$CMLJUST
 70
     0
  9
$CMLSCALE
 40
1.0
  9
$PROXYGRAPHICS
 70
     1
  9
$MEASUREMENT
 70
     0
  9
$CELWEIGHT
370
    -1
  9
$ENDCAPS
280
     0
  9
$JOINSTYLE
280
     0
  9
$LWDISPLAY
290
     1
  9
$INSUNITS
 70
     1
  9
$HYPERLINKBASE
  1

  9
$STYLESHEET
  1

  9
$XEDIT
290
     1
  9
$CEPSNTYPE
380
     0
  9
$PSTYLEMODE
290
     1
  9
$FINGERPRINTGUID
  2
{F5D4269B-C3C7-644B-AC74-6D01DE8D8FDD}
  9
$VERSIONGUID
  2
{009C1A40-CED3-BB43-ABE0-56D173746C43}
  9
$EXTNAMES
290
     1
  9
$PSVPSCALE
 40
0.0
  9
$OLESTARTUP
290
     0
  9
$SORTENTS
280
   127
  9
$INDEXCTL
280
     0
  9
$HIDETEXT
280
     1
  9
$XCLIPFRAME
280
     2
  9
$HALOGAP
280
     0
  9
$OBSCOLOR
 70
   257
  9
$OBSLTYPE
280
     0
  9
$INTERSECTIONDISPLAY
280
     0
  9
$INTERSECTIONCOLOR
 70
   257
  9
$DIMASSOC
280
     2
  9
$PROJECTNAME
  1

  9
$CAMERADISPLAY
290
     0
  9
$LENSLENGTH
 40
50.0
  9
$CAMERAHEIGHT
 40
0.0
  9
$STEPSPERSEC
 40
2.0
  9
$STEPSIZE
 40
6.0
  9
$3DDWFPREC
 40
2.0
  9
$PSOLWIDTH
 40
0.25
  9
$PSOLHEIGHT
 40
4.0
  9
$LOFTANG1
 40
1.570796326794896
  9
$LOFTANG2
 40
1.570796326794896
  9
$LOFTMAG1
 40
0.0
  9
$LOFTMAG2
 40
0.0
  9
$LOFTPARAM
 70
     7
  9
$LOFTNORMALS
280
     1
  9
$LATITUDE
 40
37.795
  9
$LONGITUDE
 40
-122.394
  9
$NORTHDIRECTION
 40
0.0
  9
$TIMEZONE
 70
 -8000
  9
$LIGHTGLYPHDISPLAY
280
     1
  9
$TILEMODELIGHTSYNCH
280
     1
  9
$CMATERIAL
347
11
  9
$SOLIDHIST
280
     0
  9
$SHOWHIST
280
     1
  9
$DWFFRAME
280
     2
  9
$DGNFRAME
280
     0
  9
$REALWORLDSCALE
290
     1
  9
$INTERFERECOLOR
 62
     1
  9
$INTERFEREOBJVS
345
33
  9
$INTERFEREVPVS
346
30
  9
$CSHADOW
280
     0
  9
$SHADOWPLANELOCATION
 40
0.0
  0
ENDSEC
  0
SECTION
  2
CLASSES
  0
CLASS
  1
ACDBDICTIONARYWDFLT
  2
AcDbDictionaryWithDefault
  3
ObjectDBX Classes
 90
        0
 91
        1
280
     0
281
     0
  0
CLASS
  1
MATERIAL
  2
AcDbMaterial
  3
ObjectDBX Classes
 90
     1153
 91
        3
280
     0
281
     0
  0
CLASS
  1
VISUALSTYLE
  2
AcDbVisualStyle
  3
ObjectDBX Classes
 90
     4095
 91
       24
280
     0
281
     0
  0
CLASS
  1
SCALE
  2
AcDbScale
  3
ObjectDBX Classes
 90
     1153
 91
       17
280
     0
281
     0
  0
CLASS
  1
TABLESTYLE
  2
AcDbTableStyle
  3
ObjectDBX Classes
 90
     4095
 91
        1
280
     0
281
     0
  0
CLASS
  1
MLEADERSTYLE
  2
AcDbMLeaderStyle
  3
ACDB_MLEADERSTYLE_CLASS
 90
     4095
 91
        1
280
     0
281
     0
  0
CLASS
  1
ACDBSECTIONVIEWSTYLE
  2
AcDbSectionViewStyle
  3
ObjectDBX Classes
 90
     1025
 91
        1
280
     0
281
     0
  0
CLASS
  1
ACDBDETAILVIEWSTYLE
  2
AcDbDetailViewStyle
  3
ObjectDBX Classes
 90
     1025
 91
        1
280
     0
281
     0
  0
CLASS
  1
DICTIONARYVAR
  2
AcDbDictionaryVar
  3
ObjectDBX Classes
 90
        0
 91
        5
280
     0
281
     0
  0
CLASS
  1
CELLSTYLEMAP
  2
AcDbCellStyleMap
  3
ObjectDBX Classes
 90
     1152
 91
        1
280
     0
281
     0
  0
ENDSEC
  0
SECTION
  2
TABLES
  0
TABLE
  2
VPORT
  5
8
330
0
100
AcDbSymbolTable
 70
     1
  0
VPORT
  5
57
330
8
100
AcDbSymbolTableRecord
100
AcDbViewportTableRecord
  2
*Active
 70
     0
 10
0.0
 20
0.0
 11
1.0
 21
1.0
 12
0.0
 22
0.0
 13
0.0
 23
0.0
 14
1.0
 24
1.0
 15
0.0
 25
0.0
 16
0.0
 26
0.0
 36
1.0
 17
8.197642062717022
 27
6.160966661241331
 37
0.0
 40
11.92677165354332
 41
0.707070707070705
 42
50.0
 43
0.0
 44
0.0
 50
0.0
 51
0.0
 71
     0
 72
   100
 73
     1
 74
     1
 75
     0
 76
     0
 77
     0
 78
     0
281
     0
 65
     1
110
0.0
120
0.0
130
0.0
111
1.0
121
0.0
131
0.0
112
0.0
122
1.0
132
0.0
 79
     0
146
0.0
 60
     3
 61
     5
292
     1
282
     1
141
0.0
142
0.0
 63
   250
421
  3355443
  0
ENDTAB
  0
TABLE
  2
LTYPE
  5
5
330
0
100
AcDbSymbolTable
 70
     4
  0
LTYPE
  5
5B
330
5
100
AcDbSymbolTableRecord
100
AcDbLinetypeTableRecord
  2
ByBlock
 70
     0
  3

 72
    65
 73
     0
 40
0.0
  0
LTYPE
  5
5C
330
5
100
AcDbSymbolTableRecord
100
AcDbLinetypeTableRecord
  2
ByLayer
 70
     0
  3

 72
    65
 73
     0
 40
0.0
  0
LTYPE
  5
5D
330
5
100
AcDbSymbolTableRecord
100
AcDbLinetypeTableRecord
  2
Continuous
 70
     0
  3
Solid line
 72
    65
 73
     0
 40
0.0
  0
LTYPE
  5
13E
330
5
100
AcDbSymbolTableRecord
100
AcDbLinetypeTableRecord
  2
AI-Linetype-0
 70
     0
  3
Adobe Illustrator Linetype No. 0
 72
    65
 73
     2
 40
0.091035630967882
 49
0.0568972693549262
 74
     0
 49
-0.0341383616129557
 74
     0
  0
LTYPE
  5
140
330
5
100
AcDbSymbolTableRecord
100
AcDbLinetypeTableRecord
  2
AI-Linetype-1
 70
     0
  3
Adobe Illustrator Linetype No. 1
 72
    65
 73
     2
 40
0.091035630967882
 49
0.0568972693549262
 74
     0
 49
-0.0341383616129557
 74
     0
  0
LTYPE
  5
142
330
5
100
AcDbSymbolTableRecord
100
AcDbLinetypeTableRecord
  2
AI-Linetype-2
 70
     0
  3
Adobe Illustrator Linetype No. 2
 72
    65
 73
     2
 40
0.091035630967882
 49
0.0568972693549262
 74
     0
 49
-0.0341383616129557
 74
     0
  0
ENDTAB
  0
TABLE
  2
LAYER
  5
2
330
0
100
AcDbSymbolTable
 70
     4
  0
LAYER
  5
54
330
2
100
AcDbSymbolTableRecord
100
AcDbLayerTableRecord
  2
0
 70
     0
 62
     7
  6
Continuous
370
    -3
390
F
347
21
348
0
  0
LAYER
  5
78
330
2
100
AcDbSymbolTableRecord
100
AcDbLayerTableRecord
  2
Color Fill
 70
     0
 62
     7
  6
Continuous
370
     0
390
F
347
21
348
0
  0
LAYER
  5
8D
330
2
100
AcDbSymbolTableRecord
100
AcDbLayerTableRecord
  2
Line Drawing
 70
     0
 62
     7
  6
Continuous
370
     0
390
F
347
21
348
0
  0
LAYER
  5
18F
330
2
100
AcDbSymbolTableRecord
100
AcDbLayerTableRecord
  2
Callouts ROMAN
 70
     0
 62
     7
  6
Continuous
370
     0
390
F
347
21
348
0
  0
ENDTAB
  0
TABLE
  2
STYLE
  5
3
330
0
100
AcDbSymbolTable
 70
     2
  0
STYLE
  5
55
330
3
100
AcDbSymbolTableRecord
100
AcDbTextStyleTableRecord
  2
Standard
 70
     0
 40
0.0
 41
1.0
 50
0.0
 71
     0
 42
0.2
  3
txt
  4

  0
STYLE
  5
5A
330
3
100
AcDbSymbolTableRecord
100
AcDbTextStyleTableRecord
  2
Annotative
 70
     0
 40
0.0
 41
1.0
 50
0.0
 71
     0
 42
0.2
  3
txt
  4

1001
AcadAnnotative
1000
AnnotativeData
1002
{
1070
     1
1070
     1
1002
}
  0
ENDTAB
  0
TABLE
  2
VIEW
  5
6
330
0
100
AcDbSymbolTable
 70
     0
  0
ENDTAB
  0
TABLE
  2
UCS
  5
7
330
0
100
AcDbSymbolTable
 70
     0
  0
ENDTAB
  0
TABLE
  2
APPID
  5
9
330
0
100
AcDbSymbolTable
 70
     2
  0
APPID
  5
56
330
9
100
AcDbSymbolTableRecord
100
AcDbRegAppTableRecord
  2
ACAD
 70
     0
  0
APPID
  5
5E
330
9
100
AcDbSymbolTableRecord
100
AcDbRegAppTableRecord
  2
AcadAnnotative
 70
     0
  0
ENDTAB
  0
TABLE
  2
DIMSTYLE
  5
A
330
0
100
AcDbSymbolTable
 70
     2
100
AcDbDimStyleTable
 71
     0
  0
DIMSTYLE
105
58
330
A
100
AcDbSymbolTableRecord
100
AcDbDimStyleTableRecord
  2
Standard
 70
     0
340
55
  0
DIMSTYLE
105
59
330
A
100
AcDbSymbolTableRecord
100
AcDbDimStyleTableRecord
  2
Annotative
 70
     0
340
55
1001
AcadAnnotative
1000
AnnotativeData
1002
{
1070
     1
1070
     1
1002
}
  0
ENDTAB
  0
TABLE
  2
BLOCK_RECORD
  5
1
330
0
100
AcDbSymbolTable
 70
    20
  0
BLOCK_RECORD
  5
70
330
1
100
AcDbSymbolTableRecord
100
AcDbBlockTableRecord
  2
*Model_Space
340
73
 70
     0
280
     1
281
     0
  0
BLOCK_RECORD
  5
6C
330
1
100
AcDbSymbolTableRecord
100
AcDbBlockTableRecord
  2
*Paper_Space
340
6F
 70
     0
280
     1
281
     0
  0
BLOCK_RECORD
  5
74
330
1
100
AcDbSymbolTableRecord
100
AcDbBlockTableRecord
  2
*Paper_Space0
340
77
 70
     0
280
     1
281
     0
  0
BLOCK_RECORD
  5
B8
330
1
100
AcDbSymbolTableRecord
100
AcDbBlockTableRecord
  2
Block_0
340
0
102
{BLKREFS
331
B9
102
}
 70
     0
280
     1
281
     0
  0
BLOCK_RECORD
  5
BC
330
1
100
AcDbSymbolTableRecord
100
AcDbBlockTableRecord
  2
Block_1
340
0
102
{BLKREFS
331
BD
102
}
 70
     0
280
     1
281
     0
  0
BLOCK_RECORD
  5
C3
330
1
100
AcDbSymbolTableRecord
100
AcDbBlockTableRecord
  2
Block_2
340
0
102
{BLKREFS
331
C4
102
}
 70
     0
280
     1
281
     0
  0
BLOCK_RECORD
  5
E9
330
1
100
AcDbSymbolTableRecord
100
AcDbBlockTableRecord
  2
Block_3
340
0
102
{BLKREFS
331
EA
102
}
 70
     0
280
     1
281
     0
  0
BLOCK_RECORD
  5
ED
330
1
100
AcDbSymbolTableRecord
100
AcDbBlockTableRecord
  2
Block_4
340
0
102
{BLKREFS
331
EE
102
}
 70
     0
280
     1
281
     0
  0
BLOCK_RECORD
  5
F4
330
1
100
AcDbSymbolTableRecord
100
AcDbBlockTableRecord
  2
Block_5
340
0
102
{BLKREFS
331
F5
102
}
 70
     0
280
     1
281
     0
  0
BLOCK_RECORD
  5
FE
330
1
100
AcDbSymbolTableRecord
100
AcDbBlockTableRecord
  2
Block_6
340
0
102
{BLKREFS
331
FF
102
}
 70
     0
280
     1
281
     0
  0
BLOCK_RECORD
  5
102
330
1
100
AcDbSymbolTableRecord
100
AcDbBlockTableRecord
  2
Block_7
340
0
102
{BLKREFS
331
103
102
}
 70
     0
280
     1
281
     0
  0
BLOCK_RECORD
  5
109
330
1
100
AcDbSymbolTableRecord
100
AcDbBlockTableRecord
  2
Block_8
340
0
102
{BLKREFS
331
10A
102
}
 70
     0
280
     1
281
     0
  0
BLOCK_RECORD
  5
113
330
1
100
AcDbSymbolTableRecord
100
AcDbBlockTableRecord
  2
Block_9
340
0
102
{BLKREFS
331
114
102
}
 70
     0
280
     1
281
     0
  0
BLOCK_RECORD
  5
117
330
1
100
AcDbSymbolTableRecord
100
AcDbBlockTableRecord
  2
Block_10
340
0
102
{BLKREFS
331
118
102
}
 70
     0
280
     1
281
     0
  0
BLOCK_RECORD
  5
11E
330
1
100
AcDbSymbolTableRecord
100
AcDbBlockTableRecord
  2
Block_11
340
0
102
{BLKREFS
331
11F
102
}
 70
     0
280
     1
281
     0
  0
BLOCK_RECORD
  5
128
330
1
100
AcDbSymbolTableRecord
100
AcDbBlockTableRecord
  2
Block_12
340
0
102
{BLKREFS
331
129
102
}
 70
     0
280
     1
281
     0
  0
BLOCK_RECORD
  5
12C
330
1
100
AcDbSymbolTableRecord
100
AcDbBlockTableRecord
  2
Block_13
340
0
102
{BLKREFS
331
12D
102
}
 70
     0
280
     1
281
     0
  0
BLOCK_RECORD
  5
133
330
1
100
AcDbSymbolTableRecord
100
AcDbBlockTableRecord
  2
Block_14
340
0
102
{BLKREFS
331
134
102
}
 70
     0
280
     1
281
     0
  0
BLOCK_RECORD
  5
1C0
330
1
100
AcDbSymbolTableRecord
100
AcDbBlockTableRecord
  2
Block_15
340
0
102
{BLKREFS
331
1C1
102
}
 70
     0
280
     1
281
     0
  0
BLOCK_RECORD
  5
1C4
330
1
100
AcDbSymbolTableRecord
100
AcDbBlockTableRecord
  2
Block_16
340
0
102
{BLKREFS
331
1C5
102
}
 70
     0
280
     1
281
     0
  0
BLOCK_RECORD
  5
1CB
330
1
100
AcDbSymbolTableRecord
100
AcDbBlockTableRecord
  2
Block_17
340
0
102
{BLKREFS
331
1CC
102
}
 70
     0
280
     1
281
     0
  0
BLOCK_RECORD
  5
1CF
330
1
100
AcDbSymbolTableRecord
100
AcDbBlockTableRecord
  2
Block_18
340
0
102
{BLKREFS
331
1D0
102
}
 70
     0
280
     1
281
     0
  0
ENDTAB
  0
ENDSEC
  0
SECTION
  2
BLOCKS
  0
BLOCK
  5
71
330
70
100
AcDbEntity
  8
0
100
AcDbBlockBegin
  2
*Model_Space
 70
     0
 10
0.0
 20
0.0
 30
0.0
  3
*Model_Space
  1

  0
ENDBLK
  5
72
330
70
100
AcDbEntity
  8
0
100
AcDbBlockEnd
  0
BLOCK
  5
6D
330
6C
100
AcDbEntity
 67
     1
  8
0
100
AcDbBlockBegin
  2
*Paper_Space
 70
     0
 10
0.0
 20
0.0
 30
0.0
  3
*Paper_Space
  1

  0
ENDBLK
  5
6E
330
6C
100
AcDbEntity
 67
     1
  8
0
100
AcDbBlockEnd
  0
BLOCK
  5
75
330
74
100
AcDbEntity
 67
     1
  8
0
100
AcDbBlockBegin
  2
*Paper_Space0
 70
     0
 10
0.0
 20
0.0
 30
0.0
  3
*Paper_Space0
  1

  0
ENDBLK
  5
76
330
74
100
AcDbEntity
 67
     1
  8
0
100
AcDbBlockEnd
  0
BLOCK
  5
BA
330
B8
100
AcDbEntity
  8
0
100
AcDbBlockBegin
  2
Block_0
 70
     0
 10
0.0
 20
0.0
 30
0.0
  3
Block_0
  1

  0
INSERT
  5
BD
330
B8
100
AcDbEntity
  8
Line Drawing
100
AcDbBlockReference
  2
Block_1
 10
0.0
 20
0.0
 30
0.0
  0
INSERT
  5
C4
330
B8
100
AcDbEntity
  8
Line Drawing
100
AcDbBlockReference
  2
Block_2
 10
0.0
 20
0.0
 30
0.0
  0
ENDBLK
  5
BB
330
B8
100
AcDbEntity
  8
0
100
AcDbBlockEnd
  0
BLOCK
  5
BE
330
BC
100
AcDbEntity
  8
0
100
AcDbBlockBegin
  2
Block_1
 70
     0
 10
0.0
 20
0.0
 30
0.0
  3
Block_1
  1

  0
SPLINE
  5
C0
330
BC
100
AcDbEntity
  8
Line Drawing
 62
   250
420
  2301728
370
    20
100
AcDbSpline
210
0.0
220
0.0
230
1.0
 70
     9
 71
     3
 72
    26
 73
    22
 74
     0
 42
0.0000000001
 43
0.0000000001
 40
0.0
 40
0.0
 40
0.0
 40
0.0
 40
1.0
 40
1.0
 40
1.0
 40
2.0
 40
2.0
 40
2.0
 40
3.0
 40
3.0
 40
3.0
 40
4.0
 40
4.0
 40
4.0
 40
5.0
 40
5.0
 40
5.0
 40
6.0
 40
6.0
 40
6.0
 40
7.0
 40
7.0
 40
7.0
 40
7.0
 10
8.179351901462736
 20
7.530733238148993
 30
0.0
 10
8.179384901877066
 20
7.530305370708106
 30
0.0
 10
8.179446350924409
 20
7.52988319299383
 30
0.0
 10
8.179452211300207
 20
7.529459877334235
 30
0.0
 10
8.179668420916767
 20
7.514136305634805
 30
0.0
 10
8.139635503494824
 20
7.501128452664652
 30
0.0
 10
8.090027745505697
 20
7.500361477517962
 30
0.0
 10
8.040364397839134
 20
7.499628640730911
 30
0.0
 10
8.000013994683802
 20
7.511446202894767
 30
0.0
 10
7.999763646713088
 20
7.52675384335968
 30
0.0
 10
7.999763646713088
 20
7.52675384335968
 30
0.0
 10
7.999325537764295
 20
7.542211854595342
 30
0.0
 10
7.999325537764295
 20
7.542211854595342
 30
0.0
 10
7.99911387993451
 20
7.557530712525172
 30
0.0
 10
8.039147934290452
 20
7.570555634675151
 30
0.0
 10
8.088755522636246
 20
7.571305540642027
 30
0.0
 10
8.138417901970038
 20
7.572044067155679
 30
0.0
 10
8.178768135512806
 20
7.560236908943377
 30
0.0
 10
8.179018483483535
 20
7.54491317480031
 30
0.0
 10
8.179018483483535
 20
7.54491317480031
 30
0.0
 10
8.179351901462736
 20
7.530733238148993
 30
0.0
 10
8.179351901462736
 20
7.530733238148993
 30
0.0
  0
HATCH
  5
C1
330
BC
100
AcDbEntity
  8
Line Drawing
 62
   252
420
  9672088
440
 33554687
100
AcDbHatch
 10
0.0
 20
0.0
 30
0.0
210
0.0
220
0.0
230
1.0
  2
SOLID
 70
     1
 71
     1
 91
        1
 92
        1
 93
        1
 72
     4
 94
        3
 73
     0
 74
     0
 95
       26
 96
       22
 40
0.0
 40
0.0
 40
0.0
 40
0.0
 40
1.0
 40
1.0
 40
1.0
 40
2.0
 40
2.0
 40
2.0
 40
3.0
 40
3.0
 40
3.0
 40
4.0
 40
4.0
 40
4.0
 40
5.0
 40
5.0
 40
5.0
 40
6.0
 40
6.0
 40
6.0
 40
7.0
 40
7.0
 40
7.0
 40
7.0
 10
8.179351901462736
 20
7.530733238148993
 10
8.179384901877066
 20
7.530305370708106
 10
8.179446350924409
 20
7.52988319299383
 10
8.179452211300207
 20
7.529459877334235
 10
8.179668420916767
 20
7.514136305634805
 10
8.139635503494824
 20
7.501128452664652
 10
8.090027745505697
 20
7.500361477517962
 10
8.040364397839134
 20
7.499628640730911
 10
8.000013994683802
 20
7.511446202894767
 10
7.999763646713088
 20
7.52675384335968
 10
7.999763646713088
 20
7.52675384335968
 10
7.999325537764295
 20
7.542211854595342
 10
7.999325537764295
 20
7.542211854595342
 10
7.99911387993451
 20
7.557530712525172
 10
8.039147934290452
 20
7.570555634675151
 10
8.088755522636246
 20
7.571305540642027
 10
8.138417901970038
 20
7.572044067155679
 10
8.178768135512806
 20
7.560236908943377
 10
8.179018483483535
 20
7.54491317480031
 10
8.179018483483535
 20
7.54491317480031
 10
8.179351901462736
 20
7.530733238148993
 10
8.179351901462736
 20
7.530733238148993
 97
        0
 97
        1
330
C0
 75
     2
 76
     1
 98
        1
 10
0.0
 20
0.0
450
        0
451
        0
460
0.0
461
0.0
452
        0
462
0.0
453
        0
470

  0
SPLINE
  5
C2
330
BC
100
AcDbEntity
  8
Line Drawing
 62
   250
420
  2301728
370
    15
100
AcDbSpline
210
0.0
220
0.0
230
1.0
 70
     8
 71
     3
 72
    11
 73
     7
 74
     0
 42
0.0000000001
 43
0.0000000001
 40
0.0
 40
0.0
 40
0.0
 40
0.0
 40
1.0
 40
1.0
 40
1.0
 40
2.0
 40
2.0
 40
2.0
 40
2.0
 10
8.179018483483535
 20
7.54491317480031
 30
0.0
 10
8.179263141727663
 20
7.529610086116664
 30
0.0
 10
8.139223397645107
 20
7.516569232732194
 30
0.0
 10
8.08958866699062
 20
7.51583070621853
 30
0.0
 10
8.039953599578073
 20
7.515086489978266
 30
0.0
 10
7.999580437516315
 20
7.526904052142121
 30
0.0
 10
7.999325537764295
 20
7.542211854595342
 30
0.0
  0
ENDBLK
  5
BF
330
BC
100
AcDbEntity
  8
0
100
AcDbBlockEnd
  0
BLOCK
  5
C5
330
C3
100
AcDbEntity
  8
0
100
AcDbBlockBegin
  2
Block_2
 70
     0
 10
0.0
 20
0.0
 30
0.0
  3
Block_2
  1

  0
SPLINE
  5
C7
330
C3
100
AcDbEntity
  8
Line Drawing
 62
   250
420
  2301728
370
    15
100
AcDbSpline
210
0.0
220
0.0
230
1.0
 70
    11
 71
     3
 72
    26
 73
    22
 74
     0
 42
0.0000000001
 43
0.0000000001
 40
0.0
 40
0.0
 40
0.0
 40
0.0
 40
1.0
 40
1.0
 40
1.0
 40
2.0
 40
2.0
 40
2.0
 40
3.0
 40
3.0
 40
3.0
 40
4.0
 40
4.0
 40
4.0
 40
5.0
 40
5.0
 40
5.0
 40
6.0
 40
6.0
 40
6.0
 40
7.0
 40
7.0
 40
7.0
 40
7.0
 10
8.126533031419651
 20
7.589030176969824
 30
0.0
 10
8.126533031419651
 20
7.589030176969824
 30
0.0
 10
8.128077223220934
 20
7.545062245637419
 30
0.0
 10
8.128077223220934
 20
7.545062245637419
 30
0.0
 10
8.128077223220934
 20
7.545062245637419
 30
0.0
 10
8.109608370652873
 20
7.53457721744505
 30
0.0
 10
8.109608370652873
 20
7.53457721744505
 30
0.0
 10
8.109608370652873
 20
7.53457721744505
 30
0.0
 10
8.069980562776688
 20
7.533366443622967
 30
0.0
 10
8.069980562776688
 20
7.533366443622967
 30
0.0
 10
8.069980562776688
 20
7.533366443622967
 30
0.0
 10
8.04912202503346
 20
7.54266231895436
 30
0.0
 10
8.04912202503346
 20
7.54266231895436
 30
0.0
 10
8.04912202503346
 20
7.54266231895436
 30
0.0
 10
8.047376416910271
 20
7.586663250701083
 30
0.0
 10
8.047376416910271
 20
7.586663250701083
 30
0.0
 10
8.051244293058074
 20
7.590774647147693
 30
0.0
 10
8.061912530447203
 20
7.599787174094027
 30
0.0
 10
8.088049996536913
 20
7.599487894474476
 30
0.0
 10
8.118987315992727
 20
7.599131881015068
 30
0.0
 10
8.126533031419651
 20
7.589030176969824
 30
0.0
 10
8.126533031419651
 20
7.589030176969824
 30
0.0
  0
HATCH
  5
C8
330
C3
100
AcDbEntity
  8
Line Drawing
 62
   252
420
  9672088
440
 33554687
100
AcDbHatch
 10
0.0
 20
0.0
 30
0.0
210
0.0
220
0.0
230
1.0
  2
SOLID
 70
     1
 71
     1
 91
        1
 92
        1
 93
        1
 72
     4
 94
        3
 73
     0
 74
     0
 95
       26
 96
       22
 40
0.0
 40
0.0
 40
0.0
 40
0.0
 40
1.0
 40
1.0
 40
1.0
 40
2.0
 40
2.0
 40
2.0
 40
3.0
 40
3.0
 40
3.0
 40
4.0
 40
4.0
 40
4.0
 40
5.0
 40
5.0
 40
5.0
 40
6.0
 40
6.0
 40
6.0
 40
7.0
 40
7.0
 40
7.0
 40
7.0
 10
8.126533031419651
 20
7.589030176969824
 10
8.126533031419651
 20
7.589030176969824
 10
8.128077223220934
 20
7.545062245637419
 10
8.128077223220934
 20
7.545062245637419
 10
8.128077223220934
 20
7.545062245637419
 10
8.109608370652873
 20
7.53457721744505
 10
8.109608370652873
 20
7.53457721744505
 10
8.109608370652873
 20
7.53457721744505
 10
8.069980562776688
 20
7.533366443622967
 10
8.069980562776688
 20
7.533366443622967
 10
8.069980562776688
 20
7.533366443622967
 10
8.04912202503346
 20
7.54266231895436
 10
8.04912202503346
 20
7.54266231895436
 10
8.04912202503346
 20
7.54266231895436
 10
8.047376416910271
 20
7.586663250701083
 10
8.047376416910271
 20
7.586663250701083
 10
8.051244293058074
 20
7.590774647147693
 10
8.061912530447203
 20
7.599787174094027
 10
8.088049996536913
 20
7.599487894474476
 10
8.118987315992727
 20
7.599131881015068
 10
8.126533031419651
 20
7.589030176969824
 10
8.126533031419651
 20
7.589030176969824
 97
        0
 97
        1
330
C7
 75
     2
 76
     1
 98
        1
 10
0.0
 20
0.0
450
        0
451
        0
460
0.0
461
0.0
452
        0
462
0.0
453
        0
470

  0
SPLINE
  5
C9
330
C3
100
AcDbEntity
  8
Line Drawing
 62
   250
420
  2301728
370
    15
100
AcDbSpline
210
0.0
220
0.0
230
1.0
 70
     8
 71
     3
 72
     8
 73
     4
 74
     0
 42
0.0000000001
 43
0.0000000001
 40
0.0
 40
0.0
 40
0.0
 40
0.0
 40
1.0
 40
1.0
 40
1.0
 40
1.0
 10
8.048754468694621
 20
7.587397225433467
 30
0.0
 10
8.075780670080423
 20
7.57299425149914
 30
0.0
 10
8.112408854089101
 20
7.58046258664419
 30
0.0
 10
8.124322003659976
 20
7.588997176555519
 30
0.0
  0
SPLINE
  5
CA
330
C3
100
AcDbEntity
  8
Line Drawing
 62
   250
420
  2301728
370
    15
100
AcDbSpline
210
0.0
220
0.0
230
1.0
 70
     8
 71
     3
 72
    17
 73
    13
 74
     0
 42
0.0000000001
 43
0.0000000001
 40
0.0
 40
0.0
 40
0.0
 40
0.0
 40
1.0
 40
1.0
 40
1.0
 40
2.0
 40
2.0
 40
2.0
 40
3.0
 40
3.0
 40
3.0
 40
4.0
 40
4.0
 40
4.0
 40
4.0
 10
8.048221910284155
 20
7.586152313251735
 30
0.0
 10
8.048221910284155
 20
7.586152313251735
 30
0.0
 10
8.067068728509083
 20
7.579395193932618
 30
0.0
 10
8.06831347288068
 20
7.574239163680872
 30
0.0
 10
8.06831347288068
 20
7.574239163680872
 30
0.0
 10
8.075753359392706
 20
7.578889946209869
 30
0.0
 10
8.088049996536913
 20
7.579217837385625
 30
0.0
 10
8.101384439814333
 20
7.579573851348097
 30
0.0
 10
8.108319247455824
 20
7.575127898976965
 30
0.0
 10
8.108319247455824
 20
7.575127898976965
 30
0.0
 10
8.108319247455824
 20
7.575127898976965
 30
0.0
 10
8.113475108855356
 20
7.585796136366095
 30
0.0
 10
8.12627699372231
 20
7.587752427512529
 30
0.0
  0
LINE
  5
CB
330
C3
100
AcDbEntity
  8
Line Drawing
 62
   250
420
  2301728
370
    15
100
AcDbLine
 10
8.06831347288068
 20
7.575306556392446
 30
0.0
 11
8.069735904532572
 21
7.534411077428115
 31
0.0
  0
LINE
  5
CC
330
C3
100
AcDbEntity
  8
Line Drawing
 62
   250
420
  2301728
370
    15
100
AcDbLine
 10
8.10796403966329
 20
7.577440203870284
 30
0.0
 11
8.10956399078533
 21
7.535655989609836
 31
0.0
  0
ENDBLK
  5
C6
330
C3
100
AcDbEntity
  8
0
100
AcDbBlockEnd
  0
BLOCK
  5
EB
330
E9
100
AcDbEntity
  8
0
100
AcDbBlockBegin
  2
Block_3
 70
     0
 10
0.0
 20
0.0
 30
0.0
  3
Block_3
  1

  0
INSERT
  5
EE
330
E9
100
AcDbEntity
  8
Line Drawing
100
AcDbBlockReference
  2
Block_4
 10
0.0
 20
0.0
 30
0.0
  0
INSERT
  5
F5
330
E9
100
AcDbEntity
  8
Line Drawing
100
AcDbBlockReference
  2
Block_5
 10
0.0
 20
0.0
 30
0.0
  0
ENDBLK
  5
EC
330
E9
100
AcDbEntity
  8
0
100
AcDbBlockEnd
  0
BLOCK
  5
EF
330
ED
100
AcDbEntity
  8
0
100
AcDbBlockBegin
  2
Block_4
 70
     0
 10
0.0
 20
0.0
 30
0.0
  3
Block_4
  1

  0
SPLINE
  5
F1
330
ED
100
AcDbEntity
  8
Line Drawing
 62
   250
420
  2301728
370
    15
100
AcDbSpline
210
0.0
220
0.0
230
1.0
 70
     9
 71
     3
 72
    26
 73
    22
 74
     0
 42
0.0000000001
 43
0.0000000001
 40
0.0
 40
0.0
 40
0.0
 40
0.0
 40
1.0
 40
1.0
 40
1.0
 40
2.0
 40
2.0
 40
2.0
 40
3.0
 40
3.0
 40
3.0
 40
4.0
 40
4.0
 40
4.0
 40
5.0
 40
5.0
 40
5.0
 40
6.0
 40
6.0
 40
6.0
 40
7.0
 40
7.0
 40
7.0
 40
7.0
 10
8.254218462110037
 20
7.563692686441135
 30
0.0
 10
8.254229841563249
 20
7.563499235736482
 30
0.0
 10
8.254240083071142
 20
7.56331033681311
 30
0.0
 10
8.254240083071142
 20
7.563120299944418
 30
0.0
 10
8.254162702789281
 20
7.556225489241405
 30
0.0
 10
8.236015888747209
 20
7.550374174398219
 30
0.0
 10
8.213679160031334
 20
7.550024825184512
 30
0.0
 10
8.191331051862245
 20
7.549697096931923
 30
0.0
 10
8.173295926955335
 20
7.555019267200615
 30
0.0
 10
8.17336175729032
 20
7.561903836395723
 30
0.0
 10
8.17336175729032
 20
7.561903836395723
 30
0.0
 10
8.173328756876003
 20
7.568860096146105
 30
0.0
 10
8.173328756876003
 20
7.568860096146105
 30
0.0
 10
8.173395895649971
 20
7.575750355067839
 30
0.0
 10
8.191564330653161
 20
7.581611911418917
 30
0.0
 10
8.213901059369025
 20
7.581951019124731
 30
0.0
 10
8.236249167538112
 20
7.582278910377807
 30
0.0
 10
8.254284462938686
 20
7.576972508343133
 30
0.0
 10
8.254218462110037
 20
7.57007769764012
 30
0.0
 10
8.254218462110037
 20
7.57007769764012
 30
0.0
 10
8.254218462110037
 20
7.563692686441135
 30
0.0
 10
8.254218462110037
 20
7.563692686441135
 30
0.0
  0
HATCH
  5
F2
330
ED
100
AcDbEntity
  8
Line Drawing
 62
   254
420
 13358815
440
 33554687
100
AcDbHatch
 10
0.0
 20
0.0
 30
0.0
210
0.0
220
0.0
230
1.0
  2
SOLID
 70
     1
 71
     1
 91
        1
 92
        1
 93
        1
 72
     4
 94
        3
 73
     0
 74
     0
 95
       26
 96
       22
 40
0.0
 40
0.0
 40
0.0
 40
0.0
 40
1.0
 40
1.0
 40
1.0
 40
2.0
 40
2.0
 40
2.0
 40
3.0
 40
3.0
 40
3.0
 40
4.0
 40
4.0
 40
4.0
 40
5.0
 40
5.0
 40
5.0
 40
6.0
 40
6.0
 40
6.0
 40
7.0
 40
7.0
 40
7.0
 40
7.0
 10
8.254218462110037
 20
7.563692686441135
 10
8.254229841563249
 20
7.563499235736482
 10
8.254240083071142
 20
7.56331033681311
 10
8.254240083071142
 20
7.563120299944418
 10
8.254162702789281
 20
7.556225489241405
 10
8.236015888747209
 20
7.550374174398219
 10
8.213679160031334
 20
7.550024825184512
 10
8.191331051862245
 20
7.549697096931923
 10
8.173295926955335
 20
7.555019267200615
 10
8.17336175729032
 20
7.561903836395723
 10
8.17336175729032
 20
7.561903836395723
 10
8.173328756876003
 20
7.568860096146105
 10
8.173328756876003
 20
7.568860096146105
 10
8.173395895649971
 20
7.575750355067839
 10
8.191564330653161
 20
7.581611911418917
 10
8.213901059369025
 20
7.581951019124731
 10
8.236249167538112
 20
7.582278910377807
 10
8.254284462938686
 20
7.576972508343133
 10
8.254218462110037
 20
7.57007769764012
 10
8.254218462110037
 20
7.57007769764012
 10
8.254218462110037
 20
7.563692686441135
 10
8.254218462110037
 20
7.563692686441135
 97
        0
 97
        1
330
F1
 75
     2
 76
     1
 98
        1
 10
0.0
 20
0.0
450
        0
451
        0
460
0.0
461
0.0
452
        0
462
0.0
453
        0
470

  0
SPLINE
  5
F3
330
ED
100
AcDbEntity
  8
Line Drawing
 62
   250
420
  2301728
370
     9
100
AcDbSpline
210
0.0
220
0.0
230
1.0
 70
     8
 71
     3
 72
    11
 73
     7
 74
     0
 42
0.0000000001
 43
0.0000000001
 40
0.0
 40
0.0
 40
0.0
 40
0.0
 40
1.0
 40
1.0
 40
1.0
 40
2.0
 40
2.0
 40
2.0
 40
2.0
 10
8.254218462110037
 20
7.57007769764012
 30
0.0
 10
8.254151323336069
 20
7.563187438718387
 30
0.0
 10
8.235993129840771
 20
7.557320192640695
 30
0.0
 10
8.213646159617002
 20
7.556986774661506
 30
0.0
 10
8.191309601849866
 20
7.556653356682292
 30
0.0
 10
8.173273168048329
 20
7.561970975169704
 30
0.0
 10
8.173328756876003
 20
7.568860096146105
 30
0.0
  0
ENDBLK
  5
F0
330
ED
100
AcDbEntity
  8
0
100
AcDbBlockEnd
  0
BLOCK
  5
F6
330
F4
100
AcDbEntity
  8
0
100
AcDbBlockBegin
  2
Block_5
 70
     0
 10
0.0
 20
0.0
 30
0.0
  3
Block_5
  1

  0
SPLINE
  5
F8
330
F4
100
AcDbEntity
  8
Line Drawing
 62
   250
420
  2301728
370
    15
100
AcDbSpline
210
0.0
220
0.0
230
1.0
 70
    11
 71
     3
 72
    26
 73
    22
 74
     0
 42
0.0000000001
 43
0.0000000001
 40
0.0
 40
0.0
 40
0.0
 40
0.0
 40
1.0
 40
1.0
 40
1.0
 40
2.0
 40
2.0
 40
2.0
 40
3.0
 40
3.0
 40
3.0
 40
4.0
 40
4.0
 40
4.0
 40
5.0
 40
5.0
 40
5.0
 40
6.0
 40
6.0
 40
6.0
 40
7.0
 40
7.0
 40
7.0
 40
7.0
 10
8.239538967462596
 20
7.597732208234269
 30
0.0
 10
8.239538967462596
 20
7.597732208234269
 30
0.0
 10
8.239849626535361
 20
7.572471934596566
 30
0.0
 10
8.239849626535361
 20
7.572471934596566
 30
0.0
 10
8.239849626535361
 20
7.572471934596566
 30
0.0
 10
8.227213881685365
 20
7.565393914696793
 30
0.0
 10
8.227213881685365
 20
7.565393914696793
 30
0.0
 10
8.227213881685365
 20
7.565393914696793
 30
0.0
 10
8.200443717996879
 20
7.564576869955948
 30
0.0
 10
8.200443717996879
 20
7.564576869955948
 30
0.0
 10
8.200443717996879
 20
7.564576869955948
 30
0.0
 10
8.186508439589703
 20
7.570849224568101
 30
0.0
 10
8.186508439589703
 20
7.570849224568101
 30
0.0
 10
8.186508439589703
 20
7.570849224568101
 30
0.0
 10
8.186075053238685
 20
7.596130955776023
 30
0.0
 10
8.186075053238685
 20
7.596130955776023
 30
0.0
 10
8.188753605709027
 20
7.598904291945018
 30
0.0
 10
8.196109284267258
 20
7.604987584213315
 30
0.0
 10
8.213745160859982
 20
7.60478275405545
 30
0.0
 10
8.234626457509648
 20
7.604543785537934
 30
0.0
 10
8.239538967462596
 20
7.597732208234269
 30
0.0
 10
8.239538967462596
 20
7.597732208234269
 30
0.0
  0
HATCH
  5
F9
330
F4
100
AcDbEntity
  8
Line Drawing
 62
   254
420
 13358815
440
 33554687
100
AcDbHatch
 10
0.0
 20
0.0
 30
0.0
210
0.0
220
0.0
230
1.0
  2
SOLID
 70
     1
 71
     1
 91
        1
 92
        1
 93
        1
 72
     4
 94
        3
 73
     0
 74
     0
 95
       26
 96
       22
 40
0.0
 40
0.0
 40
0.0
 40
0.0
 40
1.0
 40
1.0
 40
1.0
 40
2.0
 40
2.0
 40
2.0
 40
3.0
 40
3.0
 40
3.0
 40
4.0
 40
4.0
 40
4.0
 40
5.0
 40
5.0
 40
5.0
 40
6.0
 40
6.0
 40
6.0
 40
7.0
 40
7.0
 40
7.0
 40
7.0
 10
8.239538967462596
 20
7.597732208234269
 10
8.239538967462596
 20
7.597732208234269
 10
8.239849626535361
 20
7.572471934596566
 10
8.239849626535361
 20
7.572471934596566
 10
8.239849626535361
 20
7.572471934596566
 10
8.227213881685365
 20
7.565393914696793
 10
8.227213881685365
 20
7.565393914696793
 10
8.227213881685365
 20
7.565393914696793
 10
8.200443717996879
 20
7.564576869955948
 10
8.200443717996879
 20
7.564576869955948
 10
8.200443717996879
 20
7.564576869955948
 10
8.186508439589703
 20
7.570849224568101
 10
8.186508439589703
 20
7.570849224568101
 10
8.186508439589703
 20
7.570849224568101
 10
8.186075053238685
 20
7.596130955776023
 10
8.186075053238685
 20
7.596130955776023
 10
8.188753605709027
 20
7.598904291945018
 10
8.196109284267258
 20
7.604987584213315
 10
8.213745160859982
 20
7.60478275405545
 10
8.234626457509648
 20
7.604543785537934
 10
8.239538967462596
 20
7.597732208234269
 10
8.239538967462596
 20
7.597732208234269
 97
        0
 97
        1
330
F8
 75
     2
 76
     1
 98
        1
 10
0.0
 20
0.0
450
        0
451
        0
460
0.0
461
0.0
452
        0
462
0.0
453
        0
470

  0
SPLINE
  5
FA
330
F4
100
AcDbEntity
  8
Line Drawing
 62
   250
420
  2301728
370
     9
100
AcDbSpline
210
0.0
220
0.0
230
1.0
 70
     8
 71
     3
 72
     8
 73
     4
 74
     0
 42
0.0000000001
 43
0.0000000001
 40
0.0
 40
0.0
 40
0.0
 40
0.0
 40
1.0
 40
1.0
 40
1.0
 40
1.0
 10
8.187019547879406
 20
7.596625961990879
 30
0.0
 10
8.205021843320436
 20
7.586902219218611
 30
0.0
 10
8.22986984606574
 20
7.591942179047564
 30
0.0
 10
8.238049397036736
 20
7.597703596210357
 30
0.0
  0
SPLINE
  5
FB
330
F4
100
AcDbEntity
  8
Line Drawing
 62
   250
420
  2301728
370
     9
100
AcDbSpline
210
0.0
220
0.0
230
1.0
 70
     8
 71
     3
 72
    17
 73
    13
 74
     0
 42
0.0000000001
 43
0.0000000001
 40
0.0
 40
0.0
 40
0.0
 40
0.0
 40
1.0
 40
1.0
 40
1.0
 40
2.0
 40
2.0
 40
2.0
 40
3.0
 40
3.0
 40
3.0
 40
4.0
 40
4.0
 40
4.0
 40
4.0
 10
8.186641579192318
 20
7.595781606562328
 30
0.0
 10
8.186641579192318
 20
7.595781606562328
 30
0.0
 10
8.199243185682689
 20
7.591225273495019
 30
0.0
 10
8.199998781376166
 20
7.587741048059026
 30
0.0
 10
8.199998781376166
 20
7.587741048059026
 30
0.0
 10
8.205100190252487
 20
7.590880476062592
 30
0.0
 10
8.213412880826101
 20
7.591102375400282
 30
0.0
 10
8.222414028319223
 20
7.59134134391781
 30
0.0
 10
8.227024982761967
 20
7.588341720050316
 30
0.0
 10
8.227024982761967
 20
7.588341720050316
 30
0.0
 10
8.227024982761967
 20
7.588341720050316
 30
0.0
 10
8.230681201079972
 20
7.595542638044813
 30
0.0
 10
8.239348930593905
 20
7.596864930508407
 30
0.0
  0
LINE
  5
FC
330
F4
100
AcDbEntity
  8
Line Drawing
 62
   250
420
  2301728
370
     9
100
AcDbLine
 10
8.200021540282603
 20
7.58846348019972
 30
0.0
 11
8.20028799066338
 21
7.565276706328681
 31
0.0
  0
LINE
  5
FD
330
F4
100
AcDbEntity
  8
Line Drawing
 62
   250
420
  2301728
370
     9
100
AcDbLine
 10
8.22681446287749
 20
7.58990314422451
 30
0.0
 11
8.227203640177448
 21
7.566121061757232
 31
0.0
  0
ENDBLK
  5
F7
330
F4
100
AcDbEntity
  8
0
100
AcDbBlockEnd
  0
BLOCK
  5
100
330
FE
100
AcDbEntity
  8
0
100
AcDbBlockBegin
  2
Block_6
 70
     0
 10
0.0
 20
0.0
 30
0.0
  3
Block_6
  1

  0
INSERT
  5
103
330
FE
100
AcDbEntity
  8
Line Drawing
100
AcDbBlockReference
  2
Block_7
 10
0.0
 20
0.0
 30
0.0
  0
INSERT
  5
10A
330
FE
100
AcDbEntity
  8
Line Drawing
100
AcDbBlockReference
  2
Block_8
 10
0.0
 20
0.0
 30
0.0
  0
ENDBLK
  5
101
330
FE
100
AcDbEntity
  8
0
100
AcDbBlockEnd
  0
BLOCK
  5
104
330
102
100
AcDbEntity
  8
0
100
AcDbBlockBegin
  2
Block_7
 70
     0
 10
0.0
 20
0.0
 30
0.0
  3
Block_7
  1

  0
SPLINE
  5
106
330
102
100
AcDbEntity
  8
Line Drawing
 62
   250
420
  2301728
370
    15
100
AcDbSpline
210
0.0
220
0.0
230
1.0
 70
     9
 71
     3
 72
    26
 73
    22
 74
     0
 42
0.0000000001
 43
0.0000000001
 40
0.0
 40
0.0
 40
0.0
 40
0.0
 40
1.0
 40
1.0
 40
1.0
 40
2.0
 40
2.0
 40
2.0
 40
3.0
 40
3.0
 40
3.0
 40
4.0
 40
4.0
 40
4.0
 40
5.0
 40
5.0
 40
5.0
 40
6.0
 40
6.0
 40
6.0
 40
7.0
 40
7.0
 40
7.0
 40
7.0
 10
7.711582407877282
 20
7.457094520503598
 30
0.0
 10
7.711593787330494
 20
7.456900091686797
 30
0.0
 10
7.711605166783707
 20
7.456711032930254
 30
0.0
 10
7.711605166783707
 20
7.456522134006895
 30
0.0
 10
7.711527786501847
 20
7.44962618535856
 30
0.0
 10
7.693379834514441
 20
7.443776008460682
 30
0.0
 10
7.671043105798578
 20
7.443425521301655
 30
0.0
 10
7.64869613557481
 20
7.443097793049067
 30
0.0
 10
7.630659702228917
 20
7.448421101263079
 30
0.0
 10
7.630726841002885
 20
7.455304532512879
 30
0.0
 10
7.630726841002885
 20
7.455304532512879
 30
0.0
 10
7.630692702643247
 20
7.462261930208569
 30
0.0
 10
7.630692702643247
 20
7.462261930208569
 30
0.0
 10
7.630759841417241
 20
7.469151051184982
 30
0.0
 10
7.648929414365725
 20
7.475013745481368
 30
0.0
 10
7.671266143081588
 20
7.475352853187195
 30
0.0
 10
7.693613113305357
 20
7.475680581439796
 30
0.0
 10
7.71164954665125
 20
7.470374342405597
 30
0.0
 10
7.711582407877282
 20
7.463478393757263
 30
0.0
 10
7.711582407877282
 20
7.463478393757263
 30
0.0
 10
7.711582407877282
 20
7.457094520503598
 30
0.0
 10
7.711582407877282
 20
7.457094520503598
 30
0.0
  0
HATCH
  5
107
330
102
100
AcDbEntity
  8
Line Drawing
 62
   254
420
 13358815
440
 33554687
100
AcDbHatch
 10
0.0
 20
0.0
 30
0.0
210
0.0
220
0.0
230
1.0
  2
SOLID
 70
     1
 71
     1
 91
        1
 92
        1
 93
        1
 72
     4
 94
        3
 73
     0
 74
     0
 95
       26
 96
       22
 40
0.0
 40
0.0
 40
0.0
 40
0.0
 40
1.0
 40
1.0
 40
1.0
 40
2.0
 40
2.0
 40
2.0
 40
3.0
 40
3.0
 40
3.0
 40
4.0
 40
4.0
 40
4.0
 40
5.0
 40
5.0
 40
5.0
 40
6.0
 40
6.0
 40
6.0
 40
7.0
 40
7.0
 40
7.0
 40
7.0
 10
7.711582407877282
 20
7.457094520503598
 10
7.711593787330494
 20
7.456900091686797
 10
7.711605166783707
 20
7.456711032930254
 10
7.711605166783707
 20
7.456522134006895
 10
7.711527786501847
 20
7.44962618535856
 10
7.693379834514441
 20
7.443776008460682
 10
7.671043105798578
 20
7.443425521301655
 10
7.64869613557481
 20
7.443097793049067
 10
7.630659702228917
 20
7.448421101263079
 10
7.630726841002885
 20
7.455304532512879
 10
7.630726841002885
 20
7.455304532512879
 10
7.630692702643247
 20
7.462261930208569
 10
7.630692702643247
 20
7.462261930208569
 10
7.630759841417241
 20
7.469151051184982
 10
7.648929414365725
 20
7.475013745481368
 10
7.671266143081588
 20
7.475352853187195
 10
7.693613113305357
 20
7.475680581439796
 10
7.71164954665125
 20
7.470374342405597
 10
7.711582407877282
 20
7.463478393757263
 10
7.711582407877282
 20
7.463478393757263
 10
7.711582407877282
 20
7.457094520503598
 10
7.711582407877282
 20
7.457094520503598
 97
        0
 97
        1
330
106
 75
     2
 76
     1
 98
        1
 10
0.0
 20
0.0
450
        0
451
        0
460
0.0
461
0.0
452
        0
462
0.0
453
        0
470

  0
SPLINE
  5
108
330
102
100
AcDbEntity
  8
Line Drawing
 62
   250
420
  2301728
370
     9
100
AcDbSpline
210
0.0
220
0.0
230
1.0
 70
     8
 71
     3
 72
    11
 73
     7
 74
     0
 42
0.0000000001
 43
0.0000000001
 40
0.0
 40
0.0
 40
0.0
 40
0.0
 40
1.0
 40
1.0
 40
1.0
 40
2.0
 40
2.0
 40
2.0
 40
2.0
 10
7.711582407877282
 20
7.463478393757263
 30
0.0
 10
7.711516407048634
 20
7.456588134835542
 30
0.0
 10
7.693358213553336
 20
7.450721048434893
 30
0.0
 10
7.671010105384247
 20
7.450387470778637
 30
0.0
 10
7.648673376668384
 20
7.450054052799436
 30
0.0
 10
7.630638081267824
 20
7.455371671286847
 30
0.0
 10
7.630692702643247
 20
7.462261930208569
 30
0.0
  0
ENDBLK
  5
105
330
102
100
AcDbEntity
  8
0
100
AcDbBlockEnd
  0
BLOCK
  5
10B
330
109
100
AcDbEntity
  8
0
100
AcDbBlockBegin
  2
Block_8
 70
     0
 10
0.0
 20
0.0
 30
0.0
  3
Block_8
  1

  0
SPLINE
  5
10D
330
109
100
AcDbEntity
  8
Line Drawing
 62
   250
420
  2301728
370
    15
100
AcDbSpline
210
0.0
220
0.0
230
1.0
 70
    11
 71
     3
 72
    26
 73
    22
 74
     0
 42
0.0000000001
 43
0.0000000001
 40
0.0
 40
0.0
 40
0.0
 40
0.0
 40
1.0
 40
1.0
 40
1.0
 40
2.0
 40
2.0
 40
2.0
 40
3.0
 40
3.0
 40
3.0
 40
4.0
 40
4.0
 40
4.0
 40
5.0
 40
5.0
 40
5.0
 40
6.0
 40
6.0
 40
6.0
 40
7.0
 40
7.0
 40
7.0
 40
7.0
 10
7.696902913229829
 20
7.491132740960538
 30
0.0
 10
7.696902913229829
 20
7.491132740960538
 30
0.0
 10
7.697213730769412
 20
7.465873768659029
 30
0.0
 10
7.697213730769412
 20
7.465873768659029
 30
0.0
 10
7.697213730769412
 20
7.465873768659029
 30
0.0
 10
7.684578965397904
 20
7.458794610813937
 30
0.0
 10
7.684578965397904
 20
7.458794610813937
 30
0.0
 10
7.684578965397904
 20
7.458794610813937
 30
0.0
 10
7.657808801709443
 20
7.457977566073092
 30
0.0
 10
7.657808801709443
 20
7.457977566073092
 30
0.0
 10
7.657808801709443
 20
7.457977566073092
 30
0.0
 10
7.643872385356947
 20
7.464251218649413
 30
0.0
 10
7.643872385356947
 20
7.464251218649413
 30
0.0
 10
7.643872385356947
 20
7.464251218649413
 30
0.0
 10
7.643439966134766
 20
7.489532789838499
 30
0.0
 10
7.643439966134766
 20
7.489532789838499
 30
0.0
 10
7.646117551476284
 20
7.49230482464169
 30
0.0
 10
7.653474367979823
 20
7.498389579157055
 30
0.0
 10
7.671110244572546
 20
7.498183450172594
 30
0.0
 10
7.6919915412222
 20
7.497944481655078
 30
0.0
 10
7.696902913229829
 20
7.491132740960538
 30
0.0
 10
7.696902913229829
 20
7.491132740960538
 30
0.0
  0
HATCH
  5
10E
330
109
100
AcDbEntity
  8
Line Drawing
 62
   254
420
 13358815
440
 33554687
100
AcDbHatch
 10
0.0
 20
0.0
 30
0.0
210
0.0
220
0.0
230
1.0
  2
SOLID
 70
     1
 71
     1
 91
        1
 92
        1
 93
        1
 72
     4
 94
        3
 73
     0
 74
     0
 95
       26
 96
       22
 40
0.0
 40
0.0
 40
0.0
 40
0.0
 40
1.0
 40
1.0
 40
1.0
 40
2.0
 40
2.0
 40
2.0
 40
3.0
 40
3.0
 40
3.0
 40
4.0
 40
4.0
 40
4.0
 40
5.0
 40
5.0
 40
5.0
 40
6.0
 40
6.0
 40
6.0
 40
7.0
 40
7.0
 40
7.0
 40
7.0
 10
7.696902913229829
 20
7.491132740960538
 10
7.696902913229829
 20
7.491132740960538
 10
7.697213730769412
 20
7.465873768659029
 10
7.697213730769412
 20
7.465873768659029
 10
7.697213730769412
 20
7.465873768659029
 10
7.684578965397904
 20
7.458794610813937
 10
7.684578965397904
 20
7.458794610813937
 10
7.684578965397904
 20
7.458794610813937
 10
7.657808801709443
 20
7.457977566073092
 10
7.657808801709443
 20
7.457977566073092
 10
7.657808801709443
 20
7.457977566073092
 10
7.643872385356947
 20
7.464251218649413
 10
7.643872385356947
 20
7.464251218649413
 10
7.643872385356947
 20
7.464251218649413
 10
7.643439966134766
 20
7.489532789838499
 10
7.643439966134766
 20
7.489532789838499
 10
7.646117551476284
 20
7.49230482464169
 10
7.653474367979823
 20
7.498389579157055
 10
7.671110244572546
 20
7.498183450172594
 10
7.6919915412222
 20
7.497944481655078
 10
7.696902913229829
 20
7.491132740960538
 10
7.696902913229829
 20
7.491132740960538
 97
        0
 97
        1
330
10D
 75
     2
 76
     1
 98
        1
 10
0.0
 20
0.0
450
        0
451
        0
460
0.0
461
0.0
452
        0
462
0.0
453
        0
470

  0
SPLINE
  5
10F
330
109
100
AcDbEntity
  8
Line Drawing
 62
   250
420
  2301728
370
     9
100
AcDbSpline
210
0.0
220
0.0
230
1.0
 70
     8
 71
     3
 72
     8
 73
     4
 74
     0
 42
0.0000000001
 43
0.0000000001
 40
0.0
 40
0.0
 40
0.0
 40
0.0
 40
1.0
 40
1.0
 40
1.0
 40
1.0
 10
7.644384460751616
 20
7.490026658108035
 30
0.0
 10
7.662386755737871
 20
7.480302915335742
 30
0.0
 10
7.687234929778305
 20
7.485342875164708
 30
0.0
 10
7.695413342803981
 20
7.4911042923275
 30
0.0
  0
SPLINE
  5
110
330
109
100
AcDbEntity
  8
Line Drawing
 62
   250
420
  2301728
370
     9
100
AcDbSpline
210
0.0
220
0.0
230
1.0
 70
     8
 71
     3
 72
    17
 73
    13
 74
     0
 42
0.0000000001
 43
0.0000000001
 40
0.0
 40
0.0
 40
0.0
 40
0.0
 40
1.0
 40
1.0
 40
1.0
 40
2.0
 40
2.0
 40
2.0
 40
3.0
 40
3.0
 40
3.0
 40
4.0
 40
4.0
 40
4.0
 40
4.0
 10
7.644006662904883
 20
7.489182302679473
 30
0.0
 10
7.644006662904883
 20
7.489182302679473
 30
0.0
 10
7.656608269395253
 20
7.484625969612162
 30
0.0
 10
7.65736386508873
 20
7.481141581037705
 30
0.0
 10
7.65736386508873
 20
7.481141581037705
 30
0.0
 10
7.662464136019732
 20
7.484281172179748
 30
0.0
 10
7.670776826593345
 20
7.484504209462758
 30
0.0
 10
7.679777974086467
 20
7.484743177980273
 30
0.0
 10
7.684390066474533
 20
7.48174241616746
 30
0.0
 10
7.684390066474533
 20
7.48174241616746
 30
0.0
 10
7.684390066474533
 20
7.48174241616746
 30
0.0
 10
7.688046284792537
 20
7.488943334161957
 30
0.0
 10
7.696714014306457
 20
7.49026562662555
 30
0.0
  0
LINE
  5
111
330
109
100
AcDbEntity
  8
Line Drawing
 62
   250
420
  2301728
370
     9
100
AcDbLine
 10
7.657385643510501
 20
7.481864176316864
 30
0.0
 11
7.657652903200401
 21
7.458677402445838
 31
0.0
  0
LINE
  5
112
330
109
100
AcDbEntity
  8
Line Drawing
 62
   250
420
  2301728
370
     9
100
AcDbLine
 10
7.684178408644735
 20
7.483303677148569
 30
0.0
 11
7.684567585944692
 21
7.459521757874388
 31
0.0
  0
ENDBLK
  5
10C
330
109
100
AcDbEntity
  8
0
100
AcDbBlockEnd
  0
BLOCK
  5
115
330
113
100
AcDbEntity
  8
0
100
AcDbBlockBegin
  2
Block_9
 70
     0
 10
0.0
 20
0.0
 30
0.0
  3
Block_9
  1

  0
INSERT
  5
118
330
113
100
AcDbEntity
  8
Line Drawing
100
AcDbBlockReference
  2
Block_10
 10
0.0
 20
0.0
 30
0.0
  0
INSERT
  5
11F
330
113
100
AcDbEntity
  8
Line Drawing
100
AcDbBlockReference
  2
Block_11
 10
0.0
 20
0.0
 30
0.0
  0
ENDBLK
  5
116
330
113
100
AcDbEntity
  8
0
100
AcDbBlockEnd
  0
BLOCK
  5
119
330
117
100
AcDbEntity
  8
0
100
AcDbBlockBegin
  2
Block_10
 70
     0
 10
0.0
 20
0.0
 30
0.0
  3
Block_10
  1

  0
SPLINE
  5
11B
330
117
100
AcDbEntity
  8
Line Drawing
 62
   250
420
  2301728
370
    15
100
AcDbSpline
210
0.0
220
0.0
230
1.0
 70
     9
 71
     3
 72
    26
 73
    22
 74
     0
 42
0.0000000001
 43
0.0000000001
 40
0.0
 40
0.0
 40
0.0
 40
0.0
 40
1.0
 40
1.0
 40
1.0
 40
2.0
 40
2.0
 40
2.0
 40
3.0
 40
3.0
 40
3.0
 40
4.0
 40
4.0
 40
4.0
 40
5.0
 40
5.0
 40
5.0
 40
6.0
 40
6.0
 40
6.0
 40
7.0
 40
7.0
 40
7.0
 40
7.0
 10
8.00292030703493
 20
7.328131177217161
 30
0.0
 10
8.002931686488157
 20
7.32793674514245
 30
0.0
 10
8.002941927996074
 20
7.327747689643817
 30
0.0
 10
8.002941927996074
 20
7.327558790720445
 30
0.0
 10
8.002864547714214
 20
7.320662842072111
 30
0.0
 10
7.984717733672115
 20
7.314811527228926
 30
0.0
 10
7.96238100495624
 20
7.314462178015219
 30
0.0
 10
7.940032896787151
 20
7.314134449762629
 30
0.0
 10
7.921997601386578
 20
7.319457757976642
 30
0.0
 10
7.922063602215226
 20
7.32634118922643
 30
0.0
 10
7.922063602215226
 20
7.32634118922643
 30
0.0
 10
7.922030601800896
 20
7.333298586922132
 30
0.0
 10
7.922030601800896
 20
7.333298586922132
 30
0.0
 10
7.922097740574876
 20
7.34018770789852
 30
0.0
 10
7.940266175578054
 20
7.346050402194943
 30
0.0
 10
7.96260290429393
 20
7.346389509900758
 30
0.0
 10
7.984951012463018
 20
7.346717238153346
 30
0.0
 10
8.002987445808912
 20
7.34141099911916
 30
0.0
 10
8.00292030703493
 20
7.334515050470827
 30
0.0
 10
8.00292030703493
 20
7.334515050470827
 30
0.0
 10
8.00292030703493
 20
7.328131177217161
 30
0.0
 10
8.00292030703493
 20
7.328131177217161
 30
0.0
  0
HATCH
  5
11C
330
117
100
AcDbEntity
  8
Line Drawing
 62
   254
420
 13358815
440
 33554687
100
AcDbHatch
 10
0.0
 20
0.0
 30
0.0
210
0.0
220
0.0
230
1.0
  2
SOLID
 70
     1
 71
     1
 91
        1
 92
        1
 93
        1
 72
     4
 94
        3
 73
     0
 74
     0
 95
       26
 96
       22
 40
0.0
 40
0.0
 40
0.0
 40
0.0
 40
1.0
 40
1.0
 40
1.0
 40
2.0
 40
2.0
 40
2.0
 40
3.0
 40
3.0
 40
3.0
 40
4.0
 40
4.0
 40
4.0
 40
5.0
 40
5.0
 40
5.0
 40
6.0
 40
6.0
 40
6.0
 40
7.0
 40
7.0
 40
7.0
 40
7.0
 10
8.00292030703493
 20
7.328131177217161
 10
8.002931686488157
 20
7.32793674514245
 10
8.002941927996074
 20
7.327747689643817
 10
8.002941927996074
 20
7.327558790720445
 10
8.002864547714214
 20
7.320662842072111
 10
7.984717733672115
 20
7.314811527228926
 10
7.96238100495624
 20
7.314462178015219
 10
7.940032896787151
 20
7.314134449762629
 10
7.921997601386578
 20
7.319457757976642
 10
7.922063602215226
 20
7.32634118922643
 10
7.922063602215226
 20
7.32634118922643
 10
7.922030601800896
 20
7.333298586922132
 10
7.922030601800896
 20
7.333298586922132
 10
7.922097740574876
 20
7.34018770789852
 10
7.940266175578054
 20
7.346050402194943
 10
7.96260290429393
 20
7.346389509900758
 10
7.984951012463018
 20
7.346717238153346
 10
8.002987445808912
 20
7.34141099911916
 10
8.00292030703493
 20
7.334515050470827
 10
8.00292030703493
 20
7.334515050470827
 10
8.00292030703493
 20
7.328131177217161
 10
8.00292030703493
 20
7.328131177217161
 97
        0
 97
        1
330
11B
 75
     2
 76
     1
 98
        1
 10
0.0
 20
0.0
450
        0
451
        0
460
0.0
461
0.0
452
        0
462
0.0
453
        0
470

  0
SPLINE
  5
11D
330
117
100
AcDbEntity
  8
Line Drawing
 62
   250
420
  2301728
370
     9
100
AcDbSpline
210
0.0
220
0.0
230
1.0
 70
     8
 71
     3
 72
    11
 73
     7
 74
     0
 42
0.0000000001
 43
0.0000000001
 40
0.0
 40
0.0
 40
0.0
 40
0.0
 40
1.0
 40
1.0
 40
1.0
 40
2.0
 40
2.0
 40
2.0
 40
2.0
 10
8.00292030703493
 20
7.334515050470827
 30
0.0
 10
8.002853168260974
 20
7.327624791549093
 30
0.0
 10
7.984694974765678
 20
7.32175770189057
 30
0.0
 10
7.962348004541909
 20
7.321424127492213
 30
0.0
 10
7.940011275826046
 20
7.321090709512999
 30
0.0
 10
7.921974842480153
 20
7.326408328000411
 30
0.0
 10
7.922030601800896
 20
7.333298586922132
 30
0.0
  0
ENDBLK
  5
11A
330
117
100
AcDbEntity
  8
0
100
AcDbBlockEnd
  0
BLOCK
  5
120
330
11E
100
AcDbEntity
  8
0
100
AcDbBlockBegin
  2
Block_11
 70
     0
 10
0.0
 20
0.0
 30
0.0
  3
Block_11
  1

  0
SPLINE
  5
122
330
11E
100
AcDbEntity
  8
Line Drawing
 62
   250
420
  2301728
370
    15
100
AcDbSpline
210
0.0
220
0.0
230
1.0
 70
    11
 71
     3
 72
    26
 73
    22
 74
     0
 42
0.0000000001
 43
0.0000000001
 40
0.0
 40
0.0
 40
0.0
 40
0.0
 40
1.0
 40
1.0
 40
1.0
 40
2.0
 40
2.0
 40
2.0
 40
3.0
 40
3.0
 40
3.0
 40
4.0
 40
4.0
 40
4.0
 40
5.0
 40
5.0
 40
5.0
 40
6.0
 40
6.0
 40
6.0
 40
7.0
 40
7.0
 40
7.0
 40
7.0
 10
7.98824081238749
 20
7.362169397674101
 30
0.0
 10
7.98824081238749
 20
7.362169397674101
 30
0.0
 10
7.988551471460267
 20
7.336909287427273
 30
0.0
 10
7.988551471460267
 20
7.336909287427273
 30
0.0
 10
7.988551471460267
 20
7.336909287427273
 30
0.0
 10
7.975915726610246
 20
7.3298312675275
 30
0.0
 10
7.975915726610246
 20
7.3298312675275
 30
0.0
 10
7.975915726610246
 20
7.3298312675275
 30
0.0
 10
7.949145562921785
 20
7.329014222786654
 30
0.0
 10
7.949145562921785
 20
7.329014222786654
 30
0.0
 10
7.949145562921785
 20
7.329014222786654
 30
0.0
 10
7.935210284514596
 20
7.335287872105102
 30
0.0
 10
7.935210284514596
 20
7.335287872105102
 30
0.0
 10
7.935210284514596
 20
7.335287872105102
 30
0.0
 10
7.93477672734712
 20
7.360568308606755
 30
0.0
 10
7.93477672734712
 20
7.360568308606755
 30
0.0
 10
7.937455450633933
 20
7.363341481355253
 30
0.0
 10
7.944811129192165
 20
7.369426232612731
 30
0.0
 10
7.962448143730208
 20
7.369220106886157
 30
0.0
 10
7.983328302434541
 20
7.368981138368641
 30
0.0
 10
7.98824081238749
 20
7.362169397674101
 30
0.0
 10
7.98824081238749
 20
7.362169397674101
 30
0.0
  0
HATCH
  5
123
330
11E
100
AcDbEntity
  8
Line Drawing
 62
   254
420
 13358815
440
 33554687
100
AcDbHatch
 10
0.0
 20
0.0
 30
0.0
210
0.0
220
0.0
230
1.0
  2
SOLID
 70
     1
 71
     1
 91
        1
 92
        1
 93
        1
 72
     4
 94
        3
 73
     0
 74
     0
 95
       26
 96
       22
 40
0.0
 40
0.0
 40
0.0
 40
0.0
 40
1.0
 40
1.0
 40
1.0
 40
2.0
 40
2.0
 40
2.0
 40
3.0
 40
3.0
 40
3.0
 40
4.0
 40
4.0
 40
4.0
 40
5.0
 40
5.0
 40
5.0
 40
6.0
 40
6.0
 40
6.0
 40
7.0
 40
7.0
 40
7.0
 40
7.0
 10
7.98824081238749
 20
7.362169397674101
 10
7.98824081238749
 20
7.362169397674101
 10
7.988551471460267
 20
7.336909287427273
 10
7.988551471460267
 20
7.336909287427273
 10
7.988551471460267
 20
7.336909287427273
 10
7.975915726610246
 20
7.3298312675275
 10
7.975915726610246
 20
7.3298312675275
 10
7.975915726610246
 20
7.3298312675275
 10
7.949145562921785
 20
7.329014222786654
 10
7.949145562921785
 20
7.329014222786654
 10
7.949145562921785
 20
7.329014222786654
 10
7.935210284514596
 20
7.335287872105102
 10
7.935210284514596
 20
7.335287872105102
 10
7.935210284514596
 20
7.335287872105102
 10
7.93477672734712
 20
7.360568308606755
 10
7.93477672734712
 20
7.360568308606755
 10
7.937455450633933
 20
7.363341481355253
 10
7.944811129192165
 20
7.369426232612731
 10
7.962448143730208
 20
7.369220106886157
 10
7.983328302434541
 20
7.368981138368641
 10
7.98824081238749
 20
7.362169397674101
 10
7.98824081238749
 20
7.362169397674101
 97
        0
 97
        1
330
122
 75
     2
 76
     1
 98
        1
 10
0.0
 20
0.0
450
        0
451
        0
460
0.0
461
0.0
452
        0
462
0.0
453
        0
470

  0
SPLINE
  5
124
330
11E
100
AcDbEntity
  8
Line Drawing
 62
   250
420
  2301728
370
     9
100
AcDbSpline
210
0.0
220
0.0
230
1.0
 70
     8
 71
     3
 72
     8
 73
     4
 74
     0
 42
0.0000000001
 43
0.0000000001
 40
0.0
 40
0.0
 40
0.0
 40
0.0
 40
1.0
 40
1.0
 40
1.0
 40
1.0
 10
7.935721221963957
 20
7.361063314821585
 30
0.0
 10
7.953724654895532
 20
7.351339572049318
 30
0.0
 10
7.978571690990646
 20
7.356379531878271
 30
0.0
 10
7.986751241961642
 20
7.362140949041063
 30
0.0
  0
SPLINE
  5
125
330
11E
100
AcDbEntity
  8
Line Drawing
 62
   250
420
  2301728
370
     9
100
AcDbSpline
210
0.0
220
0.0
230
1.0
 70
     8
 71
     3
 72
    17
 73
    13
 74
     0
 42
0.0000000001
 43
0.0000000001
 40
0.0
 40
0.0
 40
0.0
 40
0.0
 40
1.0
 40
1.0
 40
1.0
 40
2.0
 40
2.0
 40
2.0
 40
3.0
 40
3.0
 40
3.0
 40
4.0
 40
4.0
 40
4.0
 40
4.0
 10
7.935343424117212
 20
7.360218959393048
 30
0.0
 10
7.935343424117212
 20
7.360218959393048
 30
0.0
 10
7.947945030607595
 20
7.355662626325712
 30
0.0
 10
7.948700626301071
 20
7.352178237751267
 30
0.0
 10
7.948700626301071
 20
7.352178237751267
 30
0.0
 10
7.953802035177393
 20
7.355317828893298
 30
0.0
 10
7.962114725751007
 20
7.355540866176321
 30
0.0
 10
7.971115873244128
 20
7.355778696748516
 30
0.0
 10
7.975726827686874
 20
7.352779072881022
 30
0.0
 10
7.975726827686874
 20
7.352779072881022
 30
0.0
 10
7.975726827686874
 20
7.352779072881022
 30
0.0
 10
7.97938304600489
 20
7.359979990875532
 30
0.0
 10
7.988051913464143
 20
7.361302283339114
 30
0.0
  0
LINE
  5
126
330
11E
100
AcDbEntity
  8
Line Drawing
 62
   250
420
  2301728
370
     9
100
AcDbLine
 10
7.948723385207509
 20
7.352900833030414
 30
0.0
 11
7.94898966441273
 21
7.329714059159376
 31
0.0
  0
LINE
  5
127
330
11E
100
AcDbEntity
  8
Line Drawing
 62
   250
420
  2301728
370
     9
100
AcDbLine
 10
7.975516307802409
 20
7.354340333862118
 30
0.0
 11
7.975905485102353
 21
7.330558414587938
 31
0.0
  0
ENDBLK
  5
121
330
11E
100
AcDbEntity
  8
0
100
AcDbBlockEnd
  0
BLOCK
  5
12A
330
128
100
AcDbEntity
  8
0
100
AcDbBlockBegin
  2
Block_12
 70
     0
 10
0.0
 20
0.0
 30
0.0
  3
Block_12
  1

  0
INSERT
  5
12D
330
128
100
AcDbEntity
  8
Line Drawing
100
AcDbBlockReference
  2
Block_13
 10
0.0
 20
0.0
 30
0.0
  0
INSERT
  5
134
330
128
100
AcDbEntity
  8
Line Drawing
100
AcDbBlockReference
  2
Block_14
 10
0.0
 20
0.0
 30
0.0
  0
ENDBLK
  5
12B
330
128
100
AcDbEntity
  8
0
100
AcDbBlockEnd
  0
BLOCK
  5
12E
330
12C
100
AcDbEntity
  8
0
100
AcDbBlockBegin
  2
Block_13
 70
     0
 10
0.0
 20
0.0
 30
0.0
  3
Block_13
  1

  0
SPLINE
  5
130
330
12C
100
AcDbEntity
  8
Line Drawing
 62
   250
420
  2301728
370
    15
100
AcDbSpline
210
0.0
220
0.0
230
1.0
 70
     9
 71
     3
 72
    26
 73
    22
 74
     0
 42
0.0000000001
 43
0.0000000001
 40
0.0
 40
0.0
 40
0.0
 40
0.0
 40
1.0
 40
1.0
 40
1.0
 40
2.0
 40
2.0
 40
2.0
 40
3.0
 40
3.0
 40
3.0
 40
4.0
 40
4.0
 40
4.0
 40
5.0
 40
5.0
 40
5.0
 40
6.0
 40
6.0
 40
6.0
 40
7.0
 40
7.0
 40
7.0
 40
7.0
 10
8.556930124756162
 20
7.438397100291644
 30
0.0
 10
8.556940366264067
 20
7.438202352275943
 30
0.0
 10
8.556951745717267
 20
7.43801345335257
 30
0.0
 10
8.556940366264067
 20
7.437824554429198
 30
0.0
 10
8.556785605700344
 20
7.430929743726184
 30
0.0
 10
8.538560273431054
 20
7.425311707673901
 30
0.0
 10
8.516223544715204
 20
7.425244568899933
 30
0.0
 10
8.493875436546103
 20
7.425200189032402
 30
0.0
 10
8.47590614197419
 20
7.430751086310705
 30
0.0
 10
8.476062040483231
 20
7.437629965779225
 30
0.0
 10
8.476062040483231
 20
7.437629965779225
 30
0.0
 10
8.476117799803988
 20
7.444586225529607
 30
0.0
 10
8.476117799803988
 20
7.444586225529607
 30
0.0
 10
8.476262497007054
 20
7.451476484451328
 30
0.0
 10
8.494509272090201
 20
7.457110451738117
 30
0.0
 10
8.516846000806051
 20
7.45716621105886
 30
0.0
 10
8.539194108975152
 20
7.457210590926402
 30
0.0
 10
8.55716340354709
 20
7.451676922529119
 30
0.0
 10
8.557007505038022
 20
7.444780973706567
 30
0.0
 10
8.557007505038022
 20
7.444780973706567
 30
0.0
 10
8.556930124756162
 20
7.438397100291644
 30
0.0
 10
8.556930124756162
 20
7.438397100291644
 30
0.0
  0
HATCH
  5
131
330
12C
100
AcDbEntity
  8
Line Drawing
 62
   254
420
 13358815
440
 33554687
100
AcDbHatch
 10
0.0
 20
0.0
 30
0.0
210
0.0
220
0.0
230
1.0
  2
SOLID
 70
     1
 71
     1
 91
        1
 92
        1
 93
        1
 72
     4
 94
        3
 73
     0
 74
     0
 95
       26
 96
       22
 40
0.0
 40
0.0
 40
0.0
 40
0.0
 40
1.0
 40
1.0
 40
1.0
 40
2.0
 40
2.0
 40
2.0
 40
3.0
 40
3.0
 40
3.0
 40
4.0
 40
4.0
 40
4.0
 40
5.0
 40
5.0
 40
5.0
 40
6.0
 40
6.0
 40
6.0
 40
7.0
 40
7.0
 40
7.0
 40
7.0
 10
8.556930124756162
 20
7.438397100291644
 10
8.556940366264067
 20
7.438202352275943
 10
8.556951745717267
 20
7.43801345335257
 10
8.556940366264067
 20
7.437824554429198
 10
8.556785605700344
 20
7.430929743726184
 10
8.538560273431054
 20
7.425311707673901
 10
8.516223544715204
 20
7.425244568899933
 10
8.493875436546103
 20
7.425200189032402
 10
8.47590614197419
 20
7.430751086310705
 10
8.476062040483231
 20
7.437629965779225
 10
8.476062040483231
 20
7.437629965779225
 10
8.476117799803988
 20
7.444586225529607
 10
8.476117799803988
 20
7.444586225529607
 10
8.476262497007054
 20
7.451476484451328
 10
8.494509272090201
 20
7.457110451738117
 10
8.516846000806051
 20
7.45716621105886
 10
8.539194108975152
 20
7.457210590926402
 10
8.55716340354709
 20
7.451676922529119
 10
8.557007505038022
 20
7.444780973706567
 10
8.557007505038022
 20
7.444780973706567
 10
8.556930124756162
 20
7.438397100291644
 10
8.556930124756162
 20
7.438397100291644
 97
        0
 97
        1
330
130
 75
     2
 76
     1
 98
        1
 10
0.0
 20
0.0
450
        0
451
        0
460
0.0
461
0.0
452
        0
462
0.0
453
        0
470

  0
SPLINE
  5
132
330
12C
100
AcDbEntity
  8
Line Drawing
 62
   250
420
  2301728
370
     9
100
AcDbSpline
210
0.0
220
0.0
230
1.0
 70
     8
 71
     3
 72
    11
 73
     7
 74
     0
 42
0.0000000001
 43
0.0000000001
 40
0.0
 40
0.0
 40
0.0
 40
0.0
 40
1.0
 40
1.0
 40
1.0
 40
2.0
 40
2.0
 40
2.0
 40
2.0
 10
8.557007505038022
 20
7.444780973706567
 30
0.0
 10
8.556863166165561
 20
7.437891693203166
 30
0.0
 10
8.538627412205034
 20
7.432256587971058
 30
0.0
 10
8.516279304035959
 20
7.432207656322234
 30
0.0
 10
8.493942575320083
 20
7.432151897001479
 30
0.0
 10
8.475973280748146
 20
7.43770295362799
 30
0.0
 10
8.476117799803988
 20
7.444586225529607
 30
0.0
  0
ENDBLK
  5
12F
330
12C
100
AcDbEntity
  8
0
100
AcDbBlockEnd
  0
BLOCK
  5
135
330
133
100
AcDbEntity
  8
0
100
AcDbBlockBegin
  2
Block_14
 70
     0
 10
0.0
 20
0.0
 30
0.0
  3
Block_14
  1

  0
SPLINE
  5
137
330
133
100
AcDbEntity
  8
Line Drawing
 62
   250
420
  2301728
370
    15
100
AcDbSpline
210
0.0
220
0.0
230
1.0
 70
    11
 71
     3
 72
    26
 73
    22
 74
     0
 42
0.0000000001
 43
0.0000000001
 40
0.0
 40
0.0
 40
0.0
 40
0.0
 40
1.0
 40
1.0
 40
1.0
 40
2.0
 40
2.0
 40
2.0
 40
3.0
 40
3.0
 40
3.0
 40
4.0
 40
4.0
 40
4.0
 40
5.0
 40
5.0
 40
5.0
 40
6.0
 40
6.0
 40
6.0
 40
7.0
 40
7.0
 40
7.0
 40
7.0
 10
8.542683049330889
 20
7.472618370579614
 30
0.0
 10
8.542683049330889
 20
7.472618370579614
 30
0.0
 10
8.542671669877664
 20
7.447359398278106
 30
0.0
 10
8.542671669877664
 20
7.447359398278106
 30
0.0
 10
8.542671669877664
 20
7.447359398278106
 30
0.0
 10
8.52994830323789
 20
7.440441828668667
 30
0.0
 10
8.52994830323789
 20
7.440441828668667
 30
0.0
 10
8.52994830323789
 20
7.440441828668667
 30
0.0
 10
8.503165622150895
 20
7.439963891633636
 30
0.0
 10
8.503165622150895
 20
7.439963891633636
 30
0.0
 10
8.503165622150895
 20
7.439963891633636
 30
0.0
 10
8.489319103478793
 20
7.446409213934657
 30
0.0
 10
8.489319103478793
 20
7.446409213934657
 30
0.0
 10
8.489319103478793
 20
7.446409213934657
 30
0.0
 10
8.489208722782626
 20
7.47169663486919
 30
0.0
 10
8.489208722782626
 20
7.47169663486919
 30
0.0
 10
8.491920625026548
 20
7.474435829534197
 30
0.0
 10
8.499354643269169
 20
7.480425813430466
 30
0.0
 10
8.516979140408693
 20
7.479997945989591
 30
0.0
 10
8.537860437058345
 20
7.47949156032151
 30
0.0
 10
8.542683049330889
 20
7.472618370579614
 30
0.0
 10
8.542683049330889
 20
7.472618370579614
 30
0.0
  0
HATCH
  5
138
330
133
100
AcDbEntity
  8
Line Drawing
 62
   254
420
 13358815
440
 33554687
100
AcDbHatch
 10
0.0
 20
0.0
 30
0.0
210
0.0
220
0.0
230
1.0
  2
SOLID
 70
     1
 71
     1
 91
        1
 92
        1
 93
        1
 72
     4
 94
        3
 73
     0
 74
     0
 95
       26
 96
       22
 40
0.0
 40
0.0
 40
0.0
 40
0.0
 40
1.0
 40
1.0
 40
1.0
 40
2.0
 40
2.0
 40
2.0
 40
3.0
 40
3.0
 40
3.0
 40
4.0
 40
4.0
 40
4.0
 40
5.0
 40
5.0
 40
5.0
 40
6.0
 40
6.0
 40
6.0
 40
7.0
 40
7.0
 40
7.0
 40
7.0
 10
8.542683049330889
 20
7.472618370579614
 10
8.542683049330889
 20
7.472618370579614
 10
8.542671669877664
 20
7.447359398278106
 10
8.542671669877664
 20
7.447359398278106
 10
8.542671669877664
 20
7.447359398278106
 10
8.52994830323789
 20
7.440441828668667
 10
8.52994830323789
 20
7.440441828668667
 10
8.52994830323789
 20
7.440441828668667
 10
8.503165622150895
 20
7.439963891633636
 10
8.503165622150895
 20
7.439963891633636
 10
8.503165622150895
 20
7.439963891633636
 10
8.489319103478793
 20
7.446409213934657
 10
8.489319103478793
 20
7.446409213934657
 10
8.489319103478793
 20
7.446409213934657
 10
8.489208722782626
 20
7.47169663486919
 10
8.489208722782626
 20
7.47169663486919
 10
8.491920625026548
 20
7.474435829534197
 10
8.499354643269169
 20
7.480425813430466
 10
8.516979140408693
 20
7.479997945989591
 10
8.537860437058345
 20
7.47949156032151
 10
8.542683049330889
 20
7.472618370579614
 10
8.542683049330889
 20
7.472618370579614
 97
        0
 97
        1
330
137
 75
     2
 76
     1
 98
        1
 10
0.0
 20
0.0
450
        0
451
        0
460
0.0
461
0.0
452
        0
462
0.0
453
        0
470

  0
SPLINE
  5
139
330
133
100
AcDbEntity
  8
Line Drawing
 62
   250
420
  2301728
370
     9
100
AcDbSpline
210
0.0
220
0.0
230
1.0
 70
     8
 71
     3
 72
     8
 73
     4
 74
     0
 42
0.0000000001
 43
0.0000000001
 40
0.0
 40
0.0
 40
0.0
 40
0.0
 40
1.0
 40
1.0
 40
1.0
 40
1.0
 10
8.490153217399463
 20
7.472180261630834
 30
0.0
 10
8.508033931186167
 20
7.462227791848931
 30
0.0
 10
8.532947927105396
 20
7.466951402878508
 30
0.0
 10
8.541193658692565
 20
7.472612680853002
 30
0.0
  0
SPLINE
  5
13A
330
133
100
AcDbEntity
  8
Line Drawing
 62
   250
420
  2301728
370
     9
100
AcDbSpline
210
0.0
220
0.0
230
1.0
 70
     8
 71
     3
 72
    17
 73
    13
 74
     0
 42
0.0000000001
 43
0.0000000001
 40
0.0
 40
0.0
 40
0.0
 40
0.0
 40
1.0
 40
1.0
 40
1.0
 40
2.0
 40
2.0
 40
2.0
 40
3.0
 40
3.0
 40
3.0
 40
4.0
 40
4.0
 40
4.0
 40
4.0
 10
8.489764040099492
 20
7.471340618181518
 30
0.0
 10
8.489764040099492
 20
7.471340618181518
 30
0.0
 10
8.502310066074389
 20
7.466623674625907
 30
0.0
 10
8.503021103095054
 20
7.463127906598237
 30
0.0
 10
8.503021103095054
 20
7.463127906598237
 30
0.0
 10
8.508155512385705
 20
7.466206048692911
 30
0.0
 10
8.516479582412532
 20
7.466323257061035
 30
0.0
 10
8.525480729905666
 20
7.466445017210427
 30
0.0
 10
8.530047304480881
 20
7.46338963402219
 30
0.0
 10
8.530047304480881
 20
7.46338963402219
 30
0.0
 10
8.530047304480881
 20
7.46338963402219
 30
0.0
 10
8.533803661987171
 20
7.470540482422531
 30
0.0
 10
8.542482770954292
 20
7.471756945971226
 30
0.0
  0
LINE
  5
13B
330
133
100
AcDbEntity
  8
Line Drawing
 62
   250
420
  2301728
370
     9
100
AcDbLine
 10
8.503055241454704
 20
7.463850501877408
 30
0.0
 11
8.503021103095054
 21
7.440663728006357
 31
0.0
  0
LINE
  5
13C
330
133
100
AcDbEntity
  8
Line Drawing
 62
   250
420
  2301728
370
     9
100
AcDbLine
 10
8.529858405557508
 20
7.464950895003324
 30
0.0
 11
8.52994830323789
 21
7.441170113674425
 31
0.0
  0
ENDBLK
  5
136
330
133
100
AcDbEntity
  8
0
100
AcDbBlockEnd
  0
BLOCK
  5
1C2
330
1C0
100
AcDbEntity
  8
0
100
AcDbBlockBegin
  2
Block_15
 70
     0
 10
0.0
 20
0.0
 30
0.0
  3
Block_15
  1

  0
INSERT
  5
1C5
330
1C0
100
AcDbEntity
  8
Callouts ROMAN
100
AcDbBlockReference
  2
Block_16
 10
0.0
 20
0.0
 30
0.0
  0
ENDBLK
  5
1C3
330
1C0
100
AcDbEntity
  8
0
100
AcDbBlockEnd
  0
BLOCK
  5
1C6
330
1C4
100
AcDbEntity
  8
0
100
AcDbBlockBegin
  2
Block_16
 70
     0
 10
0.0
 20
0.0
 30
0.0
  3
Block_16
  1

  0
LINE
  5
1C8
330
1C4
100
AcDbEntity
  8
Callouts ROMAN
 62
   250
420
  2301728
370
    20
100
AcDbLine
 10
10.21988358556935
 20
7.334404906884919
 30
0.0
 11
10.40992658115811
 21
8.072688001808563
 31
0.0
  0
LWPOLYLINE
  5
1C9
330
1C4
100
AcDbEntity
  8
Callouts ROMAN
100
AcDbPolyline
 90
        3
 70
     1
 43
0.0
 10
10.24805724034975
 20
7.34463829181973
 10
10.20093339838417
 20
7.261220036523392
 10
10.20009059785378
 20
7.356947356635082
  0
HATCH
  5
1CA
330
1C4
100
AcDbEntity
  8
Callouts ROMAN
 62
   250
420
  2301728
440
 33554687
100
AcDbHatch
 10
0.0
 20
0.0
 30
0.0
210
0.0
220
0.0
230
1.0
  2
SOLID
 70
     1
 71
     1
 91
        1
 92
        1
 93
        3
 72
     1
 10
10.24805724034975
 20
7.34463829181973
 11
10.20093339838417
 21
7.261220036523392
 72
     1
 10
10.20093339838417
 20
7.261220036523392
 11
10.20009059785378
 21
7.356947356635082
 72
     1
 10
10.20009059785378
 20
7.356947356635082
 11
10.24805724034975
 21
7.34463829181973
 97
        1
330
1C9
 75
     2
 76
     1
 98
        1
 10
0.0
 20
0.0
450
        0
451
        0
460
0.0
461
0.0
452
        0
462
0.0
453
        0
470

  0
ENDBLK
  5
1C7
330
1C4
100
AcDbEntity
  8
0
100
AcDbBlockEnd
  0
BLOCK
  5
1CD
330
1CB
100
AcDbEntity
  8
0
100
AcDbBlockBegin
  2
Block_17
 70
     0
 10
0.0
 20
0.0
 30
0.0
  3
Block_17
  1

  0
INSERT
  5
1D0
330
1CB
100
AcDbEntity
  8
Callouts ROMAN
100
AcDbBlockReference
  2
Block_18
 10
0.0
 20
0.0
 30
0.0
  0
ENDBLK
  5
1CE
330
1CB
100
AcDbEntity
  8
0
100
AcDbBlockEnd
  0
BLOCK
  5
1D1
330
1CF
100
AcDbEntity
  8
0
100
AcDbBlockBegin
  2
Block_18
 70
     0
 10
0.0
 20
0.0
 30
0.0
  3
Block_18
  1

  0
LINE
  5
1D3
330
1CF
100
AcDbEntity
  8
Callouts ROMAN
 62
   250
420
  2301728
370
    20
100
AcDbLine
 10
8.143002350197395
 20
7.690732424928821
 30
0.0
 11
8.386649300674536
 21
8.163349981106092
 31
0.0
  0
LWPOLYLINE
  5
1D4
330
1CF
100
AcDbEntity
  8
Callouts ROMAN
100
AcDbPolyline
 90
        3
 70
     1
 43
0.0
 10
8.172745474244088
 20
7.694450430153803
 10
8.108265639982505
 20
7.623587091452614
 10
8.128712539181922
 20
7.717109037762711
  0
HATCH
  5
1D5
330
1CF
100
AcDbEntity
  8
Callouts ROMAN
 62
   250
420
  2301728
440
 33554687
100
AcDbHatch
 10
0.0
 20
0.0
 30
0.0
210
0.0
220
0.0
230
1.0
  2
SOLID
 70
     1
 71
     1
 91
        1
 92
        1
 93
        3
 72
     1
 10
8.172745474244088
 20
7.694450430153803
 11
8.108265639982505
 21
7.623587091452614
 72
     1
 10
8.108265639982505
 20
7.623587091452614
 11
8.128712539181922
 21
7.717109037762711
 72
     1
 10
8.128712539181922
 20
7.717109037762711
 11
8.172745474244088
 21
7.694450430153803
 97
        1
330
1D4
 75
     2
 76
     1
 98
        1
 10
0.0
 20
0.0
450
        0
451
        0
460
0.0
461
0.0
452
        0
462
0.0
453
        0
470

  0
ENDBLK
  5
1D2
330
1CF
100
AcDbEntity
  8
0
100
AcDbBlockEnd
  0
ENDSEC
  0
SECTION
  2
ENTITIES
  0
LWPOLYLINE
  5
79
330
70
100
AcDbEntity
  8
Color Fill
100
AcDbPolyline
 90
       32
 70
     1
 43
0.0
 10
5.862299612391236
 20
6.990331118628987
 10
5.841441074121083
 20
7.106020181693414
 10
9.441137738941227
 20
7.828615460850642
 10
9.596649350506998
 20
7.775513410304496
 10
9.596649350506998
 20
7.752754503299418
 10
9.788211070768813
 20
7.756549383639581
 10
9.786310702033915
 20
7.718616142791776
 10
9.919074786048087
 20
7.671203484526522
 10
9.900105237059353
 20
7.373437332247665
 10
11.24099176107807
 20
6.887916037106087
 10
11.21443211660314
 20
6.721013592584275
 10
9.553031905231767
 20
6.140667027098995
 10
9.530272998226665
 20
5.751871055586636
 10
9.482854815481561
 20
5.732901506597904
 10
9.661136713505912
 20
5.736690864614248
 10
9.657347355489566
 20
5.676004239085184
 10
9.77493124853135
 20
5.603938160053581
 10
9.740792888023735
 20
5.144959282481977
 10
6.645581535331833
 20
3.769945777409096
 10
6.541266085074046
 20
3.919779041677075
 10
6.527991823633517
 20
3.993745489443628
 10
6.364884555784593
 20
3.982366035941089
 10
6.271954126294341
 20
4.507721265793052
 10
6.292818476752977
 20
4.528579804063206
 10
6.152469867536056
 20
5.334620634008867
 10
6.125921603185284
 20
5.340310360760136
 10
6.002642412438111
 20
5.493932983044487
 10
6.152469867536056
 20
5.628586056340079
 10
6.08798831370719
 20
5.704452872841557
 10
5.92867596467157
 20
6.60342969954249
 10
5.90022733091521
 20
6.601529330807566
 10
5.835745546200907
 20
6.975156469720054
  0
HATCH
  5
7A
330
70
100
AcDbEntity
  8
Color Fill
 62
    43
420
 15575901
440
 33554687
100
AcDbHatch
 10
0.0
 20
0.0
 30
0.0
210
0.0
220
0.0
230
1.0
  2
SOLID
 70
     1
 71
     1
 91
        1
 92
        1
 93
       32
 72
     1
 10
5.862299612391236
 20
6.990331118628987
 11
5.841441074121083
 21
7.106020181693414
 72
     1
 10
5.841441074121083
 20
7.106020181693414
 11
9.441137738941227
 21
7.828615460850642
 72
     1
 10
9.441137738941227
 20
7.828615460850642
 11
9.596649350506998
 21
7.775513410304496
 72
     1
 10
9.596649350506998
 20
7.775513410304496
 11
9.596649350506998
 21
7.752754503299418
 72
     1
 10
9.596649350506998
 20
7.752754503299418
 11
9.788211070768813
 21
7.756549383639581
 72
     1
 10
9.788211070768813
 20
7.756549383639581
 11
9.786310702033915
 21
7.718616142791776
 72
     1
 10
9.786310702033915
 20
7.718616142791776
 11
9.919074786048087
 21
7.671203484526522
 72
     1
 10
9.919074786048087
 20
7.671203484526522
 11
9.900105237059353
 21
7.373437332247665
 72
     1
 10
9.900105237059353
 20
7.373437332247665
 11
11.24099176107807
 21
6.887916037106087
 72
     1
 10
11.24099176107807
 20
6.887916037106087
 11
11.21443211660314
 21
6.721013592584275
 72
     1
 10
11.21443211660314
 20
6.721013592584275
 11
9.553031905231767
 21
6.140667027098995
 72
     1
 10
9.553031905231767
 20
6.140667027098995
 11
9.530272998226665
 21
5.751871055586636
 72
     1
 10
9.530272998226665
 20
5.751871055586636
 11
9.482854815481561
 21
5.732901506597904
 72
     1
 10
9.482854815481561
 20
5.732901506597904
 11
9.661136713505912
 21
5.736690864614248
 72
     1
 10
9.661136713505912
 20
5.736690864614248
 11
9.657347355489566
 21
5.676004239085184
 72
     1
 10
9.657347355489566
 20
5.676004239085184
 11
9.77493124853135
 21
5.603938160053581
 72
     1
 10
9.77493124853135
 20
5.603938160053581
 11
9.740792888023735
 21
5.144959282481977
 72
     1
 10
9.740792888023735
 20
5.144959282481977
 11
6.645581535331833
 21
3.769945777409096
 72
     1
 10
6.645581535331833
 20
3.769945777409096
 11
6.541266085074046
 21
3.919779041677075
 72
     1
 10
6.541266085074046
 20
3.919779041677075
 11
6.527991823633517
 21
3.993745489443628
 72
     1
 10
6.527991823633517
 20
3.993745489443628
 11
6.364884555784593
 21
3.982366035941089
 72
     1
 10
6.364884555784593
 20
3.982366035941089
 11
6.271954126294341
 21
4.507721265793052
 72
     1
 10
6.271954126294341
 20
4.507721265793052
 11
6.292818476752977
 21
4.528579804063206
 72
     1
 10
6.292818476752977
 20
4.528579804063206
 11
6.152469867536056
 21
5.334620634008867
 72
     1
 10
6.152469867536056
 20
5.334620634008867
 11
6.125921603185284
 21
5.340310360760136
 72
     1
 10
6.125921603185284
 20
5.340310360760136
 11
6.002642412438111
 21
5.493932983044487
 72
     1
 10
6.002642412438111
 20
5.493932983044487
 11
6.152469867536056
 21
5.628586056340079
 72
     1
 10
6.152469867536056
 20
5.628586056340079
 11
6.08798831370719
 21
5.704452872841557
 72
     1
 10
6.08798831370719
 20
5.704452872841557
 11
5.92867596467157
 21
6.60342969954249
 72
     1
 10
5.92867596467157
 20
6.60342969954249
 11
5.90022733091521
 21
6.601529330807566
 72
     1
 10
5.90022733091521
 20
6.601529330807566
 11
5.835745546200907
 21
6.975156469720054
 72
     1
 10
5.835745546200907
 20
6.975156469720054
 11
5.862299612391236
 21
6.990331118628987
 97
        1
330
79
 75
     2
 76
     1
 98
        1
 10
0.0
 20
0.0
450
        0
451
        0
460
0.0
461
0.0
452
        0
462
0.0
453
        0
470

  0
LWPOLYLINE
  5
7B
330
70
100
AcDbEntity
  8
Color Fill
100
AcDbPolyline
 90
        6
 70
     1
 43
0.0
 10
8.637108614164263
 20
7.399646488892622
 10
7.93926136985917
 20
7.245107824505301
 10
7.555303825093371
 20
7.439580563455895
 10
7.553320541229746
 20
7.468179245880403
 10
8.226925981519002
 20
7.601854820743217
 10
8.636974518823484
 20
7.428606059379666
  0
HATCH
  5
7C
330
70
100
AcDbEntity
  8
Color Fill
 62
   254
420
 13358815
440
 33554687
100
AcDbHatch
 10
0.0
 20
0.0
 30
0.0
210
0.0
220
0.0
230
1.0
  2
SOLID
 70
     1
 71
     1
 91
        1
 92
        1
 93
        6
 72
     1
 10
8.637108614164263
 20
7.399646488892622
 11
7.93926136985917
 21
7.245107824505301
 72
     1
 10
7.93926136985917
 20
7.245107824505301
 11
7.555303825093371
 21
7.439580563455895
 72
     1
 10
7.555303825093371
 20
7.439580563455895
 11
7.553320541229746
 21
7.468179245880403
 72
     1
 10
7.553320541229746
 20
7.468179245880403
 11
8.226925981519002
 21
7.601854820743217
 72
     1
 10
8.226925981519002
 20
7.601854820743217
 11
8.636974518823484
 21
7.428606059379666
 72
     1
 10
8.636974518823484
 20
7.428606059379666
 11
8.637108614164263
 21
7.399646488892622
 97
        1
330
7B
 75
     2
 76
     1
 98
        1
 10
0.0
 20
0.0
450
        0
451
        0
460
0.0
461
0.0
452
        0
462
0.0
453
        0
470

  0
LWPOLYLINE
  5
7D
330
70
100
AcDbEntity
  8
Color Fill
100
AcDbPolyline
 90
        7
 70
     1
 43
0.0
 10
8.133923017836536
 20
7.47964761923836
 10
8.13570145687504
 20
7.444442844419086
 10
8.200065920150134
 20
7.43306339120401
 10
8.199710881209828
 20
7.427728703536786
 10
8.20540060781737
 20
7.422395153814894
 10
8.229225940920336
 20
7.422395153814894
 10
8.25127345961798
 20
7.428796096248358
  0
HATCH
  5
7E
330
70
100
AcDbEntity
  8
Color Fill
 62
    43
420
 15575901
440
 33554687
100
AcDbHatch
 10
0.0
 20
0.0
 30
0.0
210
0.0
220
0.0
230
1.0
  2
SOLID
 70
     1
 71
     1
 91
        1
 92
        1
 93
        7
 72
     1
 10
8.133923017836536
 20
7.47964761923836
 11
8.13570145687504
 21
7.444442844419086
 72
     1
 10
8.13570145687504
 20
7.444442844419086
 11
8.200065920150134
 21
7.43306339120401
 72
     1
 10
8.200065920150134
 20
7.43306339120401
 11
8.199710881209828
 21
7.427728703536786
 72
     1
 10
8.199710881209828
 20
7.427728703536786
 11
8.20540060781737
 21
7.422395153814894
 72
     1
 10
8.20540060781737
 20
7.422395153814894
 11
8.229225940920336
 21
7.422395153814894
 72
     1
 10
8.229225940920336
 20
7.422395153814894
 11
8.25127345961798
 21
7.428796096248358
 72
     1
 10
8.25127345961798
 20
7.428796096248358
 11
8.133923017836536
 21
7.47964761923836
 97
        1
330
7D
 75
     2
 76
     1
 98
        1
 10
0.0
 20
0.0
450
        0
451
        0
460
0.0
461
0.0
452
        0
462
0.0
453
        0
470

  0
LWPOLYLINE
  5
7F
330
70
100
AcDbEntity
  8
Color Fill
100
AcDbPolyline
 90
        5
 70
     1
 43
0.0
 10
8.065646296821265
 20
7.402481110688502
 10
8.074891934784318
 20
7.402481110688502
 10
8.090538682955045
 20
7.402836308096198
 10
8.09125006720199
 20
7.395368952429079
 10
8.055334068543565
 20
7.3889680099956
  0
HATCH
  5
80
330
70
100
AcDbEntity
  8
Color Fill
 62
    43
420
 15575901
440
 33554687
100
AcDbHatch
 10
0.0
 20
0.0
 30
0.0
210
0.0
220
0.0
230
1.0
  2
SOLID
 70
     1
 71
     1
 91
        1
 92
        1
 93
        5
 72
     1
 10
8.065646296821265
 20
7.402481110688502
 11
8.074891934784318
 21
7.402481110688502
 72
     1
 10
8.074891934784318
 20
7.402481110688502
 11
8.090538682955045
 21
7.402836308096198
 72
     1
 10
8.090538682955045
 20
7.402836308096198
 11
8.09125006720199
 21
7.395368952429079
 72
     1
 10
8.09125006720199
 20
7.395368952429079
 11
8.055334068543565
 21
7.3889680099956
 72
     1
 10
8.055334068543565
 20
7.3889680099956
 11
8.065646296821265
 21
7.402481110688502
 97
        1
330
7F
 75
     2
 76
     1
 98
        1
 10
0.0
 20
0.0
450
        0
451
        0
460
0.0
461
0.0
452
        0
462
0.0
453
        0
470

  0
SPLINE
  5
81
330
70
100
AcDbEntity
  8
Color Fill
100
AcDbSpline
210
0.0
220
0.0
230
1.0
 70
    11
 71
     3
 72
    29
 73
    25
 74
     0
 42
0.0000000001
 43
0.0000000001
 40
0.0
 40
0.0
 40
0.0
 40
0.0
 40
1.0
 40
1.0
 40
1.0
 40
2.0
 40
2.0
 40
2.0
 40
3.0
 40
3.0
 40
3.0
 40
4.0
 40
4.0
 40
4.0
 40
5.0
 40
5.0
 40
5.0
 40
6.0
 40
6.0
 40
6.0
 40
7.0
 40
7.0
 40
7.0
 40
8.0
 40
8.0
 40
8.0
 40
8.0
 10
7.961453579519216
 20
7.416705427207337
 30
0.0
 10
7.961453579519216
 20
7.416705427207337
 30
0.0
 10
7.970699385256453
 20
7.427017646789092
 30
0.0
 10
7.973544248560237
 20
7.427728703536786
 30
0.0
 10
7.976389111863984
 20
7.428440078476922
 30
0.0
 10
7.983856309063715
 20
7.430218527900238
 30
0.0
 10
7.983856309063715
 20
7.430218527900238
 30
0.0
 10
7.983856309063715
 20
7.430218527900238
 30
0.0
 10
7.99416950751255
 20
7.425595215101274
 30
0.0
 10
7.99416950751255
 20
7.425595215101274
 30
0.0
 10
7.99416950751255
 20
7.425595215101274
 30
0.0
 10
7.99416950751255
 20
7.422038976929254
 30
0.0
 10
7.99416950751255
 20
7.422038976929254
 30
0.0
 10
7.99416950751255
 20
7.422038976929254
 30
0.0
 10
7.986701172367487
 20
7.415638193286554
 30
0.0
 10
7.986701172367487
 20
7.415638193286554
 30
0.0
 10
7.986701172367487
 20
7.415638193286554
 30
0.0
 10
7.981367622645582
 20
7.414571779729511
 30
0.0
 10
7.981367622645582
 20
7.414571779729511
 30
0.0
 10
7.981367622645582
 20
7.414571779729511
 30
0.0
 10
7.974610668800917
 20
7.411726916425751
 30
0.0
 10
7.974610668800917
 20
7.411726916425751
 30
0.0
 10
7.974610668800917
 20
7.411726916425751
 30
0.0
 10
7.961453579519216
 20
7.416705427207337
 30
0.0
 10
7.961453579519216
 20
7.416705427207337
 30
0.0
  0
HATCH
  5
82
330
70
100
AcDbEntity
  8
Color Fill
 62
    43
420
 15575901
440
 33554687
100
AcDbHatch
 10
0.0
 20
0.0
 30
0.0
210
0.0
220
0.0
230
1.0
  2
SOLID
 70
     1
 71
     1
 91
        1
 92
        1
 93
        1
 72
     4
 94
        3
 73
     0
 74
     0
 95
       29
 96
       25
 40
0.0
 40
0.0
 40
0.0
 40
0.0
 40
1.0
 40
1.0
 40
1.0
 40
2.0
 40
2.0
 40
2.0
 40
3.0
 40
3.0
 40
3.0
 40
4.0
 40
4.0
 40
4.0
 40
5.0
 40
5.0
 40
5.0
 40
6.0
 40
6.0
 40
6.0
 40
7.0
 40
7.0
 40
7.0
 40
8.0
 40
8.0
 40
8.0
 40
8.0
 10
7.961453579519216
 20
7.416705427207337
 10
7.961453579519216
 20
7.416705427207337
 10
7.970699385256453
 20
7.427017646789092
 10
7.973544248560237
 20
7.427728703536786
 10
7.976389111863984
 20
7.428440078476922
 10
7.983856309063715
 20
7.430218527900238
 10
7.983856309063715
 20
7.430218527900238
 10
7.983856309063715
 20
7.430218527900238
 10
7.99416950751255
 20
7.425595215101274
 10
7.99416950751255
 20
7.425595215101274
 10
7.99416950751255
 20
7.425595215101274
 10
7.99416950751255
 20
7.422038976929254
 10
7.99416950751255
 20
7.422038976929254
 10
7.99416950751255
 20
7.422038976929254
 10
7.986701172367487
 20
7.415638193286554
 10
7.986701172367487
 20
7.415638193286554
 10
7.986701172367487
 20
7.415638193286554
 10
7.981367622645582
 20
7.414571779729511
 10
7.981367622645582
 20
7.414571779729511
 10
7.981367622645582
 20
7.414571779729511
 10
7.974610668800917
 20
7.411726916425751
 10
7.974610668800917
 20
7.411726916425751
 10
7.974610668800917
 20
7.411726916425751
 10
7.961453579519216
 20
7.416705427207337
 10
7.961453579519216
 20
7.416705427207337
 97
        0
 97
        1
330
81
 75
     2
 76
     1
 98
        1
 10
0.0
 20
0.0
450
        0
451
        0
460
0.0
461
0.0
452
        0
462
0.0
453
        0
470

  0
LWPOLYLINE
  5
83
330
70
100
AcDbEntity
  8
Color Fill
100
AcDbPolyline
 90
       10
 70
     1
 43
0.0
 10
8.121832179296498
 20
7.501340110494462
 10
8.120054708704337
 20
7.496005422827225
 10
8.134279025223147
 20
7.488182209365263
 10
8.137478927467226
 20
7.442664395355095
 10
8.093739723144443
 20
7.435197038681836
 10
8.082715477075087
 20
7.460800808415771
 10
8.082004093043728
 20
7.468624182501116
 10
8.088405203826356
 20
7.47573634076054
 10
8.099784657328907
 20
7.488182209365263
 10
8.092317291492564
 20
7.500628894668516
  0
HATCH
  5
84
330
70
100
AcDbEntity
  8
Color Fill
 62
   252
420
  9672088
440
 33554687
100
AcDbHatch
 10
0.0
 20
0.0
 30
0.0
210
0.0
220
0.0
230
1.0
  2
SOLID
 70
     1
 71
     1
 91
        1
 92
        1
 93
       10
 72
     1
 10
8.121832179296498
 20
7.501340110494462
 11
8.120054708704337
 21
7.496005422827225
 72
     1
 10
8.120054708704337
 20
7.496005422827225
 11
8.134279025223147
 21
7.488182209365263
 72
     1
 10
8.134279025223147
 20
7.488182209365263
 11
8.137478927467226
 21
7.442664395355095
 72
     1
 10
8.137478927467226
 20
7.442664395355095
 11
8.093739723144443
 21
7.435197038681836
 72
     1
 10
8.093739723144443
 20
7.435197038681836
 11
8.082715477075087
 21
7.460800808415771
 72
     1
 10
8.082715477075087
 20
7.460800808415771
 11
8.082004093043728
 21
7.468624182501116
 72
     1
 10
8.082004093043728
 20
7.468624182501116
 11
8.088405203826356
 21
7.47573634076054
 72
     1
 10
8.088405203826356
 20
7.47573634076054
 11
8.099784657328907
 21
7.488182209365263
 72
     1
 10
8.099784657328907
 20
7.488182209365263
 11
8.092317291492564
 21
7.500628894668516
 72
     1
 10
8.092317291492564
 20
7.500628894668516
 11
8.121832179296498
 21
7.501340110494462
 97
        1
330
83
 75
     2
 76
     1
 98
        1
 10
0.0
 20
0.0
450
        0
451
        0
460
0.0
461
0.0
452
        0
462
0.0
453
        0
470

  0
LWPOLYLINE
  5
85
330
70
100
AcDbEntity
  8
Color Fill
100
AcDbPolyline
 90
        5
 70
     1
 43
0.0
 10
8.087693819651272
 20
7.42381758546676
 10
8.067424737584588
 20
7.402836308096198
 10
8.074891934784318
 20
7.402481110688502
 10
8.090538682955045
 20
7.402836308096198
 10
8.09125006720199
 20
7.423106369640827
  0
HATCH
  5
86
330
70
100
AcDbEntity
  8
Color Fill
 62
   252
420
  9672088
440
 33554687
100
AcDbHatch
 10
0.0
 20
0.0
 30
0.0
210
0.0
220
0.0
230
1.0
  2
SOLID
 70
     1
 71
     1
 91
        1
 92
        1
 93
        5
 72
     1
 10
8.087693819651272
 20
7.42381758546676
 11
8.067424737584588
 21
7.402836308096198
 72
     1
 10
8.067424737584588
 20
7.402836308096198
 11
8.074891934784318
 21
7.402481110688502
 72
     1
 10
8.074891934784318
 20
7.402481110688502
 11
8.090538682955045
 21
7.402836308096198
 72
     1
 10
8.090538682955045
 20
7.402836308096198
 11
8.09125006720199
 21
7.423106369640827
 72
     1
 10
8.09125006720199
 20
7.423106369640827
 11
8.087693819651272
 21
7.42381758546676
 97
        1
330
85
 75
     2
 76
     1
 98
        1
 10
0.0
 20
0.0
450
        0
451
        0
460
0.0
461
0.0
452
        0
462
0.0
453
        0
470

  0
LWPOLYLINE
  5
87
330
70
100
AcDbEntity
  8
Color Fill
100
AcDbPolyline
 90
        4
 70
     1
 43
0.0
 10
8.131078154460888
 20
5.642221941481643
 10
8.189397853661425
 20
5.663202353894828
 10
8.141746222422877
 20
7.278373380088926
 10
8.077736798088102
 20
7.263438002690033
  0
HATCH
  5
88
330
70
100
AcDbEntity
  8
Color Fill
 62
    43
420
 15575901
440
 33554687
100
AcDbHatch
 10
0.0
 20
0.0
 30
0.0
210
0.0
220
0.0
230
1.0
  2
SOLID
 70
     1
 71
     1
 91
        1
 92
        1
 93
        4
 72
     1
 10
8.131078154460888
 20
5.642221941481643
 11
8.189397853661425
 21
5.663202353894828
 72
     1
 10
8.189397853661425
 20
5.663202353894828
 11
8.141746222422877
 21
7.278373380088926
 72
     1
 10
8.141746222422877
 20
7.278373380088926
 11
8.077736798088102
 21
7.263438002690033
 72
     1
 10
8.077736798088102
 20
7.263438002690033
 11
8.131078154460888
 21
5.642221941481643
 97
        1
330
87
 75
     2
 76
     1
 98
        1
 10
0.0
 20
0.0
450
        0
451
        0
460
0.0
461
0.0
452
        0
462
0.0
453
        0
470

  0
LWPOLYLINE
  5
89
330
70
100
AcDbEntity
  8
Color Fill
100
AcDbPolyline
 90
        5
 70
     1
 43
0.0
 10
8.142457607963439
 20
5.194511010078409
 10
8.164527887759465
 20
4.592022445770301
 10
8.1972438157528
 20
4.50525411500535
 10
8.224291638099707
 20
4.589177582466567
 10
8.207178078409558
 20
5.206246640179111
  0
HATCH
  5
8A
330
70
100
AcDbEntity
  8
Color Fill
 62
    43
420
 15575901
440
 33554687
100
AcDbHatch
 10
0.0
 20
0.0
 30
0.0
210
0.0
220
0.0
230
1.0
  2
SOLID
 70
     1
 71
     1
 91
        1
 92
        1
 93
        5
 72
     1
 10
8.142457607963439
 20
5.194511010078409
 11
8.164527887759465
 21
4.592022445770301
 72
     1
 10
8.164527887759465
 20
4.592022445770301
 11
8.1972438157528
 21
4.50525411500535
 72
     1
 10
8.1972438157528
 20
4.50525411500535
 11
8.224291638099707
 21
4.589177582466567
 72
     1
 10
8.224291638099707
 20
4.589177582466567
 11
8.207178078409558
 21
5.206246640179111
 72
     1
 10
8.207178078409558
 20
5.206246640179111
 11
8.142457607963439
 21
5.194511010078409
 97
        1
330
89
 75
     2
 76
     1
 98
        1
 10
0.0
 20
0.0
450
        0
451
        0
460
0.0
461
0.0
452
        0
462
0.0
453
        0
470

  0
SPLINE
  5
8B
330
70
100
AcDbEntity
  8
Color Fill
100
AcDbSpline
210
0.0
220
0.0
230
1.0
 70
    11
 71
     3
 72
    41
 73
    37
 74
     0
 42
0.0000000001
 43
0.0000000001
 40
0.0
 40
0.0
 40
0.0
 40
0.0
 40
1.0
 40
1.0
 40
1.0
 40
2.0
 40
2.0
 40
2.0
 40
3.0
 40
3.0
 40
3.0
 40
4.0
 40
4.0
 40
4.0
 40
5.0
 40
5.0
 40
5.0
 40
6.0
 40
6.0
 40
6.0
 40
7.0
 40
7.0
 40
7.0
 40
8.0
 40
8.0
 40
8.0
 40
9.0
 40
9.0
 40
9.0
 40
10.0
 40
10.0
 40
10.0
 40
11.0
 40
11.0
 40
11.0
 40
12.0
 40
12.0
 40
12.0
 40
12.0
 10
8.131078154460888
 20
5.642221941481643
 30
0.0
 10
8.131078154460888
 20
5.642221941481643
 30
0.0
 10
8.189397853661425
 20
5.663202353894828
 30
0.0
 10
8.189397853661425
 20
5.663202353894828
 30
0.0
 10
8.189397853661425
 20
5.663202353894828
 30
0.0
 10
8.198643488498253
 20
5.393296402401902
 30
0.0
 10
8.198643488498253
 20
5.393296402401902
 30
0.0
 10
8.198643488498253
 20
5.393296402401902
 30
0.0
 10
8.209667902773023
 20
5.320396317130694
 30
0.0
 10
8.209667902773023
 20
5.320396317130694
 30
0.0
 10
8.209667902773023
 20
5.320396317130694
 30
0.0
 10
8.201844528687653
 20
5.306528071636951
 30
0.0
 10
8.201844528687653
 20
5.306528071636951
 30
0.0
 10
8.201844528687653
 20
5.306528071636951
 30
0.0
 10
8.202199738851794
 20
5.277368222773323
 30
0.0
 10
8.202199738851794
 20
5.277368222773323
 30
0.0
 10
8.202199738851794
 20
5.277368222773323
 30
0.0
 10
8.207178078409558
 20
5.269899887628272
 30
0.0
 10
8.207178078409558
 20
5.269899887628272
 30
0.0
 10
8.207178078409558
 20
5.269899887628272
 30
0.0
 10
8.207178078409558
 20
5.206246640179111
 30
0.0
 10
8.207178078409558
 20
5.206246640179111
 30
0.0
 10
8.207178078409558
 20
5.206246640179111
 30
0.0
 10
8.183708126910156
 20
5.166773694846344
 30
0.0
 10
8.142457607963439
 20
5.194511010078409
 30
0.0
 10
8.142457607963439
 20
5.194511010078409
 30
0.0
 10
8.142457607963439
 20
5.288391499102746
 30
0.0
 10
8.142457607963439
 20
5.288391499102746
 30
0.0
 10
8.142457607963439
 20
5.288391499102746
 30
0.0
 10
8.137478927467226
 20
5.290881323466237
 30
0.0
 10
8.137478927467226
 20
5.290881323466237
 30
0.0
 10
8.137478927467226
 20
5.290881323466237
 30
0.0
 10
8.139968751830691
 20
5.387606675794359
 30
0.0
 10
8.139968751830691
 20
5.387606675794359
 30
0.0
 10
8.139968751830691
 20
5.387606675794359
 30
0.0
 10
8.131078154460888
 20
5.642221941481643
 30
0.0
 10
8.131078154460888
 20
5.642221941481643
 30
0.0
  0
HATCH
  5
8C
330
70
100
AcDbEntity
  8
Color Fill
 62
   252
420
  9672088
440
 33554687
100
AcDbHatch
 10
0.0
 20
0.0
 30
0.0
210
0.0
220
0.0
230
1.0
  2
SOLID
 70
     1
 71
     1
 91
        1
 92
        1
 93
        1
 72
     4
 94
        3
 73
     0
 74
     0
 95
       41
 96
       37
 40
0.0
 40
0.0
 40
0.0
 40
0.0
 40
1.0
 40
1.0
 40
1.0
 40
2.0
 40
2.0
 40
2.0
 40
3.0
 40
3.0
 40
3.0
 40
4.0
 40
4.0
 40
4.0
 40
5.0
 40
5.0
 40
5.0
 40
6.0
 40
6.0
 40
6.0
 40
7.0
 40
7.0
 40
7.0
 40
8.0
 40
8.0
 40
8.0
 40
9.0
 40
9.0
 40
9.0
 40
10.0
 40
10.0
 40
10.0
 40
11.0
 40
11.0
 40
11.0
 40
12.0
 40
12.0
 40
12.0
 40
12.0
 10
8.131078154460888
 20
5.642221941481643
 10
8.131078154460888
 20
5.642221941481643
 10
8.189397853661425
 20
5.663202353894828
 10
8.189397853661425
 20
5.663202353894828
 10
8.189397853661425
 20
5.663202353894828
 10
8.198643488498253
 20
5.393296402401902
 10
8.198643488498253
 20
5.393296402401902
 10
8.198643488498253
 20
5.393296402401902
 10
8.209667902773023
 20
5.320396317130694
 10
8.209667902773023
 20
5.320396317130694
 10
8.209667902773023
 20
5.320396317130694
 10
8.201844528687653
 20
5.306528071636951
 10
8.201844528687653
 20
5.306528071636951
 10
8.201844528687653
 20
5.306528071636951
 10
8.202199738851794
 20
5.277368222773323
 10
8.202199738851794
 20
5.277368222773323
 10
8.202199738851794
 20
5.277368222773323
 10
8.207178078409558
 20
5.269899887628272
 10
8.207178078409558
 20
5.269899887628272
 10
8.207178078409558
 20
5.269899887628272
 10
8.207178078409558
 20
5.206246640179111
 10
8.207178078409558
 20
5.206246640179111
 10
8.207178078409558
 20
5.206246640179111
 10
8.183708126910156
 20
5.166773694846344
 10
8.142457607963439
 20
5.194511010078409
 10
8.142457607963439
 20
5.194511010078409
 10
8.142457607963439
 20
5.288391499102746
 10
8.142457607963439
 20
5.288391499102746
 10
8.142457607963439
 20
5.288391499102746
 10
8.137478927467226
 20
5.290881323466237
 10
8.137478927467226
 20
5.290881323466237
 10
8.137478927467226
 20
5.290881323466237
 10
8.139968751830691
 20
5.387606675794359
 10
8.139968751830691
 20
5.387606675794359
 10
8.139968751830691
 20
5.387606675794359
 10
8.131078154460888
 20
5.642221941481643
 10
8.131078154460888
 20
5.642221941481643
 97
        0
 97
        1
330
8B
 75
     2
 76
     1
 98
        1
 10
0.0
 20
0.0
450
        0
451
        0
460
0.0
461
0.0
452
        0
462
0.0
453
        0
470

  0
LWPOLYLINE
  5
8E
330
70
100
AcDbEntity
  8
Line Drawing
 62
   250
420
  2301728
370
    30
100
AcDbPolyline
 90
       34
 70
     0
 43
0.0
 10
8.25706332541381
 20
7.590924855930134
 10
9.441137738941227
 20
7.828615460850642
 10
9.596649350506998
 20
7.775513410304496
 10
9.596649350506998
 20
7.752754503299418
 10
9.788211070768813
 20
7.756549383639581
 10
9.786310702033915
 20
7.718616142791776
 10
9.919074786048087
 20
7.671203484526522
 10
9.900105237059353
 20
7.373437332247665
 10
11.24099176107807
 20
6.887916037106087
 10
11.21443211660314
 20
6.721013592584275
 10
9.553031905231767
 20
6.140667027098995
 10
9.530272998226665
 20
5.751871055586636
 10
9.482854815481561
 20
5.732901506597904
 10
9.661136713505912
 20
5.736690864614248
 10
9.657347355489566
 20
5.676004239085184
 10
9.77493124853135
 20
5.603938160053581
 10
9.740792888023735
 20
5.144959282481977
 10
6.645581535331833
 20
3.769945777409096
 10
6.541266085074046
 20
3.919779041677075
 10
6.527991823633517
 20
3.993745489443628
 10
6.364884555784593
 20
3.982366035941089
 10
6.271954126294341
 20
4.507721265793052
 10
6.292818476752977
 20
4.528579804063206
 10
6.152469867536056
 20
5.334620634008867
 10
6.125921603185284
 20
5.340310360760136
 10
6.002642412438111
 20
5.493932983044487
 10
6.152469867536056
 20
5.628586056340079
 10
6.08798831370719
 20
5.704452872841557
 10
5.92867596467157
 20
6.60342969954249
 10
5.90022733091521
 20
6.601529330807566
 10
5.835745546200907
 20
6.975156469720054
 10
5.862299612391236
 20
6.990331118628987
 10
5.841441074121083
 20
7.106020181693414
 10
7.554265035870457
 20
7.449848084696251
  0
LWPOLYLINE
  5
8F
330
70
100
AcDbEntity
  8
Line Drawing
 62
   250
420
  2301728
370
    30
100
AcDbPolyline
 90
        5
 70
     0
 43
0.0
 10
5.92867596467157
 20
6.60342969954249
 10
6.099367767209741
 20
6.611013966837667
 10
6.106952054675755
 20
6.565496153977366
 10
6.222646955513418
 20
6.459286162025768
 10
9.900105237059353
 20
7.373437332247665
  0
LWPOLYLINE
  5
90
330
70
100
AcDbEntity
  8
Line Drawing
 62
   250
420
  2301728
370
    30
100
AcDbPolyline
 90
        3
 70
     0
 43
0.0
 10
7.077056273787787
 20
7.353523289121286
 10
7.463013198233561
 20
7.12498419192458
 10
7.487666631073629
 20
6.776016038456254
  0
LWPOLYLINE
  5
91
330
70
100
AcDbEntity
  8
Line Drawing
 62
   250
420
  2301728
370
    30
100
AcDbPolyline
 90
        3
 70
     0
 43
0.0
 10
6.059845670146639
 20
6.607224608917046
 10
7.20696965861738
 20
5.545140523805912
 10
11.24099176107807
 20
6.887916037106087
  0
LWPOLYLINE
  5
92
330
70
100
AcDbEntity
  8
Line Drawing
 62
   250
420
  2301728
370
    30
100
AcDbPolyline
 90
        3
 70
     0
 43
0.0
 10
9.553031905231767
 20
6.140667027098995
 10
7.229728565047517
 20
5.327030538522699
 10
5.934365691422852
 20
6.573080697051207
  0
LINE
  5
93
330
70
100
AcDbEntity
  8
Line Drawing
 62
   250
420
  2301728
370
    30
100
AcDbLine
 10
8.209278725473065
 20
5.245140473322913
 30
0.0
 11
9.488478337684556
 21
5.735335455359341
 31
0.0
  0
LWPOLYLINE
  5
94
330
70
100
AcDbEntity
  8
Line Drawing
 62
   250
420
  2301728
370
    30
100
AcDbPolyline
 90
        3
 70
     0
 43
0.0
 10
6.260574673079266
 20
4.710651060103878
 10
6.383854104773338
 20
4.545648984317014
 10
8.141135145785231
 20
5.219037145592866
  0
LWPOLYLINE
  5
95
330
70
100
AcDbEntity
  8
Line Drawing
 62
   250
420
  2301728
370
    30
100
AcDbPolyline
 90
        3
 70
     0
 43
0.0
 10
8.781129435793697
 20
5.46548434928814
 10
9.017253095971479
 20
5.300482273501225
 10
9.01156336922021
 20
5.057080215654624
  0
LWPOLYLINE
  5
96
330
70
100
AcDbEntity
  8
Line Drawing
 62
   250
420
  2301728
370
    20
100
AcDbPolyline
 90
        7
 70
     0
 43
0.0
 10
5.841441074121083
 20
7.106020181693414
 10
5.944800650284681
 20
7.024469479136629
 10
5.835745546200907
 20
6.975156469720054
 10
6.149630813330468
 20
6.981796528502071
 10
6.047215731807581
 20
6.930588987740634
 10
6.161010266833019
 20
6.839553359720272
 10
9.919074786048087
 20
7.671203484526522
  0
LINE
  5
97
330
70
100
AcDbEntity
  8
Line Drawing
 62
   250
420
  2301728
370
    20
100
AcDbLine
 10
6.047215731807581
 20
6.930588987740634
 30
0.0
 11
6.100317833451375
 21
6.607224608917046
 31
0.0
  0
LINE
  5
98
330
70
100
AcDbEntity
  8
Line Drawing
 62
   250
420
  2301728
370
    20
100
AcDbLine
 10
6.161010266833019
 20
6.839553359720272
 30
0.0
 11
6.222646955513418
 21
6.459286162025768
 31
0.0
  0
LWPOLYLINE
  5
99
330
70
100
AcDbEntity
  8
Line Drawing
 62
   250
420
  2301728
370
    20
100
AcDbPolyline
 90
        6
 70
     0
 43
0.0
 10
6.064284912061389
 20
6.445061845147594
 10
6.214118176329393
 20
5.557464471949186
 10
6.338341856351083
 20
5.531860701568448
 10
6.129716769701013
 20
5.342210729495061
 10
6.253946263588292
 20
5.321340811771404
 10
6.383854104773338
 20
4.545648984317014
  0
LINE
  5
9A
330
70
100
AcDbEntity
  8
Line Drawing
 62
   250
420
  2301728
370
    20
100
AcDbLine
 10
6.151519802611889
 20
5.631430919715714
 30
0.0
 11
6.213167870985267
 21
5.560309335324821
 31
0.0
  0
LINE
  5
9B
330
70
100
AcDbEntity
  8
Line Drawing
 62
   250
420
  2301728
370
    20
100
AcDbLine
 10
7.20696965861738
 20
5.545140523805912
 30
0.0
 11
7.229728565047517
 21
5.327030538522699
 31
0.0
  0
LWPOLYLINE
  5
9C
330
70
100
AcDbEntity
  8
Line Drawing
 62
   250
420
  2301728
370
    20
100
AcDbPolyline
 90
        5
 70
     0
 43
0.0
 10
6.355883408064073
 20
4.580731839465341
 10
6.271954126294341
 20
4.507721265793052
 10
6.539377095792588
 20
4.523834571952647
 10
6.455453626211338
 20
4.44702326081046
 10
6.532264937353501
 20
3.980465667206165
  0
LINE
  5
9D
330
70
100
AcDbEntity
  8
Line Drawing
 62
   250
420
  2301728
370
    20
100
AcDbLine
 10
6.318900184180809
 20
4.239348234389025
 30
0.0
 11
6.486747123343333
 21
4.252150119579406
 31
0.0
  0
LWPOLYLINE
  5
9E
330
70
100
AcDbEntity
  8
Line Drawing
 62
   250
420
  2301728
370
    20
100
AcDbPolyline
 90
        3
 70
     0
 43
0.0
 10
6.499549008533689
 20
4.176761240125062
 10
6.604808953432224
 20
4.03167320796759
 10
9.758340005324649
 20
5.371603857892144
  0
LWPOLYLINE
  5
9F
330
70
100
AcDbEntity
  8
Line Drawing
 62
   250
420
  2301728
370
    20
100
AcDbPolyline
 90
        3
 70
     0
 43
0.0
 10
6.455453626211338
 20
4.44702326081046
 10
6.562136002797678
 20
4.307624955404309
 10
9.77493124853135
 20
5.603938160053581
  0
LWPOLYLINE
  5
A0
330
70
100
AcDbEntity
  8
Line Drawing
 62
   250
420
  2301728
370
    30
100
AcDbPolyline
 90
        3
 70
     0
 43
0.0
 10
9.661136713505912
 20
5.736690864614248
 10
9.631743585108853
 20
5.693073419338992
 10
9.657347355489566
 20
5.676004239085184
  0
LINE
  5
A1
330
70
100
AcDbEntity
  8
Line Drawing
 62
   250
420
  2301728
370
    20
100
AcDbLine
 10
6.562136002797678
 20
4.307624955404309
 30
0.0
 11
6.645581535331833
 21
3.769945777409096
 31
0.0
  0
LWPOLYLINE
  5
A2
330
70
100
AcDbEntity
  8
Line Drawing
 62
   250
420
  2301728
370
    20
100
AcDbPolyline
 90
        3
 70
     0
 43
0.0
 10
9.596649350506998
 20
7.775513410304496
 10
9.560544414895629
 20
7.749315465230753
 10
9.602527769587316
 20
7.751715391913825
  0
LWPOLYLINE
  5
A3
330
70
100
AcDbEntity
  8
Line Drawing
 62
   250
420
  2301728
370
    20
100
AcDbPolyline
 90
        3
 70
     0
 43
0.0
 10
9.786210351603761
 20
7.755349018697996
 10
9.753283903725963
 20
7.728923485069344
 10
9.787665783669984
 20
7.716526708736838
  0
LWPOLYLINE
  5
A4
330
70
100
AcDbEntity
  8
Line Drawing
 62
   250
420
  2301728
370
    13
100
AcDbPolyline
 90
        3
 70
     0
 43
0.0
 10
6.034413846617212
 20
6.604852131230308
 10
7.207919989067047
 20
5.514013055943374
 10
11.23624652896751
 20
6.862312266725362
  0
LWPOLYLINE
  5
A5
330
70
100
AcDbEntity
  8
Line Drawing
 62
   250
420
  2301728
370
    13
100
AcDbPolyline
 90
        3
 70
     0
 43
0.0
 10
6.00738764454867
 20
6.604852131230308
 10
7.213609715818304
 20
5.475774679304777
 10
11.23197923390406
 20
6.83528606465682
  0
LWPOLYLINE
  5
A6
330
70
100
AcDbEntity
  8
Line Drawing
 62
   250
420
  2301728
370
    13
100
AcDbPolyline
 90
        3
 70
     0
 43
0.0
 10
5.983206305855762
 20
6.60342969954249
 10
7.216454579193938
 20
5.437369024703886
 10
11.22628950715279
 20
6.805414999212644
  0
LWPOLYLINE
  5
A7
330
70
100
AcDbEntity
  8
Line Drawing
 62
   250
420
  2301728
370
    13
100
AcDbPolyline
 90
        3
 70
     0
 43
0.0
 10
5.954757672099402
 20
6.602007267854686
 10
7.220721874257403
 20
5.40180823340678
 10
11.22202221208934
 20
6.776966365456296
  0
LWPOLYLINE
  5
A8
330
70
100
AcDbEntity
  8
Line Drawing
 62
   250
420
  2301728
370
    13
100
AcDbPolyline
 90
        3
 70
     0
 43
0.0
 10
5.930576333406507
 20
6.601662332185519
 10
7.223566737633038
 20
5.370514737065301
 10
11.21775491702589
 20
6.749940163387741
  0
LWPOLYLINE
  5
A9
330
70
100
AcDbEntity
  8
Line Drawing
 62
   250
420
  2301728
370
    20
100
AcDbPolyline
 90
        5
 70
     0
 43
0.0
 10
8.131550232342179
 20
5.639965509842618
 10
8.140084822253482
 20
5.384883680129607
 10
8.138190312899988
 20
5.291003188733611
 10
8.14293554501056
 20
5.287213830717266
 10
8.14293554501056
 20
5.274878503120513
  0
LWPOLYLINE
  5
AA
330
70
100
AcDbEntity
  8
Line Drawing
 62
   250
420
  2301728
370
    15
100
AcDbPolyline
 90
        5
 70
     0
 43
0.0
 10
8.140090681634912
 20
5.416177177261588
 10
8.146724903026893
 20
5.408587081775395
 10
8.171384178766906
 20
5.287213830717266
 10
8.158104356529443
 20
5.286257956623052
 10
8.14293554501056
 20
5.287213830717266
  0
LWPOLYLINE
  5
AB
330
70
100
AcDbEntity
  8
Line Drawing
 62
   250
420
  2301728
370
    15
100
AcDbPolyline
 90
        3
 70
     0
 43
0.0
 10
8.141507253905363
 20
5.290047314639397
 10
8.160476802414905
 20
5.29525910434356
 10
8.168061378344166
 20
5.289569377592315
  0
LINE
  5
AC
330
70
100
AcDbEntity
  8
Line Drawing
 62
   250
420
  2301728
370
    15
100
AcDbLine
 10
8.142457607963439
 20
5.41237643979174
 30
0.0
 11
8.160476802414905
 21
5.29525910434356
 31
0.0
  0
SPLINE
  5
AD
330
70
100
AcDbEntity
  8
Line Drawing
 62
   250
420
  2301728
370
    20
100
AcDbSpline
210
0.0
220
0.0
230
1.0
 70
     8
 71
     3
 72
    17
 73
    13
 74
     0
 42
0.0000000001
 43
0.0000000001
 40
0.0
 40
0.0
 40
0.0
 40
0.0
 40
1.0
 40
1.0
 40
1.0
 40
2.0
 40
2.0
 40
2.0
 40
3.0
 40
3.0
 40
3.0
 40
4.0
 40
4.0
 40
4.0
 40
4.0
 10
8.188447498417543
 20
5.661301985159903
 30
0.0
 10
8.188447498417543
 20
5.661301985159903
 30
0.0
 10
8.198876938429053
 20
5.392928953755901
 30
0.0
 10
8.198876938429053
 20
5.392928953755901
 30
0.0
 10
8.198876938429053
 20
5.392928953755901
 30
0.0
 10
8.209789834337987
 20
5.32038493767719
 30
0.0
 10
8.209789834337987
 20
5.32038493767719
 30
0.0
 10
8.209789834337987
 20
5.32038493767719
 30
0.0
 10
8.205044602227429
 20
5.308060989533916
 30
0.0
 10
8.201255244211072
 20
5.307583052486834
 30
0.0
 10
8.201255244211072
 20
5.307583052486834
 30
0.0
 10
8.202199738851794
 20
5.277711987042644
 30
0.0
 10
8.202199738851794
 20
5.277711987042644
 30
0.0
  0
LINE
  5
AE
330
70
100
AcDbEntity
  8
Line Drawing
 62
   250
420
  2301728
370
    15
100
AcDbLine
 10
8.196510012100524
 20
5.403363912617729
 30
0.0
 11
8.200310749570386
 21
5.29904846235993
 31
0.0
  0
SPLINE
  5
AF
330
70
100
AcDbEntity
  8
Line Drawing
 62
   250
420
  2301728
370
    20
100
AcDbSpline
210
0.0
220
0.0
230
1.0
 70
     8
 71
     3
 72
    11
 73
     7
 74
     0
 42
0.0000000001
 43
0.0000000001
 40
0.0
 40
0.0
 40
0.0
 40
0.0
 40
1.0
 40
1.0
 40
1.0
 40
2.0
 40
2.0
 40
2.0
 40
2.0
 10
8.201733181258203
 20
5.275811618307721
 30
0.0
 10
8.184891590074432
 20
5.247852301051958
 30
0.0
 10
8.147674917547949
 20
5.262309792333831
 30
0.0
 10
8.146013517378529
 20
5.264443544258685
 30
0.0
 10
8.146013517378529
 20
5.264443544258685
 30
0.0
 10
8.137478927467226
 20
5.269188776369244
 30
0.0
 10
8.14293554501056
 20
5.274878503120513
 30
0.0
  0
SPLINE
  5
B0
330
70
100
AcDbEntity
  8
Line Drawing
 62
   250
420
  2301728
370
    20
100
AcDbSpline
210
0.0
220
0.0
230
1.0
 70
     8
 71
     3
 72
    14
 73
    10
 74
     0
 42
0.0000000001
 43
0.0000000001
 40
0.0
 40
0.0
 40
0.0
 40
0.0
 40
1.0
 40
1.0
 40
1.0
 40
2.0
 40
2.0
 40
2.0
 40
3.0
 40
3.0
 40
3.0
 40
3.0
 10
8.143168654074782
 20
5.262787729368836
 30
0.0
 10
8.141274144799176
 20
5.259942866065102
 30
0.0
 10
8.141312665255389
 20
5.25260891261602
 30
0.0
 10
8.146963871550445
 20
5.248085475814958
 30
0.0
 10
8.152019592785437
 20
5.244040184128607
 30
0.0
 10
8.185269217134582
 20
5.23258324670006
 30
0.0
 10
8.204333215105785
 20
5.258287259913786
 30
0.0
 10
8.204333215105785
 20
5.258287259913786
 30
0.0
 10
8.212389867982057
 20
5.269421950593216
 30
0.0
 10
8.203144233492517
 20
5.275356440167595
 30
0.0
  0
SPLINE
  5
B1
330
70
100
AcDbEntity
  8
Line Drawing
 62
   250
420
  2301728
370
    20
100
AcDbSpline
210
0.0
220
0.0
230
1.0
 70
     8
 71
     3
 72
    14
 73
    10
 74
     0
 42
0.0000000001
 43
0.0000000001
 40
0.0
 40
0.0
 40
0.0
 40
0.0
 40
1.0
 40
1.0
 40
1.0
 40
2.0
 40
2.0
 40
2.0
 40
3.0
 40
3.0
 40
3.0
 40
3.0
 10
8.143168654074782
 20
5.248563412850014
 30
0.0
 10
8.141274144799176
 20
5.245718549546229
 30
0.0
 10
8.141312665255389
 20
5.238384595737847
 30
0.0
 10
8.146963871550445
 20
5.233861159296136
 30
0.0
 10
8.152892566825281
 20
5.229115927305429
 30
0.0
 10
8.18500862765595
 20
5.216791979473529
 30
0.0
 10
8.20540060781737
 20
5.244296117894363
 30
0.0
 10
8.20540060781737
 20
5.244296117894363
 30
0.0
 10
8.210834296727574
 20
5.253052711302643
 30
0.0
 10
8.205455229192795
 20
5.259187270371612
 30
0.0
  0
SPLINE
  5
B2
330
70
100
AcDbEntity
  8
Line Drawing
 62
   250
420
  2301728
370
    20
100
AcDbSpline
210
0.0
220
0.0
230
1.0
 70
     8
 71
     3
 72
    14
 73
    10
 74
     0
 42
0.0000000001
 43
0.0000000001
 40
0.0
 40
0.0
 40
0.0
 40
0.0
 40
1.0
 40
1.0
 40
1.0
 40
2.0
 40
2.0
 40
2.0
 40
3.0
 40
3.0
 40
3.0
 40
3.0
 10
8.143168654074782
 20
5.232683489533074
 30
0.0
 10
8.141274144799176
 20
5.229838626157439
 30
0.0
 10
8.141312665255389
 20
5.222504464987498
 30
0.0
 10
8.146963871550445
 20
5.217981235607819
 30
0.0
 10
8.152892566825281
 20
5.21323600349726
 30
0.0
 10
8.185486564690993
 20
5.203401776875327
 30
0.0
 10
8.204333215105785
 20
5.228182812141818
 30
0.0
 10
8.204333215105785
 20
5.228182812141818
 30
0.0
 10
8.21050087874836
 20
5.23670602259992
 30
0.0
 10
8.205855785945976
 20
5.242806547468514
 30
0.0
  0
SPLINE
  5
B3
330
70
100
AcDbEntity
  8
Line Drawing
 62
   250
420
  2301728
370
    20
100
AcDbSpline
210
0.0
220
0.0
230
1.0
 70
     8
 71
     3
 72
    14
 73
    10
 74
     0
 42
0.0000000001
 43
0.0000000001
 40
0.0
 40
0.0
 40
0.0
 40
0.0
 40
1.0
 40
1.0
 40
1.0
 40
2.0
 40
2.0
 40
2.0
 40
3.0
 40
3.0
 40
3.0
 40
3.0
 10
8.143168654074782
 20
5.218937109702033
 30
0.0
 10
8.141274144799176
 20
5.216092246326398
 30
0.0
 10
8.141312665255389
 20
5.208758085503682
 30
0.0
 10
8.146963871550445
 20
5.204234855776727
 30
0.0
 10
8.152892566825281
 20
5.199489623666168
 30
0.0
 10
8.183941234944375
 20
5.186932294237167
 30
0.0
 10
8.204333215105785
 20
5.214436432658001
 30
0.0
 10
8.204333215105785
 20
5.214436432658001
 30
0.0
 10
8.21050087874836
 20
5.222959643116104
 30
0.0
 10
8.205855785945976
 20
5.229071547437897
 30
0.0
  0
SPLINE
  5
B4
330
70
100
AcDbEntity
  8
Line Drawing
 62
   250
420
  2301728
370
    20
100
AcDbSpline
210
0.0
220
0.0
230
1.0
 70
     8
 71
     3
 72
    14
 73
    10
 74
     0
 42
0.0000000001
 43
0.0000000001
 40
0.0
 40
0.0
 40
0.0
 40
0.0
 40
1.0
 40
1.0
 40
1.0
 40
2.0
 40
2.0
 40
2.0
 40
3.0
 40
3.0
 40
3.0
 40
3.0
 10
8.143168654074782
 20
5.205423905711641
 30
0.0
 10
8.141274144799176
 20
5.202579042407907
 30
0.0
 10
8.141312665255389
 20
5.195245087509698
 30
0.0
 10
8.146963871550445
 20
5.190721652157763
 30
0.0
 10
8.152892566825281
 20
5.185976420167106
 30
0.0
 10
8.186558509183845
 20
5.176008019150685
 30
0.0
 10
8.205522539274523
 20
5.200678673720984
 30
0.0
 10
8.205522539274523
 20
5.200678673720984
 30
0.0
 10
8.21045649888083
 20
5.209369162141329
 30
0.0
 10
8.205911545266719
 20
5.215469687009923
 30
0.0
  0
LWPOLYLINE
  5
B5
330
70
100
AcDbEntity
  8
Line Drawing
 62
   250
420
  2301728
370
    20
100
AcDbPolyline
 90
        6
 70
     1
 43
0.0
 10
8.637108614164263
 20
7.399646488892622
 10
7.93926136985917
 20
7.245107824505301
 10
7.555303825093371
 20
7.439580563455895
 10
7.553320541229746
 20
7.468179245880403
 10
8.226925981519002
 20
7.601854820743217
 10
8.636974518823484
 20
7.428606059379666
  0
LWPOLYLINE
  5
B6
330
70
100
AcDbEntity
  8
Line Drawing
 62
   250
420
  2301728
370
    15
100
AcDbPolyline
 90
        3
 70
     0
 43
0.0
 10
8.636974518823484
 20
7.428606059379666
 10
7.937838938207278
 20
7.275422687870268
 10
7.553320541229746
 20
7.468179245880403
  0
LINE
  5
B7
330
70
100
AcDbEntity
  8
Line Drawing
 62
   250
420
  2301728
370
    15
100
AcDbLine
 10
7.93926136985917
 20
7.245107824505301
 30
0.0
 11
7.937838938207278
 21
7.275422687870268
 31
0.0
  0
INSERT
  5
B9
330
70
100
AcDbEntity
  8
Line Drawing
100
AcDbBlockReference
  2
Block_0
 10
0.0
 20
0.0
 30
0.0
  0
SPLINE
  5
CD
330
70
100
AcDbEntity
  8
Line Drawing
 62
   250
420
  2301728
370
    20
100
AcDbSpline
210
0.0
220
0.0
230
1.0
 70
     8
 71
     3
 72
    83
 73
    79
 74
     0
 42
0.0000000001
 43
0.0000000001
 40
0.0
 40
0.0
 40
0.0
 40
0.0
 40
1.0
 40
1.0
 40
1.0
 40
2.0
 40
2.0
 40
2.0
 40
3.0
 40
3.0
 40
3.0
 40
4.0
 40
4.0
 40
4.0
 40
5.0
 40
5.0
 40
5.0
 40
6.0
 40
6.0
 40
6.0
 40
7.0
 40
7.0
 40
7.0
 40
8.0
 40
8.0
 40
8.0
 40
9.0
 40
9.0
 40
9.0
 40
10.0
 40
10.0
 40
10.0
 40
11.0
 40
11.0
 40
11.0
 40
12.0
 40
12.0
 40
12.0
 40
13.0
 40
13.0
 40
13.0
 40
14.0
 40
14.0
 40
14.0
 40
15.0
 40
15.0
 40
15.0
 40
16.0
 40
16.0
 40
16.0
 40
17.0
 40
17.0
 40
17.0
 40
18.0
 40
18.0
 40
18.0
 40
19.0
 40
19.0
 40
19.0
 40
20.0
 40
20.0
 40
20.0
 40
21.0
 40
21.0
 40
21.0
 40
22.0
 40
22.0
 40
22.0
 40
23.0
 40
23.0
 40
23.0
 40
24.0
 40
24.0
 40
24.0
 40
25.0
 40
25.0
 40
25.0
 40
26.0
 40
26.0
 40
26.0
 40
26.0
 10
7.997369575806007
 20
7.531211175184036
 30
0.0
 10
7.997369575806007
 20
7.531211175184036
 30
0.0
 10
7.980300395552198
 20
7.524810232750546
 30
0.0
 10
7.980300395552198
 20
7.524810232750546
 30
0.0
 10
7.980300395552198
 20
7.524810232750546
 30
0.0
 10
7.935849809785294
 20
7.482492482613994
 30
0.0
 10
7.935849809785294
 20
7.482492482613994
 30
0.0
 10
7.935849809785294
 20
7.482492482613994
 30
0.0
 10
7.907044999861972
 20
7.473957892487103
 30
0.0
 10
7.907044999861972
 20
7.473957892487103
 30
0.0
 10
7.907044999861972
 20
7.473957892487103
 30
0.0
 10
7.881797407013689
 20
7.45902219987824
 30
0.0
 10
7.881797407013689
 20
7.45902219987824
 30
0.0
 10
7.881797407013689
 20
7.45902219987824
 30
0.0
 10
7.885353486143407
 20
7.455466280545452
 30
0.0
 10
7.885353486143407
 20
7.455466280545452
 30
0.0
 10
7.885353486143407
 20
7.455466280545452
 30
0.0
 10
7.870773155590212
 20
7.452266218504455
 30
0.0
 10
7.870773155590212
 20
7.452266218504455
 30
0.0
 10
7.870773155590212
 20
7.452266218504455
 30
0.0
 10
8.000214439181641
 20
7.3889680099956
 30
0.0
 10
8.000214439181641
 20
7.3889680099956
 30
0.0
 10
8.000214439181641
 20
7.3889680099956
 30
0.0
 10
8.022618140550232
 20
7.395012775543464
 30
0.0
 10
8.022618140550232
 20
7.395012775543464
 30
0.0
 10
8.022618140550232
 20
7.395012775543464
 30
0.0
 10
8.019062061420527
 20
7.387189559530193
 30
0.0
 10
8.028307867157776
 20
7.386123146691829
 30
0.0
 10
8.037553672895013
 20
7.385055753980268
 30
0.0
 10
8.04964434193606
 20
7.386123146691829
 30
0.0
 10
8.04964434193606
 20
7.386123146691829
 30
0.0
 10
8.04964434193606
 20
7.386123146691829
 30
0.0
 10
8.116853837582715
 20
7.39963624738473
 30
0.0
 10
8.116853837582715
 20
7.39963624738473
 30
0.0
 10
8.116853837582715
 20
7.39963624738473
 30
0.0
 10
8.133527981310963
 20
7.404119751951472
 30
0.0
 10
8.120765924530246
 20
7.409593268947913
 30
0.0
 10
8.115787413748648
 20
7.411726916425751
 30
0.0
 10
8.101563097229814
 20
7.411370898223101
 30
0.0
 10
8.101563097229814
 20
7.411370898223101
 30
0.0
 10
8.101563097229814
 20
7.411370898223101
 30
0.0
 10
8.092672498889807
 20
7.427728703536786
 30
0.0
 10
8.092672498889807
 20
7.427728703536786
 30
0.0
 10
8.092672498889807
 20
7.427728703536786
 30
0.0
 10
8.094805977910697
 20
7.431284941852545
 30
0.0
 10
8.094805977910697
 20
7.431284941852545
 30
0.0
 10
8.094805977910697
 20
7.431284941852545
 30
0.0
 10
8.093028507318511
 20
7.434840861796209
 30
0.0
 10
8.093028507318511
 20
7.434840861796209
 30
0.0
 10
8.093028507318511
 20
7.434840861796209
 30
0.0
 10
8.128589298615615
 20
7.44088676528938
 30
0.0
 10
8.128589298615615
 20
7.44088676528938
 30
0.0
 10
8.128589298615615
 20
7.44088676528938
 30
0.0
 10
8.134279025223147
 20
7.442664395355095
 30
0.0
 10
8.142457607963439
 20
7.441953020055633
 30
0.0
 10
8.150636989219821
 20
7.441241963667279
 30
0.0
 10
8.155259493153783
 20
7.44088676528938
 30
0.0
 10
8.155259493153783
 20
7.44088676528938
 30
0.0
 10
8.155259493153783
 20
7.44088676528938
 30
0.0
 10
8.201488351802026
 20
7.433418430144317
 30
0.0
 10
8.201488351802026
 20
7.433418430144317
 30
0.0
 10
8.201488351802026
 20
7.433418430144317
 30
0.0
 10
8.189031264367486
 20
7.425523365503699
 30
0.0
 10
8.208245471121143
 20
7.422395153814894
 30
0.0
 10
8.223536214169067
 20
7.419905488349993
 30
0.0
 10
8.23349323598379
 20
7.42381758546676
 30
0.0
 10
8.242027826110692
 20
7.425595215101274
 30
0.0
 10
8.248995293084323
 20
7.427044798398557
 30
0.0
 10
8.291812935184326
 20
7.437330686159661
 30
0.0
 10
8.291812935184326
 20
7.437330686159661
 30
0.0
 10
8.291812935184326
 20
7.437330686159661
 30
0.0
 10
8.310660550056809
 20
7.441953020055633
 30
0.0
 10
8.29216893858231
 20
7.447287707722857
 30
0.0
 10
8.29216893858231
 20
7.447287707722857
 30
0.0
 10
8.297502661935595
 20
7.452977434330389
 30
0.0
 10
8.297502661935595
 20
7.452977434330389
 30
0.0
 10
8.297502661935595
 20
7.452977434330389
 30
0.0
 10
8.16521651496853
 20
7.514141995361417
 30
0.0
 10
8.16521651496853
 20
7.514141995361417
 30
0.0
  0
SPLINE
  5
CE
330
70
100
AcDbEntity
  8
Line Drawing
 62
   250
420
  2301728
370
    15
100
AcDbSpline
210
0.0
220
0.0
230
1.0
 70
     8
 71
     3
 72
    17
 73
    13
 74
     0
 42
0.0000000001
 43
0.0000000001
 40
0.0
 40
0.0
 40
0.0
 40
0.0
 40
1.0
 40
1.0
 40
1.0
 40
2.0
 40
2.0
 40
2.0
 40
3.0
 40
3.0
 40
3.0
 40
4.0
 40
4.0
 40
4.0
 40
4.0
 10
8.07453689584401
 20
7.499206463016636
 30
0.0
 10
8.07453689584401
 20
7.499206463016636
 30
0.0
 10
8.066357344873015
 20
7.491454779486527
 30
0.0
 10
8.066357344873015
 20
7.487827009801549
 30
0.0
 10
8.066357344873015
 20
7.482492482613994
 30
0.0
 10
8.070980816714305
 20
7.472180261630834
 30
0.0
 10
8.070980816714305
 20
7.472180261630834
 30
0.0
 10
8.070980816714305
 20
7.472180261630834
 30
0.0
 10
8.078804190799662
 20
7.451555002678509
 30
0.0
 10
8.078804190799662
 20
7.451555002678509
 30
0.0
 10
8.078804190799662
 20
7.451555002678509
 30
0.0
 10
8.09125006720199
 20
7.43448582285589
 30
0.0
 10
8.09125006720199
 20
7.43448582285589
 30
0.0
  0
LWPOLYLINE
  5
CF
330
70
100
AcDbEntity
  8
Line Drawing
 62
   250
420
  2301728
370
    15
100
AcDbPolyline
 90
        3
 70
     0
 43
0.0
 10
8.078804190799662
 20
7.451555002678509
 10
8.022618140550232
 20
7.395012775543464
 10
7.98350127012342
 20
7.414571779729511
  0
LINE
  5
D0
330
70
100
AcDbEntity
  8
Line Drawing
 62
   250
420
  2301728
370
    15
100
AcDbLine
 10
7.88784233584402
 20
7.455466280545452
 30
0.0
 11
7.88784233584402
 21
7.445154060245031
 31
0.0
  0
SPLINE
  5
D1
330
70
100
AcDbEntity
  8
Line Drawing
 62
   250
420
  2301728
370
    15
100
AcDbSpline
210
0.0
220
0.0
230
1.0
 70
     8
 71
     3
 72
    14
 73
    10
 74
     0
 42
0.0000000001
 43
0.0000000001
 40
0.0
 40
0.0
 40
0.0
 40
0.0
 40
1.0
 40
1.0
 40
1.0
 40
2.0
 40
2.0
 40
2.0
 40
3.0
 40
3.0
 40
3.0
 40
3.0
 10
7.895665546646896
 20
7.441953020055633
 30
0.0
 10
7.897444155184416
 20
7.444086827042913
 30
0.0
 10
7.901711450140068
 20
7.447642746663164
 30
0.0
 10
7.902422665966014
 20
7.451910041618816
 30
0.0
 10
7.902422665966014
 20
7.451910041618816
 30
0.0
 10
7.906689960921665
 20
7.454754904922587
 30
0.0
 10
7.909889863165744
 20
7.457955945111987
 30
0.0
 10
7.913090903355143
 20
7.461156007296734
 30
0.0
 10
7.933716162307468
 20
7.47964761923836
 30
0.0
 10
7.933716162307468
 20
7.47964761923836
 30
0.0
  0
LINE
  5
D2
330
70
100
AcDbEntity
  8
Line Drawing
 62
   250
420
  2301728
370
    15
100
AcDbLine
 10
7.902422665966014
 20
7.451910041618816
 30
0.0
 11
7.942605791159078
 21
7.434129805228192
 31
0.0
  0
LINE
  5
D3
330
70
100
AcDbEntity
  8
Line Drawing
 62
   250
420
  2301728
370
    15
100
AcDbLine
 10
8.024040572202112
 20
7.39430171796928
 30
0.0
 11
8.031507936313635
 21
7.396435207195331
 31
0.0
  0
LINE
  5
D4
330
70
100
AcDbEntity
  8
Line Drawing
 62
   250
420
  2301728
370
    15
100
AcDbLine
 10
8.053555460006059
 20
7.3889680099956
 30
0.0
 11
8.092672498889807
 21
7.428796096248358
 31
0.0
  0
LINE
  5
D5
330
70
100
AcDbEntity
  8
Line Drawing
 62
   250
420
  2301728
370
    15
100
AcDbLine
 10
8.099073272866348
 20
7.413860563903577
 30
0.0
 11
8.099429449751987
 21
7.397146581344915
 31
0.0
  0
LINE
  5
D6
330
70
100
AcDbEntity
  8
Line Drawing
 62
   250
420
  2301728
370
    15
100
AcDbLine
 10
8.202555744513599
 20
7.43448582285589
 30
0.0
 11
8.202555744513599
 21
7.42275035172564
 31
0.0
  0
SPLINE
  5
D7
330
70
100
AcDbEntity
  8
Line Drawing
 62
   250
420
  2301728
370
    15
100
AcDbSpline
210
0.0
220
0.0
230
1.0
 70
     8
 71
     3
 72
    17
 73
    13
 74
     0
 42
0.0000000001
 43
0.0000000001
 40
0.0
 40
0.0
 40
0.0
 40
0.0
 40
1.0
 40
1.0
 40
1.0
 40
2.0
 40
2.0
 40
2.0
 40
3.0
 40
3.0
 40
3.0
 40
4.0
 40
4.0
 40
4.0
 40
4.0
 10
8.092317291492564
 20
7.499206463016636
 30
0.0
 10
8.092317291492564
 20
7.499206463016636
 30
0.0
 10
8.100495704518241
 20
7.488182209365263
 30
0.0
 10
8.100495704518241
 20
7.488182209365263
 30
0.0
 10
8.100495704518241
 20
7.488182209365263
 30
0.0
 10
8.083782701581259
 20
7.470757829978942
 30
0.0
 10
8.083782701581259
 20
7.470757829978942
 30
0.0
 10
8.083782701581259
 20
7.470757829978942
 30
0.0
 10
8.080937838277488
 20
7.467556789789543
 30
0.0
 10
8.082004093043728
 20
7.462934455893584
 30
0.0
 10
8.082004093043728
 20
7.462934455893584
 30
0.0
 10
8.090894859840672
 20
7.436974668603826
 30
0.0
 10
8.090894859840672
 20
7.436974668603826
 30
0.0
  0
LINE
  5
D8
330
70
100
AcDbEntity
  8
Line Drawing
 62
   250
420
  2301728
370
    15
100
AcDbLine
 10
8.132500586148706
 20
7.502051326320396
 30
0.0
 11
8.126810859397437
 21
7.492805520583159
 31
0.0
  0
LWPOLYLINE
  5
D9
330
70
100
AcDbEntity
  8
Line Drawing
 62
   250
420
  2301728
370
    15
100
AcDbPolyline
 90
        6
 70
     0
 43
0.0
 10
8.133923017836536
 20
7.47964761923836
 10
8.180151877023742
 20
7.457955945111987
 10
8.248073557373901
 20
7.429862510164714
 10
8.206111823643304
 20
7.452621417169817
 10
8.119343492878378
 20
7.496005422827225
 10
8.123254610948391
 20
7.500984094555633
  0
LWPOLYLINE
  5
DA
330
70
100
AcDbEntity
  8
Line Drawing
 62
   250
420
  2301728
370
    15
100
AcDbPolyline
 90
        3
 70
     0
 43
0.0
 10
8.158815402245497
 20
7.510229739346073
 10
8.219268919105616
 20
7.47964761923836
 10
8.275099758759703
 20
7.449421355200684
  0
LINE
  5
DB
330
70
100
AcDbEntity
  8
Line Drawing
 62
   250
420
  2301728
370
    15
100
AcDbLine
 10
8.219268919105616
 20
7.47964761923836
 30
0.0
 11
8.206111823643304
 21
7.452621417169817
 31
0.0
  0
SPLINE
  5
DC
330
70
100
AcDbEntity
  8
Line Drawing
 62
   250
420
  2301728
370
    15
100
AcDbSpline
210
0.0
220
0.0
230
1.0
 70
     8
 71
     3
 72
    11
 73
     7
 74
     0
 42
0.0000000001
 43
0.0000000001
 40
0.0
 40
0.0
 40
0.0
 40
0.0
 40
1.0
 40
1.0
 40
1.0
 40
2.0
 40
2.0
 40
2.0
 40
2.0
 10
8.295013801886094
 20
7.452977434330389
 30
0.0
 10
8.295013801886094
 20
7.452977434330389
 30
0.0
 10
8.267276384674334
 20
7.446931690418548
 30
0.0
 10
8.267276384674334
 20
7.446931690418548
 30
0.0
 10
8.267276384674334
 20
7.446931690418548
 30
0.0
 10
8.285411819263192
 20
7.446931690418548
 30
0.0
 10
8.294302586060135
 20
7.445154060245031
 30
0.0
  0
LINE
  5
DD
330
70
100
AcDbEntity
  8
Line Drawing
 62
   250
420
  2301728
370
    15
100
AcDbLine
 10
8.09125006720199
 20
7.425595215101274
 30
0.0
 11
8.09125006720199
 21
7.395012775543464
 31
0.0
  0
SPLINE
  5
DE
330
70
100
AcDbEntity
  8
Line Drawing
 62
   250
420
  2301728
370
    15
100
AcDbSpline
210
0.0
220
0.0
230
1.0
 70
     9
 71
     3
 72
    29
 73
    25
 74
     0
 42
0.0000000001
 43
0.0000000001
 40
0.0
 40
0.0
 40
0.0
 40
0.0
 40
1.0
 40
1.0
 40
1.0
 40
2.0
 40
2.0
 40
2.0
 40
3.0
 40
3.0
 40
3.0
 40
4.0
 40
4.0
 40
4.0
 40
5.0
 40
5.0
 40
5.0
 40
6.0
 40
6.0
 40
6.0
 40
7.0
 40
7.0
 40
7.0
 40
8.0
 40
8.0
 40
8.0
 40
8.0
 10
7.981900181056074
 20
7.41492681866983
 30
0.0
 10
7.982094769706046
 20
7.415088406905485
 30
0.0
 10
7.987057349253126
 20
7.413326867547791
 30
0.0
 10
7.995058242808643
 20
7.42275035172564
 30
0.0
 10
8.005053954512757
 20
7.43451882327022
 30
0.0
 10
7.994880723338483
 20
7.438397100291644
 30
0.0
 10
7.994880723338483
 20
7.438397100291644
 30
0.0
 10
7.994880723338483
 20
7.438397100291644
 30
0.0
 10
7.973365591144745
 20
7.448354122106366
 30
0.0
 10
7.973365591144745
 20
7.448354122106366
 30
0.0
 10
7.96749851036183
 20
7.450843786852575
 30
0.0
 10
7.963053530641243
 20
7.450310090496777
 30
0.0
 10
7.959319932041378
 20
7.449065178315056
 30
0.0
 10
7.95451894072994
 20
7.447465227193017
 30
0.0
 10
7.947761821410822
 20
7.443020412767205
 30
0.0
 10
7.944384399696597
 20
7.438219421455742
 30
0.0
 10
7.941005840037038
 20
7.433418430144317
 30
0.0
 10
7.943139487514864
 20
7.426483791355053
 30
0.0
 10
7.948651694652248
 20
7.423283889110974
 30
0.0
 10
7.948651694652248
 20
7.423283889110974
 30
0.0
 10
7.970699385256453
 20
7.412438132251685
 30
0.0
 10
7.970699385256453
 20
7.412438132251685
 30
0.0
 10
7.970699385256453
 20
7.412438132251685
 30
0.0
 10
7.975855415508198
 20
7.409948466535297
 30
0.0
 10
7.981900181056074
 20
7.41492681866983
 30
0.0
  0
SPLINE
  5
DF
330
70
100
AcDbEntity
  8
Line Drawing
 62
   250
420
  2301728
370
    15
100
AcDbSpline
210
0.0
220
0.0
230
1.0
 70
     8
 71
     3
 72
    14
 73
    10
 74
     0
 42
0.0000000001
 43
0.0000000001
 40
0.0
 40
0.0
 40
0.0
 40
0.0
 40
1.0
 40
1.0
 40
1.0
 40
2.0
 40
2.0
 40
2.0
 40
3.0
 40
3.0
 40
3.0
 40
3.0
 10
7.961274922103736
 20
7.418305378329389
 30
0.0
 10
7.961274922103736
 20
7.418305378329389
 30
0.0
 10
7.968398459816373
 20
7.425267327806358
 30
0.0
 10
7.972654375318799
 20
7.427551184066626
 30
0.0
 10
7.977632886100397
 20
7.430218527900238
 30
0.0
 10
7.983883619751445
 20
7.430384667917185
 30
0.0
 10
7.986701172367487
 20
7.428973615718518
 30
0.0
 10
7.99025741736692
 20
7.427195007180999
 30
0.0
 10
7.994880723338483
 20
7.424350143877214
 30
0.0
 10
7.994880723338483
 20
7.424350143877214
 30
0.0
  0
SPLINE
  5
E0
330
70
100
AcDbEntity
  8
Line Drawing
 62
   250
420
  2301728
370
    15
100
AcDbSpline
210
0.0
220
0.0
230
1.0
 70
     8
 71
     3
 72
     8
 73
     4
 74
     0
 42
0.0000000001
 43
0.0000000001
 40
0.0
 40
0.0
 40
0.0
 40
0.0
 40
1.0
 40
1.0
 40
1.0
 40
1.0
 10
8.091961114606924
 20
7.477747250503423
 30
0.0
 10
8.091961114606924
 20
7.477747250503423
 30
0.0
 10
8.111636189215801
 20
7.475858261222015
 30
0.0
 10
8.130366769207814
 20
7.488893264567813
 30
0.0
  0
SPLINE
  5
E1
330
70
100
AcDbEntity
  8
Line Drawing
 62
   250
420
  2301728
370
    15
100
AcDbSpline
210
0.0
220
0.0
230
1.0
 70
     8
 71
     3
 72
    11
 73
     7
 74
     0
 42
0.0000000001
 43
0.0000000001
 40
0.0
 40
0.0
 40
0.0
 40
0.0
 40
1.0
 40
1.0
 40
1.0
 40
2.0
 40
2.0
 40
2.0
 40
2.0
 10
8.083426524695621
 20
7.467078852754512
 30
0.0
 10
8.092911467413362
 20
7.467790228688701
 30
0.0
 10
8.114247942730633
 20
7.468268165735821
 30
0.0
 10
8.128472259608807
 20
7.477986219026989
 30
0.0
 10
8.128472259608807
 20
7.477986219026989
 30
0.0
 10
8.137006849735724
 20
7.484387001094634
 30
0.0
 10
8.132500586148706
 20
7.48936567252954
 30
0.0
  0
SPLINE
  5
E2
330
70
100
AcDbEntity
  8
Line Drawing
 62
   250
420
  2301728
370
    15
100
AcDbSpline
210
0.0
220
0.0
230
1.0
 70
     8
 71
     3
 72
    11
 73
     7
 74
     0
 42
0.0000000001
 43
0.0000000001
 40
0.0
 40
0.0
 40
0.0
 40
0.0
 40
1.0
 40
1.0
 40
1.0
 40
2.0
 40
2.0
 40
2.0
 40
2.0
 10
8.084615845810009
 20
7.45783320687398
 30
0.0
 10
8.094100451811375
 20
7.458544262843209
 30
0.0
 10
8.115436926589634
 20
7.45902219987824
 30
0.0
 10
8.129661243108468
 20
7.46874025292392
 30
0.0
 10
8.129661243108468
 20
7.46874025292392
 30
0.0
 10
8.138195833019784
 20
7.475141355651354
 30
0.0
 10
8.133689569546605
 20
7.480119706138983
 30
0.0
  0
SPLINE
  5
E3
330
70
100
AcDbEntity
  8
Line Drawing
 62
   250
420
  2301728
370
    15
100
AcDbSpline
210
0.0
220
0.0
230
1.0
 70
     8
 71
     3
 72
    11
 73
     7
 74
     0
 42
0.0000000001
 43
0.0000000001
 40
0.0
 40
0.0
 40
0.0
 40
0.0
 40
1.0
 40
1.0
 40
1.0
 40
2.0
 40
2.0
 40
2.0
 40
2.0
 10
8.085560340450721
 20
7.447876185059258
 30
0.0
 10
8.095044946428211
 20
7.448587241280013
 30
0.0
 10
8.116381421206483
 20
7.449065178315056
 30
0.0
 10
8.130605737725318
 20
7.458783231360724
 30
0.0
 10
8.130605737725318
 20
7.458783231360724
 30
0.0
 10
8.139140327636633
 20
7.465184333836632
 30
0.0
 10
8.134634064163467
 20
7.470162684575799
 30
0.0
  0
SPLINE
  5
E4
330
70
100
AcDbEntity
  8
Line Drawing
 62
   250
420
  2301728
370
    15
100
AcDbSpline
210
0.0
220
0.0
230
1.0
 70
     8
 71
     3
 72
    11
 73
     7
 74
     0
 42
0.0000000001
 43
0.0000000001
 40
0.0
 40
0.0
 40
0.0
 40
0.0
 40
1.0
 40
1.0
 40
1.0
 40
2.0
 40
2.0
 40
2.0
 40
2.0
 10
8.09147179811868
 20
7.438830498093415
 30
0.0
 10
8.102245864422709
 20
7.439603322362914
 30
0.0
 10
8.118548069098626
 20
7.441392013012128
 30
0.0
 10
8.130133659820192
 20
7.44930414683256
 30
0.0
 10
8.130133659820192
 20
7.44930414683256
 30
0.0
 10
8.138668249947095
 20
7.455705249068993
 30
0.0
 10
8.134161986360089
 20
7.460683600047647
 30
0.0
  0
SPLINE
  5
E5
330
70
100
AcDbEntity
  8
Line Drawing
 62
   250
420
  2301728
370
    15
100
AcDbSpline
210
0.0
220
0.0
230
1.0
 70
     8
 71
     3
 72
     8
 73
     4
 74
     0
 42
0.0000000001
 43
0.0000000001
 40
0.0
 40
0.0
 40
0.0
 40
0.0
 40
1.0
 40
1.0
 40
1.0
 40
1.0
 10
8.134362095231621
 20
7.442502647645912
 30
0.0
 10
8.136356913380216
 20
7.44482519404711
 30
0.0
 10
8.138245902613927
 20
7.448259513027424
 30
0.0
 10
8.135584418047907
 20
7.451198985482
 30
0.0
  0
SPLINE
  5
E6
330
70
100
AcDbEntity
  8
Line Drawing
 62
   250
420
  2301728
370
    15
100
AcDbSpline
210
0.0
220
0.0
230
1.0
 70
     8
 71
     3
 72
     8
 73
     4
 74
     0
 42
0.0000000001
 43
0.0000000001
 40
0.0
 40
0.0
 40
0.0
 40
0.0
 40
1.0
 40
1.0
 40
1.0
 40
1.0
 10
8.083193414122193
 20
7.418005119615081
 30
0.0
 10
8.083193414122193
 20
7.418005119615081
 30
0.0
 10
8.087938646232752
 20
7.41777168197359
 30
0.0
 10
8.091016619990089
 20
7.418244088138635
 30
0.0
  0
SPLINE
  5
E7
330
70
100
AcDbEntity
  8
Line Drawing
 62
   250
420
  2301728
370
    15
100
AcDbSpline
210
0.0
220
0.0
230
1.0
 70
     8
 71
     3
 72
     8
 73
     4
 74
     0
 42
0.0000000001
 43
0.0000000001
 40
0.0
 40
0.0
 40
0.0
 40
0.0
 40
1.0
 40
1.0
 40
1.0
 40
1.0
 10
8.07584228715954
 20
7.410659523714166
 30
0.0
 10
8.07821473512312
 20
7.410420555196663
 30
0.0
 10
8.085321371927168
 20
7.409948466535297
 30
0.0
 10
8.090538682955045
 20
7.410420555196663
 30
0.0
  0
SPLINE
  5
E8
330
70
100
AcDbEntity
  8
Line Drawing
 62
   250
420
  2301728
370
    15
100
AcDbSpline
210
0.0
220
0.0
230
1.0
 70
     8
 71
     3
 72
     8
 73
     4
 74
     0
 42
0.0000000001
 43
0.0000000001
 40
0.0
 40
0.0
 40
0.0
 40
0.0
 40
1.0
 40
1.0
 40
1.0
 40
1.0
 10
8.069441176694315
 20
7.402358371049078
 30
0.0
 10
8.07346950313245
 20
7.401413876408367
 30
0.0
 10
8.083659971715784
 20
7.401413876408367
 30
0.0
 10
8.089116251303165
 20
7.402124933802863
 30
0.0
  0
INSERT
  5
EA
330
70
100
AcDbEntity
  8
Line Drawing
100
AcDbBlockReference
  2
Block_3
 10
0.0
 20
0.0
 30
0.0
  0
INSERT
  5
FF
330
70
100
AcDbEntity
  8
Line Drawing
100
AcDbBlockReference
  2
Block_6
 10
0.0
 20
0.0
 30
0.0
  0
INSERT
  5
114
330
70
100
AcDbEntity
  8
Line Drawing
100
AcDbBlockReference
  2
Block_9
 10
0.0
 20
0.0
 30
0.0
  0
INSERT
  5
129
330
70
100
AcDbEntity
  8
Line Drawing
100
AcDbBlockReference
  2
Block_12
 10
0.0
 20
0.0
 30
0.0
  0
LINE
  5
13D
330
70
100
AcDbEntity
  8
Line Drawing
  6
AI-Linetype-0
 62
   250
420
  2301728
370
    15
100
AcDbLine
 10
8.078448182011634
 20
7.243523959060578
 30
0.0
 11
8.13039407989552
 21
5.661101592310791
 31
0.0
  0
LINE
  5
13F
330
70
100
AcDbEntity
  8
Line Drawing
  6
AI-Linetype-1
 62
   250
420
  2301728
370
    15
100
AcDbLine
 10
8.141746222422877
 20
7.259170707626581
 30
0.0
 11
8.187903560553865
 21
5.682405066674719
 31
0.0
  0
LWPOLYLINE
  5
141
330
70
100
AcDbEntity
  8
Line Drawing
  6
AI-Linetype-2
 62
   250
420
  2301728
370
    15
100
AcDbPolyline
 90
        5
 70
     0
 43
0.0
 10
8.145130471809048
 20
5.172796737453406
 10
8.165950319411345
 20
4.593444877422219
 10
8.197932443788342
 20
4.50525411500535
 10
8.226381077544703
 20
4.590600014118434
 10
8.206467033915247
 20
5.18133132736471
  0
LWPOLYLINE
  5
143
330
70
100
AcDbEntity
  8
Line Drawing
 62
   250
420
  2301728
370
    13
100
AcDbPolyline
 90
        3
 70
     0
 43
0.0
 10
5.850920158888698
 20
7.061452703019868
 10
5.877946360957239
 20
7.052918112892976
 10
5.922041743279603
 20
7.017357320697517
  0
LWPOLYLINE
  5
144
330
70
100
AcDbEntity
  8
Line Drawing
 62
   250
420
  2301728
370
    13
100
AcDbPolyline
 90
        3
 70
     0
 43
0.0
 10
5.855187453952149
 20
7.040116227702608
 10
5.876523929269422
 20
7.031581637575704
 10
5.897860404586695
 20
7.005977867194991
  0
LWPOLYLINE
  5
145
330
70
100
AcDbEntity
  8
Line Drawing
 62
   250
420
  2301728
370
    13
100
AcDbPolyline
 90
        3
 70
     0
 43
0.0
 10
5.858032317327797
 20
7.013090025634065
 10
5.869411770830335
 20
7.005977867194991
 10
5.875101497581605
 20
6.996020845380282
  0
LWPOLYLINE
  5
146
330
70
100
AcDbEntity
  8
Line Drawing
 62
   250
420
  2301728
370
    13
100
AcDbPolyline
 90
        3
 70
     0
 43
0.0
 10
5.842385568761793
 20
6.947658167994442
 10
5.976094147416675
 20
6.957615189809163
 10
6.099845704256836
 20
6.959037621496981
  0
LWPOLYLINE
  5
147
330
70
100
AcDbEntity
  8
Line Drawing
 62
   250
420
  2301728
370
    13
100
AcDbPolyline
 90
        3
 70
     0
 43
0.0
 10
5.843808000449611
 20
6.927744124364998
 10
5.953335240411584
 20
6.936278714491903
 10
6.055750321934485
 20
6.933433851116268
  0
LWPOLYLINE
  5
148
330
70
100
AcDbEntity
  8
Line Drawing
 62
   250
420
  2301728
370
    13
100
AcDbPolyline
 90
        3
 70
     0
 43
0.0
 10
5.850920158888698
 20
6.904985217359921
 10
5.944800650284681
 20
6.913519807486813
 10
6.048638163495398
 20
6.903562785672079
  0
LWPOLYLINE
  5
149
330
70
100
AcDbEntity
  8
Line Drawing
 62
   250
420
  2301728
370
    13
100
AcDbPolyline
 90
        3
 70
     0
 43
0.0
 10
5.855187453952149
 20
6.879381446979183
 10
5.941955786909046
 20
6.889338468793905
 10
6.055750321934485
 20
6.862312266725362
  0
LWPOLYLINE
  5
14A
330
70
100
AcDbEntity
  8
Line Drawing
 62
   250
420
  2301728
370
    13
100
AcDbPolyline
 90
        3
 70
     0
 43
0.0
 10
5.859454749015601
 20
6.852355244910641
 10
5.916352016528321
 20
6.862312266725362
 10
6.058595185310119
 20
6.83528606465682
  0
LWPOLYLINE
  5
14B
330
70
100
AcDbEntity
  8
Line Drawing
 62
   250
420
  2301728
370
    13
100
AcDbPolyline
 90
        3
 70
     0
 43
0.0
 10
5.863722044079054
 20
6.829596337905551
 10
5.907817426401416
 20
6.836708496344638
 10
6.068552207124841
 20
6.798302840773557
  0
LWPOLYLINE
  5
14C
330
70
100
AcDbEntity
  8
Line Drawing
 62
   250
420
  2301728
370
    13
100
AcDbPolyline
 90
        3
 70
     0
 43
0.0
 10
5.867989339142519
 20
6.809682294276095
 10
5.910662289777051
 20
6.81394958933956
 10
6.072819502188293
 20
6.765586911953745
  0
LWPOLYLINE
  5
14D
330
70
100
AcDbEntity
  8
Line Drawing
 62
   250
420
  2301728
370
    13
100
AcDbPolyline
 90
        3
 70
     0
 43
0.0
 10
5.870834202518153
 20
6.781233660519736
 10
5.910662289777051
 20
6.786923387271017
 10
6.077086797251758
 20
6.728603688070481
  0
LWPOLYLINE
  5
14E
330
70
100
AcDbEntity
  8
Line Drawing
 62
   250
420
  2301728
370
    13
100
AcDbPolyline
 90
        3
 70
     0
 43
0.0
 10
5.876523929269422
 20
6.759897185202476
 10
5.909239858089234
 20
6.758474753514645
 10
6.084198955690845
 20
6.681663442372482
  0
LWPOLYLINE
  5
14F
330
70
100
AcDbEntity
  8
Line Drawing
 62
   250
420
  2301728
370
    13
100
AcDbPolyline
 90
        3
 70
     0
 43
0.0
 10
5.877946360957239
 20
6.730026119758298
 10
5.907817426401416
 20
6.728603688070481
 10
6.094155977505566
 20
6.630455901611033
  0
LWPOLYLINE
  5
150
330
70
100
AcDbEntity
  8
Line Drawing
 62
   250
420
  2301728
370
    13
100
AcDbPolyline
 90
        3
 70
     0
 43
0.0
 10
5.882213656020692
 20
6.701577486001938
 10
5.910662289777051
 20
6.695887759250669
 10
6.045793300119763
 20
6.611964289669407
  0
LWPOLYLINE
  5
151
330
70
100
AcDbEntity
  8
Line Drawing
 62
   250
420
  2301728
370
    13
100
AcDbPolyline
 90
        3
 70
     0
 43
0.0
 10
5.889325814459779
 20
6.673128852245579
 10
5.910662289777051
 20
6.670283988869944
 10
5.994585759358313
 20
6.60911942629376
  0
LWPOLYLINE
  5
152
330
70
100
AcDbEntity
  8
Line Drawing
 62
   250
420
  2301728
370
    13
100
AcDbPolyline
 90
        3
 70
     0
 43
0.0
 10
5.896437972898866
 20
6.650369945240488
 10
5.916352016528321
 20
6.643257786801401
 10
5.943378218596863
 20
6.607696994605943
  0
LINE
  5
153
330
70
100
AcDbEntity
  8
Line Drawing
 62
   250
420
  2301728
370
    13
100
AcDbLine
 10
5.89501554121106
 20
6.627611038235398
 30
0.0
 11
5.920619311591773
 21
6.606274562918125
 31
0.0
  0
LWPOLYLINE
  5
154
330
70
100
AcDbEntity
  8
Line Drawing
 62
   250
420
  2301728
370
    13
100
AcDbPolyline
 90
        3
 70
     0
 43
0.0
 10
6.05290545855885
 20
6.893605763857357
 10
6.088466250754296
 20
6.87084685685228
 10
6.162432698520837
 20
6.811104725963925
  0
LWPOLYLINE
  5
155
330
70
100
AcDbEntity
  8
Line Drawing
 62
   250
420
  2301728
370
    13
100
AcDbPolyline
 90
        3
 70
     0
 43
0.0
 10
6.058595185310119
 20
6.862656919345188
 10
6.085621387378662
 20
6.848087949847189
 10
6.169544856959924
 20
6.771276638705014
  0
LWPOLYLINE
  5
156
330
70
100
AcDbEntity
  8
Line Drawing
 62
   250
420
  2301728
370
    13
100
AcDbPolyline
 90
        3
 70
     0
 43
0.0
 10
6.064284912061389
 20
6.829596337905551
 10
6.085621387378662
 20
6.819639316090829
 10
6.178079447086828
 20
6.722913961319199
  0
LWPOLYLINE
  5
157
330
70
100
AcDbEntity
  8
Line Drawing
 62
   250
420
  2301728
370
    13
100
AcDbPolyline
 90
        3
 70
     0
 43
0.0
 10
6.069974638812658
 20
6.79119068233447
 10
6.091311114129931
 20
6.78407852389537
 10
6.183769173838097
 20
6.6830858740603
  0
LWPOLYLINE
  5
158
330
70
100
AcDbEntity
  8
Line Drawing
 62
   250
420
  2301728
370
    13
100
AcDbPolyline
 90
        3
 70
     0
 43
0.0
 10
6.077086797251758
 20
6.758474753514645
 10
6.094155977505566
 20
6.751362595075571
 10
6.190881332277184
 20
6.629033469923215
  0
LWPOLYLINE
  5
159
330
70
100
AcDbEntity
  8
Line Drawing
 62
   250
420
  2301728
370
    13
100
AcDbPolyline
 90
        3
 70
     0
 43
0.0
 10
6.084198955690845
 20
6.717224234567929
 10
6.10980272607157
 20
6.700155054314121
 10
6.200838354091918
 20
6.573558634098313
  0
LWPOLYLINE
  5
15A
330
70
100
AcDbEntity
  8
Line Drawing
 62
   250
420
  2301728
370
    13
100
AcDbPolyline
 90
        3
 70
     0
 43
0.0
 10
6.089888682442114
 20
6.671706420557761
 10
6.122604611261926
 20
6.654637240303941
 10
6.21079537590664
 20
6.515583596285422
  0
LWPOLYLINE
  5
15B
330
70
100
AcDbEntity
  8
Line Drawing
 62
   250
420
  2301728
370
    13
100
AcDbPolyline
 90
        3
 70
     0
 43
0.0
 10
6.098423272569018
 20
6.638990491737937
 10
6.12544947463756
 20
6.614809153045042
 10
6.197993490716271
 20
6.483945437765783
  0
LWPOLYLINE
  5
15C
330
70
100
AcDbEntity
  8
Line Drawing
 62
   250
420
  2301728
370
    13
100
AcDbPolyline
 90
        3
 70
     0
 43
0.0
 10
6.102690567632483
 20
6.602007267854686
 10
6.122604611261926
 20
6.579248360849596
 10
6.143941086579198
 20
6.532308115151598
  0
LWPOLYLINE
  5
15D
330
70
100
AcDbEntity
  8
Line Drawing
 62
   250
420
  2301728
370
    13
100
AcDbPolyline
 90
        3
 70
     0
 43
0.0
 10
6.04627123716687
 20
6.466881812415547
 10
6.089888682442114
 20
6.106534482900415
 10
6.160065772192309
 20
5.867554579893508
  0
LWPOLYLINE
  5
15E
330
70
100
AcDbEntity
  8
Line Drawing
 62
   250
420
  2301728
370
    13
100
AcDbPolyline
 90
        3
 70
     0
 43
0.0
 10
6.02540689293653
 20
6.482056448484361
 10
6.070924705796831
 20
6.081875207160414
 10
6.190408964555116
 20
5.676004239085184
  0
LWPOLYLINE
  5
15F
330
70
100
AcDbEntity
  8
Line Drawing
 62
   250
420
  2301728
370
    13
100
AcDbPolyline
 90
        5
 70
     0
 43
0.0
 10
5.998853054421766
 20
6.506704344770873
 10
6.04816579936668
 20
6.042047119901515
 10
6.17713495244613
 20
5.600137422583732
 10
6.108858231430859
 20
5.503412067812101
 10
6.031096619544073
 20
5.46548434928814
  0
LINE
  5
160
330
70
100
AcDbEntity
  8
Line Drawing
 62
   250
420
  2301728
370
    13
100
AcDbLine
 10
5.977994516151611
 20
6.529463251775963
 30
0.0
 11
6.01782260341051
 21
6.100838940846238
 31
0.0
  0
LINE
  5
161
330
70
100
AcDbEntity
  8
Line Drawing
 62
   250
420
  2301728
370
    13
100
AcDbLine
 10
6.04627123716687
 20
5.945315953755804
 30
0.0
 11
6.116442518657132
 21
5.670314512333915
 31
0.0
  0
LINE
  5
162
330
70
100
AcDbEntity
  8
Line Drawing
 62
   250
420
  2301728
370
    13
100
AcDbLine
 10
5.95713017364609
 20
6.542737247547241
 30
0.0
 11
5.964714693914136
 21
6.411873535573881
 31
0.0
  0
LWPOLYLINE
  5
163
330
70
100
AcDbEntity
  8
Line Drawing
 62
   250
420
  2301728
370
    13
100
AcDbPolyline
 90
        3
 70
     0
 43
0.0
 10
6.161960331517434
 20
5.611516876086271
 10
6.070924705796831
 20
5.511002163298295
 10
6.014027439721454
 20
5.482553529541948
  0
LWPOLYLINE
  5
164
330
70
100
AcDbEntity
  8
Line Drawing
 62
   250
420
  2301728
370
    13
100
AcDbPolyline
 90
        3
 70
     0
 43
0.0
 10
6.196098691162647
 20
5.575489526297208
 10
6.127821971872208
 20
5.480653160807023
 10
6.04816579936668
 20
5.440825073548112
  0
LWPOLYLINE
  5
165
330
70
100
AcDbEntity
  8
Line Drawing
 62
   250
420
  2301728
370
    13
100
AcDbPolyline
 90
        3
 70
     0
 43
0.0
 10
6.228342493207567
 20
5.552730619292105
 10
6.15247567670609
 20
5.45979462253687
 10
6.069030144171961
 20
5.414276808526665
  0
LWPOLYLINE
  5
166
330
70
100
AcDbEntity
  8
Line Drawing
 62
   250
420
  2301728
370
    13
100
AcDbPolyline
 90
        3
 70
     0
 43
0.0
 10
6.266270211731542
 20
5.545140523805912
 10
6.158165403457372
 20
5.433246357515397
 10
6.082304159011906
 20
5.397207628272856
  0
LWPOLYLINE
  5
167
330
70
100
AcDbEntity
  8
Line Drawing
 62
   250
420
  2301728
370
    13
100
AcDbPolyline
 90
        3
 70
     0
 43
0.0
 10
6.304203496705857
 20
5.535661439038297
 10
6.169544856959924
 20
5.408587081775395
 10
6.099373338834513
 20
5.376349090002703
  0
LWPOLYLINE
  5
168
330
70
100
AcDbEntity
  8
Line Drawing
 62
   250
420
  2301728
370
    13
100
AcDbPolyline
 90
        3
 70
     0
 43
0.0
 10
6.179029511340041
 20
5.332720265273969
 10
6.216963039705029
 20
5.11082092197436
 10
6.22265276645631
 20
4.942029488171101
  0
LWPOLYLINE
  5
169
330
70
100
AcDbEntity
  8
Line Drawing
 62
   250
420
  2301728
370
    13
100
AcDbPolyline
 90
        3
 70
     0
 43
0.0
 10
6.196098691162647
 20
5.332720265273969
 10
6.243511304726451
 20
5.10324220594162
 10
6.241616504022949
 20
4.841514775383125
  0
LWPOLYLINE
  5
16A
330
70
100
AcDbEntity
  8
Line Drawing
 62
   250
420
  2301728
370
    13
100
AcDbPolyline
 90
        3
 70
     0
 43
0.0
 10
6.216963039705029
 20
5.328930907257598
 10
6.277649665234093
 20
5.033065116191462
 10
6.260580484980272
 20
4.735298956390427
  0
LINE
  5
16B
330
70
100
AcDbEntity
  8
Line Drawing
 62
   250
420
  2301728
370
    13
100
AcDbLine
 10
6.232131851223912
 20
5.325141549241227
 30
0.0
 11
6.289029118736632
 21
5.10324220594162
 31
0.0
  0
LINE
  5
16C
330
70
100
AcDbEntity
  8
Line Drawing
 62
   250
420
  2301728
370
    13
100
AcDbLine
 10
6.307998667725377
 20
4.9951373976675
 30
0.0
 11
6.28713431688325
 21
4.68220242634753
 31
0.0
  0
LINE
  5
16D
330
70
100
AcDbEntity
  8
Line Drawing
 62
   250
420
  2301728
370
    13
100
AcDbLine
 10
6.326962403136008
 20
4.883231851923483
 30
0.0
 11
6.311788025741722
 21
4.644263328370066
 31
0.0
  0
LINE
  5
16E
330
70
100
AcDbEntity
  8
Line Drawing
 62
   250
420
  2301728
370
    13
100
AcDbLine
 10
6.342137028233018
 20
4.786506497151852
 30
0.0
 11
6.342137028233018
 21
4.608235978580978
 31
0.0
  0
LINE
  5
16F
330
70
100
AcDbEntity
  8
Line Drawing
 62
   250
420
  2301728
370
    13
100
AcDbLine
 10
6.364895935238096
 20
4.636684612337325
 30
0.0
 11
6.361100762781234
 21
4.574097618073361
 31
0.0
  0
LWPOLYLINE
  5
170
330
70
100
AcDbEntity
  8
Line Drawing
 62
   250
420
  2301728
370
    13
100
AcDbPolyline
 90
        3
 70
     0
 43
0.0
 10
6.273860307217748
 20
4.648064065839914
 10
6.307998667725377
 20
4.612025336597323
 10
6.340236659498081
 20
4.568407891322092
  0
LWPOLYLINE
  5
171
330
70
100
AcDbEntity
  8
Line Drawing
 62
   250
420
  2301728
370
    13
100
AcDbPolyline
 90
        3
 70
     0
 43
0.0
 10
6.279550033969017
 20
4.602546251829708
 10
6.302308940974107
 20
4.5854770715759
 10
6.321272676528476
 20
4.557028437819553
  0
LWPOLYLINE
  5
172
330
70
100
AcDbEntity
  8
Line Drawing
 62
   250
420
  2301728
370
    13
100
AcDbPolyline
 90
        3
 70
     0
 43
0.0
 10
6.28713431688325
 20
4.566507522587167
 10
6.302308940974107
 20
4.551338711068283
 10
6.307998667725377
 20
4.541859626300669
  0
LWPOLYLINE
  5
173
330
70
100
AcDbEntity
  8
Line Drawing
 62
   250
420
  2301728
370
    13
100
AcDbPolyline
 90
        3
 70
     0
 43
0.0
 10
6.277649665234093
 20
4.483672981982989
 10
6.3876548422432
 20
4.495052435198076
 10
6.500154267233483
 20
4.488751716804269
  0
LWPOLYLINE
  5
174
330
70
100
AcDbEntity
  8
Line Drawing
 62
   250
420
  2301728
370
    13
100
AcDbPolyline
 90
        3
 70
     0
 43
0.0
 10
6.281444590275706
 20
4.452712987561729
 10
6.362995566503159
 20
4.467893178534116
 10
6.469205568324443
 20
4.462203451782847
  0
LWPOLYLINE
  5
175
330
70
100
AcDbEntity
  8
Line Drawing
 62
   250
420
  2301728
370
    13
100
AcDbPolyline
 90
        3
 70
     0
 43
0.0
 10
6.285239760720287
 20
4.429954080556651
 10
6.35730583975189
 20
4.44133353405919
 10
6.455931563258445
 20
4.424264353805382
  0
LWPOLYLINE
  5
176
330
70
100
AcDbEntity
  8
Line Drawing
 62
   250
420
  2301728
370
    13
100
AcDbPolyline
 90
        3
 70
     0
 43
0.0
 10
6.290929487471556
 20
4.401505446800304
 10
6.361100762781234
 20
4.409095542286498
 10
6.461621290009727
 20
4.390125993297766
  0
LWPOLYLINE
  5
177
330
70
100
AcDbEntity
  8
Line Drawing
 62
   250
420
  2301728
370
    13
100
AcDbPolyline
 90
        3
 70
     0
 43
0.0
 10
6.294718845487901
 20
4.369267455027562
 10
6.353516481735545
 20
4.378746539795176
 10
6.467311016760984
 20
4.354098643508677
  0
LWPOLYLINE
  5
178
330
70
100
AcDbEntity
  8
Line Drawing
 62
   250
420
  2301728
370
    13
100
AcDbPolyline
 90
        3
 70
     0
 43
0.0
 10
6.30040857223917
 20
4.33891845253629
 10
6.351616113000621
 20
4.348408916757408
 10
6.474895294931974
 20
4.31996028300106
  0
LWPOLYLINE
  5
179
330
70
100
AcDbEntity
  8
Line Drawing
 62
   250
420
  2301728
370
    13
100
AcDbPolyline
 90
        3
 70
     0
 43
0.0
 10
6.307998667725377
 20
4.310469818779943
 10
6.359206208486827
 20
4.31996028300106
 10
6.480585021539518
 20
4.283921553758469
  0
LWPOLYLINE
  5
17A
330
70
100
AcDbEntity
  8
Line Drawing
 62
   250
420
  2301728
370
    13
100
AcDbPolyline
 90
        3
 70
     0
 43
0.0
 10
6.311788025741722
 20
4.280132195742175
 10
6.370585661989366
 20
4.28961128050979
 10
6.450241836507175
 20
4.251683561985777
  0
LWPOLYLINE
  5
17B
330
70
100
AcDbEntity
  8
Line Drawing
 62
   250
420
  2301728
370
    13
100
AcDbPolyline
 90
        3
 70
     0
 43
0.0
 10
6.315582949920932
 20
4.259262278018468
 10
6.361100762781234
 20
4.259262278018468
 10
6.39523912242646
 20
4.247882824515929
  0
LWPOLYLINE
  5
17C
330
70
100
AcDbEntity
  8
Line Drawing
 62
   250
420
  2301728
370
    13
100
AcDbPolyline
 90
        3
 70
     0
 43
0.0
 10
6.463515841716898
 20
4.405306184270153
 10
6.505238735284958
 20
4.354098643508677
 10
6.573515456300229
 20
4.242193097764659
  0
LWPOLYLINE
  5
17D
330
70
100
AcDbEntity
  8
Line Drawing
 62
   250
420
  2301728
370
    13
100
AcDbPolyline
 90
        3
 70
     0
 43
0.0
 10
6.471100374777329
 20
4.363577728276291
 10
6.495759650517343
 20
4.333228725785021
 10
6.581105551786436
 20
4.166337660716736
  0
LWPOLYLINE
  5
17E
330
70
100
AcDbEntity
  8
Line Drawing
 62
   250
420
  2301728
370
    13
100
AcDbPolyline
 90
        3
 70
     0
 43
0.0
 10
6.478690470263535
 20
4.310469818779943
 10
6.499549008533689
 20
4.28961128050979
 10
6.594379553690259
 20
4.086681486198914
  0
LWPOLYLINE
  5
17F
330
70
100
AcDbEntity
  8
Line Drawing
 62
   250
420
  2301728
370
    13
100
AcDbPolyline
 90
        3
 70
     0
 43
0.0
 10
6.48816955503115
 20
4.261162646753392
 10
6.509033654577213
 20
4.227024286245775
 10
6.572526451736027
 20
4.08006881124134
  0
LWPOLYLINE
  5
180
330
70
100
AcDbEntity
  8
Line Drawing
 62
   250
420
  2301728
370
    13
100
AcDbPolyline
 90
        3
 70
     0
 43
0.0
 10
6.49385928178242
 20
4.209955105991967
 10
6.509033654577213
 20
4.190985557003235
 10
6.527008638875738
 20
4.140755435237375
  0
LWPOLYLINE
  5
181
330
70
100
AcDbEntity
  8
Line Drawing
 62
   250
420
  2301728
370
    13
100
AcDbPolyline
 90
        3
 70
     0
 43
0.0
 10
6.507139104019907
 20
4.135988658225414
 10
6.543172014222427
 20
4.08478111746399
 10
6.611448733512879
 20
3.984266404676013
  0
LWPOLYLINE
  5
182
330
70
100
AcDbEntity
  8
Line Drawing
 62
   250
420
  2301728
370
    13
100
AcDbPolyline
 90
        3
 70
     0
 43
0.0
 10
6.51661818878751
 20
4.08478111746399
 10
6.539377095792588
 20
4.060121841723987
 10
6.619033270310397
 20
3.933058863914589
  0
LWPOLYLINE
  5
183
330
70
100
AcDbEntity
  8
Line Drawing
 62
   250
420
  2301728
370
    13
100
AcDbPolyline
 90
        3
 70
     0
 43
0.0
 10
6.522307915538779
 20
4.041163672188758
 10
6.543172014222427
 20
4.020293754465051
 10
6.626623365796616
 20
3.870471869650575
  0
LWPOLYLINE
  5
184
330
70
100
AcDbEntity
  8
Line Drawing
 62
   250
420
  2301728
370
    13
100
AcDbPolyline
 90
        3
 70
     0
 43
0.0
 10
6.527997642290048
 20
4.003224574211243
 10
6.553256485661626
 20
3.97098658243855
 10
6.640502753461595
 20
3.798138306056595
  0
LWPOLYLINE
  5
185
330
70
100
AcDbEntity
  8
Line Drawing
 62
   250
420
  2301728
370
    13
100
AcDbPolyline
 90
        3
 70
     0
 43
0.0
 10
6.539377095792588
 20
3.940637579947279
 10
6.567825729548947
 20
3.906499219439612
 10
6.594379553690259
 20
3.842023235894227
  0
LWPOLYLINE
  5
186
330
70
100
AcDbEntity
  8
Line Drawing
 62
   250
420
  2301728
370
    13
100
AcDbPolyline
 90
        3
 70
     0
 43
0.0
 10
6.326962403136008
 20
4.213744464008312
 10
6.40851338051334
 20
4.225123917510851
 10
6.491964474754594
 20
4.219434190759582
  0
LWPOLYLINE
  5
187
330
70
100
AcDbEntity
  8
Line Drawing
 62
   250
420
  2301728
370
    13
100
AcDbPolyline
 90
        3
 70
     0
 43
0.0
 10
6.330757574730467
 20
4.18719619898689
 10
6.397133927010801
 20
4.200476021224353
 10
6.495759650517343
 20
4.185295830251965
  0
LWPOLYLINE
  5
188
330
70
100
AcDbEntity
  8
Line Drawing
 62
   250
420
  2301728
370
    13
100
AcDbPolyline
 90
        3
 70
     0
 43
0.0
 10
6.336447301481737
 20
4.170127018733081
 10
6.400928849033991
 20
4.17581674548435
 10
6.499549008533689
 20
4.149268480462928
  0
LWPOLYLINE
  5
189
330
70
100
AcDbEntity
  8
Line Drawing
 62
   250
420
  2301728
370
    13
100
AcDbPolyline
 90
        3
 70
     0
 43
0.0
 10
6.338341856351083
 20
4.141678384976684
 10
6.39523912242646
 20
4.145467742993028
 10
6.509033654577213
 20
4.107540024469067
  0
LWPOLYLINE
  5
18A
330
70
100
AcDbEntity
  8
Line Drawing
 62
   250
420
  2301728
370
    13
100
AcDbPolyline
 90
        3
 70
     0
 43
0.0
 10
6.342137028233018
 20
4.117019109236681
 10
6.397133927010801
 20
4.115130119955261
 10
6.518518557522433
 20
4.062022210458912
  0
LWPOLYLINE
  5
18B
330
70
100
AcDbEntity
  8
Line Drawing
 62
   250
420
  2301728
370
    13
100
AcDbPolyline
 90
        3
 70
     0
 43
0.0
 10
6.347826754984275
 20
4.094260202231604
 10
6.39523912242646
 20
4.086681486198914
 10
6.526102834399807
 20
4.022194123199975
  0
LWPOLYLINE
  5
18C
330
70
100
AcDbEntity
  8
Line Drawing
 62
   250
420
  2301728
370
    13
100
AcDbPolyline
 90
        3
 70
     0
 43
0.0
 10
6.351616113000621
 20
4.062022210458912
 10
6.40282365376207
 20
4.052543125691297
 10
6.48816955503115
 20
3.989956131427283
  0
LWPOLYLINE
  5
18D
330
70
100
AcDbEntity
  8
Line Drawing
 62
   250
420
  2301728
370
    13
100
AcDbPolyline
 90
        3
 70
     0
 43
0.0
 10
6.35730583975189
 20
4.03736293471891
 10
6.389549395818916
 20
4.03167320796759
 10
6.444552109755906
 20
3.989956131427283
  0
LWPOLYLINE
  5
18E
330
70
100
AcDbEntity
  8
Line Drawing
 62
   250
420
  2301728
370
    13
100
AcDbPolyline
 90
        3
 70
     0
 43
0.0
 10
6.359206208486827
 20
4.010814669697436
 10
6.380370728855634
 20
4.009536684323696
 10
6.404724022496995
 20
3.989956131427283
  0
LINE
  5
190
330
70
100
AcDbEntity
  8
Callouts ROMAN
 62
   250
420
  2301728
370
    18
100
AcDbLine
 10
8.134400954883643
 20
5.180998011724518
 30
0.0
 11
7.686807062337416
 21
5.010306209186384
 31
0.0
  0
LINE
  5
191
330
70
100
AcDbEntity
  8
Callouts ROMAN
 62
   250
420
  2301728
370
    18
100
AcDbLine
 10
7.739909440310952
 20
4.993237028932576
 30
0.0
 11
7.868878313778609
 21
4.875653135890792
 31
0.0
  0
LWPOLYLINE
  5
192
330
70
100
AcDbEntity
  8
Callouts ROMAN
100
AcDbPolyline
 90
        3
 70
     1
 43
0.0
 10
7.712171863553824
 20
5.018840799313289
 10
7.730902443545826
 20
4.965999072121172
 10
7.791866726200269
 20
4.984490683595645
  0
HATCH
  5
193
330
70
100
AcDbEntity
  8
Callouts ROMAN
 62
    18
420
        0
440
 33554687
100
AcDbHatch
 10
0.0
 20
0.0
 30
0.0
210
0.0
220
0.0
230
1.0
  2
SOLID
 70
     1
 71
     1
 91
        1
 92
        1
 93
        3
 72
     1
 10
7.712171863553824
 20
5.018840799313289
 11
7.730902443545826
 21
4.965999072121172
 72
     1
 10
7.730902443545826
 20
4.965999072121172
 11
7.791866726200269
 21
4.984490683595645
 72
     1
 10
7.791866726200269
 20
4.984490683595645
 11
7.712171863553824
 21
5.018840799313289
 97
        1
330
192
 75
     2
 76
     1
 98
        1
 10
0.0
 20
0.0
450
        0
451
        0
460
0.0
461
0.0
452
        0
462
0.0
453
        0
470

  0
LWPOLYLINE
  5
194
330
70
100
AcDbEntity
  8
Callouts ROMAN
100
AcDbPolyline
 90
        3
 70
     1
 43
0.0
 10
7.894243114995004
 20
4.849571428462947
 10
7.873789685786239
 20
4.905046264287849
 10
7.817737913084745
 20
4.884098871441639
  0
HATCH
  5
195
330
70
100
AcDbEntity
  8
Callouts ROMAN
 62
    18
420
        0
440
 33554687
100
AcDbHatch
 10
0.0
 20
0.0
 30
0.0
210
0.0
220
0.0
230
1.0
  2
SOLID
 70
     1
 71
     1
 91
        1
 92
        1
 93
        3
 72
     1
 10
7.894243114995004
 20
4.849571428462947
 11
7.873789685786239
 21
4.905046264287849
 72
     1
 10
7.873789685786239
 20
4.905046264287849
 11
7.817737913084745
 21
4.884098871441639
 72
     1
 10
7.817737913084745
 20
4.884098871441639
 11
7.894243114995004
 21
4.849571428462947
 97
        1
330
194
 75
     2
 76
     1
 98
        1
 10
0.0
 20
0.0
450
        0
451
        0
460
0.0
461
0.0
452
        0
462
0.0
453
        0
470

  0
MTEXT
  5
196
330
70
100
AcDbEntity
  8
Callouts ROMAN
100
AcDbMText
 10
7.023366610209146
 20
5.13124730851915
 30
0.0
 40
0.2
 41
0.0
 46
0.0
 71
     7
 72
     1
  1
\C250;\c2105123;\FHelvetica Neue LT Std 57 Condensed|b0|i0|c1;\H0.118000;\W1.000000;25mm min.
 73
     1
 44
1.0
  0
MTEXT
  5
197
330
70
100
AcDbEntity
  8
Callouts ROMAN
100
AcDbMText
 10
9.681779967414007
 20
4.63857152726915
 30
0.0
 40
0.2
 41
0.0
 46
0.0
 71
     7
 72
     1
  1
\C250;\c2105123;\FHelvetica Neue LT Std 57 Condensed|b0|i0|c1;\H0.118000;\W1.000000;Lower-wall
 73
     1
 44
1.0
  0
MTEXT
  5
198
330
70
100
AcDbEntity
  8
Callouts ROMAN
100
AcDbMText
 10
9.745025952657062
 20
4.471904860602484
 30
0.0
 40
0.2
 41
0.0
 46
0.0
 71
     7
 72
     1
  1
\C250;\c2105123;\FHelvetica Neue LT Std 57 Condensed|b0|i0|c1;\H0.118000;\W1.000000;top-plate
 73
     1
 44
1.0
  0
MTEXT
  5
199
330
70
100
AcDbEntity
  8
Callouts ROMAN
100
AcDbMText
 10
9.621612866719562
 20
4.305238193935817
 30
0.0
 40
0.2
 41
0.0
 46
0.0
 71
     7
 72
     1
  1
\C250;\c2105123;\FHelvetica Neue LT Std 57 Condensed|b0|i0|c1;\H0.118000;\W1.000000;splice shown
 73
     1
 44
1.0
  0
MTEXT
  5
19A
330
70
100
AcDbEntity
  8
Callouts ROMAN
100
AcDbMText
 10
5.294166035122341
 20
7.67119820912679
 30
0.0
 40
0.2
 41
0.0
 46
0.0
 71
     7
 72
     1
  1
\C250;\c2105123;\FHelvetica Neue LT Std 57 Condensed|b0|i0|c1;\H0.118000;\W1.000000;Upper-wall
 73
     1
 44
1.0
  0
MTEXT
  5
19B
330
70
100
AcDbEntity
  8
Callouts ROMAN
100
AcDbMText
 10
5.230255444844563
 20
7.504531542460123
 30
0.0
 40
0.2
 41
0.0
 46
0.0
 71
     7
 72
     1
  1
\C250;\c2105123;\FHelvetica Neue LT Std 57 Condensed|b0|i0|c1;\H0.118000;\W1.000000;bottom-plate
 73
     1
 44
1.0
  0
MTEXT
  5
19C
330
70
100
AcDbEntity
  8
Callouts ROMAN
100
AcDbMText
 10
5.225582864549424
 20
7.337864875793457
 30
0.0
 40
0.2
 41
0.0
 46
0.0
 71
     7
 72
     1
  1
\C250;\c2105123;\FHelvetica Neue LT Std 57 Condensed|b0|i0|c1;\H0.118000;\W1.000000;splice shown
 73
     1
 44
1.0
  0
MTEXT
  5
19D
330
70
100
AcDbEntity
  8
Callouts ROMAN
100
AcDbMText
 10
5.626821200052896
 20
4.851028124491373
 30
0.0
 40
0.2
 41
0.0
 46
0.0
 71
     7
 72
     1
  1
\C250;\c2105123;\FHelvetica Neue LT Std 57 Condensed|b0|i0|c1;\H0.118000;\W1.000000;Rim joist
 73
     1
 44
1.0
  0
MTEXT
  5
19E
330
70
100
AcDbEntity
  8
Callouts ROMAN
100
AcDbMText
 10
8.373614157986594
 20
4.114396494379939
 30
0.0
 40
0.2
 41
0.0
 46
0.0
 71
     7
 72
     1
  1
\C250;\c2105123;\FHelvetica Neue LT Std 57 Condensed|b0|i0|c1;\H0.106930;\W0.999990;100mm min.
 11
0.9061902739355272
 21
0.4228701779797841
 31
0.0
 73
     1
 44
1.0
  0
MTEXT
  5
19F
330
70
100
AcDbEntity
  8
Callouts ROMAN
100
AcDbMText
 10
8.373306883281555
 20
3.947586439163488
 30
0.0
 40
0.2
 41
0.0
 46
0.0
 71
     7
 72
     1
  1
\C250;\c2105123;\FHelvetica Neue LT Std 57 Condensed|b0|i0|c1;\H0.106930;\W0.999990;end distance
 11
0.9061902739355272
 21
0.4228701779797841
 31
0.0
 73
     1
 44
1.0
  0
MTEXT
  5
1A0
330
70
100
AcDbEntity
  8
Callouts ROMAN
100
AcDbMText
 10
6.874719885315748
 20
8.493420825775602
 30
0.0
 40
0.2
 41
0.0
 46
0.0
 71
     7
 72
     1
  1
\C250;\c2105123;\FHelvetica Neue LT Std 57 Condensed|b0|i0|c1;\H0.116394;\W0.918688;One SDWF screw 
 11
0.9863920309125344
 21
0.1644103444198263
 31
0.0
 73
     1
 44
1.0
  0
MTEXT
  5
1A1
330
70
100
AcDbEntity
  8
Callouts ROMAN
100
AcDbMText
 10
6.621827690401308
 20
8.27322280152455
 30
0.0
 40
0.2
 41
0.0
 46
0.0
 71
     7
 72
     1
  1
\C250;\c2105123;\FHelvetica Neue LT Std 57 Condensed|b0|i0|c1;\H0.116394;\W0.918688;must be installed between 
 11
0.9863920309125344
 21
0.1644103444198263
 31
0.0
 73
     1
 44
1.0
  0
MTEXT
  5
1A2
330
70
100
AcDbEntity
  8
Callouts ROMAN
100
AcDbMText
 10
6.52001525271852
 20
8.089586190433085
 30
0.0
 40
0.2
 41
0.0
 46
0.0
 71
     7
 72
     1
  1
\C250;\c2105123;\FHelvetica Neue LT Std 57 Condensed|b0|i0|c1;\H0.116394;\W0.918688;100mm and 300mm\W0.999988; on each 
 11
0.9863920309125344
 21
0.1644103444198263
 31
0.0
 73
     1
 44
1.0
  0
MTEXT
  5
1A3
330
70
100
AcDbEntity
  8
Callouts ROMAN
100
AcDbMText
 10
6.680680898465247
 20
7.949699032649125
 30
0.0
 40
0.2
 41
0.0
 46
0.0
 71
     7
 72
     1
  1
\C250;\c2105123;\FHelvetica Neue LT Std 57 Condensed|b0|i0|c1;\H0.116394;\W0.999988;side of any upper-wall 
 11
0.9863920309125344
 21
0.1644103444198263
 31
0.0
 73
     1
 44
1.0
  0
MTEXT
  5
1A4
330
70
100
AcDbEntity
  8
Callouts ROMAN
100
AcDbMText
 10
6.770278519380048
 20
7.797966363066936
 30
0.0
 40
0.2
 41
0.0
 46
0.0
 71
     7
 72
     1
  1
\C250;\c2105123;\FHelvetica Neue LT Std 57 Condensed|b0|i0|c1;\H0.116394;\W0.999988;bottom-plate splice.
 11
0.9863920309125344
 21
0.1644103444198263
 31
0.0
 73
     1
 44
1.0
  0
SPLINE
  5
1A5
330
70
100
AcDbEntity
  8
Callouts ROMAN
 62
   250
420
  2301728
370
    18
100
AcDbSpline
210
0.0
220
0.0
230
1.0
 70
     8
 71
     3
 72
     8
 73
     4
 74
     0
 42
0.0000000001
 43
0.0000000001
 40
0.0
 40
0.0
 40
0.0
 40
0.0
 40
1.0
 40
1.0
 40
1.0
 40
1.0
 10
7.803707047270563
 20
4.933539181825178
 30
0.0
 10
7.732374944791861
 20
4.883798453876756
 30
0.0
 10
7.50712549607139
 20
4.869818795602037
 30
0.0
 10
7.431029954476861
 20
5.064402893798513
 30
0.0
  0
LINE
  5
1A6
330
70
100
AcDbEntity
  8
Callouts ROMAN
 62
   250
420
  2301728
370
    18
100
AcDbLine
 10
8.195087580412707
 20
5.179097642989593
 30
0.0
 11
8.354399929448314
 21
5.030220252815827
 31
0.0
  0
LINE
  5
1A7
330
70
100
AcDbEntity
  8
Callouts ROMAN
 62
   250
420
  2301728
370
    18
100
AcDbLine
 10
8.354399929448314
 20
5.024530526064558
 30
0.0
 11
8.365779382950853
 21
4.354087264055174
 31
0.0
  0
LINE
  5
1A8
330
70
100
AcDbEntity
  8
Callouts ROMAN
 62
   250
420
  2301728
370
    18
100
AcDbLine
 10
9.012519243314448
 20
5.012250859713831
 30
0.0
 11
9.00492914782823
 21
4.634772864148948
 31
0.0
  0
LINE
  5
1A9
330
70
100
AcDbEntity
  8
Callouts ROMAN
 62
   250
420
  2301728
370
    18
100
AcDbLine
 10
8.386649300674536
 20
4.409084162832995
 30
0.0
 11
8.976480514071857
 21
4.684035566522096
 31
0.0
  0
LWPOLYLINE
  5
1AA
330
70
100
AcDbEntity
  8
Callouts ROMAN
100
AcDbPolyline
 90
        3
 70
     1
 43
0.0
 10
8.365779382950853
 20
4.403394436081675
 10
8.444334986974302
 20
4.46560354822279
 10
8.444334986974302
 20
4.406461116028063
  0
HATCH
  5
1AB
330
70
100
AcDbEntity
  8
Callouts ROMAN
 62
    18
420
        0
440
 33554687
100
AcDbHatch
 10
0.0
 20
0.0
 30
0.0
210
0.0
220
0.0
230
1.0
  2
SOLID
 70
     1
 71
     1
 91
        1
 92
        1
 93
        3
 72
     1
 10
8.365779382950853
 20
4.403394436081675
 11
8.444334986974302
 21
4.46560354822279
 72
     1
 10
8.444334986974302
 20
4.46560354822279
 11
8.444334986974302
 21
4.406461116028063
 72
     1
 10
8.444334986974302
 20
4.406461116028063
 11
8.365779382950853
 21
4.403394436081675
 97
        1
330
1AA
 75
     2
 76
     1
 98
        1
 10
0.0
 20
0.0
450
        0
451
        0
460
0.0
461
0.0
452
        0
462
0.0
453
        0
470

  0
LWPOLYLINE
  5
1AC
330
70
100
AcDbEntity
  8
Callouts ROMAN
100
AcDbPolyline
 90
        3
 70
     1
 43
0.0
 10
9.023887317363485
 20
5.175296905519744
 10
9.1024429047617
 20
5.232594626153311
 10
9.1024429047617
 20
5.168540821950955
  0
HATCH
  5
1AD
330
70
100
AcDbEntity
  8
Callouts ROMAN
 62
    18
420
        0
440
 33554687
100
AcDbHatch
 10
0.0
 20
0.0
 30
0.0
210
0.0
220
0.0
230
1.0
  2
SOLID
 70
     1
 71
     1
 91
        1
 92
        1
 93
        3
 72
     1
 10
9.023887317363485
 20
5.175296905519744
 11
9.1024429047617
 21
5.232594626153311
 72
     1
 10
9.1024429047617
 20
5.232594626153311
 11
9.1024429047617
 21
5.168540821950955
 72
     1
 10
9.1024429047617
 20
5.168540821950955
 11
9.023887317363485
 21
5.175296905519744
 97
        1
330
1AC
 75
     2
 76
     1
 98
        1
 10
0.0
 20
0.0
450
        0
451
        0
460
0.0
461
0.0
452
        0
462
0.0
453
        0
470

  0
LWPOLYLINE
  5
1AE
330
70
100
AcDbEntity
  8
Callouts ROMAN
100
AcDbPolyline
 90
        3
 70
     1
 43
0.0
 10
9.00427349982058
 20
4.692281118321716
 10
8.925717720440944
 20
4.630071923485552
 10
8.925717720440944
 20
4.689214355680278
  0
HATCH
  5
1AF
330
70
100
AcDbEntity
  8
Callouts ROMAN
 62
    18
420
        0
440
 33554687
100
AcDbHatch
 10
0.0
 20
0.0
 30
0.0
210
0.0
220
0.0
230
1.0
  2
SOLID
 70
     1
 71
     1
 91
        1
 92
        1
 93
        3
 72
     1
 10
9.00427349982058
 20
4.692281118321716
 11
8.925717720440944
 21
4.630071923485552
 72
     1
 10
8.925717720440944
 20
4.630071923485552
 11
8.925717720440944
 21
4.689214355680278
 72
     1
 10
8.925717720440944
 20
4.689214355680278
 11
9.00427349982058
 21
4.692281118321716
 97
        1
330
1AE
 75
     2
 76
     1
 98
        1
 10
0.0
 20
0.0
450
        0
451
        0
460
0.0
461
0.0
452
        0
462
0.0
453
        0
470

  0
SPLINE
  5
1B0
330
70
100
AcDbEntity
  8
Callouts ROMAN
 62
   250
420
  2301728
370
    18
100
AcDbSpline
210
0.0
220
0.0
230
1.0
 70
     8
 71
     3
 72
     8
 73
     4
 74
     0
 42
0.0000000001
 43
0.0000000001
 40
0.0
 40
0.0
 40
0.0
 40
0.0
 40
1.0
 40
1.0
 40
1.0
 40
1.0
 10
9.071316879562067
 20
5.192366085773553
 30
0.0
 10
9.307729378706955
 20
5.267743585774395
 30
0.0
 10
9.849598457793009
 20
5.149693135139032
 30
0.0
 10
9.900105237059353
 20
4.839603027194698
 30
0.0
  0
LWPOLYLINE
  5
1B1
330
70
100
AcDbEntity
  8
Callouts ROMAN
100
AcDbPolyline
 90
        3
 70
     1
 43
0.0
 10
7.241508575015763
 20
7.239562616953598
 10
7.181448958891918
 20
7.195161281674763
 10
7.131208672947372
 20
7.234422517936346
  0
HATCH
  5
1B2
330
70
100
AcDbEntity
  8
Callouts ROMAN
 62
    18
420
        0
440
 33554687
100
AcDbHatch
 10
0.0
 20
0.0
 30
0.0
210
0.0
220
0.0
230
1.0
  2
SOLID
 70
     1
 71
     1
 91
        1
 92
        1
 93
        3
 72
     1
 10
7.241508575015763
 20
7.239562616953598
 11
7.181448958891918
 21
7.195161281674763
 72
     1
 10
7.181448958891918
 20
7.195161281674763
 11
7.131208672947372
 21
7.234422517936346
 72
     1
 10
7.131208672947372
 20
7.234422517936346
 11
7.241508575015763
 21
7.239562616953598
 97
        1
330
1B1
 75
     2
 76
     1
 98
        1
 10
0.0
 20
0.0
450
        0
451
        0
460
0.0
461
0.0
452
        0
462
0.0
453
        0
470

  0
SPLINE
  5
1B3
330
70
100
AcDbEntity
  8
Callouts ROMAN
 62
   250
420
  2301728
370
    18
100
AcDbSpline
210
0.0
220
0.0
230
1.0
 70
     8
 71
     3
 72
     8
 73
     4
 74
     0
 42
0.0000000001
 43
0.0000000001
 40
0.0
 40
0.0
 40
0.0
 40
0.0
 40
1.0
 40
1.0
 40
1.0
 40
1.0
 10
7.19369567218886
 20
7.223609915431135
 30
0.0
 10
6.930079252348932
 20
7.146314825527989
 30
0.0
 10
5.891103172256255
 20
6.947658167994442
 30
0.0
 10
5.698072369423622
 20
7.310604543375309
 30
0.0
  0
LINE
  5
1B4
330
70
100
AcDbEntity
  8
Callouts ROMAN
 62
   250
420
  2301728
370
    18
100
AcDbLine
 10
7.074211410412153
 20
7.390423442061798
 30
0.0
 11
7.057830544780598
 21
7.792582590558317
 31
0.0
  0
LINE
  5
1B5
330
70
100
AcDbEntity
  8
Callouts ROMAN
 62
   250
420
  2301728
370
    18
100
AcDbLine
 10
7.89353206259529
 20
7.567493423814968
 30
0.0
 11
7.885342106690181
 21
7.935170384865955
 31
0.0
  0
LINE
  5
1B6
330
70
100
AcDbEntity
  8
Callouts ROMAN
 62
   250
420
  2301728
370
    18
100
AcDbLine
 10
7.100503494337127
 20
7.696901703722131
 30
0.0
 11
7.856893473652487
 21
7.835611548687274
 31
0.0
  0
LWPOLYLINE
  5
1B7
330
70
100
AcDbEntity
  8
Callouts ROMAN
100
AcDbPolyline
 90
        3
 70
     1
 43
0.0
 10
7.057830544780598
 20
7.690256103044513
 10
7.147032940588246
 20
7.735268668182065
 10
7.147032940588246
 20
7.673670549983549
  0
HATCH
  5
1B8
330
70
100
AcDbEntity
  8
Callouts ROMAN
 62
    18
420
        0
440
 33554687
100
AcDbHatch
 10
0.0
 20
0.0
 30
0.0
210
0.0
220
0.0
230
1.0
  2
SOLID
 70
     1
 71
     1
 91
        1
 92
        1
 93
        3
 72
     1
 10
7.057830544780598
 20
7.690256103044513
 11
7.147032940588246
 21
7.735268668182065
 72
     1
 10
7.147032940588246
 20
7.735268668182065
 11
7.147032940588246
 21
7.673670549983549
 72
     1
 10
7.147032940588246
 20
7.673670549983549
 11
7.057830544780598
 21
7.690256103044513
 97
        1
330
1B7
 75
     2
 76
     1
 98
        1
 10
0.0
 20
0.0
450
        0
451
        0
460
0.0
461
0.0
452
        0
462
0.0
453
        0
470

  0
LWPOLYLINE
  5
1B9
330
70
100
AcDbEntity
  8
Callouts ROMAN
100
AcDbPolyline
 90
        3
 70
     1
 43
0.0
 10
7.883385978682503
 20
7.839978014396402
 10
7.796640406824002
 20
7.792510731689857
 10
7.796640406824002
 20
7.854107711943052
  0
HATCH
  5
1BA
330
70
100
AcDbEntity
  8
Callouts ROMAN
 62
    18
420
        0
440
 33554687
100
AcDbHatch
 10
0.0
 20
0.0
 30
0.0
210
0.0
220
0.0
230
1.0
  2
SOLID
 70
     1
 71
     1
 91
        1
 92
        1
 93
        3
 72
     1
 10
7.883385978682503
 20
7.839978014396402
 11
7.796640406824002
 21
7.792510731689857
 72
     1
 10
7.796640406824002
 20
7.792510731689857
 11
7.796640406824002
 21
7.854107711943052
 72
     1
 10
7.796640406824002
 20
7.854107711943052
 11
7.883385978682503
 21
7.839978014396402
 97
        1
330
1B9
 75
     2
 76
     1
 98
        1
 10
0.0
 20
0.0
450
        0
451
        0
460
0.0
461
0.0
452
        0
462
0.0
453
        0
470

  0
LWPOLYLINE
  5
1BB
330
70
100
AcDbEntity
  8
Callouts ROMAN
100
AcDbPolyline
 90
        3
 70
     1
 43
0.0
 10
6.155948566383901
 20
5.254320278231514
 10
6.065113219039909
 20
5.187198573442401
 10
6.065113219039909
 20
5.261076259605285
  0
HATCH
  5
1BC
330
70
100
AcDbEntity
  8
Callouts ROMAN
 62
    18
420
        0
440
 33554687
100
AcDbHatch
 10
0.0
 20
0.0
 30
0.0
210
0.0
220
0.0
230
1.0
  2
SOLID
 70
     1
 71
     1
 91
        1
 92
        1
 93
        3
 72
     1
 10
6.155948566383901
 20
5.254320278231514
 11
6.065113219039909
 21
5.187198573442401
 72
     1
 10
6.065113219039909
 20
5.187198573442401
 11
6.065113219039909
 21
5.261076259605285
 72
     1
 10
6.065113219039909
 20
5.261076259605285
 11
6.155948566383901
 21
5.254320278231514
 97
        1
330
1BB
 75
     2
 76
     1
 98
        1
 10
0.0
 20
0.0
450
        0
451
        0
460
0.0
461
0.0
452
        0
462
0.0
453
        0
470

  0
SPLINE
  5
1BD
330
70
100
AcDbEntity
  8
Callouts ROMAN
 62
   250
420
  2301728
370
    18
100
AcDbSpline
210
0.0
220
0.0
230
1.0
 70
     8
 71
     3
 72
     8
 73
     4
 74
     0
 42
0.0000000001
 43
0.0000000001
 40
0.0
 40
0.0
 40
0.0
 40
0.0
 40
1.0
 40
1.0
 40
1.0
 40
1.0
 10
6.096239437419082
 20
5.237251098408907
 30
0.0
 10
5.974405321571894
 20
5.219037145592866
 30
0.0
 10
5.896171580718259
 20
5.152315997556898
 30
0.0
 10
5.896171580718259
 20
5.025241643504159
 30
0.0
  0
MTEXT
  5
1BE
330
70
100
AcDbEntity
  8
Callouts ROMAN
100
AcDbMText
 10
7.343831645117865
 20
2.715500301784939
 30
0.0
 40
0.2
 41
0.0
 46
0.0
 71
     7
 72
     1
  1
\C250;\c2105123;\FHelvetica Neue LT Std 55 Roman|b0|i0|c1;\H0.118000;\W1.000000;SIMPSON Strong-Tie\H0.068794;®\H0.118000; ^C
 73
     1
 44
1.0
  0
MTEXT
  5
1BF
330
70
100
AcDbEntity
  8
Callouts ROMAN
100
AcDbMText
 10
7.018541389041476
 20
2.515508439805772
 30
0.0
 40
0.2
 41
0.0
 46
0.0
 71
     7
 72
     1
  1
\C250;\c2105123;\FHelvetica Neue LT Std 55 Roman|b0|i0|c1;\H0.118000;\W1.000000;SDWF-TUW Typical Installation 
 73
     1
 44
1.0
  0
INSERT
  5
1C1
330
70
100
AcDbEntity
  8
Callouts ROMAN
100
AcDbBlockReference
  2
Block_15
 10
0.0
 20
0.0
 30
0.0
  0
INSERT
  5
1CC
330
70
100
AcDbEntity
  8
Callouts ROMAN
100
AcDbBlockReference
  2
Block_17
 10
0.0
 20
0.0
 30
0.0
  0
MTEXT
  5
1D6
330
70
100
AcDbEntity
  8
Callouts ROMAN
100
AcDbMText
 10
9.919071091545951
 20
8.142362488640678
 30
0.0
 40
0.2
 41
0.0
 46
0.0
 71
     7
 72
     1
  1
\C250;\c2105123;\FHelvetica Neue LT Std 57 Condensed|b0|i0|c1;\H0.118000;\W1.000000;Typical 19mm flooring
 73
     1
 44
1.0
  0
MTEXT
  5
1D7
330
70
100
AcDbEntity
  8
Callouts ROMAN
100
AcDbMText
 10
8.405053350660535
 20
8.215557204352483
 30
0.0
 40
0.2
 41
0.0
 46
0.0
 71
     7
 72
     1
  1
\C250;\c2105123;\FHelvetica Neue LT Std 57 Condensed|b0|i0|c1;\H0.118000;\W1.000000;SDWF-TUW
 73
     1
 44
1.0
  0
ENDSEC
  0
SECTION
  2
OBJECTS
  0
DICTIONARY
  5
C
330
0
100
AcDbDictionary
281
     1
  3
ACAD_COLOR
350
63
  3
ACAD_DETAILVIEWSTYLE
350
6A
  3
ACAD_GROUP
350
D
  3
ACAD_LAYOUT
350
62
  3
ACAD_MATERIAL
350
10
  3
ACAD_MLEADERSTYLE
350
66
  3
ACAD_MLINESTYLE
350
5F
  3
ACAD_PLOTSETTINGS
350
61
  3
ACAD_PLOTSTYLENAME
350
E
  3
ACAD_SCALELIST
350
42
  3
ACAD_SECTIONVIEWSTYLE
350
68
  3
ACAD_TABLESTYLE
350
64
  3
ACAD_VISUALSTYLE
350
29
  3
ACDB_RECOMPOSE_DATA
350
1E0
  3
AcDbVariableDictionary
350
1D8
  0
DICTIONARY
  5
63
102
{ACAD_REACTORS
330
C
102
}
330
C
100
AcDbDictionary
281
     1
  0
DICTIONARY
  5
6A
102
{ACAD_REACTORS
330
C
102
}
330
C
100
AcDbDictionary
281
     1
  3
Imperial24
350
6B
  0
DICTIONARY
  5
D
102
{ACAD_REACTORS
330
C
102
}
330
C
100
AcDbDictionary
281
     1
  0
DICTIONARY
  5
62
102
{ACAD_REACTORS
330
C
102
}
330
C
100
AcDbDictionary
281
     1
  3
Layout1
350
6F
  3
Layout2
350
77
  3
Model
350
73
  0
DICTIONARY
  5
10
102
{ACAD_REACTORS
330
C
102
}
330
C
100
AcDbDictionary
281
     1
  3
ByBlock
350
19
  3
ByLayer
350
11
  3
Global
350
21
  0
DICTIONARY
  5
66
102
{ACAD_REACTORS
330
C
102
}
330
C
100
AcDbDictionary
281
     1
  3
Standard
350
67
  0
DICTIONARY
  5
5F
102
{ACAD_REACTORS
330
C
102
}
330
C
100
AcDbDictionary
281
     1
  3
Standard
350
60
  0
DICTIONARY
  5
61
102
{ACAD_REACTORS
330
C
102
}
330
C
100
AcDbDictionary
281
     1
  0
ACDBDICTIONARYWDFLT
  5
E
102
{ACAD_REACTORS
330
C
102
}
330
C
100
AcDbDictionary
281
     1
  3
Normal
350
F
100
AcDbDictionaryWithDefault
340
F
  0
DICTIONARY
  5
42
102
{ACAD_REACTORS
330
C
102
}
330
C
100
AcDbDictionary
281
     1
  3
A0
350
43
  3
A1
350
44
  3
A2
350
45
  3
A3
350
46
  3
A4
350
47
  3
A5
350
48
  3
A6
350
49
  3
A7
350
4A
  3
A8
350
4B
  3
A9
350
4C
  3
B0
350
4D
  3
B1
350
4E
  3
B2
350
4F
  3
B3
350
50
  3
B4
350
51
  3
B5
350
52
  3
B6
350
53
  0
DICTIONARY
  5
68
102
{ACAD_REACTORS
330
C
102
}
330
C
100
AcDbDictionary
281
     1
  3
Imperial24
350
69
  0
DICTIONARY
  5
64
102
{ACAD_REACTORS
330
C
102
}
330
C
100
AcDbDictionary
281
     1
  3
Standard
350
65
  0
DICTIONARY
  5
29
102
{ACAD_REACTORS
330
C
102
}
330
C
100
AcDbDictionary
281
     1
  3
2dWireframe
350
2F
  3
Basic
350
2E
  3
Brighten
350
35
  3
ColorChange
350
39
  3
Conceptual
350
32
  3
Dim
350
34
  3
EdgeColorOff
350
41
  3
Facepattern
350
38
  3
Flat
350
2A
  3
FlatWithEdges
350
2B
  3
Gouraud
350
2C
  3
GouraudWithEdges
350
2D
  3
Hidden
350
31
  3
JitterOff
350
3F
  3
Linepattern
350
37
  3
OverhangOff
350
40
  3
Realistic
350
33
  3
Shaded
350
3E
  3
Shaded with edges
350
3D
  3
Shades of Gray
350
3A
  3
Sketchy
350
3B
  3
Thicken
350
36
  3
Wireframe
350
30
  3
X-Ray
350
3C
  0
XRECORD
  5
1E0
102
{ACAD_REACTORS
330
C
102
}
330
C
100
AcDbXrecord
280
     1
 90
        1
330
65
  0
DICTIONARY
  5
1D8
102
{ACAD_REACTORS
330
C
102
}
330
C
100
AcDbDictionary
281
     1
  3
CANNOSCALE
350
1DD
  3
CMLEADERSTYLE
350
1DA
  3
CTABLESTYLE
350
1D9
  3
CVIEWDETAILSTYLE
350
1DB
  3
CVIEWSECTIONSTYLE
350
1DC
  0
ACDBDETAILVIEWSTYLE
  5
6B
102
{ACAD_REACTORS
330
6A
102
}
330
6A
100
AcDbModelDocViewStyle
 70
     0
  3
Imperial24
290
     1
300
Imperial24
 90
        0
100
AcDbDetailViewStyle
 70
     0
 71
     0
 90
        3
 71
     1
340
55
 62
   256
 40
0.24
340
0
 62
   256
 40
0.24
300

 40
0.36
280
     3
 71
     2
340
5D
 90
       25
 62
   256
 71
     3
340
55
 62
   256
 40
0.24
 90
        1
 40
0.75
 90
        1
300
%<\AcVar ViewType \f "%tc1">% %<\AcVar ViewDetailId>%\PSCALE %<\AcVar ViewScale \f "%sn">%
 71
     4
340
5D
 90
       25
 62
   256
340
5D
 90
       25
 62
   256
280
     0
  0
LAYOUT
  5
6F
102
{ACAD_REACTORS
330
62
102
}
330
62
100
AcDbPlotSettings
  1

  2

  4

  6

 40
0.0
 41
0.0
 42
0.0
 43
0.0
 44
0.0
 45
0.0
 46
0.0
 47
0.0
 48
0.0
 49
0.0
140
0.0
141
0.0
142
1.0
143
1.0
 70
   688
 72
     0
 73
     0
 74
     5
  7

 75
    16
147
1.0
 76
     0
 77
     2
 78
   300
148
0.0
149
0.0
100
AcDbLayout
  1
Layout1
 70
     1
 71
     1
 10
0.0
 20
0.0
 11
12.0
 21
9.0
 12
0.0
 22
0.0
 32
0.0
 14
0.0
 24
0.0
 34
0.0
 15
0.0
 25
0.0
 35
0.0
146
0.0
 13
0.0
 23
0.0
 33
0.0
 16
1.0
 26
0.0
 36
0.0
 17
0.0
 27
1.0
 37
0.0
 76
     0
330
6C
  0
LAYOUT
  5
77
102
{ACAD_REACTORS
330
62
102
}
330
62
100
AcDbPlotSettings
  1

  2

  4

  6

 40
0.0
 41
0.0
 42
0.0
 43
0.0
 44
0.0
 45
0.0
 46
0.0
 47
0.0
 48
0.0
 49
0.0
140
0.0
141
0.0
142
1.0
143
1.0
 70
   688
 72
     0
 73
     0
 74
     5
  7

 75
    16
147
1.0
 76
     0
 77
     2
 78
   300
148
0.0
149
0.0
100
AcDbLayout
  1
Layout2
 70
     1
 71
     2
 10
0.0
 20
0.0
 11
12.0
 21
9.0
 12
0.0
 22
0.0
 32
0.0
 14
0.0
 24
0.0
 34
0.0
 15
0.0
 25
0.0
 35
0.0
146
0.0
 13
0.0
 23
0.0
 33
0.0
 16
1.0
 26
0.0
 36
0.0
 17
0.0
 27
1.0
 37
0.0
 76
     0
330
74
  0
LAYOUT
  5
73
102
{ACAD_REACTORS
330
62
102
}
330
62
100
AcDbPlotSettings
  1

  2

  4

  6

 40
0.0
 41
0.0
 42
0.0
 43
0.0
 44
0.0
 45
0.0
 46
0.0
 47
0.0
 48
0.0
 49
0.0
140
0.0
141
0.0
142
1.0
143
1.0
 70
  1712
 72
     0
 73
     0
 74
     0
  7

 75
     0
147
1.0
 76
     0
 77
     2
 78
   300
148
0.0
149
0.0
100
AcDbLayout
  1
Model
 70
     1
 71
     0
 10
0.0
 20
0.0
 11
12.0
 21
9.0
 12
0.0
 22
0.0
 32
0.0
 14
0.0
 24
0.0
 34
0.0
 15
0.0
 25
0.0
 35
0.0
146
0.0
 13
0.0
 23
0.0
 33
0.0
 16
1.0
 26
0.0
 36
0.0
 17
0.0
 27
1.0
 37
0.0
 76
     0
330
70
  0
MATERIAL
  5
19
102
{ACAD_XDICTIONARY
360
1A
102
}
102
{ACAD_REACTORS
330
10
102
}
330
10
100
AcDbMaterial
  1
ByBlock
 72
     0
 43
0.0208333333333333
 43
0.0
 43
0.0
 43
0.0
 43
0.0
 43
0.0208333333333333
 43
0.0
 43
0.0
 43
0.0
 43
0.0
 43
1.0
 43
0.0
 43
0.0
 43
0.0
 43
0.0
 43
1.0
 77
     0
 47
0.0208333333333333
 47
0.0
 47
0.0
 47
0.0
 47
0.0
 47
0.0208333333333333
 47
0.0
 47
0.0
 47
0.0
 47
0.0
 47
1.0
 47
0.0
 47
0.0
 47
0.0
 47
0.0
 47
1.0
171
     0
 49
0.0208333333333333
 49
0.0
 49
0.0
 49
0.0
 49
0.0
 49
0.0208333333333333
 49
0.0
 49
0.0
 49
0.0
 49
0.0
 49
1.0
 49
0.0
 49
0.0
 49
0.0
 49
0.0
 49
1.0
175
     0
142
0.0208333333333333
142
0.0
142
0.0
142
0.0
142
0.0
142
0.0208333333333333
142
0.0
142
0.0
142
0.0
142
0.0
142
1.0
142
0.0
142
0.0
142
0.0
142
0.0
142
1.0
179
     0
144
0.0208333333333333
144
0.0
144
0.0
144
0.0
144
0.0
144
0.0208333333333333
144
0.0
144
0.0
144
0.0
144
0.0
144
1.0
144
0.0
144
0.0
144
0.0
144
0.0
144
1.0
147
0.0208333333333333
147
0.0
147
0.0
147
0.0
147
0.0
147
0.0208333333333333
147
0.0
147
0.0
147
0.0
147
0.0
147
1.0
147
0.0
147
0.0
147
0.0
147
0.0
147
1.0
  0
MATERIAL
  5
11
102
{ACAD_XDICTIONARY
360
12
102
}
102
{ACAD_REACTORS
330
10
102
}
330
10
100
AcDbMaterial
  1
ByLayer
 72
     0
 43
0.0208333333333333
 43
0.0
 43
0.0
 43
0.0
 43
0.0
 43
0.0208333333333333
 43
0.0
 43
0.0
 43
0.0
 43
0.0
 43
1.0
 43
0.0
 43
0.0
 43
0.0
 43
0.0
 43
1.0
 77
     0
 47
0.0208333333333333
 47
0.0
 47
0.0
 47
0.0
 47
0.0
 47
0.0208333333333333
 47
0.0
 47
0.0
 47
0.0
 47
0.0
 47
1.0
 47
0.0
 47
0.0
 47
0.0
 47
0.0
 47
1.0
171
     0
 49
0.0208333333333333
 49
0.0
 49
0.0
 49
0.0
 49
0.0
 49
0.0208333333333333
 49
0.0
 49
0.0
 49
0.0
 49
0.0
 49
1.0
 49
0.0
 49
0.0
 49
0.0
 49
0.0
 49
1.0
175
     0
142
0.0208333333333333
142
0.0
142
0.0
142
0.0
142
0.0
142
0.0208333333333333
142
0.0
142
0.0
142
0.0
142
0.0
142
1.0
142
0.0
142
0.0
142
0.0
142
0.0
142
1.0
179
     0
144
0.0208333333333333
144
0.0
144
0.0
144
0.0
144
0.0
144
0.0208333333333333
144
0.0
144
0.0
144
0.0
144
0.0
144
1.0
144
0.0
144
0.0
144
0.0
144
0.0
144
1.0
147
0.0208333333333333
147
0.0
147
0.0
147
0.0
147
0.0
147
0.0208333333333333
147
0.0
147
0.0
147
0.0
147
0.0
147
1.0
147
0.0
147
0.0
147
0.0
147
0.0
147
1.0
  0
MATERIAL
  5
21
102
{ACAD_XDICTIONARY
360
22
102
}
102
{ACAD_REACTORS
330
10
102
}
330
10
100
AcDbMaterial
  1
Global
 72
     0
 43
0.0208333333333333
 43
0.0
 43
0.0
 43
0.0
 43
0.0
 43
0.0208333333333333
 43
0.0
 43
0.0
 43
0.0
 43
0.0
 43
1.0
 43
0.0
 43
0.0
 43
0.0
 43
0.0
 43
1.0
 77
     0
 47
0.0208333333333333
 47
0.0
 47
0.0
 47
0.0
 47
0.0
 47
0.0208333333333333
 47
0.0
 47
0.0
 47
0.0
 47
0.0
 47
1.0
 47
0.0
 47
0.0
 47
0.0
 47
0.0
 47
1.0
171
     0
 49
0.0208333333333333
 49
0.0
 49
0.0
 49
0.0
 49
0.0
 49
0.0208333333333333
 49
0.0
 49
0.0
 49
0.0
 49
0.0
 49
1.0
 49
0.0
 49
0.0
 49
0.0
 49
0.0
 49
1.0
175
     0
142
0.0208333333333333
142
0.0
142
0.0
142
0.0
142
0.0
142
0.0208333333333333
142
0.0
142
0.0
142
0.0
142
0.0
142
1.0
142
0.0
142
0.0
142
0.0
142
0.0
142
1.0
179
     0
144
0.0208333333333333
144
0.0
144
0.0
144
0.0
144
0.0
144
0.0208333333333333
144
0.0
144
0.0
144
0.0
144
0.0
144
1.0
144
0.0
144
0.0
144
0.0
144
0.0
144
1.0
147
0.0208333333333333
147
0.0
147
0.0
147
0.0
147
0.0
147
0.0208333333333333
147
0.0
147
0.0
147
0.0
147
0.0
147
1.0
147
0.0
147
0.0
147
0.0
147
0.0
147
1.0
  0
MLEADERSTYLE
  5
67
102
{ACAD_REACTORS
330
66
102
}
330
66
100
AcDbMLeaderStyle
179
     2
170
     2
171
     1
172
     0
 90
        2
 40
0.0
 41
0.0
173
     1
 91
-1056964608
340
5B
 92
       -2
290
     1
 42
0.09
291
     1
 43
0.36
  3
Standard
 44
0.18
300

342
55
174
     1
178
     6
175
     1
176
     0
 93
-1056964608
 45
0.18
292
     0
297
     0
 46
0.18
 94
-1056964608
 47
1.0
 49
1.0
140
1.0
293
     1
141
0.0
294
     1
177
     0
142
1.0
295
     1
296
     0
143
0.125
271
     0
272
     9
273
     9
298
     1
  0
MLINESTYLE
  5
60
102
{ACAD_REACTORS
330
5F
102
}
330
5F
100
AcDbMlineStyle
  2
STANDARD
 70
     0
  3

 62
   256
 51
90.0
 52
90.0
 71
     2
 49
0.5
 62
   256
  6
BYLAYER
 49
-0.5
 62
   256
  6
BYLAYER
  0
ACDBPLACEHOLDER
  5
F
102
{ACAD_REACTORS
330
E
102
}
330
E
  0
SCALE
  5
43
102
{ACAD_REACTORS
330
42
102
}
330
42
100
AcDbScale
 70
     0
300
1:1
140
1.0
141
1.0
290
     1
  0
SCALE
  5
44
102
{ACAD_REACTORS
330
42
102
}
330
42
100
AcDbScale
 70
     0
300
1/128" = 1'-0"
140
0.0078125
141
12.0
290
     0
  0
SCALE
  5
45
102
{ACAD_REACTORS
330
42
102
}
330
42
100
AcDbScale
 70
     0
300
1/64" = 1'-0"
140
0.015625
141
12.0
290
     0
  0
SCALE
  5
46
102
{ACAD_REACTORS
330
42
102
}
330
42
100
AcDbScale
 70
     0
300
1/32" = 1'-0"
140
0.03125
141
12.0
290
     0
  0
SCALE
  5
47
102
{ACAD_REACTORS
330
42
102
}
330
42
100
AcDbScale
 70
     0
300
1/16" = 1'-0"
140
0.0625
141
12.0
290
     0
  0
SCALE
  5
48
102
{ACAD_REACTORS
330
42
102
}
330
42
100
AcDbScale
 70
     0
300
3/32" = 1'-0"
140
0.09375
141
12.0
290
     0
  0
SCALE
  5
49
102
{ACAD_REACTORS
330
42
102
}
330
42
100
AcDbScale
 70
     0
300
1/8" = 1'-0"
140
0.125
141
12.0
290
     0
  0
SCALE
  5
4A
102
{ACAD_REACTORS
330
42
102
}
330
42
100
AcDbScale
 70
     0
300
3/16" = 1'-0"
140
0.1875
141
12.0
290
     0
  0
SCALE
  5
4B
102
{ACAD_REACTORS
330
42
102
}
330
42
100
AcDbScale
 70
     0
300
1/4" = 1'-0"
140
0.25
141
12.0
290
     0
  0
SCALE
  5
4C
102
{ACAD_REACTORS
330
42
102
}
330
42
100
AcDbScale
 70
     0
300
3/8" = 1'-0"
140
0.375
141
12.0
290
     0
  0
SCALE
  5
4D
102
{ACAD_REACTORS
330
42
102
}
330
42
100
AcDbScale
 70
     0
300
1/2" = 1'-0"
140
0.5
141
12.0
290
     0
  0
SCALE
  5
4E
102
{ACAD_REACTORS
330
42
102
}
330
42
100
AcDbScale
 70
     0
300
3/4" = 1'-0"
140
0.75
141
12.0
290
     0
  0
SCALE
  5
4F
102
{ACAD_REACTORS
330
42
102
}
330
42
100
AcDbScale
 70
     0
300
1" = 1'-0"
140
1.0
141
12.0
290
     0
  0
SCALE
  5
50
102
{ACAD_REACTORS
330
42
102
}
330
42
100
AcDbScale
 70
     0
300
1-1/2" = 1'-0"
140
1.5
141
12.0
290
     0
  0
SCALE
  5
51
102
{ACAD_REACTORS
330
42
102
}
330
42
100
AcDbScale
 70
     0
300
3" = 1'-0"
140
3.0
141
12.0
290
     0
  0
SCALE
  5
52
102
{ACAD_REACTORS
330
42
102
}
330
42
100
AcDbScale
 70
     0
300
6" = 1'-0"
140
6.0
141
12.0
290
     0
  0
SCALE
  5
53
102
{ACAD_REACTORS
330
42
102
}
330
42
100
AcDbScale
 70
     0
300
1'-0" = 1'-0"
140
12.0
141
12.0
290
     0
  0
ACDBSECTIONVIEWSTYLE
  5
69
102
{ACAD_REACTORS
330
68
102
}
330
68
100
AcDbModelDocViewStyle
 70
     0
  3
Imperial24
290
     1
300
Imperial24
 90
        0
100
AcDbSectionViewStyle
 70
     0
 71
     0
 90
       78
 71
     1
340
55
 62
   256
 40
0.24
340
0
340
0
 62
   256
 40
0.24
300
I, O, Q, S, X, Z
 40
0.48
 90
        3
 40
0.18
 90
        1
 71
     2
340
5D
 90
       25
 62
   256
340
5D
 90
       50
 62
   256
 40
0.24
 40
0.0
 40
0.24
 71
     3
340
55
 62
   256
 40
0.24
 90
        1
 40
0.75
 90
        1
300
%<\AcVar ViewType \f "%tc1">% %<\AcVar ViewSectionStartId>%-%<\AcVar ViewSectionEndId>%\PSCALE %<\AcVar ViewScale \f "%sn">%
 71
     4
 62
   256
 62
   257
300
ANSI31
 40
1.0
 90
        0
290
     0
290
     0
 90
        6
 40
0.0
 40
1.570796326794896
 40
0.2617993877991494
 40
1.308996938995747
 40
-0.2617993877991494
 40
1.832595714594046
  0
TABLESTYLE
  5
65
102
{ACAD_XDICTIONARY
360
1DE
102
}
102
{ACAD_REACTORS
330
64
102
}
330
64
100
AcDbTableStyle
280
     0
  3
Standard
 70
     0
 71
     0
 40
0.06
 41
0.06
280
     0
281
     0
  7
Standard
140
0.18
170
     2
 62
     0
 63
     7
283
     0
 90
      512
 91
        0
  1

274
    -2
284
     1
 64
     0
275
    -2
285
     1
 65
     0
276
    -2
286
     1
 66
     0
277
    -2
287
     1
 67
     0
278
    -2
288
     1
 68
     0
279
    -2
289
     1
 69
     0
  7
Standard
140
0.25
170
     5
 62
     0
 63
     7
283
     0
 90
      512
 91
        0
  1

274
    -2
284
     1
 64
     0
275
    -2
285
     1
 65
     0
276
    -2
286
     1
 66
     0
277
    -2
287
     1
 67
     0
278
    -2
288
     1
 68
     0
279
    -2
289
     1
 69
     0
  7
Standard
140
0.18
170
     5
 62
     0
 63
     7
283
     0
 90
      512
 91
        0
  1

274
    -2
284
     1
 64
     0
275
    -2
285
     1
 65
     0
276
    -2
286
     1
 66
     0
277
    -2
287
     1
 67
     0
278
    -2
288
     1
 68
     0
279
    -2
289
     1
 69
     0
  0
VISUALSTYLE
  5
2F
102
{ACAD_REACTORS
330
29
102
}
330
29
100
AcDbVisualStyle
  2
2dWireframe
 70
     4
177
     3
291
     0
 70
    58
 90
        0
176
     1
 90
        2
176
     1
 90
        0
176
     1
 90
        0
176
     1
 40
0.6
176
     1
 40
30.0
176
     1
 62
     7
420
 16777215
176
     1
 90
        1
176
     1
 90
        4
176
     1
 62
     7
176
     1
 62
   257
176
     1
 90
        1
176
     1
 90
        1
176
     1
 40
1.0
176
     1
 90
        0
176
     1
 62
   257
176
     1
 40
1.0
176
     1
 90
        1
176
     1
 90
        6
176
     1
 90
        2
176
     1
 62
     7
176
     1
 90
        5
176
     1
 90
        0
176
     1
 90
        0
176
     1
290
     0
176
     1
 90
        1
176
     1
 40
0.0
176
     1
 90
        0
176
     1
290
     1
176
     1
290
     1
176
     1
290
     0
176
     1
290
     0
176
     1
290
     0
176
     1
290
     0
176
     1
290
     0
176
     1
290
     0
176
     1
290
     0
176
     1
 90
       50
176
     1
 40
0.0
176
     1
 40
1.0
176
     1
 90
        0
176
     1
 62
    18
420
        0
176
     1
 90
       50
176
     1
 90
        3
176
     1
 62
     5
420
      255
176
     1
290
     0
176
     1
 90
       50
176
     1
 90
       50
176
     1
 90
       50
176
     1
290
     0
176
     1
 90
       50
176
     1
 62
   256
176
     0
 40
1.0
176
     0
 90
        2
176
     1
  1
strokes_ogs.tif
176
     1
290
     0
176
     1
 40
1.0
176
     1
 40
1.0
176
     1
  0
VISUALSTYLE
  5
2E
102
{ACAD_REACTORS
330
29
102
}
330
29
100
AcDbVisualStyle
  2
Basic
 70
     7
177
     3
291
     1
 70
    58
 90
        1
176
     1
 90
        0
176
     1
 90
        1
176
     1
 90
        0
176
     1
 40
0.6
176
     1
 40
30.0
176
     1
 62
     7
420
 16777215
176
     1
 90
        0
176
     1
 90
        4
176
     1
 62
     7
176
     1
 62
   257
176
     1
 90
        1
176
     1
 90
        1
176
     1
 40
1.0
176
     1
 90
        8
176
     1
 62
     7
176
     1
 40
1.0
176
     1
 90
        1
176
     1
 90
        6
176
     1
 90
        2
176
     1
 62
     7
176
     1
 90
        5
176
     1
 90
        0
176
     1
 90
        0
176
     1
290
     0
176
     1
 90
        1
176
     1
 40
0.0
176
     1
 90
        0
176
     1
290
     0
176
     1
290
     1
176
     1
290
     1
176
     1
290
     0
176
     1
290
     0
176
     1
290
     0
176
     1
290
     0
176
     1
290
     0
176
     1
290
     0
176
     1
 90
       50
176
     1
 40
0.0
176
     1
 40
1.0
176
     1
 90
        0
176
     1
 62
    18
420
        0
176
     1
 90
       50
176
     1
 90
        3
176
     1
 62
     5
420
      255
176
     1
290
     0
176
     1
 90
       50
176
     1
 90
       50
176
     1
 90
       50
176
     1
290
     0
176
     1
 90
       50
176
     1
 62
   256
176
     0
 40
1.0
176
     0
 90
        2
176
     1
  1
strokes_ogs.tif
176
     1
290
     0
176
     1
 40
1.0
176
     1
 40
1.0
176
     1
  0
VISUALSTYLE
  5
35
102
{ACAD_REACTORS
330
29
102
}
330
29
100
AcDbVisualStyle
  2
Brighten
 70
    12
177
     3
291
     1
 70
    58
 90
        2
176
     1
 90
        2
176
     1
 90
        0
176
     1
 90
        0
176
     1
 40
0.6
176
     1
 40
30.0
176
     1
 62
     7
420
 16777215
176
     1
 90
        1
176
     1
 90
        4
176
     1
 62
     7
176
     1
 62
   257
176
     1
 90
        1
176
     1
 90
        1
176
     1
 40
1.0
176
     1
 90
        8
176
     1
 62
     7
176
     1
 40
1.0
176
     1
 90
        1
176
     1
 90
        6
176
     1
 90
        2
176
     1
 62
     7
176
     1
 90
        5
176
     1
 90
        0
176
     1
 90
        0
176
     1
290
     0
176
     1
 90
        1
176
     1
 40
50.0
176
     1
 90
        0
176
     1
290
     0
176
     1
290
     1
176
     1
290
     1
176
     1
290
     0
176
     1
290
     0
176
     1
290
     0
176
     1
290
     0
176
     1
290
     0
176
     1
290
     0
176
     1
 90
       50
176
     1
 40
0.0
176
     1
 40
1.0
176
     1
 90
        0
176
     1
 62
    18
420
        0
176
     1
 90
       50
176
     1
 90
        3
176
     1
 62
     5
420
      255
176
     1
290
     0
176
     1
 90
       50
176
     1
 90
       50
176
     1
 90
       50
176
     1
290
     0
176
     1
 90
       50
176
     1
 62
   256
176
     0
 40
1.0
176
     0
 90
        2
176
     1
  1
strokes_ogs.tif
176
     1
290
     0
176
     1
 40
1.0
176
     1
 40
1.0
176
     1
  0
VISUALSTYLE
  5
39
102
{ACAD_REACTORS
330
29
102
}
330
29
100
AcDbVisualStyle
  2
ColorChange
 70
    16
177
     3
291
     1
 70
    58
 90
        2
176
     1
 90
        2
176
     1
 90
        3
176
     1
 90
        0
176
     1
 40
0.6
176
     1
 40
30.0
176
     1
 62
     8
420
  8421504
176
     1
 90
        1
176
     1
 90
        4
176
     1
 62
     7
176
     1
 62
   257
176
     1
 90
        1
176
     1
 90
        1
176
     1
 40
1.0
176
     1
 90
        8
176
     1
 62
     8
420
  8421504
176
     1
 40
1.0
176
     1
 90
        1
176
     1
 90
        6
176
     1
 90
        2
176
     1
 62
     7
176
     1
 90
        5
176
     1
 90
        0
176
     1
 90
        0
176
     1
290
     0
176
     1
 90
        1
176
     1
 40
0.0
176
     1
 90
        0
176
     1
290
     0
176
     1
290
     1
176
     1
290
     1
176
     1
290
     0
176
     1
290
     0
176
     1
290
     0
176
     1
290
     0
176
     1
290
     0
176
     1
290
     0
176
     1
 90
       50
176
     1
 40
0.0
176
     1
 40
1.0
176
     1
 90
        0
176
     1
 62
    18
420
        0
176
     1
 90
       50
176
     1
 90
        3
176
     1
 62
     5
420
      255
176
     1
290
     0
176
     1
 90
       50
176
     1
 90
       50
176
     1
 90
       50
176
     1
290
     0
176
     1
 90
       50
176
     1
 62
   256
176
     0
 40
1.0
176
     0
 90
        2
176
     1
  1
strokes_ogs.tif
176
     1
290
     0
176
     1
 40
1.0
176
     1
 40
1.0
176
     1
  0
VISUALSTYLE
  5
32
102
{ACAD_REACTORS
330
29
102
}
330
29
100
AcDbVisualStyle
  2
Conceptual
 70
     9
177
     3
291
     0
 70
    58
 90
        3
176
     1
 90
        2
176
     1
 90
        0
176
     1
 90
        0
176
     1
 40
0.6
176
     1
 40
30.0
176
     1
 62
     7
420
 16777215
176
     1
 90
        2
176
     1
 90
        2
176
     1
 62
     7
176
     1
 62
   257
176
     1
 90
        1
176
     1
 90
        1
176
     1
 40
179.0
176
     1
 90
        8
176
     1
 62
     7
176
     1
 40
1.0
176
     1
 90
        1
176
     1
 90
        6
176
     1
 90
        2
176
     1
 62
     7
176
     1
 90
        3
176
     1
 90
        0
176
     1
 90
        0
176
     1
290
     0
176
     1
 90
        1
176
     1
 40
0.0
176
     1
 90
        0
176
     1
290
     0
176
     1
290
     1
176
     1
290
     1
176
     1
290
     0
176
     1
290
     0
176
     1
290
     0
176
     1
290
     0
176
     1
290
     0
176
     1
290
     0
176
     1
 90
       50
176
     1
 40
0.0
176
     1
 40
1.0
176
     1
 90
        0
176
     1
 62
    18
420
        0
176
     1
 90
       50
176
     1
 90
        3
176
     1
 62
     5
420
      255
176
     1
290
     0
176
     1
 90
       50
176
     1
 90
       50
176
     1
 90
       50
176
     1
290
     0
176
     1
 90
       50
176
     1
 62
   256
176
     0
 40
1.0
176
     0
 90
        2
176
     1
  1
strokes_ogs.tif
176
     1
290
     0
176
     1
 40
1.0
176
     1
 40
1.0
176
     1
  0
VISUALSTYLE
  5
34
102
{ACAD_REACTORS
330
29
102
}
330
29
100
AcDbVisualStyle
  2
Dim
 70
    11
177
     3
291
     1
 70
    58
 90
        2
176
     1
 90
        2
176
     1
 90
        0
176
     1
 90
        0
176
     1
 40
0.6
176
     1
 40
30.0
176
     1
 62
     7
420
 16777215
176
     1
 90
        1
176
     1
 90
        4
176
     1
 62
     7
176
     1
 62
   257
176
     1
 90
        1
176
     1
 90
        1
176
     1
 40
1.0
176
     1
 90
        8
176
     1
 62
     7
176
     1
 40
1.0
176
     1
 90
        1
176
     1
 90
        6
176
     1
 90
        2
176
     1
 62
     7
176
     1
 90
        5
176
     1
 90
        0
176
     1
 90
        0
176
     1
290
     0
176
     1
 90
        1
176
     1
 40
-50.0
176
     1
 90
        0
176
     1
290
     0
176
     1
290
     1
176
     1
290
     1
176
     1
290
     0
176
     1
290
     0
176
     1
290
     0
176
     1
290
     0
176
     1
290
     0
176
     1
290
     0
176
     1
 90
       50
176
     1
 40
0.0
176
     1
 40
1.0
176
     1
 90
        0
176
     1
 62
    18
420
        0
176
     1
 90
       50
176
     1
 90
        3
176
     1
 62
     5
420
      255
176
     1
290
     0
176
     1
 90
       50
176
     1
 90
       50
176
     1
 90
       50
176
     1
290
     0
176
     1
 90
       50
176
     1
 62
   256
176
     0
 40
1.0
176
     0
 90
        2
176
     1
  1
strokes_ogs.tif
176
     1
290
     0
176
     1
 40
1.0
176
     1
 40
1.0
176
     1
  0
VISUALSTYLE
  5
41
102
{ACAD_REACTORS
330
29
102
}
330
29
100
AcDbVisualStyle
  2
EdgeColorOff
 70
    22
177
     3
291
     1
 70
    58
 90
        2
176
     0
 90
        2
176
     0
 90
        0
176
     0
 90
        0
176
     0
 40
0.6
176
     0
 40
30.0
176
     0
 62
     7
420
 16777215
176
     0
 90
        1
176
     0
 90
        4
176
     0
 62
     7
176
     0
 62
   257
176
     0
 90
        1
176
     0
 90
        1
176
     0
 40
1.0
176
     0
 90
        8
176
     2
 62
     7
176
     0
 40
1.0
176
     0
 90
        1
176
     0
 90
        6
176
     0
 90
        2
176
     0
 62
     7
176
     0
 90
        5
176
     0
 90
        0
176
     0
 90
        0
176
     0
290
     0
176
     0
 90
        1
176
     0
 40
0.0
176
     0
 90
        0
176
     0
290
     0
176
     0
290
     1
176
     0
290
     1
176
     0
290
     0
176
     0
290
     0
176
     0
290
     0
176
     0
290
     0
176
     0
290
     0
176
     0
290
     0
176
     0
 90
       50
176
     0
 40
0.0
176
     0
 40
1.0
176
     0
 90
        0
176
     0
 62
    18
420
        0
176
     0
 90
       50
176
     0
 90
        3
176
     0
 62
     5
420
      255
176
     0
290
     0
176
     0
 90
       50
176
     0
 90
       50
176
     0
 90
       50
176
     0
290
     0
176
     0
 90
       50
176
     0
 62
   256
176
     0
 40
1.0
176
     0
 90
        2
176
     0
  1
strokes_ogs.tif
176
     0
290
     0
176
     0
 40
1.0
176
     0
 40
1.0
176
     0
  0
VISUALSTYLE
  5
38
102
{ACAD_REACTORS
330
29
102
}
330
29
100
AcDbVisualStyle
  2
Facepattern
 70
    15
177
     3
291
     1
 70
    58
 90
        2
176
     1
 90
        2
176
     1
 90
        0
176
     1
 90
        0
176
     1
 40
0.6
176
     1
 40
30.0
176
     1
 62
     7
420
 16777215
176
     1
 90
        1
176
     1
 90
        4
176
     1
 62
     7
176
     1
 62
   257
176
     1
 90
        1
176
     1
 90
        1
176
     1
 40
1.0
176
     1
 90
        8
176
     1
 62
     7
176
     1
 40
1.0
176
     1
 90
        1
176
     1
 90
        6
176
     1
 90
        2
176
     1
 62
     7
176
     1
 90
        5
176
     1
 90
        0
176
     1
 90
        0
176
     1
290
     0
176
     1
 90
        1
176
     1
 40
0.0
176
     1
 90
        0
176
     1
290
     0
176
     1
290
     1
176
     1
290
     1
176
     1
290
     0
176
     1
290
     0
176
     1
290
     0
176
     1
290
     0
176
     1
290
     0
176
     1
290
     0
176
     1
 90
       50
176
     1
 40
0.0
176
     1
 40
1.0
176
     1
 90
        0
176
     1
 62
    18
420
        0
176
     1
 90
       50
176
     1
 90
        3
176
     1
 62
     5
420
      255
176
     1
290
     0
176
     1
 90
       50
176
     1
 90
       50
176
     1
 90
       50
176
     1
290
     0
176
     1
 90
       50
176
     1
 62
   256
176
     0
 40
1.0
176
     0
 90
        2
176
     1
  1
strokes_ogs.tif
176
     1
290
     0
176
     1
 40
1.0
176
     1
 40
1.0
176
     1
  0
VISUALSTYLE
  5
2A
102
{ACAD_REACTORS
330
29
102
}
330
29
100
AcDbVisualStyle
  2
Flat
 70
     0
177
     3
291
     1
 70
    58
 90
        2
176
     1
 90
        1
176
     1
 90
        1
176
     1
 90
        2
176
     1
 40
0.6
176
     1
 40
30.0
176
     1
 62
     7
420
 16777215
176
     1
 90
        0
176
     1
 90
        0
176
     1
 62
     7
176
     1
 62
   257
176
     1
 90
        1
176
     1
 90
        1
176
     1
 40
1.0
176
     1
 90
        8
176
     1
 62
     7
176
     1
 40
1.0
176
     1
 90
        1
176
     1
 90
        6
176
     1
 90
        2
176
     1
 62
     7
176
     1
 90
        5
176
     1
 90
        0
176
     1
 90
        0
176
     1
290
     0
176
     1
 90
       13
176
     1
 40
0.0
176
     1
 90
        0
176
     1
290
     0
176
     1
290
     1
176
     1
290
     1
176
     1
290
     0
176
     1
290
     0
176
     1
290
     0
176
     1
290
     0
176
     1
290
     0
176
     1
290
     0
176
     1
 90
       50
176
     1
 40
0.0
176
     1
 40
1.0
176
     1
 90
        0
176
     1
 62
    18
420
        0
176
     1
 90
       50
176
     1
 90
        3
176
     1
 62
     5
420
      255
176
     1
290
     0
176
     1
 90
       50
176
     1
 90
       50
176
     1
 90
       50
176
     1
290
     0
176
     1
 90
       50
176
     1
 62
   256
176
     0
 40
1.0
176
     0
 90
        2
176
     1
  1
strokes_ogs.tif
176
     1
290
     0
176
     1
 40
1.0
176
     1
 40
1.0
176
     1
  0
VISUALSTYLE
  5
2B
102
{ACAD_REACTORS
330
29
102
}
330
29
100
AcDbVisualStyle
  2
FlatWithEdges
 70
     1
177
     3
291
     1
 70
    58
 90
        2
176
     1
 90
        1
176
     1
 90
        1
176
     1
 90
        2
176
     1
 40
0.6
176
     1
 40
30.0
176
     1
 62
     7
420
 16777215
176
     1
 90
        1
176
     1
 90
        0
176
     1
 62
     7
176
     1
 62
   257
176
     1
 90
        1
176
     1
 90
        1
176
     1
 40
1.0
176
     1
 90
        0
176
     1
 62
   257
176
     1
 40
1.0
176
     1
 90
        1
176
     1
 90
        6
176
     1
 90
        2
176
     1
 62
     7
176
     1
 90
        5
176
     1
 90
        0
176
     1
 90
        0
176
     1
290
     0
176
     1
 90
       13
176
     1
 40
0.0
176
     1
 90
        0
176
     1
290
     0
176
     1
290
     1
176
     1
290
     1
176
     1
290
     0
176
     1
290
     0
176
     1
290
     0
176
     1
290
     0
176
     1
290
     0
176
     1
290
     0
176
     1
 90
       50
176
     1
 40
0.0
176
     1
 40
1.0
176
     1
 90
        0
176
     1
 62
    18
420
        0
176
     1
 90
       50
176
     1
 90
        3
176
     1
 62
     5
420
      255
176
     1
290
     0
176
     1
 90
       50
176
     1
 90
       50
176
     1
 90
       50
176
     1
290
     0
176
     1
 90
       50
176
     1
 62
   256
176
     0
 40
1.0
176
     0
 90
        2
176
     1
  1
strokes_ogs.tif
176
     1
290
     0
176
     1
 40
1.0
176
     1
 40
1.0
176
     1
  0
VISUALSTYLE
  5
2C
102
{ACAD_REACTORS
330
29
102
}
330
29
100
AcDbVisualStyle
  2
Gouraud
 70
     2
177
     3
291
     1
 70
    58
 90
        2
176
     1
 90
        2
176
     1
 90
        1
176
     1
 90
        2
176
     1
 40
0.6
176
     1
 40
30.0
176
     1
 62
     7
420
 16777215
176
     1
 90
        0
176
     1
 90
        0
176
     1
 62
     7
176
     1
 62
   257
176
     1
 90
        1
176
     1
 90
        1
176
     1
 40
1.0
176
     1
 90
        0
176
     1
 62
     7
176
     1
 40
1.0
176
     1
 90
        1
176
     1
 90
        6
176
     1
 90
        2
176
     1
 62
     7
176
     1
 90
        5
176
     1
 90
        0
176
     1
 90
        0
176
     1
290
     0
176
     1
 90
       13
176
     1
 40
0.0
176
     1
 90
        0
176
     1
290
     0
176
     1
290
     1
176
     1
290
     1
176
     1
290
     0
176
     1
290
     0
176
     1
290
     0
176
     1
290
     0
176
     1
290
     0
176
     1
290
     0
176
     1
 90
       50
176
     1
 40
0.0
176
     1
 40
1.0
176
     1
 90
        0
176
     1
 62
    18
420
        0
176
     1
 90
       50
176
     1
 90
        3
176
     1
 62
     5
420
      255
176
     1
290
     0
176
     1
 90
       50
176
     1
 90
       50
176
     1
 90
       50
176
     1
290
     0
176
     1
 90
       50
176
     1
 62
   256
176
     0
 40
1.0
176
     0
 90
        2
176
     1
  1
strokes_ogs.tif
176
     1
290
     0
176
     1
 40
1.0
176
     1
 40
1.0
176
     1
  0
VISUALSTYLE
  5
2D
102
{ACAD_REACTORS
330
29
102
}
330
29
100
AcDbVisualStyle
  2
GouraudWithEdges
 70
     3
177
     3
291
     1
 70
    58
 90
        2
176
     1
 90
        2
176
     1
 90
        1
176
     1
 90
        2
176
     1
 40
0.6
176
     1
 40
30.0
176
     1
 62
     7
420
 16777215
176
     1
 90
        1
176
     1
 90
        0
176
     1
 62
     7
176
     1
 62
   257
176
     1
 90
        1
176
     1
 90
        1
176
     1
 40
1.0
176
     1
 90
        0
176
     1
 62
   257
176
     1
 40
1.0
176
     1
 90
        1
176
     1
 90
        6
176
     1
 90
        2
176
     1
 62
     7
176
     1
 90
        5
176
     1
 90
        0
176
     1
 90
        0
176
     1
290
     0
176
     1
 90
       13
176
     1
 40
0.0
176
     1
 90
        0
176
     1
290
     0
176
     1
290
     1
176
     1
290
     1
176
     1
290
     0
176
     1
290
     0
176
     1
290
     0
176
     1
290
     0
176
     1
290
     0
176
     1
290
     0
176
     1
 90
       50
176
     1
 40
0.0
176
     1
 40
1.0
176
     1
 90
        0
176
     1
 62
    18
420
        0
176
     1
 90
       50
176
     1
 90
        3
176
     1
 62
     5
420
      255
176
     1
290
     0
176
     1
 90
       50
176
     1
 90
       50
176
     1
 90
       50
176
     1
290
     0
176
     1
 90
       50
176
     1
 62
   256
176
     0
 40
1.0
176
     0
 90
        2
176
     1
  1
strokes_ogs.tif
176
     1
290
     0
176
     1
 40
1.0
176
     1
 40
1.0
176
     1
  0
VISUALSTYLE
  5
31
102
{ACAD_REACTORS
330
29
102
}
330
29
100
AcDbVisualStyle
  2
Hidden
 70
     6
177
     3
291
     0
 70
    58
 90
        1
176
     1
 90
        2
176
     1
 90
        2
176
     1
 90
        0
176
     1
 40
0.6
176
     1
 40
30.0
176
     1
 62
     7
420
 16777215
176
     1
 90
        2
176
     1
 90
        2
176
     1
 62
     7
176
     1
 62
   257
176
     1
 90
        2
176
     1
 90
        1
176
     1
 40
40.0
176
     1
 90
        0
176
     1
 62
   257
176
     1
 40
1.0
176
     1
 90
        1
176
     1
 90
        6
176
     1
 90
        2
176
     1
 62
     7
176
     1
 90
        3
176
     1
 90
        0
176
     1
 90
        0
176
     1
290
     0
176
     1
 90
        1
176
     1
 40
0.0
176
     1
 90
        0
176
     1
290
     0
176
     1
290
     1
176
     1
290
     1
176
     1
290
     0
176
     1
290
     0
176
     1
290
     0
176
     1
290
     0
176
     1
290
     0
176
     1
290
     0
176
     1
 90
       50
176
     1
 40
0.0
176
     1
 40
1.0
176
     1
 90
        0
176
     1
 62
    18
420
        0
176
     1
 90
       50
176
     1
 90
        3
176
     1
 62
     5
420
      255
176
     1
290
     0
176
     1
 90
       50
176
     1
 90
       50
176
     1
 90
       50
176
     1
290
     0
176
     1
 90
       50
176
     1
 62
   256
176
     0
 40
1.0
176
     0
 90
        2
176
     1
  1
strokes_ogs.tif
176
     1
290
     0
176
     1
 40
1.0
176
     1
 40
1.0
176
     1
  0
VISUALSTYLE
  5
3F
102
{ACAD_REACTORS
330
29
102
}
330
29
100
AcDbVisualStyle
  2
JitterOff
 70
    20
177
     3
291
     1
 70
    58
 90
        2
176
     0
 90
        2
176
     0
 90
        0
176
     0
 90
        0
176
     0
 40
0.6
176
     0
 40
30.0
176
     0
 62
     7
420
 16777215
176
     0
 90
        1
176
     0
 90
        4
176
     0
 62
     7
176
     0
 62
   257
176
     0
 90
        1
176
     0
 90
        1
176
     0
 40
1.0
176
     0
 90
       10
176
     2
 62
     7
176
     0
 40
1.0
176
     0
 90
        1
176
     0
 90
        6
176
     0
 90
        2
176
     0
 62
     7
176
     0
 90
        5
176
     0
 90
        0
176
     0
 90
        0
176
     0
290
     0
176
     0
 90
        1
176
     0
 40
0.0
176
     0
 90
        0
176
     0
290
     0
176
     0
290
     1
176
     0
290
     1
176
     0
290
     0
176
     0
290
     0
176
     0
290
     0
176
     0
290
     0
176
     0
290
     0
176
     0
290
     0
176
     0
 90
       50
176
     0
 40
0.0
176
     0
 40
1.0
176
     0
 90
        0
176
     0
 62
    18
420
        0
176
     0
 90
       50
176
     0
 90
        3
176
     0
 62
     5
420
      255
176
     0
290
     0
176
     0
 90
       50
176
     0
 90
       50
176
     0
 90
       50
176
     0
290
     0
176
     0
 90
       50
176
     0
 62
   256
176
     0
 40
1.0
176
     0
 90
        2
176
     0
  1
strokes_ogs.tif
176
     0
290
     0
176
     0
 40
1.0
176
     0
 40
1.0
176
     0
  0
VISUALSTYLE
  5
37
102
{ACAD_REACTORS
330
29
102
}
330
29
100
AcDbVisualStyle
  2
Linepattern
 70
    14
177
     3
291
     1
 70
    58
 90
        2
176
     1
 90
        2
176
     1
 90
        0
176
     1
 90
        0
176
     1
 40
0.6
176
     1
 40
30.0
176
     1
 62
     7
420
 16777215
176
     1
 90
        1
176
     1
 90
        4
176
     1
 62
     7
176
     1
 62
   257
176
     1
 90
        7
176
     1
 90
        7
176
     1
 40
1.0
176
     1
 90
        8
176
     1
 62
     7
176
     1
 40
1.0
176
     1
 90
        1
176
     1
 90
        6
176
     1
 90
        2
176
     1
 62
     7
176
     1
 90
        5
176
     1
 90
        0
176
     1
 90
        0
176
     1
290
     0
176
     1
 90
        1
176
     1
 40
0.0
176
     1
 90
        0
176
     1
290
     0
176
     1
290
     1
176
     1
290
     1
176
     1
290
     0
176
     1
290
     0
176
     1
290
     0
176
     1
290
     0
176
     1
290
     0
176
     1
290
     0
176
     1
 90
       50
176
     1
 40
0.0
176
     1
 40
1.0
176
     1
 90
        0
176
     1
 62
    18
420
        0
176
     1
 90
       50
176
     1
 90
        3
176
     1
 62
     5
420
      255
176
     1
290
     0
176
     1
 90
       50
176
     1
 90
       50
176
     1
 90
       50
176
     1
290
     0
176
     1
 90
       50
176
     1
 62
   256
176
     0
 40
1.0
176
     0
 90
        2
176
     1
  1
strokes_ogs.tif
176
     1
290
     0
176
     1
 40
1.0
176
     1
 40
1.0
176
     1
  0
VISUALSTYLE
  5
40
102
{ACAD_REACTORS
330
29
102
}
330
29
100
AcDbVisualStyle
  2
OverhangOff
 70
    21
177
     3
291
     1
 70
    58
 90
        2
176
     0
 90
        2
176
     0
 90
        0
176
     0
 90
        0
176
     0
 40
0.6
176
     0
 40
30.0
176
     0
 62
     7
420
 16777215
176
     0
 90
        1
176
     0
 90
        4
176
     0
 62
     7
176
     0
 62
   257
176
     0
 90
        1
176
     0
 90
        1
176
     0
 40
1.0
176
     0
 90
        9
176
     2
 62
     7
176
     0
 40
1.0
176
     0
 90
        1
176
     0
 90
        6
176
     0
 90
        2
176
     0
 62
     7
176
     0
 90
        5
176
     0
 90
        0
176
     0
 90
        0
176
     0
290
     0
176
     0
 90
        1
176
     0
 40
0.0
176
     0
 90
        0
176
     0
290
     0
176
     0
290
     1
176
     0
290
     1
176
     0
290
     0
176
     0
290
     0
176
     0
290
     0
176
     0
290
     0
176
     0
290
     0
176
     0
290
     0
176
     0
 90
       50
176
     0
 40
0.0
176
     0
 40
1.0
176
     0
 90
        0
176
     0
 62
    18
420
        0
176
     0
 90
       50
176
     0
 90
        3
176
     0
 62
     5
420
      255
176
     0
290
     0
176
     0
 90
       50
176
     0
 90
       50
176
     0
 90
       50
176
     0
290
     0
176
     0
 90
       50
176
     0
 62
   256
176
     0
 40
1.0
176
     0
 90
        2
176
     0
  1
strokes_ogs.tif
176
     0
290
     0
176
     0
 40
1.0
176
     0
 40
1.0
176
     0
  0
VISUALSTYLE
  5
33
102
{ACAD_REACTORS
330
29
102
}
330
29
100
AcDbVisualStyle
  2
Realistic
 70
     8
177
     3
291
     0
 70
    58
 90
        2
176
     1
 90
        3
176
     1
 90
        0
176
     1
 90
        2
176
     1
 40
0.6
176
     1
 40
30.0
176
     1
 62
     7
420
 16777215
176
     1
 90
        0
176
     1
 90
        0
176
     1
 62
     7
176
     1
 62
   257
176
     1
 90
        1
176
     1
 90
        1
176
     1
 40
1.0
176
     1
 90
        8
176
     1
 62
   257
176
     1
 40
1.0
176
     1
 90
        1
176
     1
 90
        6
176
     1
 90
        2
176
     1
 62
     7
176
     1
 90
        3
176
     1
 90
        0
176
     1
 90
        0
176
     1
290
     0
176
     1
 90
       13
176
     1
 40
0.0
176
     1
 90
        0
176
     1
290
     0
176
     1
290
     1
176
     1
290
     1
176
     1
290
     0
176
     1
290
     0
176
     1
290
     0
176
     1
290
     0
176
     1
290
     0
176
     1
290
     0
176
     1
 90
       50
176
     1
 40
0.0
176
     1
 40
1.0
176
     1
 90
        0
176
     1
 62
    18
420
        0
176
     1
 90
       50
176
     1
 90
        3
176
     1
 62
     5
420
      255
176
     1
290
     0
176
     1
 90
       50
176
     1
 90
       50
176
     1
 90
       50
176
     1
290
     0
176
     1
 90
       50
176
     1
 62
   256
176
     0
 40
1.0
176
     0
 90
        2
176
     1
  1
strokes_ogs.tif
176
     1
290
     0
176
     1
 40
1.0
176
     1
 40
1.0
176
     1
  0
VISUALSTYLE
  5
3E
102
{ACAD_REACTORS
330
29
102
}
330
29
100
AcDbVisualStyle
  2
Shaded
 70
    27
177
     3
291
     0
 70
    58
 90
        2
176
     1
 90
        2
176
     1
 90
        1
176
     1
 90
        2
176
     1
 40
0.6
176
     1
 40
30.0
176
     1
 62
     7
420
 16777215
176
     1
 90
        0
176
     1
 90
        4
176
     1
 62
     7
176
     1
 62
   257
176
     1
 90
        1
176
     1
 90
        1
176
     1
 40
1.0
176
     1
 90
        8
176
     1
 62
   257
176
     1
 40
1.0
176
     1
 90
        1
176
     1
 90
        6
176
     1
 90
        2
176
     1
 62
     8
420
  7895160
176
     1
 90
        3
176
     1
 90
        0
176
     1
 90
        0
176
     1
290
     0
176
     1
 90
        5
176
     1
 40
0.0
176
     1
 90
        0
176
     1
290
     0
176
     1
290
     1
176
     1
290
     1
176
     1
290
     0
176
     1
290
     0
176
     1
290
     0
176
     1
290
     0
176
     1
290
     0
176
     1
290
     0
176
     1
 90
       50
176
     1
 40
0.0
176
     1
 40
1.0
176
     1
 90
        0
176
     1
 62
    18
420
        0
176
     1
 90
       50
176
     1
 90
        3
176
     1
 62
     5
420
      255
176
     1
290
     0
176
     1
 90
       50
176
     1
 90
       50
176
     1
 90
       50
176
     1
290
     0
176
     1
 90
       50
176
     1
 62
   256
176
     0
 40
1.0
176
     0
 90
        2
176
     1
  1
strokes_ogs.tif
176
     1
290
     0
176
     1
 40
1.0
176
     1
 40
1.0
176
     1
  0
VISUALSTYLE
  5
3D
102
{ACAD_REACTORS
330
29
102
}
330
29
100
AcDbVisualStyle
  2
Shaded with edges
 70
    26
177
     3
291
     0
 70
    58
 90
        2
176
     1
 90
        2
176
     1
 90
        1
176
     1
 90
        2
176
     1
 40
0.6
176
     1
 40
30.0
176
     1
 62
     7
420
 16777215
176
     1
 90
        1
176
     1
 90
        2
176
     1
 62
     7
176
     1
 62
   257
176
     1
 90
        2
176
     1
 90
        1
176
     1
 40
1.0
176
     1
 90
        8
176
     1
 62
   257
176
     1
 40
1.0
176
     1
 90
        1
176
     1
 90
        6
176
     1
 90
        2
176
     1
 62
     7
176
     1
 90
        3
176
     1
 90
        0
176
     1
 90
        0
176
     1
290
     0
176
     1
 90
        5
176
     1
 40
0.0
176
     1
 90
        0
176
     1
290
     0
176
     1
290
     1
176
     1
290
     1
176
     1
290
     0
176
     1
290
     0
176
     1
290
     0
176
     1
290
     0
176
     1
290
     0
176
     1
290
     0
176
     1
 90
       50
176
     1
 40
0.0
176
     1
 40
1.0
176
     1
 90
        0
176
     1
 62
    18
420
        0
176
     1
 90
       50
176
     1
 90
        3
176
     1
 62
     5
420
      255
176
     1
290
     0
176
     1
 90
       50
176
     1
 90
       50
176
     1
 90
       50
176
     1
290
     0
176
     1
 90
       50
176
     1
 62
   256
176
     0
 40
1.0
176
     0
 90
        2
176
     1
  1
strokes_ogs.tif
176
     1
290
     0
176
     1
 40
1.0
176
     1
 40
1.0
176
     1
  0
VISUALSTYLE
  5
3A
102
{ACAD_REACTORS
330
29
102
}
330
29
100
AcDbVisualStyle
  2
Shades of Gray
 70
    23
177
     3
291
     0
 70
    58
 90
        2
176
     1
 90
        2
176
     1
 90
        3
176
     1
 90
        0
176
     1
 40
0.6
176
     1
 40
30.0
176
     1
 62
     7
420
 16777215
176
     1
 90
        2
176
     1
 90
        2
176
     1
 62
     7
176
     1
 62
     7
176
     1
 90
        1
176
     1
 90
        1
176
     1
 40
40.0
176
     1
 90
        8
176
     1
 62
     7
176
     1
 40
1.0
176
     1
 90
        1
176
     1
 90
        6
176
     1
 90
        2
176
     1
 62
     7
176
     1
 90
        3
176
     1
 90
        0
176
     1
 90
        0
176
     1
290
     0
176
     1
 90
        1
176
     1
 40
0.0
176
     1
 90
        0
176
     1
290
     0
176
     1
290
     1
176
     1
290
     1
176
     1
290
     0
176
     1
290
     0
176
     1
290
     0
176
     1
290
     0
176
     1
290
     0
176
     1
290
     0
176
     1
 90
       50
176
     1
 40
0.0
176
     1
 40
1.0
176
     1
 90
        0
176
     1
 62
    18
420
        0
176
     1
 90
       50
176
     1
 90
        3
176
     1
 62
     5
420
      255
176
     1
290
     0
176
     1
 90
       50
176
     1
 90
       50
176
     1
 90
       50
176
     1
290
     0
176
     1
 90
       50
176
     1
 62
   256
176
     0
 40
1.0
176
     0
 90
        2
176
     1
  1
strokes_ogs.tif
176
     1
290
     0
176
     1
 40
1.0
176
     1
 40
1.0
176
     1
  0
VISUALSTYLE
  5
3B
102
{ACAD_REACTORS
330
29
102
}
330
29
100
AcDbVisualStyle
  2
Sketchy
 70
    24
177
     3
291
     0
 70
    58
 90
        1
176
     1
 90
        2
176
     1
 90
        2
176
     1
 90
        0
176
     1
 40
0.6
176
     1
 40
30.0
176
     1
 62
     7
420
 16777215
176
     1
 90
        2
176
     1
 90
        2
176
     1
 62
     7
176
     1
 62
     7
176
     1
 90
        1
176
     1
 90
        1
176
     1
 40
40.0
176
     1
 90
       11
176
     1
 62
     7
176
     1
 40
1.0
176
     1
 90
        1
176
     1
 90
        6
176
     1
 90
        2
176
     1
 62
     7
176
     1
 90
        6
176
     1
 90
        0
176
     1
 90
        0
176
     1
290
     0
176
     1
 90
        1
176
     1
 40
0.0
176
     1
 90
        0
176
     1
290
     0
176
     1
290
     1
176
     1
290
     1
176
     1
290
     0
176
     1
290
     0
176
     1
290
     0
176
     1
290
     0
176
     1
290
     0
176
     1
290
     0
176
     1
 90
       50
176
     1
 40
0.0
176
     1
 40
1.0
176
     1
 90
        0
176
     1
 62
    18
420
        0
176
     1
 90
       50
176
     1
 90
        3
176
     1
 62
     5
420
      255
176
     1
290
     0
176
     1
 90
       50
176
     1
 90
       50
176
     1
 90
       50
176
     1
290
     0
176
     1
 90
       50
176
     1
 62
   256
176
     0
 40
1.0
176
     0
 90
        2
176
     1
  1
strokes_ogs.tif
176
     1
290
     0
176
     1
 40
1.0
176
     1
 40
1.0
176
     1
  0
VISUALSTYLE
  5
36
102
{ACAD_REACTORS
330
29
102
}
330
29
100
AcDbVisualStyle
  2
Thicken
 70
    13
177
     3
291
     1
 70
    58
 90
        2
176
     1
 90
        2
176
     1
 90
        0
176
     1
 90
        0
176
     1
 40
0.6
176
     1
 40
30.0
176
     1
 62
     7
420
 16777215
176
     1
 90
        1
176
     1
 90
        4
176
     1
 62
     7
176
     1
 62
   257
176
     1
 90
        1
176
     1
 90
        1
176
     1
 40
1.0
176
     1
 90
       12
176
     1
 62
     7
176
     1
 40
1.0
176
     1
 90
        1
176
     1
 90
        6
176
     1
 90
        2
176
     1
 62
     7
176
     1
 90
        5
176
     1
 90
        0
176
     1
 90
        0
176
     1
290
     0
176
     1
 90
        1
176
     1
 40
0.0
176
     1
 90
        0
176
     1
290
     0
176
     1
290
     1
176
     1
290
     1
176
     1
290
     0
176
     1
290
     0
176
     1
290
     0
176
     1
290
     0
176
     1
290
     0
176
     1
290
     0
176
     1
 90
       50
176
     1
 40
0.0
176
     1
 40
1.0
176
     1
 90
        0
176
     1
 62
    18
420
        0
176
     1
 90
       50
176
     1
 90
        3
176
     1
 62
     5
420
      255
176
     1
290
     0
176
     1
 90
       50
176
     1
 90
       50
176
     1
 90
       50
176
     1
290
     0
176
     1
 90
       50
176
     1
 62
   256
176
     0
 40
1.0
176
     0
 90
        2
176
     1
  1
strokes_ogs.tif
176
     1
290
     0
176
     1
 40
1.0
176
     1
 40
1.0
176
     1
  0
VISUALSTYLE
  5
30
102
{ACAD_REACTORS
330
29
102
}
330
29
100
AcDbVisualStyle
  2
Wireframe
 70
     5
177
     3
291
     0
 70
    58
 90
        0
176
     1
 90
        2
176
     1
 90
        0
176
     1
 90
        0
176
     1
 40
0.6
176
     1
 40
30.0
176
     1
 62
     7
420
 16777215
176
     1
 90
        1
176
     1
 90
        4
176
     1
 62
     7
176
     1
 62
   257
176
     1
 90
        1
176
     1
 90
        1
176
     1
 40
1.0
176
     1
 90
        0
176
     1
 62
   257
176
     1
 40
1.0
176
     1
 90
        1
176
     1
 90
        6
176
     1
 90
        2
176
     1
 62
     7
176
     1
 90
        3
176
     1
 90
        0
176
     1
 90
        0
176
     1
290
     0
176
     1
 90
        1
176
     1
 40
0.0
176
     1
 90
        0
176
     1
290
     0
176
     1
290
     1
176
     1
290
     1
176
     1
290
     0
176
     1
290
     0
176
     1
290
     0
176
     1
290
     0
176
     1
290
     0
176
     1
290
     0
176
     1
 90
       50
176
     1
 40
0.0
176
     1
 40
1.0
176
     1
 90
        0
176
     1
 62
    18
420
        0
176
     1
 90
       50
176
     1
 90
        3
176
     1
 62
     5
420
      255
176
     1
290
     0
176
     1
 90
       50
176
     1
 90
       50
176
     1
 90
       50
176
     1
290
     0
176
     1
 90
       50
176
     1
 62
   256
176
     0
 40
1.0
176
     0
 90
        2
176
     1
  1
strokes_ogs.tif
176
     1
290
     0
176
     1
 40
1.0
176
     1
 40
1.0
176
     1
  0
VISUALSTYLE
  5
3C
102
{ACAD_REACTORS
330
29
102
}
330
29
100
AcDbVisualStyle
  2
X-Ray
 70
    25
177
     3
291
     0
 70
    58
 90
        2
176
     1
 90
        2
176
     1
 90
        1
176
     1
 90
        1
176
     1
 40
0.5
176
     1
 40
30.0
176
     1
 62
     7
420
 16777215
176
     1
 90
        1
176
     1
 90
        0
176
     1
 62
     7
176
     1
 62
   257
176
     1
 90
        1
176
     1
 90
        1
176
     1
 40
1.0
176
     1
 90
        8
176
     1
 62
     7
176
     1
 40
1.0
176
     1
 90
        1
176
     1
 90
        6
176
     1
 90
        2
176
     1
 62
     7
176
     1
 90
        3
176
     1
 90
        0
176
     1
 90
        0
176
     1
290
     0
176
     1
 90
       13
176
     1
 40
0.0
176
     1
 90
        0
176
     1
290
     0
176
     1
290
     1
176
     1
290
     1
176
     1
290
     0
176
     1
290
     0
176
     1
290
     0
176
     1
290
     0
176
     1
290
     0
176
     1
290
     0
176
     1
 90
       50
176
     1
 40
0.0
176
     1
 40
1.0
176
     1
 90
        0
176
     1
 62
    18
420
        0
176
     1
 90
       50
176
     1
 90
        3
176
     1
 62
     5
420
      255
176
     1
290
     0
176
     1
 90
       50
176
     1
 90
       50
176
     1
 90
       50
176
     1
290
     0
176
     1
 90
       50
176
     1
 62
   256
176
     0
 40
1.0
176
     0
 90
        2
176
     1
  1
strokes_ogs.tif
176
     1
290
     0
176
     1
 40
1.0
176
     1
 40
1.0
176
     1
  0
DICTIONARYVAR
  5
1DD
102
{ACAD_REACTORS
330
1D8
102
}
330
1D8
100
DictionaryVariables
280
     0
  1
1:1
  0
DICTIONARYVAR
  5
1DA
102
{ACAD_REACTORS
330
1D8
102
}
330
1D8
100
DictionaryVariables
280
     0
  1
STANDARD
  0
DICTIONARYVAR
  5
1D9
102
{ACAD_REACTORS
330
1D8
102
}
330
1D8
100
DictionaryVariables
280
     0
  1
STANDARD
  0
DICTIONARYVAR
  5
1DB
102
{ACAD_REACTORS
330
1D8
102
}
330
1D8
100
DictionaryVariables
280
     0
  1
Imperial24
  0
DICTIONARYVAR
  5
1DC
102
{ACAD_REACTORS
330
1D8
102
}
330
1D8
100
DictionaryVariables
280
     0
  1
Imperial24
  0
DICTIONARY
  5
1A
330
19
100
AcDbDictionary
280
     1
281
     1
  3
BUMPTILE
360
1C
  3
DIFFUSETILE
360
1B
  3
OPACITYTILE
360
1F
  3
REFLECTIONTILE
360
1E
  3
REFRACTIONTILE
360
20
  3
SPECULARTILE
360
1D
  0
DICTIONARY
  5
12
330
11
100
AcDbDictionary
280
     1
281
     1
  3
BUMPTILE
360
14
  3
DIFFUSETILE
360
13
  3
OPACITYTILE
360
17
  3
REFLECTIONTILE
360
16
  3
REFRACTIONTILE
360
18
  3
SPECULARTILE
360
15
  0
DICTIONARY
  5
22
330
21
100
AcDbDictionary
280
     1
281
     1
  3
BUMPTILE
360
24
  3
DIFFUSETILE
360
23
  3
OPACITYTILE
360
27
  3
REFLECTIONTILE
360
26
  3
REFRACTIONTILE
360
28
  3
SPECULARTILE
360
25
  0
DICTIONARY
  5
1DE
330
65
100
AcDbDictionary
280
     1
281
     1
  3
ACAD_ROUNDTRIP_2008_TABLESTYLE_CELLSTYLEMAP
360
1DF
  0
XRECORD
  5
1C
102
{ACAD_REACTORS
330
1A
102
}
330
1A
100
AcDbXrecord
280
     1
270
     1
271
     1
  0
XRECORD
  5
1B
102
{ACAD_REACTORS
330
1A
102
}
330
1A
100
AcDbXrecord
280
     1
270
     1
271
     1
  0
XRECORD
  5
1F
102
{ACAD_REACTORS
330
1A
102
}
330
1A
100
AcDbXrecord
280
     1
270
     1
271
     1
  0
XRECORD
  5
1E
102
{ACAD_REACTORS
330
1A
102
}
330
1A
100
AcDbXrecord
280
     1
270
     1
271
     1
  0
XRECORD
  5
20
102
{ACAD_REACTORS
330
1A
102
}
330
1A
100
AcDbXrecord
280
     1
270
     1
271
     1
  0
XRECORD
  5
1D
102
{ACAD_REACTORS
330
1A
102
}
330
1A
100
AcDbXrecord
280
     1
270
     1
271
     1
  0
XRECORD
  5
14
102
{ACAD_REACTORS
330
12
102
}
330
12
100
AcDbXrecord
280
     1
270
     1
271
     1
  0
XRECORD
  5
13
102
{ACAD_REACTORS
330
12
102
}
330
12
100
AcDbXrecord
280
     1
270
     1
271
     1
  0
XRECORD
  5
17
102
{ACAD_REACTORS
330
12
102
}
330
12
100
AcDbXrecord
280
     1
270
     1
271
     1
  0
XRECORD
  5
16
102
{ACAD_REACTORS
330
12
102
}
330
12
100
AcDbXrecord
280
     1
270
     1
271
     1
  0
XRECORD
  5
18
102
{ACAD_REACTORS
330
12
102
}
330
12
100
AcDbXrecord
280
     1
270
     1
271
     1
  0
XRECORD
  5
15
102
{ACAD_REACTORS
330
12
102
}
330
12
100
AcDbXrecord
280
     1
270
     1
271
     1
  0
XRECORD
  5
24
102
{ACAD_REACTORS
330
22
102
}
330
22
100
AcDbXrecord
280
     1
270
     1
271
     1
  0
XRECORD
  5
23
102
{ACAD_REACTORS
330
22
102
}
330
22
100
AcDbXrecord
280
     1
270
     1
271
     1
  0
XRECORD
  5
27
102
{ACAD_REACTORS
330
22
102
}
330
22
100
AcDbXrecord
280
     1
270
     1
271
     1
  0
XRECORD
  5
26
102
{ACAD_REACTORS
330
22
102
}
330
22
100
AcDbXrecord
280
     1
270
     1
271
     1
  0
XRECORD
  5
28
102
{ACAD_REACTORS
330
22
102
}
330
22
100
AcDbXrecord
280
     1
270
     1
271
     1
  0
XRECORD
  5
25
102
{ACAD_REACTORS
330
22
102
}
330
22
100
AcDbXrecord
280
     1
270
     1
271
     1
  0
CELLSTYLEMAP
  5
1DF
102
{ACAD_REACTORS
330
1DE
102
}
330
1DE
100
AcDbCellStyleMap
 90
        3
300
CELLSTYLE
  1
TABLEFORMAT_BEGIN
 90
        5
170
     1
 91
        0
 92
    32768
 62
   257
 93
        1
300
CONTENTFORMAT
  1
CONTENTFORMAT_BEGIN
 90
        0
 91
        0
 92
      512
 93
        0
300

 40
0.0
140
1.0
 94
        5
 62
     0
340
55
144
0.25
309
CONTENTFORMAT_END
171
     0
 94
        0
309
TABLEFORMAT_END
  1
CELLSTYLE_BEGIN
 90
        1
 91
        1
300
_TITLE
309
CELLSTYLE_END
300
CELLSTYLE
  1
TABLEFORMAT_BEGIN
 90
        5
170
     1
 91
        0
 92
        0
 62
   257
 93
        1
300
CONTENTFORMAT
  1
CONTENTFORMAT_BEGIN
 90
        0
 91
        0
 92
      512
 93
        0
300

 40
0.0
140
1.0
 94
        5
 62
     0
340
55
144
0.18
309
CONTENTFORMAT_END
171
     0
 94
        0
309
TABLEFORMAT_END
  1
CELLSTYLE_BEGIN
 90
        2
 91
        1
300
_HEADER
309
CELLSTYLE_END
300
CELLSTYLE
  1
TABLEFORMAT_BEGIN
 90
        5
170
     1
 91
        0
 92
        0
 62
   257
 93
        1
300
CONTENTFORMAT
  1
CONTENTFORMAT_BEGIN
 90
        0
 91
        0
 92
      512
 93
        0
300

 40
0.0
140
1.0
 94
        2
 62
     0
340
55
144
0.18
309
CONTENTFORMAT_END
171
     0
 94
        0
309
TABLEFORMAT_END
  1
CELLSTYLE_BEGIN
 90
        3
 91
        2
300
_DATA
309
CELLSTYLE_END
  0
ENDSEC
  0
EOF
