  0
SECTION
  2
HEADER
  9
$ACADVER
  1
AC1024
  9
$ACADMAINTVER
 70
     6
  9
$DWGCODEPAGE
  3
ANSI_1252
  9
$INSBASE
 10
0.0
 20
0.0
 30
0.0
  9
$EXTMIN
 10
1.000000000000000E+20
 20
1.000000000000000E+20
 30
1.000000000000000E+20
  9
$EXTMAX
 10
-1.000000000000000E+20
 20
-1.000000000000000E+20
 30
-1.000000000000000E+20
  9
$LIMMIN
 10
0.0
 20
0.0
  9
$LIMMAX
 10
12.0
 20
9.0
  9
$ORTHOMODE
 70
     0
  9
$REGENMODE
 70
     1
  9
$FILLMODE
 70
     1
  9
$QTEXTMODE
 70
     0
  9
$MIRRTEXT
 70
     1
  9
$LTSCALE
 40
1.0
  9
$ATTMODE
 70
     1
  9
$TEXTSIZE
 40
0.2
  9
$TRACEWID
 40
0.05
  9
$TEXTSTYLE
  7
Standard
  9
$CLAYER
  8
0
  9
$CELTYPE
  6
ByLayer
  9
$CECOLOR
 62
   256
  9
$CELTSCALE
 40
1.0
  9
$DISPSILH
 70
     0
  9
$DIMSCALE
 40
1.0
  9
$DIMASZ
 40
0.18
  9
$DIMEXO
 40
0.0625
  9
$DIMDLI
 40
0.38
  9
$DIMRND
 40
0.0
  9
$DIMDLE
 40
0.0
  9
$DIMEXE
 40
0.18
  9
$DIMTP
 40
0.0
  9
$DIMTM
 40
0.0
  9
$DIMTXT
 40
0.18
  9
$DIMCEN
 40
0.09
  9
$DIMTSZ
 40
0.0
  9
$DIMTOL
 70
     0
  9
$DIMLIM
 70
     0
  9
$DIMTIH
 70
     1
  9
$DIMTOH
 70
     1
  9
$DIMSE1
 70
     0
  9
$DIMSE2
 70
     0
  9
$DIMTAD
 70
     0
  9
$DIMZIN
 70
     0
  9
$DIMBLK
  1

  9
$DIMASO
 70
     1
  9
$DIMSHO
 70
     1
  9
$DIMPOST
  1

  9
$DIMAPOST
  1

  9
$DIMALT
 70
     0
  9
$DIMALTD
 70
     2
  9
$DIMALTF
 40
25.4
  9
$DIMLFAC
 40
1.0
  9
$DIMTOFL
 70
     0
  9
$DIMTVP
 40
0.0
  9
$DIMTIX
 70
     0
  9
$DIMSOXD
 70
     0
  9
$DIMSAH
 70
     0
  9
$DIMBLK1
  1

  9
$DIMBLK2
  1

  9
$DIMSTYLE
  2
Standard
  9
$DIMCLRD
 70
     0
  9
$DIMCLRE
 70
     0
  9
$DIMCLRT
 70
     0
  9
$DIMTFAC
 40
1.0
  9
$DIMGAP
 40
0.09
  9
$DIMJUST
 70
     0
  9
$DIMSD1
 70
     0
  9
$DIMSD2
 70
     0
  9
$DIMTOLJ
 70
     1
  9
$DIMTZIN
 70
     0
  9
$DIMALTZ
 70
     0
  9
$DIMALTTZ
 70
     0
  9
$DIMUPT
 70
     0
  9
$DIMDEC
 70
     4
  9
$DIMTDEC
 70
     4
  9
$DIMALTU
 70
     2
  9
$DIMALTTD
 70
     2
  9
$DIMTXSTY
  7
Standard
  9
$DIMAUNIT
 70
     0
  9
$DIMADEC
 70
     0
  9
$DIMALTRND
 40
0.0
  9
$DIMAZIN
 70
     0
  9
$DIMDSEP
 70
    46
  9
$DIMATFIT
 70
     3
  9
$DIMFRAC
 70
     0
  9
$DIMLDRBLK
  1

  9
$DIMLUNIT
 70
     2
  9
$DIMLWD
 70
    -2
  9
$DIMLWE
 70
    -2
  9
$DIMTMOVE
 70
     0
  9
$DIMFXL
 40
1.0
  9
$DIMFXLON
 70
     0
  9
$DIMJOGANG
 40
0.7853981633974483
  9
$DIMTFILL
 70
     0
  9
$DIMTFILLCLR
 70
     0
  9
$DIMARCSYM
 70
     0
  9
$DIMLTYPE
  6

  9
$DIMLTEX1
  6

  9
$DIMLTEX2
  6

  9
$DIMTXTDIRECTION
 70
     0
  9
$LUNITS
 70
     2
  9
$LUPREC
 70
     4
  9
$SKETCHINC
 40
0.1
  9
$FILLETRAD
 40
0.5
  9
$AUNITS
 70
     0
  9
$AUPREC
 70
     0
  9
$MENU
  1
.
  9
$ELEVATION
 40
0.0
  9
$PELEVATION
 40
0.0
  9
$THICKNESS
 40
0.0
  9
$LIMCHECK
 70
     0
  9
$CHAMFERA
 40
0.5
  9
$CHAMFERB
 40
0.5
  9
$CHAMFERC
 40
1.0
  9
$CHAMFERD
 40
0.0
  9
$SKPOLY
 70
     0
  9
$TDCREATE
 40
2458752.663942512
  9
$TDUCREATE
 40
2458752.163942512
  9
$TDUPDATE
 40
2458752.663942697
  9
$TDUUPDATE
 40
2458752.163942697
  9
$TDINDWG
 40
0.0000000116
  9
$TDUSRTIMER
 40
0.0000000116
  9
$USRTIMER
 70
     1
  9
$ANGBASE
 50
0.0
  9
$ANGDIR
 70
     0
  9
$PDMODE
 70
     0
  9
$PDSIZE
 40
0.0
  9
$PLINEWID
 40
0.0
  9
$SPLFRAME
 70
     0
  9
$SPLINETYPE
 70
     6
  9
$SPLINESEGS
 70
     8
  9
$HANDSEED
  5
5BF
  9
$SURFTAB1
 70
     6
  9
$SURFTAB2
 70
     6
  9
$SURFTYPE
 70
     6
  9
$SURFU
 70
     6
  9
$SURFV
 70
     6
  9
$UCSBASE
  2

  9
$UCSNAME
  2

  9
$UCSORG
 10
0.0
 20
0.0
 30
0.0
  9
$UCSXDIR
 10
1.0
 20
0.0
 30
0.0
  9
$UCSYDIR
 10
0.0
 20
1.0
 30
0.0
  9
$UCSORTHOREF
  2

  9
$UCSORTHOVIEW
 70
     0
  9
$UCSORGTOP
 10
0.0
 20
0.0
 30
0.0
  9
$UCSORGBOTTOM
 10
0.0
 20
0.0
 30
0.0
  9
$UCSORGLEFT
 10
0.0
 20
0.0
 30
0.0
  9
$UCSORGRIGHT
 10
0.0
 20
0.0
 30
0.0
  9
$UCSORGFRONT
 10
0.0
 20
0.0
 30
0.0
  9
$UCSORGBACK
 10
0.0
 20
0.0
 30
0.0
  9
$PUCSBASE
  2

  9
$PUCSNAME
  2

  9
$PUCSORG
 10
0.0
 20
0.0
 30
0.0
  9
$PUCSXDIR
 10
1.0
 20
0.0
 30
0.0
  9
$PUCSYDIR
 10
0.0
 20
1.0
 30
0.0
  9
$PUCSORTHOREF
  2

  9
$PUCSORTHOVIEW
 70
     0
  9
$PUCSORGTOP
 10
0.0
 20
0.0
 30
0.0
  9
$PUCSORGBOTTOM
 10
0.0
 20
0.0
 30
0.0
  9
$PUCSORGLEFT
 10
0.0
 20
0.0
 30
0.0
  9
$PUCSORGRIGHT
 10
0.0
 20
0.0
 30
0.0
  9
$PUCSORGFRONT
 10
0.0
 20
0.0
 30
0.0
  9
$PUCSORGBACK
 10
0.0
 20
0.0
 30
0.0
  9
$USERI1
 70
     0
  9
$USERI2
 70
     0
  9
$USERI3
 70
     0
  9
$USERI4
 70
     0
  9
$USERI5
 70
     0
  9
$USERR1
 40
0.0
  9
$USERR2
 40
0.0
  9
$USERR3
 40
0.0
  9
$USERR4
 40
0.0
  9
$USERR5
 40
0.0
  9
$WORLDVIEW
 70
     1
  9
$SHADEDGE
 70
     3
  9
$SHADEDIF
 70
    70
  9
$TILEMODE
 70
     1
  9
$MAXACTVP
 70
    64
  9
$PINSBASE
 10
0.0
 20
0.0
 30
0.0
  9
$PLIMCHECK
 70
     0
  9
$PEXTMIN
 10
1.000000000000000E+20
 20
1.000000000000000E+20
 30
1.000000000000000E+20
  9
$PEXTMAX
 10
-1.000000000000000E+20
 20
-1.000000000000000E+20
 30
-1.000000000000000E+20
  9
$PLIMMIN
 10
0.0
 20
0.0
  9
$PLIMMAX
 10
12.0
 20
9.0
  9
$UNITMODE
 70
     0
  9
$VISRETAIN
 70
     1
  9
$PLINEGEN
 70
     0
  9
$PSLTSCALE
 70
     1
  9
$TREEDEPTH
 70
  3020
  9
$CMLSTYLE
  2
Standard
  9
$CMLJUST
 70
     0
  9
$CMLSCALE
 40
1.0
  9
$PROXYGRAPHICS
 70
     1
  9
$MEASUREMENT
 70
     0
  9
$CELWEIGHT
370
    -1
  9
$ENDCAPS
280
     0
  9
$JOINSTYLE
280
     0
  9
$LWDISPLAY
290
     1
  9
$INSUNITS
 70
     1
  9
$HYPERLINKBASE
  1

  9
$STYLESHEET
  1

  9
$XEDIT
290
     1
  9
$CEPSNTYPE
380
     0
  9
$PSTYLEMODE
290
     1
  9
$FINGERPRINTGUID
  2
{2CF5B97E-6F7C-41B1-94D7-F27DD29CAF57}
  9
$VERSIONGUID
  2
{FAEB1C32-E019-11D5-929B-00C0DF256EC4}
  9
$EXTNAMES
290
     1
  9
$PSVPSCALE
 40
0.0
  9
$OLESTARTUP
290
     0
  9
$SORTENTS
280
   127
  9
$INDEXCTL
280
     0
  9
$HIDETEXT
280
     1
  9
$XCLIPFRAME
280
     2
  9
$HALOGAP
280
     0
  9
$OBSCOLOR
 70
   257
  9
$OBSLTYPE
280
     0
  9
$INTERSECTIONDISPLAY
280
     0
  9
$INTERSECTIONCOLOR
 70
   257
  9
$DIMASSOC
280
     2
  9
$PROJECTNAME
  1

  9
$CAMERADISPLAY
290
     0
  9
$LENSLENGTH
 40
50.0
  9
$CAMERAHEIGHT
 40
0.0
  9
$STEPSPERSEC
 40
2.0
  9
$STEPSIZE
 40
6.0
  9
$3DDWFPREC
 40
2.0
  9
$PSOLWIDTH
 40
0.25
  9
$PSOLHEIGHT
 40
4.0
  9
$LOFTANG1
 40
1.570796326794897
  9
$LOFTANG2
 40
1.570796326794897
  9
$LOFTMAG1
 40
0.0
  9
$LOFTMAG2
 40
0.0
  9
$LOFTPARAM
 70
     7
  9
$LOFTNORMALS
280
     1
  9
$LATITUDE
 40
37.795
  9
$LONGITUDE
 40
-122.394
  9
$NORTHDIRECTION
 40
0.0
  9
$TIMEZONE
 70
 -8000
  9
$LIGHTGLYPHDISPLAY
280
     1
  9
$TILEMODELIGHTSYNCH
280
     1
  9
$CMATERIAL
347
3C
  9
$SOLIDHIST
280
     1
  9
$SHOWHIST
280
     1
  9
$DWFFRAME
280
     2
  9
$DGNFRAME
280
     2
  9
$REALWORLDSCALE
290
     1
  9
$INTERFERECOLOR
 62
   256
  9
$CSHADOW
280
     0
  9
$SHADOWPLANELOCATION
 40
0.0
  0
ENDSEC
  0
SECTION
  2
CLASSES
  0
CLASS
  1
ACDBDICTIONARYWDFLT
  2
AcDbDictionaryWithDefault
  3
ObjectDBX Classes
 90
        0
 91
        4
280
     0
281
     0
  0
CLASS
  1
VISUALSTYLE
  2
AcDbVisualStyle
  3
ObjectDBX Classes
 90
     4095
 91
        4
280
     0
281
     0
  0
CLASS
  1
MATERIAL
  2
AcDbMaterial
  3
ObjectDBX Classes
 90
     1153
 91
        4
280
     0
281
     0
  0
CLASS
  1
SUN
  2
AcDbSun
  3
SCENEOE
 90
     1024
 91
        4
280
     0
281
     0
  0
ENDSEC
  0
SECTION
  2
TABLES
  0
TABLE
  2
VPORT
  5
8
330
0
100
AcDbSymbolTable
 70
     1
  0
VPORT
  5
29
330
8
100
AcDbSymbolTableRecord
100
AcDbViewportTableRecord
  2
*Active
 70
     0
 10
0.0
 20
0.0
 11
1.0
 21
1.0
 12
0.0
 22
0.0
 13
0.0
 23
0.0
 14
0.5
 24
0.5
 15
0.5
 25
0.5
 16
0.0
 26
0.0
 36
1.0
 17
1.475433297894136
 27
-1.457915972222231
 37
0.0
 40
11.69291338582677
 41
0.7070707070707076
 42
50.0
 43
0.0
 44
0.0
 50
0.0
 51
0.0
 71
     0
 72
   100
 73
     1
 74
     3
 75
     0
 76
     0
 77
     0
 78
     0
281
     0
 65
     1
110
0.0
120
0.0
130
0.0
111
1.0
121
0.0
131
0.0
112
0.0
122
1.0
132
0.0
 79
     0
146
0.0
 60
     3
 61
     5
292
     1
282
     1
141
0.0
142
0.0
 63
   250
361
3F
  0
ENDTAB
  0
TABLE
  2
LTYPE
  5
5
330
0
100
AcDbSymbolTable
 70
    36
  0
LTYPE
  5
14
330
5
100
AcDbSymbolTableRecord
100
AcDbLinetypeTableRecord
  2
ByBlock
 70
     0
  3

 72
    65
 73
     0
 40
0.0
  0
LTYPE
  5
15
330
5
100
AcDbSymbolTableRecord
100
AcDbLinetypeTableRecord
  2
ByLayer
 70
     0
  3

 72
    65
 73
     0
 40
0.0
  0
LTYPE
  5
16
330
5
100
AcDbSymbolTableRecord
100
AcDbLinetypeTableRecord
  2
Continuous
 70
     0
  3
Solid line
 72
    65
 73
     0
 40
0.0
  0
LTYPE
  5
462
330
5
100
AcDbSymbolTableRecord
100
AcDbLinetypeTableRecord
  2
AI-Linetype-1
 70
     0
  3
Adobe Illustrator Linetype No. 1
 72
    65
 73
     2
 40
0.1012585626708137
 49
0.057862036757999
 74
     0
 49
-0.0433965259128147
 74
     0
  0
LTYPE
  5
470
330
5
100
AcDbSymbolTableRecord
100
AcDbLinetypeTableRecord
  2
AI-Linetype-2
 70
     0
  3
Adobe Illustrator Linetype No. 2
 72
    65
 73
     2
 40
0.0578620334466298
 49
0.0385746889644199
 74
     0
 49
-0.0192873444822099
 74
     0
  0
LTYPE
  5
477
330
5
100
AcDbSymbolTableRecord
100
AcDbLinetypeTableRecord
  2
AI-Linetype-3
 70
     0
  3
Adobe Illustrator Linetype No. 3
 72
    65
 73
     2
 40
0.0578620334466298
 49
0.0385746889644199
 74
     0
 49
-0.0192873444822099
 74
     0
  0
LTYPE
  5
47F
330
5
100
AcDbSymbolTableRecord
100
AcDbLinetypeTableRecord
  2
AI-Linetype-4
 70
     0
  3
Adobe Illustrator Linetype No. 4
 72
    65
 73
     2
 40
0.0578620334466298
 49
0.0385746889644199
 74
     0
 49
-0.0192873444822099
 74
     0
  0
LTYPE
  5
487
330
5
100
AcDbSymbolTableRecord
100
AcDbLinetypeTableRecord
  2
AI-Linetype-5
 70
     0
  3
Adobe Illustrator Linetype No. 5
 72
    65
 73
     2
 40
0.0578620334466298
 49
0.0385746889644199
 74
     0
 49
-0.0192873444822099
 74
     0
  0
LTYPE
  5
48F
330
5
100
AcDbSymbolTableRecord
100
AcDbLinetypeTableRecord
  2
AI-Linetype-6
 70
     0
  3
Adobe Illustrator Linetype No. 6
 72
    65
 73
     2
 40
0.0578620334466298
 49
0.0385746889644199
 74
     0
 49
-0.0192873444822099
 74
     0
  0
LTYPE
  5
497
330
5
100
AcDbSymbolTableRecord
100
AcDbLinetypeTableRecord
  2
AI-Linetype-7
 70
     0
  3
Adobe Illustrator Linetype No. 7
 72
    65
 73
     2
 40
0.0578620334466298
 49
0.0385746889644199
 74
     0
 49
-0.0192873444822099
 74
     0
  0
LTYPE
  5
49F
330
5
100
AcDbSymbolTableRecord
100
AcDbLinetypeTableRecord
  2
AI-Linetype-8
 70
     0
  3
Adobe Illustrator Linetype No. 8
 72
    65
 73
     2
 40
0.0578620334466298
 49
0.0385746889644199
 74
     0
 49
-0.0192873444822099
 74
     0
  0
LTYPE
  5
4A7
330
5
100
AcDbSymbolTableRecord
100
AcDbLinetypeTableRecord
  2
AI-Linetype-9
 70
     0
  3
Adobe Illustrator Linetype No. 9
 72
    65
 73
     2
 40
0.0578620334466298
 49
0.0385746889644199
 74
     0
 49
-0.0192873444822099
 74
     0
  0
LTYPE
  5
4AF
330
5
100
AcDbSymbolTableRecord
100
AcDbLinetypeTableRecord
  2
AI-Linetype-10
 70
     0
  3
Adobe Illustrator Linetype No. 10
 72
    65
 73
     2
 40
0.0578620334466298
 49
0.0385746889644199
 74
     0
 49
-0.0192873444822099
 74
     0
  0
LTYPE
  5
4B7
330
5
100
AcDbSymbolTableRecord
100
AcDbLinetypeTableRecord
  2
AI-Linetype-11
 70
     0
  3
Adobe Illustrator Linetype No. 11
 72
    65
 73
     2
 40
0.0578620334466298
 49
0.0385746889644199
 74
     0
 49
-0.0192873444822099
 74
     0
  0
LTYPE
  5
4BF
330
5
100
AcDbSymbolTableRecord
100
AcDbLinetypeTableRecord
  2
AI-Linetype-12
 70
     0
  3
Adobe Illustrator Linetype No. 12
 72
    65
 73
     2
 40
0.0578620334466298
 49
0.0385746889644199
 74
     0
 49
-0.0192873444822099
 74
     0
  0
LTYPE
  5
4C7
330
5
100
AcDbSymbolTableRecord
100
AcDbLinetypeTableRecord
  2
AI-Linetype-13
 70
     0
  3
Adobe Illustrator Linetype No. 13
 72
    65
 73
     2
 40
0.0578620334466298
 49
0.0385746889644199
 74
     0
 49
-0.0192873444822099
 74
     0
  0
LTYPE
  5
4CF
330
5
100
AcDbSymbolTableRecord
100
AcDbLinetypeTableRecord
  2
AI-Linetype-14
 70
     0
  3
Adobe Illustrator Linetype No. 14
 72
    65
 73
     2
 40
0.0578620334466298
 49
0.0385746889644199
 74
     0
 49
-0.0192873444822099
 74
     0
  0
LTYPE
  5
4D7
330
5
100
AcDbSymbolTableRecord
100
AcDbLinetypeTableRecord
  2
AI-Linetype-15
 70
     0
  3
Adobe Illustrator Linetype No. 15
 72
    65
 73
     2
 40
0.0578620334466298
 49
0.0385746889644199
 74
     0
 49
-0.0192873444822099
 74
     0
  0
LTYPE
  5
4DF
330
5
100
AcDbSymbolTableRecord
100
AcDbLinetypeTableRecord
  2
AI-Linetype-16
 70
     0
  3
Adobe Illustrator Linetype No. 16
 72
    65
 73
     2
 40
0.0578620334466298
 49
0.0385746889644199
 74
     0
 49
-0.0192873444822099
 74
     0
  0
LTYPE
  5
4E7
330
5
100
AcDbSymbolTableRecord
100
AcDbLinetypeTableRecord
  2
AI-Linetype-17
 70
     0
  3
Adobe Illustrator Linetype No. 17
 72
    65
 73
     2
 40
0.0578620334466298
 49
0.0385746889644199
 74
     0
 49
-0.0192873444822099
 74
     0
  0
LTYPE
  5
4EF
330
5
100
AcDbSymbolTableRecord
100
AcDbLinetypeTableRecord
  2
AI-Linetype-18
 70
     0
  3
Adobe Illustrator Linetype No. 18
 72
    65
 73
     2
 40
0.0578620334466298
 49
0.0385746889644199
 74
     0
 49
-0.0192873444822099
 74
     0
  0
LTYPE
  5
4F7
330
5
100
AcDbSymbolTableRecord
100
AcDbLinetypeTableRecord
  2
AI-Linetype-19
 70
     0
  3
Adobe Illustrator Linetype No. 19
 72
    65
 73
     2
 40
0.0578620334466298
 49
0.0385746889644199
 74
     0
 49
-0.0192873444822099
 74
     0
  0
LTYPE
  5
4FF
330
5
100
AcDbSymbolTableRecord
100
AcDbLinetypeTableRecord
  2
AI-Linetype-20
 70
     0
  3
Adobe Illustrator Linetype No. 20
 72
    65
 73
     2
 40
0.0578620334466298
 49
0.0385746889644199
 74
     0
 49
-0.0192873444822099
 74
     0
  0
LTYPE
  5
507
330
5
100
AcDbSymbolTableRecord
100
AcDbLinetypeTableRecord
  2
AI-Linetype-21
 70
     0
  3
Adobe Illustrator Linetype No. 21
 72
    65
 73
     2
 40
0.0578620334466298
 49
0.0385746889644199
 74
     0
 49
-0.0192873444822099
 74
     0
  0
LTYPE
  5
50F
330
5
100
AcDbSymbolTableRecord
100
AcDbLinetypeTableRecord
  2
AI-Linetype-22
 70
     0
  3
Adobe Illustrator Linetype No. 22
 72
    65
 73
     2
 40
0.0578620334466298
 49
0.0385746889644199
 74
     0
 49
-0.0192873444822099
 74
     0
  0
LTYPE
  5
517
330
5
100
AcDbSymbolTableRecord
100
AcDbLinetypeTableRecord
  2
AI-Linetype-23
 70
     0
  3
Adobe Illustrator Linetype No. 23
 72
    65
 73
     2
 40
0.0578620334466298
 49
0.0385746889644199
 74
     0
 49
-0.0192873444822099
 74
     0
  0
LTYPE
  5
51F
330
5
100
AcDbSymbolTableRecord
100
AcDbLinetypeTableRecord
  2
AI-Linetype-24
 70
     0
  3
Adobe Illustrator Linetype No. 24
 72
    65
 73
     2
 40
0.0578620334466298
 49
0.0385746889644199
 74
     0
 49
-0.0192873444822099
 74
     0
  0
LTYPE
  5
527
330
5
100
AcDbSymbolTableRecord
100
AcDbLinetypeTableRecord
  2
AI-Linetype-25
 70
     0
  3
Adobe Illustrator Linetype No. 25
 72
    65
 73
     2
 40
0.0578620334466298
 49
0.0385746889644199
 74
     0
 49
-0.0192873444822099
 74
     0
  0
LTYPE
  5
52F
330
5
100
AcDbSymbolTableRecord
100
AcDbLinetypeTableRecord
  2
AI-Linetype-26
 70
     0
  3
Adobe Illustrator Linetype No. 26
 72
    65
 73
     2
 40
0.0578620334466298
 49
0.0385746889644199
 74
     0
 49
-0.0192873444822099
 74
     0
  0
LTYPE
  5
537
330
5
100
AcDbSymbolTableRecord
100
AcDbLinetypeTableRecord
  2
AI-Linetype-27
 70
     0
  3
Adobe Illustrator Linetype No. 27
 72
    65
 73
     2
 40
0.0578620334466298
 49
0.0385746889644199
 74
     0
 49
-0.0192873444822099
 74
     0
  0
LTYPE
  5
53F
330
5
100
AcDbSymbolTableRecord
100
AcDbLinetypeTableRecord
  2
AI-Linetype-28
 70
     0
  3
Adobe Illustrator Linetype No. 28
 72
    65
 73
     2
 40
0.0578620334466298
 49
0.0385746889644199
 74
     0
 49
-0.0192873444822099
 74
     0
  0
LTYPE
  5
547
330
5
100
AcDbSymbolTableRecord
100
AcDbLinetypeTableRecord
  2
AI-Linetype-29
 70
     0
  3
Adobe Illustrator Linetype No. 29
 72
    65
 73
     2
 40
0.0578620334466298
 49
0.0385746889644199
 74
     0
 49
-0.0192873444822099
 74
     0
  0
LTYPE
  5
54F
330
5
100
AcDbSymbolTableRecord
100
AcDbLinetypeTableRecord
  2
AI-Linetype-30
 70
     0
  3
Adobe Illustrator Linetype No. 30
 72
    65
 73
     2
 40
0.0578620334466298
 49
0.0385746889644199
 74
     0
 49
-0.0192873444822099
 74
     0
  0
LTYPE
  5
557
330
5
100
AcDbSymbolTableRecord
100
AcDbLinetypeTableRecord
  2
AI-Linetype-31
 70
     0
  3
Adobe Illustrator Linetype No. 31
 72
    65
 73
     2
 40
0.0578620334466298
 49
0.0385746889644199
 74
     0
 49
-0.0192873444822099
 74
     0
  0
LTYPE
  5
55F
330
5
100
AcDbSymbolTableRecord
100
AcDbLinetypeTableRecord
  2
AI-Linetype-32
 70
     0
  3
Adobe Illustrator Linetype No. 32
 72
    65
 73
     2
 40
0.0578620334466298
 49
0.0385746889644199
 74
     0
 49
-0.0192873444822099
 74
     0
  0
LTYPE
  5
567
330
5
100
AcDbSymbolTableRecord
100
AcDbLinetypeTableRecord
  2
AI-Linetype-33
 70
     0
  3
Adobe Illustrator Linetype No. 33
 72
    65
 73
     2
 40
0.0578620334466298
 49
0.0385746889644199
 74
     0
 49
-0.0192873444822099
 74
     0
  0
LTYPE
  5
56F
330
5
100
AcDbSymbolTableRecord
100
AcDbLinetypeTableRecord
  2
AI-Linetype-34
 70
     0
  3
Adobe Illustrator Linetype No. 34
 72
    65
 73
     2
 40
0.0578620334466298
 49
0.0385746889644199
 74
     0
 49
-0.0192873444822099
 74
     0
  0
LTYPE
  5
577
330
5
100
AcDbSymbolTableRecord
100
AcDbLinetypeTableRecord
  2
AI-Linetype-35
 70
     0
  3
Adobe Illustrator Linetype No. 35
 72
    65
 73
     2
 40
0.0578620334466298
 49
0.0385746889644199
 74
     0
 49
-0.0192873444822099
 74
     0
  0
ENDTAB
  0
TABLE
  2
LAYER
  5
2
330
0
100
AcDbSymbolTable
 70
     5
  0
LAYER
  5
10
330
2
100
AcDbSymbolTableRecord
100
AcDbLayerTableRecord
  2
0
 70
     0
 62
     7
  6
Continuous
370
    -3
390
F
347
3E
  0
LAYER
  5
40
330
2
100
AcDbSymbolTableRecord
100
AcDbLayerTableRecord
  2
fill layer
 70
     0
 62
     7
  6
Continuous
370
    -3
390
F
347
3E
  0
LAYER
  5
1CB
330
2
100
AcDbSymbolTableRecord
100
AcDbLayerTableRecord
  2
Wood
 70
     0
 62
     7
  6
Continuous
370
    -3
390
F
347
3E
  0
LAYER
  5
355
330
2
100
AcDbSymbolTableRecord
100
AcDbLayerTableRecord
  2
SDWC screw
 70
     0
 62
     7
  6
Continuous
370
    -3
390
F
347
3E
  0
LAYER
  5
586
330
2
100
AcDbSymbolTableRecord
100
AcDbLayerTableRecord
  2
Callout
 70
     0
 62
     7
  6
Continuous
370
    -3
390
F
347
3E
  0
ENDTAB
  0
TABLE
  2
STYLE
  5
3
330
0
100
AcDbSymbolTable
 70
     1
  0
STYLE
  5
11
330
3
100
AcDbSymbolTableRecord
100
AcDbTextStyleTableRecord
  2
Standard
 70
     0
 40
0.0
 41
1.0
 50
0.0
 71
     0
 42
0.2
  3
txt
  4

  0
ENDTAB
  0
TABLE
  2
VIEW
  5
6
330
0
100
AcDbSymbolTable
 70
     0
  0
ENDTAB
  0
TABLE
  2
UCS
  5
7
330
0
100
AcDbSymbolTable
 70
     0
  0
ENDTAB
  0
TABLE
  2
APPID
  5
9
330
0
100
AcDbSymbolTable
 70
     1
  0
APPID
  5
12
330
9
100
AcDbSymbolTableRecord
100
AcDbRegAppTableRecord
  2
ACAD
 70
     0
  0
ENDTAB
  0
TABLE
  2
DIMSTYLE
  5
A
330
0
100
AcDbSymbolTable
 70
     1
100
AcDbDimStyleTable
  0
DIMSTYLE
105
27
330
A
100
AcDbSymbolTableRecord
100
AcDbDimStyleTableRecord
  2
Standard
 70
     0
178
     0
340
11
  0
ENDTAB
  0
TABLE
  2
BLOCK_RECORD
  5
1
330
0
100
AcDbSymbolTable
 70
     7
  0
BLOCK_RECORD
  5
1F
330
1
100
AcDbSymbolTableRecord
100
AcDbBlockTableRecord
  2
*Model_Space
340
22
 70
     0
280
     1
281
     0
  0
BLOCK_RECORD
  5
1B
330
1
100
AcDbSymbolTableRecord
100
AcDbBlockTableRecord
  2
*Paper_Space
340
1E
 70
     0
280
     1
281
     0
  0
BLOCK_RECORD
  5
23
330
1
100
AcDbSymbolTableRecord
100
AcDbBlockTableRecord
  2
*Paper_Space0
340
26
 70
     0
280
     1
281
     0
  0
BLOCK_RECORD
  5
4B
330
1
100
AcDbSymbolTableRecord
100
AcDbBlockTableRecord
  2
block 2
340
0
102
{BLKREFS
331
4C
102
}
 70
     0
280
     1
281
     0
  0
BLOCK_RECORD
  5
1D1
330
1
100
AcDbSymbolTableRecord
100
AcDbBlockTableRecord
  2
block 3
340
0
102
{BLKREFS
331
1D2
102
}
 70
     0
280
     1
281
     0
  0
BLOCK_RECORD
  5
356
330
1
100
AcDbSymbolTableRecord
100
AcDbBlockTableRecord
  2
block 4
340
0
102
{BLKREFS
331
357
102
}
 70
     0
280
     1
281
     0
  0
BLOCK_RECORD
  5
458
330
1
100
AcDbSymbolTableRecord
100
AcDbBlockTableRecord
  2
block 5
340
0
102
{BLKREFS
331
459
102
}
 70
     0
280
     1
281
     0
  0
BLOCK_RECORD
  5
589
330
1
100
AcDbSymbolTableRecord
100
AcDbBlockTableRecord
  2
block 6
340
0
102
{BLKREFS
331
58A
102
}
 70
     0
280
     1
281
     0
  0
BLOCK_RECORD
  5
598
330
1
100
AcDbSymbolTableRecord
100
AcDbBlockTableRecord
  2
block 7
340
0
102
{BLKREFS
331
599
102
}
 70
     0
280
     1
281
     0
  0
ENDTAB
  0
ENDSEC
  0
SECTION
  2
BLOCKS
  0
BLOCK
  5
20
330
1F
100
AcDbEntity
  8
0
100
AcDbBlockBegin
  2
*Model_Space
 70
     0
 10
0.0
 20
0.0
 30
0.0
  3
*Model_Space
  1

  0
ENDBLK
  5
21
330
1F
100
AcDbEntity
  8
0
100
AcDbBlockEnd
  0
BLOCK
  5
1C
330
1B
100
AcDbEntity
 67
     1
  8
0
100
AcDbBlockBegin
  2
*Paper_Space
 70
     0
 10
0.0
 20
0.0
 30
0.0
  3
*Paper_Space
  1

  0
ENDBLK
  5
1D
330
1B
100
AcDbEntity
 67
     1
  8
0
100
AcDbBlockEnd
  0
BLOCK
  5
24
330
23
100
AcDbEntity
  8
0
100
AcDbBlockBegin
  2
*Paper_Space0
 70
     0
 10
0.0
 20
0.0
 30
0.0
  3
*Paper_Space0
  1

  0
ENDBLK
  5
25
330
23
100
AcDbEntity
  8
0
100
AcDbBlockEnd
  0
BLOCK
  5
4D
330
4B
100
AcDbEntity
  8
0
100
AcDbBlockBegin
  2
block 2
 70
     0
 10
0.0
 20
0.0
 30
0.0
  3
block 2
  1

  0
POLYLINE
  5
4F
330
4B
100
AcDbEntity
  8
fill layer
370
     0
100
AcDb2dPolyline
 66
     1
 10
0.0
 20
0.0
 30
0.0
  0
VERTEX
  5
50
330
4F
100
AcDbEntity
  8
fill layer
370
     0
100
AcDbVertex
100
AcDb2dVertex
 10
1.437082840691535
 20
0.1012924212868711
 30
0.0
  0
VERTEX
  5
51
330
4F
100
AcDbEntity
  8
fill layer
370
     0
100
AcDbVertex
100
AcDb2dVertex
 10
1.535290090438139
 20
0.234589186072627
 30
0.0
  0
SEQEND
  5
52
330
4F
100
AcDbEntity
  8
fill layer
370
     0
  0
POLYLINE
  5
53
330
4B
100
AcDbEntity
  8
fill layer
370
     0
100
AcDb2dPolyline
 66
     1
 10
0.0
 20
0.0
 30
0.0
  0
VERTEX
  5
54
330
53
100
AcDbEntity
  8
fill layer
370
     0
100
AcDbVertex
100
AcDb2dVertex
 10
1.566859614694724
 20
0.8238812008791253
 30
0.0
  0
VERTEX
  5
55
330
53
100
AcDbEntity
  8
fill layer
370
     0
100
AcDbVertex
100
AcDb2dVertex
 10
1.665113201246464
 20
0.9536830988883795
 30
0.0
  0
SEQEND
  5
56
330
53
100
AcDbEntity
  8
fill layer
370
     0
  0
POLYLINE
  5
57
330
4B
100
AcDbEntity
  8
fill layer
370
     0
100
AcDb2dPolyline
 66
     1
 10
0.0
 20
0.0
 30
0.0
  0
VERTEX
  5
58
330
57
100
AcDbEntity
  8
fill layer
370
     0
100
AcDbVertex
100
AcDb2dVertex
 10
1.426573166814478
 20
-0.0811272805469798
 30
0.0
  0
VERTEX
  5
59
330
57
100
AcDbEntity
  8
fill layer
370
     0
100
AcDbVertex
100
AcDb2dVertex
 10
1.496715451616663
 20
0.0170993062049168
 30
0.0
  0
SEQEND
  5
5A
330
57
100
AcDbEntity
  8
fill layer
370
     0
  0
POLYLINE
  5
5B
330
4B
100
AcDbEntity
  8
fill layer
370
     0
100
AcDb2dPolyline
 66
     1
 10
0.0
 20
0.0
 30
0.0
  0
VERTEX
  5
5C
330
5B
100
AcDbEntity
  8
fill layer
370
     0
100
AcDbVertex
100
AcDb2dVertex
 10
1.528284927186683
 20
0.6064086796212173
 30
0.0
  0
VERTEX
  5
5D
330
5B
100
AcDbEntity
  8
fill layer
370
     0
100
AcDbVertex
100
AcDb2dVertex
 10
1.626492224113412
 20
0.7396958007348707
 30
0.0
  0
SEQEND
  5
5E
330
5B
100
AcDbEntity
  8
fill layer
370
     0
  0
POLYLINE
  5
5F
330
4B
100
AcDbEntity
  8
fill layer
370
     0
100
AcDb2dPolyline
 66
     1
 10
0.0
 20
0.0
 30
0.0
  0
VERTEX
  5
60
330
5F
100
AcDbEntity
  8
fill layer
370
     0
100
AcDbVertex
100
AcDb2dVertex
 10
1.65456495294739
 20
1.329014817823299
 30
0.0
  0
VERTEX
  5
61
330
5F
100
AcDbEntity
  8
fill layer
370
     0
100
AcDbVertex
100
AcDb2dVertex
 10
1.675622874858037
 20
1.353557191876525
 30
0.0
  0
SEQEND
  5
62
330
5F
100
AcDbEntity
  8
fill layer
370
     0
  0
POLYLINE
  5
63
330
4B
100
AcDbEntity
  8
fill layer
370
     0
100
AcDb2dPolyline
 66
     1
 10
0.0
 20
0.0
 30
0.0
  0
VERTEX
  5
64
330
63
100
AcDbEntity
  8
fill layer
370
     0
100
AcDbVertex
100
AcDb2dVertex
 10
1.510748874245539
 20
0.090744172721328
 30
0.0
  0
VERTEX
  5
65
330
63
100
AcDbEntity
  8
fill layer
370
     0
100
AcDbVertex
100
AcDb2dVertex
 10
1.608975458516018
 20
0.2205576431371128
 30
0.0
  0
SEQEND
  5
66
330
63
100
AcDbEntity
  8
fill layer
370
     0
  0
POLYLINE
  5
67
330
4B
100
AcDbEntity
  8
fill layer
370
     0
100
AcDb2dPolyline
 66
     1
 10
0.0
 20
0.0
 30
0.0
  0
VERTEX
  5
68
330
67
100
AcDbEntity
  8
fill layer
370
     0
100
AcDbVertex
100
AcDb2dVertex
 10
1.637038543678121
 20
0.8098670165534259
 30
0.0
  0
VERTEX
  5
69
330
67
100
AcDbEntity
  8
fill layer
370
     0
100
AcDbVertex
100
AcDb2dVertex
 10
1.735255538989274
 20
0.9431464227293797
 30
0.0
  0
SEQEND
  5
6A
330
67
100
AcDbEntity
  8
fill layer
370
     0
  0
POLYLINE
  5
6B
330
4B
100
AcDbEntity
  8
fill layer
370
     0
100
AcDb2dPolyline
 66
     1
 10
0.0
 20
0.0
 30
0.0
  0
VERTEX
  5
6C
330
6B
100
AcDbEntity
  8
fill layer
370
     0
100
AcDbVertex
100
AcDb2dVertex
 10
1.577405934259433
 20
0.0416598103617439
 30
0.0
  0
VERTEX
  5
6D
330
6B
100
AcDbEntity
  8
fill layer
370
     0
100
AcDbVertex
100
AcDb2dVertex
 10
1.675622874858037
 20
0.1714539934332859
 30
0.0
  0
SEQEND
  5
6E
330
6B
100
AcDbEntity
  8
fill layer
370
     0
  0
POLYLINE
  5
6F
330
4B
100
AcDbEntity
  8
fill layer
370
     0
100
AcDb2dPolyline
 66
     1
 10
0.0
 20
0.0
 30
0.0
  0
VERTEX
  5
70
330
6F
100
AcDbEntity
  8
fill layer
370
     0
100
AcDbVertex
100
AcDb2dVertex
 10
1.703649314067004
 20
0.7607633668496115
 30
0.0
  0
VERTEX
  5
71
330
6F
100
AcDbEntity
  8
fill layer
370
     0
100
AcDbVertex
100
AcDb2dVertex
 10
1.801895185681234
 20
0.8940427730255653
 30
0.0
  0
SEQEND
  5
72
330
6F
100
AcDbEntity
  8
fill layer
370
     0
  0
POLYLINE
  5
73
330
4B
100
AcDbEntity
  8
fill layer
370
     0
100
AcDb2dPolyline
 66
     1
 10
0.0
 20
0.0
 30
0.0
  0
VERTEX
  5
74
330
73
100
AcDbEntity
  8
fill layer
370
     0
100
AcDbVertex
100
AcDb2dVertex
 10
1.759779341859939
 20
0.2310866043584257
 30
0.0
  0
VERTEX
  5
75
330
73
100
AcDbEntity
  8
fill layer
370
     0
100
AcDbVertex
100
AcDb2dVertex
 10
1.808902277667054
 20
0.2977166637742812
 30
0.0
  0
SEQEND
  5
76
330
73
100
AcDbEntity
  8
fill layer
370
     0
  0
POLYLINE
  5
77
330
4B
100
AcDbEntity
  8
fill layer
370
     0
100
AcDb2dPolyline
 66
     1
 10
0.0
 20
0.0
 30
0.0
  0
VERTEX
  5
78
330
77
100
AcDbEntity
  8
fill layer
370
     0
100
AcDbVertex
100
AcDb2dVertex
 10
1.398508152209034
 20
0.2942044383879395
 30
0.0
  0
VERTEX
  5
79
330
77
100
AcDbEntity
  8
fill layer
370
     0
100
AcDbVertex
100
AcDb2dVertex
 10
1.447594443303034
 20
0.3608615000857374
 30
0.0
  0
SEQEND
  5
7A
330
77
100
AcDbEntity
  8
fill layer
370
     0
  0
POLYLINE
  5
7B
330
4B
100
AcDbEntity
  8
fill layer
370
     0
100
AcDb2dPolyline
 66
     1
 10
0.0
 20
0.0
 30
0.0
  0
VERTEX
  5
7C
330
7B
100
AcDbEntity
  8
fill layer
370
     0
100
AcDbVertex
100
AcDb2dVertex
 10
1.52476112948284
 20
1.016820220262149
 30
0.0
  0
VERTEX
  5
7D
330
7B
100
AcDbEntity
  8
fill layer
370
     0
100
AcDbVertex
100
AcDb2dVertex
 10
1.573884065289955
 20
1.079974700245733
 30
0.0
  0
SEQEND
  5
7E
330
7B
100
AcDbEntity
  8
fill layer
370
     0
  0
POLYLINE
  5
7F
330
4B
100
AcDbEntity
  8
fill layer
370
     0
100
AcDb2dPolyline
 66
     1
 10
0.0
 20
0.0
 30
0.0
  0
VERTEX
  5
80
330
7F
100
AcDbEntity
  8
fill layer
370
     0
100
AcDbVertex
100
AcDb2dVertex
 10
1.507227005276061
 20
-0.0811272805469798
 30
0.0
  0
VERTEX
  5
81
330
7F
100
AcDbEntity
  8
fill layer
370
     0
100
AcDbVertex
100
AcDb2dVertex
 10
1.570381483664202
 20
0.0030561908628594
 30
0.0
  0
SEQEND
  5
82
330
7F
100
AcDbEntity
  8
fill layer
370
     0
  0
POLYLINE
  5
83
330
4B
100
AcDbEntity
  8
fill layer
370
     0
100
AcDb2dPolyline
 66
     1
 10
0.0
 20
0.0
 30
0.0
  0
VERTEX
  5
84
330
83
100
AcDbEntity
  8
fill layer
370
     0
100
AcDbVertex
100
AcDb2dVertex
 10
1.598446497560695
 20
0.5923655642791724
 30
0.0
  0
VERTEX
  5
85
330
83
100
AcDbEntity
  8
fill layer
370
     0
100
AcDbVertex
100
AcDb2dVertex
 10
1.69668085050676
 20
0.7256816164091712
 30
0.0
  0
SEQEND
  5
86
330
83
100
AcDbEntity
  8
fill layer
370
     0
  0
POLYLINE
  5
87
330
4B
100
AcDbEntity
  8
fill layer
370
     0
100
AcDb2dPolyline
 66
     1
 10
0.0
 20
0.0
 30
0.0
  0
VERTEX
  5
88
330
87
100
AcDbEntity
  8
fill layer
370
     0
100
AcDbVertex
100
AcDb2dVertex
 10
1.728211746337744
 20
1.315001404991386
 30
0.0
  0
VERTEX
  5
89
330
87
100
AcDbEntity
  8
fill layer
370
     0
100
AcDbVertex
100
AcDb2dVertex
 10
1.756276760234212
 20
1.353557191876525
 30
0.0
  0
SEQEND
  5
8A
330
87
100
AcDbEntity
  8
fill layer
370
     0
  0
POLYLINE
  5
8B
330
4B
100
AcDbEntity
  8
fill layer
370
     0
100
AcDb2dPolyline
 66
     1
 10
0.0
 20
0.0
 30
0.0
  0
VERTEX
  5
8C
330
8B
100
AcDbEntity
  8
fill layer
370
     0
100
AcDbVertex
100
AcDb2dVertex
 10
1.566859614694724
 20
-0.0811272805469798
 30
0.0
  0
VERTEX
  5
8D
330
8B
100
AcDbEntity
  8
fill layer
370
     0
100
AcDbVertex
100
AcDb2dVertex
 10
1.69668085050676
 20
0.0942583268420852
 30
0.0
  0
SEQEND
  5
8E
330
8B
100
AcDbEntity
  8
fill layer
370
     0
  0
POLYLINE
  5
8F
330
4B
100
AcDbEntity
  8
fill layer
370
     0
100
AcDb2dPolyline
 66
     1
 10
0.0
 20
0.0
 30
0.0
  0
VERTEX
  5
90
330
8F
100
AcDbEntity
  8
fill layer
370
     0
100
AcDbVertex
100
AcDb2dVertex
 10
1.67912738521813
 20
0.6169183534982746
 30
0.0
  0
VERTEX
  5
91
330
8F
100
AcDbEntity
  8
fill layer
370
     0
100
AcDbVertex
100
AcDb2dVertex
 10
1.822914532904355
 20
0.8133792419397675
 30
0.0
  0
SEQEND
  5
92
330
8F
100
AcDbEntity
  8
fill layer
370
     0
  0
POLYLINE
  5
93
330
4B
100
AcDbEntity
  8
fill layer
370
     0
100
AcDb2dPolyline
 66
     1
 10
0.0
 20
0.0
 30
0.0
  0
VERTEX
  5
94
330
93
100
AcDbEntity
  8
fill layer
370
     0
100
AcDbVertex
100
AcDb2dVertex
 10
1.805397767306961
 20
1.339543779044599
 30
0.0
  0
VERTEX
  5
95
330
93
100
AcDbEntity
  8
fill layer
370
     0
100
AcDbVertex
100
AcDb2dVertex
 10
1.8159093696529
 20
1.353557191876525
 30
0.0
  0
SEQEND
  5
96
330
93
100
AcDbEntity
  8
fill layer
370
     0
  0
POLYLINE
  5
97
330
4B
100
AcDbEntity
  8
fill layer
370
     0
100
AcDb2dPolyline
 66
     1
 10
0.0
 20
0.0
 30
0.0
  0
VERTEX
  5
98
330
97
100
AcDbEntity
  8
fill layer
370
     0
100
AcDbVertex
100
AcDb2dVertex
 10
1.826455689217583
 20
0.1819540236382409
 30
0.0
  0
VERTEX
  5
99
330
97
100
AcDbEntity
  8
fill layer
370
     0
100
AcDbVertex
100
AcDb2dVertex
 10
1.833462781203429
 20
0.1959971389802983
 30
0.0
  0
SEQEND
  5
9A
330
97
100
AcDbEntity
  8
fill layer
370
     0
  0
POLYLINE
  5
9B
330
4B
100
AcDbEntity
  8
fill layer
370
     0
100
AcDb2dPolyline
 66
     1
 10
0.0
 20
0.0
 30
0.0
  0
VERTEX
  5
9C
330
9B
100
AcDbEntity
  8
fill layer
370
     0
100
AcDbVertex
100
AcDb2dVertex
 10
1.577405934259433
 20
0.2626638443502113
 30
0.0
  0
VERTEX
  5
9D
330
9B
100
AcDbEntity
  8
fill layer
370
     0
100
AcDbVertex
100
AcDb2dVertex
 10
1.626492224113412
 20
0.3292842600939517
 30
0.0
  0
SEQEND
  5
9E
330
9B
100
AcDbEntity
  8
fill layer
370
     0
  0
POLYLINE
  5
9F
330
4B
100
AcDbEntity
  8
fill layer
370
     0
100
AcDb2dPolyline
 66
     1
 10
0.0
 20
0.0
 30
0.0
  0
VERTEX
  5
A0
330
9F
100
AcDbEntity
  8
fill layer
370
     0
100
AcDbVertex
100
AcDb2dVertex
 10
1.707190470380232
 20
0.9852526239424781
 30
0.0
  0
VERTEX
  5
A1
330
9F
100
AcDbEntity
  8
fill layer
370
     0
100
AcDbVertex
100
AcDb2dVertex
 10
1.756276760234212
 20
1.048397460253935
 30
0.0
  0
SEQEND
  5
A2
330
9F
100
AcDbEntity
  8
fill layer
370
     0
  0
POLYLINE
  5
A3
330
4B
100
AcDbEntity
  8
fill layer
370
     0
100
AcDb2dPolyline
 66
     1
 10
0.0
 20
0.0
 30
0.0
  0
VERTEX
  5
A4
330
A3
100
AcDbEntity
  8
fill layer
370
     0
100
AcDbVertex
100
AcDb2dVertex
 10
1.672081718544784
 20
-0.0495500405551815
 30
0.0
  0
VERTEX
  5
A5
330
A3
100
AcDbEntity
  8
fill layer
370
     0
100
AcDbVertex
100
AcDb2dVertex
 10
1.721243229039424
 20
0.0135851520841596
 30
0.0
  0
SEQEND
  5
A6
330
A3
100
AcDbEntity
  8
fill layer
370
     0
  0
POLYLINE
  5
A7
330
4B
100
AcDbEntity
  8
fill layer
370
     0
100
AcDb2dPolyline
 66
     1
 10
0.0
 20
0.0
 30
0.0
  0
VERTEX
  5
A8
330
A7
100
AcDbEntity
  8
fill layer
370
     0
100
AcDbVertex
100
AcDb2dVertex
 10
1.798392604055506
 20
0.6695631596048012
 30
0.0
  0
VERTEX
  5
A9
330
A7
100
AcDbEntity
  8
fill layer
370
     0
100
AcDbVertex
100
AcDb2dVertex
 10
1.833462781203429
 20
0.7186571656365129
 30
0.0
  0
SEQEND
  5
AA
330
A7
100
AcDbEntity
  8
fill layer
370
     0
  0
POLYLINE
  5
AB
330
4B
100
AcDbEntity
  8
fill layer
370
     0
100
AcDb2dPolyline
 66
     1
 10
0.0
 20
0.0
 30
0.0
  0
VERTEX
  5
AC
330
AB
100
AcDbEntity
  8
fill layer
370
     0
100
AcDbVertex
100
AcDb2dVertex
 10
1.752810824561619
 20
-0.0811272805469798
 30
0.0
  0
VERTEX
  5
AD
330
AB
100
AcDbEntity
  8
fill layer
370
     0
100
AcDbVertex
100
AcDb2dVertex
 10
1.787844355756432
 20
-0.0355184976196673
 30
0.0
  0
SEQEND
  5
AE
330
AB
100
AcDbEntity
  8
fill layer
370
     0
  0
POLYLINE
  5
AF
330
4B
100
AcDbEntity
  8
fill layer
370
     0
100
AcDb2dPolyline
 66
     1
 10
0.0
 20
0.0
 30
0.0
  0
VERTEX
  5
B0
330
AF
100
AcDbEntity
  8
fill layer
370
     0
100
AcDbVertex
100
AcDb2dVertex
 10
1.394986283150577
 20
0.9221155025687215
 30
0.0
  0
VERTEX
  5
B1
330
AF
100
AcDbEntity
  8
fill layer
370
     0
100
AcDbVertex
100
AcDb2dVertex
 10
1.398508152209034
 20
0.9256200130173384
 30
0.0
  0
SEQEND
  5
B2
330
AF
100
AcDbEntity
  8
fill layer
370
     0
  0
POLYLINE
  5
B3
330
4B
100
AcDbEntity
  8
fill layer
370
     0
100
AcDb2dPolyline
 66
     1
 10
0.0
 20
0.0
 30
0.0
  0
VERTEX
  5
B4
330
B3
100
AcDbEntity
  8
fill layer
370
     0
100
AcDbVertex
100
AcDb2dVertex
 10
1.426573166814478
 20
0.6625367800977149
 30
0.0
  0
VERTEX
  5
B5
330
B3
100
AcDbEntity
  8
fill layer
370
     0
100
AcDbVertex
100
AcDb2dVertex
 10
1.475657529174049
 20
0.7256816164091712
 30
0.0
  0
SEQEND
  5
B6
330
B3
100
AcDbEntity
  8
fill layer
370
     0
  0
POLYLINE
  5
B7
330
4B
100
AcDbEntity
  8
fill layer
370
     0
100
AcDb2dPolyline
 66
     1
 10
0.0
 20
0.0
 30
0.0
  0
VERTEX
  5
B8
330
B7
100
AcDbEntity
  8
fill layer
370
     0
100
AcDbVertex
100
AcDb2dVertex
 10
1.394986283150577
 20
0.785314227334311
 30
0.0
  0
VERTEX
  5
B9
330
B7
100
AcDbEntity
  8
fill layer
370
     0
100
AcDbVertex
100
AcDb2dVertex
 10
1.416024918248922
 20
0.8133792419397675
 30
0.0
  0
SEQEND
  5
BA
330
B7
100
AcDbEntity
  8
fill layer
370
     0
  0
POLYLINE
  5
BB
330
4B
100
AcDbEntity
  8
fill layer
370
     0
100
AcDb2dPolyline
 66
     1
 10
0.0
 20
0.0
 30
0.0
  0
VERTEX
  5
BC
330
BB
100
AcDbEntity
  8
fill layer
370
     0
100
AcDbVertex
100
AcDb2dVertex
 10
1.416024918248922
 20
0.1819540236382409
 30
0.0
  0
VERTEX
  5
BD
330
BB
100
AcDbEntity
  8
fill layer
370
     0
100
AcDbVertex
100
AcDb2dVertex
 10
1.514251455871267
 20
0.3117578503819232
 30
0.0
  0
SEQEND
  5
BE
330
BB
100
AcDbEntity
  8
fill layer
370
     0
  0
POLYLINE
  5
BF
330
4B
100
AcDbEntity
  8
fill layer
370
     0
100
AcDb2dPolyline
 66
     1
 10
0.0
 20
0.0
 30
0.0
  0
VERTEX
  5
C0
330
BF
100
AcDbEntity
  8
fill layer
370
     0
100
AcDbVertex
100
AcDb2dVertex
 10
1.542335757111484
 20
0.9010768674703387
 30
0.0
  0
VERTEX
  5
C1
330
BF
100
AcDbEntity
  8
fill layer
370
     0
100
AcDbVertex
100
AcDb2dVertex
 10
1.640523766694463
 20
1.034356273646293
 30
0.0
  0
SEQEND
  5
C2
330
BF
100
AcDbEntity
  8
fill layer
370
     0
  0
POLYLINE
  5
C3
330
4B
100
AcDbEntity
  8
fill layer
370
     0
100
AcDb2dPolyline
 66
     1
 10
0.0
 20
0.0
 30
0.0
  0
VERTEX
  5
C4
330
C3
100
AcDbEntity
  8
fill layer
370
     0
100
AcDbVertex
100
AcDb2dVertex
 10
1.647550146024059
 20
1.069436095352305
 30
0.0
  0
VERTEX
  5
C5
330
C3
100
AcDbEntity
  8
fill layer
370
     0
100
AcDbVertex
100
AcDb2dVertex
 10
1.598446497560695
 20
1.227295293029329
 30
0.0
  0
SEQEND
  5
C6
330
C3
100
AcDbEntity
  8
fill layer
370
     0
  0
POLYLINE
  5
C7
330
4B
100
AcDbEntity
  8
fill layer
370
     0
100
AcDb2dPolyline
 66
     1
 10
0.0
 20
0.0
 30
0.0
  0
VERTEX
  5
C8
330
C7
100
AcDbEntity
  8
fill layer
370
     0
100
AcDbVertex
100
AcDb2dVertex
 10
1.517773324840745
 20
0.3468396008223509
 30
0.0
  0
VERTEX
  5
C9
330
C7
100
AcDbEntity
  8
fill layer
370
     0
100
AcDbVertex
100
AcDb2dVertex
 10
1.472154947459861
 20
0.5046698674830041
 30
0.0
  0
SEQEND
  5
CA
330
C7
100
AcDbEntity
  8
fill layer
370
     0
  0
POLYLINE
  5
CB
330
4B
100
AcDbEntity
  8
fill layer
370
     0
100
AcDb2dPolyline
 66
     1
 10
0.0
 20
0.0
 30
0.0
  0
VERTEX
  5
CC
330
CB
100
AcDbEntity
  8
fill layer
370
     0
100
AcDbVertex
100
AcDb2dVertex
 10
1.672081718544784
 20
1.213261821359386
 30
0.0
  0
VERTEX
  5
CD
330
CB
100
AcDbEntity
  8
fill layer
370
     0
100
AcDbVertex
100
AcDb2dVertex
 10
1.647550146024059
 20
1.290420841996542
 30
0.0
  0
SEQEND
  5
CE
330
CB
100
AcDbEntity
  8
fill layer
370
     0
  0
POLYLINE
  5
CF
330
4B
100
AcDbEntity
  8
fill layer
370
     0
100
AcDb2dPolyline
 66
     1
 10
0.0
 20
0.0
 30
0.0
  0
VERTEX
  5
D0
330
CF
100
AcDbEntity
  8
fill layer
370
     0
100
AcDbVertex
100
AcDb2dVertex
 10
1.545838338737212
 20
0.4906653268294323
 30
0.0
  0
VERTEX
  5
D1
330
CF
100
AcDbEntity
  8
fill layer
370
     0
100
AcDbVertex
100
AcDb2dVertex
 10
1.521277835200863
 20
0.5713365728529045
 30
0.0
  0
SEQEND
  5
D2
330
CF
100
AcDbEntity
  8
fill layer
370
     0
  0
POLYLINE
  5
D3
330
4B
100
AcDbEntity
  8
fill layer
370
     0
100
AcDb2dPolyline
 66
     1
 10
0.0
 20
0.0
 30
0.0
  0
VERTEX
  5
D4
330
D3
100
AcDbEntity
  8
fill layer
370
     0
100
AcDbVertex
100
AcDb2dVertex
 10
1.784378420083815
 20
0.3749123303655071
 30
0.0
  0
VERTEX
  5
D5
330
D3
100
AcDbEntity
  8
fill layer
370
     0
100
AcDbVertex
100
AcDb2dVertex
 10
1.759779341859939
 20
0.455575861451305
 30
0.0
  0
SEQEND
  5
D6
330
D3
100
AcDbEntity
  8
fill layer
370
     0
  0
POLYLINE
  5
D7
330
4B
100
AcDbEntity
  8
fill layer
370
     0
100
AcDb2dPolyline
 66
     1
 10
0.0
 20
0.0
 30
0.0
  0
VERTEX
  5
D8
330
D7
100
AcDbEntity
  8
fill layer
370
     0
100
AcDbVertex
100
AcDb2dVertex
 10
1.647550146024059
 20
1.069436095352305
 30
0.0
  0
VERTEX
  5
D9
330
D7
100
AcDbEntity
  8
fill layer
370
     0
100
AcDbVertex
100
AcDb2dVertex
 10
1.598446497560695
 20
1.223790782580686
 30
0.0
  0
SEQEND
  5
DA
330
D7
100
AcDbEntity
  8
fill layer
370
     0
  0
POLYLINE
  5
DB
330
4B
100
AcDbEntity
  8
fill layer
370
     0
100
AcDb2dPolyline
 66
     1
 10
0.0
 20
0.0
 30
0.0
  0
VERTEX
  5
DC
330
DB
100
AcDbEntity
  8
fill layer
370
     0
100
AcDbVertex
100
AcDb2dVertex
 10
1.833462781203429
 20
0.4380494517392763
 30
0.0
  0
VERTEX
  5
DD
330
DB
100
AcDbEntity
  8
fill layer
370
     0
100
AcDbVertex
100
AcDb2dVertex
 10
1.787844355756432
 20
0.599391943786246
 30
0.0
  0
SEQEND
  5
DE
330
DB
100
AcDbEntity
  8
fill layer
370
     0
  0
POLYLINE
  5
DF
330
4B
100
AcDbEntity
  8
fill layer
370
     0
100
AcDb2dPolyline
 66
     1
 10
0.0
 20
0.0
 30
0.0
  0
VERTEX
  5
E0
330
DF
100
AcDbEntity
  8
fill layer
370
     0
100
AcDbVertex
100
AcDb2dVertex
 10
1.517773324840745
 20
0.3468396008223509
 30
0.0
  0
VERTEX
  5
E1
330
DF
100
AcDbEntity
  8
fill layer
370
     0
100
AcDbVertex
100
AcDb2dVertex
 10
1.472154947459861
 20
0.5046698674830041
 30
0.0
  0
SEQEND
  5
E2
330
DF
100
AcDbEntity
  8
fill layer
370
     0
  0
POLYLINE
  5
E3
330
4B
100
AcDbEntity
  8
fill layer
370
     0
100
AcDb2dPolyline
 66
     1
 10
0.0
 20
0.0
 30
0.0
  0
VERTEX
  5
E4
330
E3
100
AcDbEntity
  8
fill layer
370
     0
100
AcDbVertex
100
AcDb2dVertex
 10
1.465128567952762
 20
1.101013335344091
 30
0.0
  0
VERTEX
  5
E5
330
E3
100
AcDbEntity
  8
fill layer
370
     0
100
AcDbVertex
100
AcDb2dVertex
 10
1.394986283150577
 20
1.339543779044599
 30
0.0
  0
SEQEND
  5
E6
330
E3
100
AcDbEntity
  8
fill layer
370
     0
  0
POLYLINE
  5
E7
330
4B
100
AcDbEntity
  8
fill layer
370
     0
100
AcDb2dPolyline
 66
     1
 10
0.0
 20
0.0
 30
0.0
  0
VERTEX
  5
E8
330
E7
100
AcDbEntity
  8
fill layer
370
     0
100
AcDbVertex
100
AcDb2dVertex
 10
1.461645273582765
 20
1.286927903954443
 30
0.0
  0
VERTEX
  5
E9
330
E7
100
AcDbEntity
  8
fill layer
370
     0
100
AcDbVertex
100
AcDb2dVertex
 10
1.44058735114019
 20
1.353557191876525
 30
0.0
  0
SEQEND
  5
EA
330
E7
100
AcDbEntity
  8
fill layer
370
     0
  0
POLYLINE
  5
EB
330
4B
100
AcDbEntity
  8
fill layer
370
     0
100
AcDb2dPolyline
 66
     1
 10
0.0
 20
0.0
 30
0.0
  0
VERTEX
  5
EC
330
EB
100
AcDbEntity
  8
fill layer
370
     0
100
AcDbVertex
100
AcDb2dVertex
 10
1.69668085050676
 20
0.0942583268420852
 30
0.0
  0
VERTEX
  5
ED
330
EB
100
AcDbEntity
  8
fill layer
370
     0
100
AcDbVertex
100
AcDb2dVertex
 10
1.826455689217583
 20
0.1819540236382409
 30
0.0
  0
SEQEND
  5
EE
330
EB
100
AcDbEntity
  8
fill layer
370
     0
  0
POLYLINE
  5
EF
330
4B
100
AcDbEntity
  8
fill layer
370
     0
100
AcDb2dPolyline
 66
     1
 10
0.0
 20
0.0
 30
0.0
  0
VERTEX
  5
F0
330
EF
100
AcDbEntity
  8
fill layer
370
     0
100
AcDbVertex
100
AcDb2dVertex
 10
1.822914532904355
 20
0.8133792419397675
 30
0.0
  0
VERTEX
  5
F1
330
EF
100
AcDbEntity
  8
fill layer
370
     0
100
AcDbVertex
100
AcDb2dVertex
 10
1.833462781203429
 20
0.8203766904304959
 30
0.0
  0
SEQEND
  5
F2
330
EF
100
AcDbEntity
  8
fill layer
370
     0
  0
POLYLINE
  5
F3
330
4B
100
AcDbEntity
  8
fill layer
370
     0
100
AcDb2dPolyline
 66
     1
 10
0.0
 20
0.0
 30
0.0
  0
VERTEX
  5
F4
330
F3
100
AcDbEntity
  8
fill layer
370
     0
100
AcDbVertex
100
AcDb2dVertex
 10
1.721243229039424
 20
0.0135851520841596
 30
0.0
  0
VERTEX
  5
F5
330
F3
100
AcDbEntity
  8
fill layer
370
     0
100
AcDbVertex
100
AcDb2dVertex
 10
1.833462781203429
 20
0.0942583268420852
 30
0.0
  0
SEQEND
  5
F6
330
F3
100
AcDbEntity
  8
fill layer
370
     0
  0
POLYLINE
  5
F7
330
4B
100
AcDbEntity
  8
fill layer
370
     0
100
AcDb2dPolyline
 66
     1
 10
0.0
 20
0.0
 30
0.0
  0
VERTEX
  5
F8
330
F7
100
AcDbEntity
  8
fill layer
370
     0
100
AcDbVertex
100
AcDb2dVertex
 10
1.394986283150577
 20
0.2942044383879395
 30
0.0
  0
VERTEX
  5
F9
330
F7
100
AcDbEntity
  8
fill layer
370
     0
100
AcDbVertex
100
AcDb2dVertex
 10
1.398508152209034
 20
0.2942044383879395
 30
0.0
  0
SEQEND
  5
FA
330
F7
100
AcDbEntity
  8
fill layer
370
     0
  0
POLYLINE
  5
FB
330
4B
100
AcDbEntity
  8
fill layer
370
     0
100
AcDb2dPolyline
 66
     1
 10
0.0
 20
0.0
 30
0.0
  0
VERTEX
  5
FC
330
FB
100
AcDbEntity
  8
fill layer
370
     0
100
AcDbVertex
100
AcDb2dVertex
 10
1.398508152209034
 20
0.9256200130173384
 30
0.0
  0
VERTEX
  5
FD
330
FB
100
AcDbEntity
  8
fill layer
370
     0
100
AcDbVertex
100
AcDb2dVertex
 10
1.52476112948284
 20
1.016820220262149
 30
0.0
  0
SEQEND
  5
FE
330
FB
100
AcDbEntity
  8
fill layer
370
     0
  0
POLYLINE
  5
FF
330
4B
100
AcDbEntity
  8
fill layer
370
     0
100
AcDb2dPolyline
 66
     1
 10
0.0
 20
0.0
 30
0.0
  0
VERTEX
  5
100
330
FF
100
AcDbEntity
  8
fill layer
370
     0
100
AcDbVertex
100
AcDb2dVertex
 10
1.394986283150577
 20
0.1644276139262122
 30
0.0
  0
VERTEX
  5
101
330
FF
100
AcDbEntity
  8
fill layer
370
     0
100
AcDbVertex
100
AcDb2dVertex
 10
1.416024918248922
 20
0.1819540236382409
 30
0.0
  0
SEQEND
  5
102
330
FF
100
AcDbEntity
  8
fill layer
370
     0
  0
POLYLINE
  5
103
330
4B
100
AcDbEntity
  8
fill layer
370
     0
100
AcDb2dPolyline
 66
     1
 10
0.0
 20
0.0
 30
0.0
  0
VERTEX
  5
104
330
103
100
AcDbEntity
  8
fill layer
370
     0
100
AcDbVertex
100
AcDb2dVertex
 10
1.416024918248922
 20
0.8133792419397675
 30
0.0
  0
VERTEX
  5
105
330
103
100
AcDbEntity
  8
fill layer
370
     0
100
AcDbVertex
100
AcDb2dVertex
 10
1.542335757111484
 20
0.9010768674703387
 30
0.0
  0
SEQEND
  5
106
330
103
100
AcDbEntity
  8
fill layer
370
     0
  0
POLYLINE
  5
107
330
4B
100
AcDbEntity
  8
fill layer
370
     0
100
AcDb2dPolyline
 66
     1
 10
0.0
 20
0.0
 30
0.0
  0
VERTEX
  5
108
330
107
100
AcDbEntity
  8
fill layer
370
     0
100
AcDbVertex
100
AcDb2dVertex
 10
1.608975458516018
 20
0.2205576431371128
 30
0.0
  0
VERTEX
  5
109
330
107
100
AcDbEntity
  8
fill layer
370
     0
100
AcDbVertex
100
AcDb2dVertex
 10
1.735255538989274
 20
0.3082456249955814
 30
0.0
  0
SEQEND
  5
10A
330
107
100
AcDbEntity
  8
fill layer
370
     0
  0
POLYLINE
  5
10B
330
4B
100
AcDbEntity
  8
fill layer
370
     0
100
AcDb2dPolyline
 66
     1
 10
0.0
 20
0.0
 30
0.0
  0
VERTEX
  5
10C
330
10B
100
AcDbEntity
  8
fill layer
370
     0
100
AcDbVertex
100
AcDb2dVertex
 10
1.735255538989274
 20
0.9431464227293797
 30
0.0
  0
VERTEX
  5
10D
330
10B
100
AcDbEntity
  8
fill layer
370
     0
100
AcDbVertex
100
AcDb2dVertex
 10
1.833462781203429
 20
1.009803484427165
 30
0.0
  0
SEQEND
  5
10E
330
10B
100
AcDbEntity
  8
fill layer
370
     0
  0
POLYLINE
  5
10F
330
4B
100
AcDbEntity
  8
fill layer
370
     0
100
AcDb2dPolyline
 66
     1
 10
0.0
 20
0.0
 30
0.0
  0
VERTEX
  5
110
330
10F
100
AcDbEntity
  8
fill layer
370
     0
100
AcDbVertex
100
AcDb2dVertex
 10
1.675622874858037
 20
0.1714539934332859
 30
0.0
  0
VERTEX
  5
111
330
10F
100
AcDbEntity
  8
fill layer
370
     0
100
AcDbVertex
100
AcDb2dVertex
 10
1.759779341859939
 20
0.2310866043584257
 30
0.0
  0
SEQEND
  5
112
330
10F
100
AcDbEntity
  8
fill layer
370
     0
  0
POLYLINE
  5
113
330
4B
100
AcDbEntity
  8
fill layer
370
     0
100
AcDb2dPolyline
 66
     1
 10
0.0
 20
0.0
 30
0.0
  0
VERTEX
  5
114
330
113
100
AcDbEntity
  8
fill layer
370
     0
100
AcDbVertex
100
AcDb2dVertex
 10
1.801895185681234
 20
0.8940427730255653
 30
0.0
  0
VERTEX
  5
115
330
113
100
AcDbEntity
  8
fill layer
370
     0
100
AcDbVertex
100
AcDb2dVertex
 10
1.833462781203429
 20
0.9150910517960508
 30
0.0
  0
SEQEND
  5
116
330
113
100
AcDbEntity
  8
fill layer
370
     0
  0
POLYLINE
  5
117
330
4B
100
AcDbEntity
  8
fill layer
370
     0
100
AcDb2dPolyline
 66
     1
 10
0.0
 20
0.0
 30
0.0
  0
VERTEX
  5
118
330
117
100
AcDbEntity
  8
fill layer
370
     0
100
AcDbVertex
100
AcDb2dVertex
 10
1.394986283150577
 20
1.020342089320593
 30
0.0
  0
VERTEX
  5
119
330
117
100
AcDbEntity
  8
fill layer
370
     0
100
AcDbVertex
100
AcDb2dVertex
 10
1.458140763134149
 20
1.065923869965963
 30
0.0
  0
SEQEND
  5
11A
330
117
100
AcDbEntity
  8
fill layer
370
     0
  0
POLYLINE
  5
11B
330
4B
100
AcDbEntity
  8
fill layer
370
     0
100
AcDb2dPolyline
 66
     1
 10
0.0
 20
0.0
 30
0.0
  0
VERTEX
  5
11C
330
11B
100
AcDbEntity
  8
fill layer
370
     0
100
AcDbVertex
100
AcDb2dVertex
 10
1.787844355756432
 20
-0.0355184976196673
 30
0.0
  0
VERTEX
  5
11D
330
11B
100
AcDbEntity
  8
fill layer
370
     0
100
AcDbVertex
100
AcDb2dVertex
 10
1.833462781203429
 20
-0.0004271035071118
 30
0.0
  0
SEQEND
  5
11E
330
11B
100
AcDbEntity
  8
fill layer
370
     0
  0
POLYLINE
  5
11F
330
4B
100
AcDbEntity
  8
fill layer
370
     0
100
AcDb2dPolyline
 66
     1
 10
0.0
 20
0.0
 30
0.0
  0
VERTEX
  5
120
330
11F
100
AcDbEntity
  8
fill layer
370
     0
100
AcDbVertex
100
AcDb2dVertex
 10
1.394986283150577
 20
0.0381379413032871
 30
0.0
  0
VERTEX
  5
121
330
11F
100
AcDbEntity
  8
fill layer
370
     0
100
AcDbVertex
100
AcDb2dVertex
 10
1.433580258977321
 20
0.0662029559087437
 30
0.0
  0
SEQEND
  5
122
330
11F
100
AcDbEntity
  8
fill layer
370
     0
  0
POLYLINE
  5
123
330
4B
100
AcDbEntity
  8
fill layer
370
     0
100
AcDb2dPolyline
 66
     1
 10
0.0
 20
0.0
 30
0.0
  0
VERTEX
  5
124
330
123
100
AcDbEntity
  8
fill layer
370
     0
100
AcDbVertex
100
AcDb2dVertex
 10
1.475657529174049
 20
0.7256816164091712
 30
0.0
  0
VERTEX
  5
125
330
123
100
AcDbEntity
  8
fill layer
370
     0
100
AcDbVertex
100
AcDb2dVertex
 10
1.559852522708904
 20
0.785314227334311
 30
0.0
  0
SEQEND
  5
126
330
123
100
AcDbEntity
  8
fill layer
370
     0
  0
POLYLINE
  5
127
330
4B
100
AcDbEntity
  8
fill layer
370
     0
100
AcDb2dPolyline
 66
     1
 10
0.0
 20
0.0
 30
0.0
  0
VERTEX
  5
128
330
127
100
AcDbEntity
  8
fill layer
370
     0
100
AcDbVertex
100
AcDb2dVertex
 10
1.535290090438139
 20
0.234589186072627
 30
0.0
  0
VERTEX
  5
129
330
127
100
AcDbEntity
  8
fill layer
370
     0
100
AcDbVertex
100
AcDb2dVertex
 10
1.577405934259433
 20
0.2626638443502113
 30
0.0
  0
SEQEND
  5
12A
330
127
100
AcDbEntity
  8
fill layer
370
     0
  0
POLYLINE
  5
12B
330
4B
100
AcDbEntity
  8
fill layer
370
     0
100
AcDb2dPolyline
 66
     1
 10
0.0
 20
0.0
 30
0.0
  0
VERTEX
  5
12C
330
12B
100
AcDbEntity
  8
fill layer
370
     0
100
AcDbVertex
100
AcDb2dVertex
 10
1.665113201246464
 20
0.9536830988883795
 30
0.0
  0
VERTEX
  5
12D
330
12B
100
AcDbEntity
  8
fill layer
370
     0
100
AcDbVertex
100
AcDb2dVertex
 10
1.707190470380232
 20
0.9852526239424781
 30
0.0
  0
SEQEND
  5
12E
330
12B
100
AcDbEntity
  8
fill layer
370
     0
  0
POLYLINE
  5
12F
330
4B
100
AcDbEntity
  8
fill layer
370
     0
100
AcDb2dPolyline
 66
     1
 10
0.0
 20
0.0
 30
0.0
  0
VERTEX
  5
130
330
12F
100
AcDbEntity
  8
fill layer
370
     0
100
AcDbVertex
100
AcDb2dVertex
 10
1.759779341859939
 20
1.086962505064333
 30
0.0
  0
VERTEX
  5
131
330
12F
100
AcDbEntity
  8
fill layer
370
     0
100
AcDbVertex
100
AcDb2dVertex
 10
1.672081718544784
 20
1.213261821359386
 30
0.0
  0
SEQEND
  5
132
330
12F
100
AcDbEntity
  8
fill layer
370
     0
  0
POLYLINE
  5
133
330
4B
100
AcDbEntity
  8
fill layer
370
     0
100
AcDb2dPolyline
 66
     1
 10
0.0
 20
0.0
 30
0.0
  0
VERTEX
  5
134
330
133
100
AcDbEntity
  8
fill layer
370
     0
100
AcDbVertex
100
AcDb2dVertex
 10
1.633516674708618
 20
0.3643660105343795
 30
0.0
  0
VERTEX
  5
135
330
133
100
AcDbEntity
  8
fill layer
370
     0
100
AcDbVertex
100
AcDb2dVertex
 10
1.545838338737212
 20
0.4906653268294323
 30
0.0
  0
SEQEND
  5
136
330
133
100
AcDbEntity
  8
fill layer
370
     0
  0
POLYLINE
  5
137
330
4B
100
AcDbEntity
  8
fill layer
370
     0
100
AcDb2dPolyline
 66
     1
 10
0.0
 20
0.0
 30
0.0
  0
VERTEX
  5
138
330
137
100
AcDbEntity
  8
fill layer
370
     0
100
AcDbVertex
100
AcDb2dVertex
 10
1.833462781203429
 20
1.11502751966979
 30
0.0
  0
VERTEX
  5
139
330
137
100
AcDbEntity
  8
fill layer
370
     0
100
AcDbVertex
100
AcDb2dVertex
 10
1.721243229039424
 20
1.279911168119485
 30
0.0
  0
SEQEND
  5
13A
330
137
100
AcDbEntity
  8
fill layer
370
     0
  0
POLYLINE
  5
13B
330
4B
100
AcDbEntity
  8
fill layer
370
     0
100
AcDb2dPolyline
 66
     1
 10
0.0
 20
0.0
 30
0.0
  0
VERTEX
  5
13C
330
13B
100
AcDbEntity
  8
fill layer
370
     0
100
AcDbVertex
100
AcDb2dVertex
 10
1.742262576262545
 20
0.3468396008223509
 30
0.0
  0
VERTEX
  5
13D
330
13B
100
AcDbEntity
  8
fill layer
370
     0
100
AcDbVertex
100
AcDb2dVertex
 10
1.594922699856827
 20
0.5572857425731601
 30
0.0
  0
SEQEND
  5
13E
330
13B
100
AcDbEntity
  8
fill layer
370
     0
  0
POLYLINE
  5
13F
330
4B
100
AcDbEntity
  8
fill layer
370
     0
100
AcDb2dPolyline
 66
     1
 10
0.0
 20
0.0
 30
0.0
  0
VERTEX
  5
140
330
13F
100
AcDbEntity
  8
fill layer
370
     0
100
AcDbVertex
100
AcDb2dVertex
 10
1.833462781203429
 20
1.251855797186143
 30
0.0
  0
VERTEX
  5
141
330
13F
100
AcDbEntity
  8
fill layer
370
     0
100
AcDbVertex
100
AcDb2dVertex
 10
1.798392604055506
 20
1.300950188964723
 30
0.0
  0
SEQEND
  5
142
330
13F
100
AcDbEntity
  8
fill layer
370
     0
  0
POLYLINE
  5
143
330
4B
100
AcDbEntity
  8
fill layer
370
     0
100
AcDb2dPolyline
 66
     1
 10
0.0
 20
0.0
 30
0.0
  0
VERTEX
  5
144
330
143
100
AcDbEntity
  8
fill layer
370
     0
100
AcDbVertex
100
AcDb2dVertex
 10
1.759779341859939
 20
0.455575861451305
 30
0.0
  0
VERTEX
  5
145
330
143
100
AcDbEntity
  8
fill layer
370
     0
100
AcDbVertex
100
AcDb2dVertex
 10
1.672081718544784
 20
0.5818655340742175
 30
0.0
  0
SEQEND
  5
146
330
143
100
AcDbEntity
  8
fill layer
370
     0
  0
POLYLINE
  5
147
330
4B
100
AcDbEntity
  8
fill layer
370
     0
100
AcDb2dPolyline
 66
     1
 10
0.0
 20
0.0
 30
0.0
  0
VERTEX
  5
148
330
147
100
AcDbEntity
  8
fill layer
370
     0
100
AcDbVertex
100
AcDb2dVertex
 10
1.812443490642813
 20
0.3327964854802808
 30
0.0
  0
VERTEX
  5
149
330
147
100
AcDbEntity
  8
fill layer
370
     0
100
AcDbVertex
100
AcDb2dVertex
 10
1.784378420083815
 20
0.3749123303655071
 30
0.0
  0
SEQEND
  5
14A
330
147
100
AcDbEntity
  8
fill layer
370
     0
  0
POLYLINE
  5
14B
330
4B
100
AcDbEntity
  8
fill layer
370
     0
100
AcDb2dPolyline
 66
     1
 10
0.0
 20
0.0
 30
0.0
  0
VERTEX
  5
14C
330
14B
100
AcDbEntity
  8
fill layer
370
     0
100
AcDbVertex
100
AcDb2dVertex
 10
1.580871869932025
 20
1.118539745056132
 30
0.0
  0
VERTEX
  5
14D
330
14B
100
AcDbEntity
  8
fill layer
370
     0
100
AcDbVertex
100
AcDb2dVertex
 10
1.461645273582765
 20
1.286927903954443
 30
0.0
  0
SEQEND
  5
14E
330
14B
100
AcDbEntity
  8
fill layer
370
     0
  0
POLYLINE
  5
14F
330
4B
100
AcDbEntity
  8
fill layer
370
     0
100
AcDb2dPolyline
 66
     1
 10
0.0
 20
0.0
 30
0.0
  0
VERTEX
  5
150
330
14F
100
AcDbEntity
  8
fill layer
370
     0
100
AcDbVertex
100
AcDb2dVertex
 10
1.454618894075692
 20
0.3959432505261778
 30
0.0
  0
VERTEX
  5
151
330
14F
100
AcDbEntity
  8
fill layer
370
     0
100
AcDbVertex
100
AcDb2dVertex
 10
1.394986283150577
 20
0.4801267219360044
 30
0.0
  0
SEQEND
  5
152
330
14F
100
AcDbEntity
  8
fill layer
370
     0
  0
POLYLINE
  5
153
330
4B
100
AcDbEntity
  8
fill layer
370
     0
100
AcDb2dPolyline
 66
     1
 10
0.0
 20
0.0
 30
0.0
  0
VERTEX
  5
154
330
153
100
AcDbEntity
  8
fill layer
370
     0
100
AcDbVertex
100
AcDb2dVertex
 10
1.598446497560695
 20
1.227295293029329
 30
0.0
  0
VERTEX
  5
155
330
153
100
AcDbEntity
  8
fill layer
370
     0
100
AcDbVertex
100
AcDb2dVertex
 10
1.538813937892049
 20
1.311488600984717
 30
0.0
  0
SEQEND
  5
156
330
153
100
AcDbEntity
  8
fill layer
370
     0
  0
POLYLINE
  5
157
330
4B
100
AcDbEntity
  8
fill layer
370
     0
100
AcDb2dPolyline
 66
     1
 10
0.0
 20
0.0
 30
0.0
  0
VERTEX
  5
158
330
157
100
AcDbEntity
  8
fill layer
370
     0
100
AcDbVertex
100
AcDb2dVertex
 10
1.472154947459861
 20
0.5046698674830041
 30
0.0
  0
VERTEX
  5
159
330
157
100
AcDbEntity
  8
fill layer
370
     0
100
AcDbVertex
100
AcDb2dVertex
 10
1.412522336534721
 20
0.5888629825649457
 30
0.0
  0
SEQEND
  5
15A
330
157
100
AcDbEntity
  8
fill layer
370
     0
  0
POLYLINE
  5
15B
330
4B
100
AcDbEntity
  8
fill layer
370
     0
100
AcDb2dPolyline
 66
     1
 10
0.0
 20
0.0
 30
0.0
  0
VERTEX
  5
15C
330
15B
100
AcDbEntity
  8
fill layer
370
     0
100
AcDbVertex
100
AcDb2dVertex
 10
1.647550146024059
 20
1.290420841996542
 30
0.0
  0
VERTEX
  5
15D
330
15B
100
AcDbEntity
  8
fill layer
370
     0
100
AcDbVertex
100
AcDb2dVertex
 10
1.65456495294739
 20
1.329014817823299
 30
0.0
  0
SEQEND
  5
15E
330
15B
100
AcDbEntity
  8
fill layer
370
     0
  0
POLYLINE
  5
15F
330
4B
100
AcDbEntity
  8
fill layer
370
     0
100
AcDb2dPolyline
 66
     1
 10
0.0
 20
0.0
 30
0.0
  0
VERTEX
  5
160
330
15F
100
AcDbEntity
  8
fill layer
370
     0
100
AcDbVertex
100
AcDb2dVertex
 10
1.559852522708904
 20
0.785314227334311
 30
0.0
  0
VERTEX
  5
161
330
15F
100
AcDbEntity
  8
fill layer
370
     0
100
AcDbVertex
100
AcDb2dVertex
 10
1.566859614694724
 20
0.8238812008791253
 30
0.0
  0
SEQEND
  5
162
330
15F
100
AcDbEntity
  8
fill layer
370
     0
  0
POLYLINE
  5
163
330
4B
100
AcDbEntity
  8
fill layer
370
     0
100
AcDb2dPolyline
 66
     1
 10
0.0
 20
0.0
 30
0.0
  0
VERTEX
  5
164
330
163
100
AcDbEntity
  8
fill layer
370
     0
100
AcDbVertex
100
AcDb2dVertex
 10
1.521277835200863
 20
0.5713365728529045
 30
0.0
  0
VERTEX
  5
165
330
163
100
AcDbEntity
  8
fill layer
370
     0
100
AcDbVertex
100
AcDb2dVertex
 10
1.528284927186683
 20
0.6064086796212173
 30
0.0
  0
SEQEND
  5
166
330
163
100
AcDbEntity
  8
fill layer
370
     0
  0
POLYLINE
  5
167
330
4B
100
AcDbEntity
  8
fill layer
370
     0
100
AcDb2dPolyline
 66
     1
 10
0.0
 20
0.0
 30
0.0
  0
VERTEX
  5
168
330
167
100
AcDbEntity
  8
fill layer
370
     0
100
AcDbVertex
100
AcDb2dVertex
 10
1.433580258977321
 20
0.0662029559087437
 30
0.0
  0
VERTEX
  5
169
330
167
100
AcDbEntity
  8
fill layer
370
     0
100
AcDbVertex
100
AcDb2dVertex
 10
1.437082840691535
 20
0.1012924212868711
 30
0.0
  0
SEQEND
  5
16A
330
167
100
AcDbEntity
  8
fill layer
370
     0
  0
POLYLINE
  5
16B
330
4B
100
AcDbEntity
  8
fill layer
370
     0
100
AcDb2dPolyline
 66
     1
 10
0.0
 20
0.0
 30
0.0
  0
VERTEX
  5
16C
330
16B
100
AcDbEntity
  8
fill layer
370
     0
100
AcDbVertex
100
AcDb2dVertex
 10
1.640523766694463
 20
1.034356273646293
 30
0.0
  0
VERTEX
  5
16D
330
16B
100
AcDbEntity
  8
fill layer
370
     0
100
AcDbVertex
100
AcDb2dVertex
 10
1.647550146024059
 20
1.069436095352305
 30
0.0
  0
SEQEND
  5
16E
330
16B
100
AcDbEntity
  8
fill layer
370
     0
  0
POLYLINE
  5
16F
330
4B
100
AcDbEntity
  8
fill layer
370
     0
100
AcDb2dPolyline
 66
     1
 10
0.0
 20
0.0
 30
0.0
  0
VERTEX
  5
170
330
16F
100
AcDbEntity
  8
fill layer
370
     0
100
AcDbVertex
100
AcDb2dVertex
 10
1.514251455871267
 20
0.3117578503819232
 30
0.0
  0
VERTEX
  5
171
330
16F
100
AcDbEntity
  8
fill layer
370
     0
100
AcDbVertex
100
AcDb2dVertex
 10
1.517773324840745
 20
0.3468396008223509
 30
0.0
  0
SEQEND
  5
172
330
16F
100
AcDbEntity
  8
fill layer
370
     0
  0
POLYLINE
  5
173
330
4B
100
AcDbEntity
  8
fill layer
370
     0
100
AcDb2dPolyline
 66
     1
 10
0.0
 20
0.0
 30
0.0
  0
VERTEX
  5
174
330
173
100
AcDbEntity
  8
fill layer
370
     0
100
AcDbVertex
100
AcDb2dVertex
 10
1.721243229039424
 20
1.279911168119485
 30
0.0
  0
VERTEX
  5
175
330
173
100
AcDbEntity
  8
fill layer
370
     0
100
AcDbVertex
100
AcDb2dVertex
 10
1.728211746337744
 20
1.315001404991386
 30
0.0
  0
SEQEND
  5
176
330
173
100
AcDbEntity
  8
fill layer
370
     0
  0
POLYLINE
  5
177
330
4B
100
AcDbEntity
  8
fill layer
370
     0
100
AcDb2dPolyline
 66
     1
 10
0.0
 20
0.0
 30
0.0
  0
VERTEX
  5
178
330
177
100
AcDbEntity
  8
fill layer
370
     0
100
AcDbVertex
100
AcDb2dVertex
 10
1.626492224113412
 20
0.7396958007348707
 30
0.0
  0
VERTEX
  5
179
330
177
100
AcDbEntity
  8
fill layer
370
     0
100
AcDbVertex
100
AcDb2dVertex
 10
1.637038543678121
 20
0.8098670165534259
 30
0.0
  0
SEQEND
  5
17A
330
177
100
AcDbEntity
  8
fill layer
370
     0
  0
POLYLINE
  5
17B
330
4B
100
AcDbEntity
  8
fill layer
370
     0
100
AcDb2dPolyline
 66
     1
 10
0.0
 20
0.0
 30
0.0
  0
VERTEX
  5
17C
330
17B
100
AcDbEntity
  8
fill layer
370
     0
100
AcDbVertex
100
AcDb2dVertex
 10
1.594922699856827
 20
0.5572857425731601
 30
0.0
  0
VERTEX
  5
17D
330
17B
100
AcDbEntity
  8
fill layer
370
     0
100
AcDbVertex
100
AcDb2dVertex
 10
1.598446497560695
 20
0.5923655642791724
 30
0.0
  0
SEQEND
  5
17E
330
17B
100
AcDbEntity
  8
fill layer
370
     0
  0
POLYLINE
  5
17F
330
4B
100
AcDbEntity
  8
fill layer
370
     0
100
AcDb2dPolyline
 66
     1
 10
0.0
 20
0.0
 30
0.0
  0
VERTEX
  5
180
330
17F
100
AcDbEntity
  8
fill layer
370
     0
100
AcDbVertex
100
AcDb2dVertex
 10
1.496715451616663
 20
0.0170993062049168
 30
0.0
  0
VERTEX
  5
181
330
17F
100
AcDbEntity
  8
fill layer
370
     0
100
AcDbVertex
100
AcDb2dVertex
 10
1.510748874245539
 20
0.090744172721328
 30
0.0
  0
SEQEND
  5
182
330
17F
100
AcDbEntity
  8
fill layer
370
     0
  0
POLYLINE
  5
183
330
4B
100
AcDbEntity
  8
fill layer
370
     0
100
AcDb2dPolyline
 66
     1
 10
0.0
 20
0.0
 30
0.0
  0
VERTEX
  5
184
330
183
100
AcDbEntity
  8
fill layer
370
     0
100
AcDbVertex
100
AcDb2dVertex
 10
1.798392604055506
 20
1.300950188964723
 30
0.0
  0
VERTEX
  5
185
330
183
100
AcDbEntity
  8
fill layer
370
     0
100
AcDbVertex
100
AcDb2dVertex
 10
1.805397767306961
 20
1.339543779044599
 30
0.0
  0
SEQEND
  5
186
330
183
100
AcDbEntity
  8
fill layer
370
     0
  0
POLYLINE
  5
187
330
4B
100
AcDbEntity
  8
fill layer
370
     0
100
AcDb2dPolyline
 66
     1
 10
0.0
 20
0.0
 30
0.0
  0
VERTEX
  5
188
330
187
100
AcDbEntity
  8
fill layer
370
     0
100
AcDbVertex
100
AcDb2dVertex
 10
1.756276760234212
 20
1.048397460253935
 30
0.0
  0
VERTEX
  5
189
330
187
100
AcDbEntity
  8
fill layer
370
     0
100
AcDbVertex
100
AcDb2dVertex
 10
1.759779341859939
 20
1.086962505064333
 30
0.0
  0
SEQEND
  5
18A
330
187
100
AcDbEntity
  8
fill layer
370
     0
  0
POLYLINE
  5
18B
330
4B
100
AcDbEntity
  8
fill layer
370
     0
100
AcDb2dPolyline
 66
     1
 10
0.0
 20
0.0
 30
0.0
  0
VERTEX
  5
18C
330
18B
100
AcDbEntity
  8
fill layer
370
     0
100
AcDbVertex
100
AcDb2dVertex
 10
1.69668085050676
 20
0.7256816164091712
 30
0.0
  0
VERTEX
  5
18D
330
18B
100
AcDbEntity
  8
fill layer
370
     0
100
AcDbVertex
100
AcDb2dVertex
 10
1.703649314067004
 20
0.7607633668496115
 30
0.0
  0
SEQEND
  5
18E
330
18B
100
AcDbEntity
  8
fill layer
370
     0
  0
POLYLINE
  5
18F
330
4B
100
AcDbEntity
  8
fill layer
370
     0
100
AcDb2dPolyline
 66
     1
 10
0.0
 20
0.0
 30
0.0
  0
VERTEX
  5
190
330
18F
100
AcDbEntity
  8
fill layer
370
     0
100
AcDbVertex
100
AcDb2dVertex
 10
1.672081718544784
 20
0.5818655340742175
 30
0.0
  0
VERTEX
  5
191
330
18F
100
AcDbEntity
  8
fill layer
370
     0
100
AcDbVertex
100
AcDb2dVertex
 10
1.67912738521813
 20
0.6169183534982746
 30
0.0
  0
SEQEND
  5
192
330
18F
100
AcDbEntity
  8
fill layer
370
     0
  0
POLYLINE
  5
193
330
4B
100
AcDbEntity
  8
fill layer
370
     0
100
AcDb2dPolyline
 66
     1
 10
0.0
 20
0.0
 30
0.0
  0
VERTEX
  5
194
330
193
100
AcDbEntity
  8
fill layer
370
     0
100
AcDbVertex
100
AcDb2dVertex
 10
1.626492224113412
 20
0.3292842600939517
 30
0.0
  0
VERTEX
  5
195
330
193
100
AcDbEntity
  8
fill layer
370
     0
100
AcDbVertex
100
AcDb2dVertex
 10
1.633516674708618
 20
0.3643660105343795
 30
0.0
  0
SEQEND
  5
196
330
193
100
AcDbEntity
  8
fill layer
370
     0
  0
POLYLINE
  5
197
330
4B
100
AcDbEntity
  8
fill layer
370
     0
100
AcDb2dPolyline
 66
     1
 10
0.0
 20
0.0
 30
0.0
  0
VERTEX
  5
198
330
197
100
AcDbEntity
  8
fill layer
370
     0
100
AcDbVertex
100
AcDb2dVertex
 10
1.570381483664202
 20
0.0030561908628594
 30
0.0
  0
VERTEX
  5
199
330
197
100
AcDbEntity
  8
fill layer
370
     0
100
AcDbVertex
100
AcDb2dVertex
 10
1.577405934259433
 20
0.0416598103617439
 30
0.0
  0
SEQEND
  5
19A
330
197
100
AcDbEntity
  8
fill layer
370
     0
  0
POLYLINE
  5
19B
330
4B
100
AcDbEntity
  8
fill layer
370
     0
100
AcDb2dPolyline
 66
     1
 10
0.0
 20
0.0
 30
0.0
  0
VERTEX
  5
19C
330
19B
100
AcDbEntity
  8
fill layer
370
     0
100
AcDbVertex
100
AcDb2dVertex
 10
1.787844355756432
 20
0.599391943786246
 30
0.0
  0
VERTEX
  5
19D
330
19B
100
AcDbEntity
  8
fill layer
370
     0
100
AcDbVertex
100
AcDb2dVertex
 10
1.798392604055506
 20
0.6695631596048012
 30
0.0
  0
SEQEND
  5
19E
330
19B
100
AcDbEntity
  8
fill layer
370
     0
  0
POLYLINE
  5
19F
330
4B
100
AcDbEntity
  8
fill layer
370
     0
100
AcDb2dPolyline
 66
     1
 10
0.0
 20
0.0
 30
0.0
  0
VERTEX
  5
1A0
330
19F
100
AcDbEntity
  8
fill layer
370
     0
100
AcDbVertex
100
AcDb2dVertex
 10
1.735255538989274
 20
0.3082456249955814
 30
0.0
  0
VERTEX
  5
1A1
330
19F
100
AcDbEntity
  8
fill layer
370
     0
100
AcDbVertex
100
AcDb2dVertex
 10
1.742262576262545
 20
0.3468396008223509
 30
0.0
  0
SEQEND
  5
1A2
330
19F
100
AcDbEntity
  8
fill layer
370
     0
  0
POLYLINE
  5
1A3
330
4B
100
AcDbEntity
  8
fill layer
370
     0
100
AcDb2dPolyline
 66
     1
 10
0.0
 20
0.0
 30
0.0
  0
VERTEX
  5
1A4
330
1A3
100
AcDbEntity
  8
fill layer
370
     0
100
AcDbVertex
100
AcDb2dVertex
 10
1.665113201246464
 20
-0.0811272805469798
 30
0.0
  0
VERTEX
  5
1A5
330
1A3
100
AcDbEntity
  8
fill layer
370
     0
100
AcDbVertex
100
AcDb2dVertex
 10
1.672081718544784
 20
-0.0495500405551815
 30
0.0
  0
SEQEND
  5
1A6
330
1A3
100
AcDbEntity
  8
fill layer
370
     0
  0
POLYLINE
  5
1A7
330
4B
100
AcDbEntity
  8
fill layer
370
     0
100
AcDb2dPolyline
 66
     1
 10
0.0
 20
0.0
 30
0.0
  0
VERTEX
  5
1A8
330
1A7
100
AcDbEntity
  8
fill layer
370
     0
100
AcDbVertex
100
AcDb2dVertex
 10
1.808902277667054
 20
0.2977166637742812
 30
0.0
  0
VERTEX
  5
1A9
330
1A7
100
AcDbEntity
  8
fill layer
370
     0
100
AcDbVertex
100
AcDb2dVertex
 10
1.812443490642813
 20
0.3327964854802808
 30
0.0
  0
SEQEND
  5
1AA
330
1A7
100
AcDbEntity
  8
fill layer
370
     0
  0
POLYLINE
  5
1AB
330
4B
100
AcDbEntity
  8
fill layer
370
     0
100
AcDb2dPolyline
 66
     1
 10
0.0
 20
0.0
 30
0.0
  0
VERTEX
  5
1AC
330
1AB
100
AcDbEntity
  8
fill layer
370
     0
100
AcDbVertex
100
AcDb2dVertex
 10
1.458140763134149
 20
1.065923869965963
 30
0.0
  0
VERTEX
  5
1AD
330
1AB
100
AcDbEntity
  8
fill layer
370
     0
100
AcDbVertex
100
AcDb2dVertex
 10
1.465128567952762
 20
1.101013335344091
 30
0.0
  0
SEQEND
  5
1AE
330
1AB
100
AcDbEntity
  8
fill layer
370
     0
  0
POLYLINE
  5
1AF
330
4B
100
AcDbEntity
  8
fill layer
370
     0
100
AcDb2dPolyline
 66
     1
 10
0.0
 20
0.0
 30
0.0
  0
VERTEX
  5
1B0
330
1AF
100
AcDbEntity
  8
fill layer
370
     0
100
AcDbVertex
100
AcDb2dVertex
 10
1.538813937892049
 20
1.311488600984717
 30
0.0
  0
VERTEX
  5
1B1
330
1AF
100
AcDbEntity
  8
fill layer
370
     0
100
AcDbVertex
100
AcDb2dVertex
 10
1.54934284909733
 20
1.353557191876525
 30
0.0
  0
SEQEND
  5
1B2
330
1AF
100
AcDbEntity
  8
fill layer
370
     0
  0
POLYLINE
  5
1B3
330
4B
100
AcDbEntity
  8
fill layer
370
     0
100
AcDb2dPolyline
 66
     1
 10
0.0
 20
0.0
 30
0.0
  0
VERTEX
  5
1B4
330
1B3
100
AcDbEntity
  8
fill layer
370
     0
100
AcDbVertex
100
AcDb2dVertex
 10
1.412522336534721
 20
0.5888629825649457
 30
0.0
  0
VERTEX
  5
1B5
330
1B3
100
AcDbEntity
  8
fill layer
370
     0
100
AcDbVertex
100
AcDb2dVertex
 10
1.426573166814478
 20
0.6625367800977149
 30
0.0
  0
SEQEND
  5
1B6
330
1B3
100
AcDbEntity
  8
fill layer
370
     0
  0
POLYLINE
  5
1B7
330
4B
100
AcDbEntity
  8
fill layer
370
     0
100
AcDb2dPolyline
 66
     1
 10
0.0
 20
0.0
 30
0.0
  0
VERTEX
  5
1B8
330
1B7
100
AcDbEntity
  8
fill layer
370
     0
100
AcDbVertex
100
AcDb2dVertex
 10
1.573884065289955
 20
1.079974700245733
 30
0.0
  0
VERTEX
  5
1B9
330
1B7
100
AcDbEntity
  8
fill layer
370
     0
100
AcDbVertex
100
AcDb2dVertex
 10
1.580871869932025
 20
1.118539745056132
 30
0.0
  0
SEQEND
  5
1BA
330
1B7
100
AcDbEntity
  8
fill layer
370
     0
  0
POLYLINE
  5
1BB
330
4B
100
AcDbEntity
  8
fill layer
370
     0
100
AcDb2dPolyline
 66
     1
 10
0.0
 20
0.0
 30
0.0
  0
VERTEX
  5
1BC
330
1BB
100
AcDbEntity
  8
fill layer
370
     0
100
AcDbVertex
100
AcDb2dVertex
 10
1.447594443303034
 20
0.3608615000857374
 30
0.0
  0
VERTEX
  5
1BD
330
1BB
100
AcDbEntity
  8
fill layer
370
     0
100
AcDbVertex
100
AcDb2dVertex
 10
1.454618894075692
 20
0.3959432505261778
 30
0.0
  0
SEQEND
  5
1BE
330
1BB
100
AcDbEntity
  8
fill layer
370
     0
  0
ENDBLK
  5
4E
330
4B
100
AcDbEntity
  8
0
100
AcDbBlockEnd
  0
BLOCK
  5
1D3
330
1D1
100
AcDbEntity
  8
0
100
AcDbBlockBegin
  2
block 3
 70
     0
 10
0.0
 20
0.0
 30
0.0
  3
block 3
  1

  0
POLYLINE
  5
1D5
330
1D1
100
AcDbEntity
  8
Wood
 62
   250
420
  2301728
370
    18
100
AcDb2dPolyline
 66
     1
 10
0.0
 20
0.0
 30
0.0
  0
VERTEX
  5
1D6
330
1D5
100
AcDbEntity
  8
Wood
 62
   250
420
  2301728
370
    18
100
AcDbVertex
100
AcDb2dVertex
 10
1.437082840691535
 20
0.1012924212868711
 30
0.0
  0
VERTEX
  5
1D7
330
1D5
100
AcDbEntity
  8
Wood
 62
   250
420
  2301728
370
    18
100
AcDbVertex
100
AcDb2dVertex
 10
1.535290090438139
 20
0.234589186072627
 30
0.0
  0
SEQEND
  5
1D8
330
1D5
100
AcDbEntity
  8
Wood
 62
   250
420
  2301728
370
    18
  0
POLYLINE
  5
1D9
330
1D1
100
AcDbEntity
  8
Wood
 62
   250
420
  2301728
370
    18
100
AcDb2dPolyline
 66
     1
 10
0.0
 20
0.0
 30
0.0
  0
VERTEX
  5
1DA
330
1D9
100
AcDbEntity
  8
Wood
 62
   250
420
  2301728
370
    18
100
AcDbVertex
100
AcDb2dVertex
 10
1.566859614694724
 20
0.8238812008791253
 30
0.0
  0
VERTEX
  5
1DB
330
1D9
100
AcDbEntity
  8
Wood
 62
   250
420
  2301728
370
    18
100
AcDbVertex
100
AcDb2dVertex
 10
1.665113201246464
 20
0.9536830988883795
 30
0.0
  0
SEQEND
  5
1DC
330
1D9
100
AcDbEntity
  8
Wood
 62
   250
420
  2301728
370
    18
  0
POLYLINE
  5
1DD
330
1D1
100
AcDbEntity
  8
Wood
 62
   250
420
  2301728
370
    18
100
AcDb2dPolyline
 66
     1
 10
0.0
 20
0.0
 30
0.0
  0
VERTEX
  5
1DE
330
1DD
100
AcDbEntity
  8
Wood
 62
   250
420
  2301728
370
    18
100
AcDbVertex
100
AcDb2dVertex
 10
1.426573166814478
 20
-0.0811272805469798
 30
0.0
  0
VERTEX
  5
1DF
330
1DD
100
AcDbEntity
  8
Wood
 62
   250
420
  2301728
370
    18
100
AcDbVertex
100
AcDb2dVertex
 10
1.496715451616663
 20
0.0170993062049168
 30
0.0
  0
SEQEND
  5
1E0
330
1DD
100
AcDbEntity
  8
Wood
 62
   250
420
  2301728
370
    18
  0
POLYLINE
  5
1E1
330
1D1
100
AcDbEntity
  8
Wood
 62
   250
420
  2301728
370
    18
100
AcDb2dPolyline
 66
     1
 10
0.0
 20
0.0
 30
0.0
  0
VERTEX
  5
1E2
330
1E1
100
AcDbEntity
  8
Wood
 62
   250
420
  2301728
370
    18
100
AcDbVertex
100
AcDb2dVertex
 10
1.528284927186683
 20
0.6064086796212173
 30
0.0
  0
VERTEX
  5
1E3
330
1E1
100
AcDbEntity
  8
Wood
 62
   250
420
  2301728
370
    18
100
AcDbVertex
100
AcDb2dVertex
 10
1.626492224113412
 20
0.7396958007348707
 30
0.0
  0
SEQEND
  5
1E4
330
1E1
100
AcDbEntity
  8
Wood
 62
   250
420
  2301728
370
    18
  0
POLYLINE
  5
1E5
330
1D1
100
AcDbEntity
  8
Wood
 62
   250
420
  2301728
370
    18
100
AcDb2dPolyline
 66
     1
 10
0.0
 20
0.0
 30
0.0
  0
VERTEX
  5
1E6
330
1E5
100
AcDbEntity
  8
Wood
 62
   250
420
  2301728
370
    18
100
AcDbVertex
100
AcDb2dVertex
 10
1.65456495294739
 20
1.329014817823299
 30
0.0
  0
VERTEX
  5
1E7
330
1E5
100
AcDbEntity
  8
Wood
 62
   250
420
  2301728
370
    18
100
AcDbVertex
100
AcDb2dVertex
 10
1.675622874858037
 20
1.353557191876525
 30
0.0
  0
SEQEND
  5
1E8
330
1E5
100
AcDbEntity
  8
Wood
 62
   250
420
  2301728
370
    18
  0
POLYLINE
  5
1E9
330
1D1
100
AcDbEntity
  8
Wood
 62
   250
420
  2301728
370
    18
100
AcDb2dPolyline
 66
     1
 10
0.0
 20
0.0
 30
0.0
  0
VERTEX
  5
1EA
330
1E9
100
AcDbEntity
  8
Wood
 62
   250
420
  2301728
370
    18
100
AcDbVertex
100
AcDb2dVertex
 10
1.510748874245539
 20
0.090744172721328
 30
0.0
  0
VERTEX
  5
1EB
330
1E9
100
AcDbEntity
  8
Wood
 62
   250
420
  2301728
370
    18
100
AcDbVertex
100
AcDb2dVertex
 10
1.608975458516018
 20
0.2205576431371128
 30
0.0
  0
SEQEND
  5
1EC
330
1E9
100
AcDbEntity
  8
Wood
 62
   250
420
  2301728
370
    18
  0
POLYLINE
  5
1ED
330
1D1
100
AcDbEntity
  8
Wood
 62
   250
420
  2301728
370
    18
100
AcDb2dPolyline
 66
     1
 10
0.0
 20
0.0
 30
0.0
  0
VERTEX
  5
1EE
330
1ED
100
AcDbEntity
  8
Wood
 62
   250
420
  2301728
370
    18
100
AcDbVertex
100
AcDb2dVertex
 10
1.637038543678121
 20
0.8098670165534259
 30
0.0
  0
VERTEX
  5
1EF
330
1ED
100
AcDbEntity
  8
Wood
 62
   250
420
  2301728
370
    18
100
AcDbVertex
100
AcDb2dVertex
 10
1.735255538989274
 20
0.9431464227293797
 30
0.0
  0
SEQEND
  5
1F0
330
1ED
100
AcDbEntity
  8
Wood
 62
   250
420
  2301728
370
    18
  0
POLYLINE
  5
1F1
330
1D1
100
AcDbEntity
  8
Wood
 62
   250
420
  2301728
370
    18
100
AcDb2dPolyline
 66
     1
 10
0.0
 20
0.0
 30
0.0
  0
VERTEX
  5
1F2
330
1F1
100
AcDbEntity
  8
Wood
 62
   250
420
  2301728
370
    18
100
AcDbVertex
100
AcDb2dVertex
 10
1.577405934259433
 20
0.0416598103617439
 30
0.0
  0
VERTEX
  5
1F3
330
1F1
100
AcDbEntity
  8
Wood
 62
   250
420
  2301728
370
    18
100
AcDbVertex
100
AcDb2dVertex
 10
1.675622874858037
 20
0.1714539934332859
 30
0.0
  0
SEQEND
  5
1F4
330
1F1
100
AcDbEntity
  8
Wood
 62
   250
420
  2301728
370
    18
  0
POLYLINE
  5
1F5
330
1D1
100
AcDbEntity
  8
Wood
 62
   250
420
  2301728
370
    18
100
AcDb2dPolyline
 66
     1
 10
0.0
 20
0.0
 30
0.0
  0
VERTEX
  5
1F6
330
1F5
100
AcDbEntity
  8
Wood
 62
   250
420
  2301728
370
    18
100
AcDbVertex
100
AcDb2dVertex
 10
1.703649314067004
 20
0.7607633668496115
 30
0.0
  0
VERTEX
  5
1F7
330
1F5
100
AcDbEntity
  8
Wood
 62
   250
420
  2301728
370
    18
100
AcDbVertex
100
AcDb2dVertex
 10
1.801895185681234
 20
0.8940427730255653
 30
0.0
  0
SEQEND
  5
1F8
330
1F5
100
AcDbEntity
  8
Wood
 62
   250
420
  2301728
370
    18
  0
POLYLINE
  5
1F9
330
1D1
100
AcDbEntity
  8
Wood
 62
   250
420
  2301728
370
    18
100
AcDb2dPolyline
 66
     1
 10
0.0
 20
0.0
 30
0.0
  0
VERTEX
  5
1FA
330
1F9
100
AcDbEntity
  8
Wood
 62
   250
420
  2301728
370
    18
100
AcDbVertex
100
AcDb2dVertex
 10
1.759779341859939
 20
0.2310866043584257
 30
0.0
  0
VERTEX
  5
1FB
330
1F9
100
AcDbEntity
  8
Wood
 62
   250
420
  2301728
370
    18
100
AcDbVertex
100
AcDb2dVertex
 10
1.808902277667054
 20
0.2977166637742812
 30
0.0
  0
SEQEND
  5
1FC
330
1F9
100
AcDbEntity
  8
Wood
 62
   250
420
  2301728
370
    18
  0
POLYLINE
  5
1FD
330
1D1
100
AcDbEntity
  8
Wood
 62
   250
420
  2301728
370
    18
100
AcDb2dPolyline
 66
     1
 10
0.0
 20
0.0
 30
0.0
  0
VERTEX
  5
1FE
330
1FD
100
AcDbEntity
  8
Wood
 62
   250
420
  2301728
370
    18
100
AcDbVertex
100
AcDb2dVertex
 10
1.398508152209034
 20
0.2942044383879395
 30
0.0
  0
VERTEX
  5
1FF
330
1FD
100
AcDbEntity
  8
Wood
 62
   250
420
  2301728
370
    18
100
AcDbVertex
100
AcDb2dVertex
 10
1.447594443303034
 20
0.3608615000857374
 30
0.0
  0
SEQEND
  5
200
330
1FD
100
AcDbEntity
  8
Wood
 62
   250
420
  2301728
370
    18
  0
POLYLINE
  5
201
330
1D1
100
AcDbEntity
  8
Wood
 62
   250
420
  2301728
370
    18
100
AcDb2dPolyline
 66
     1
 10
0.0
 20
0.0
 30
0.0
  0
VERTEX
  5
202
330
201
100
AcDbEntity
  8
Wood
 62
   250
420
  2301728
370
    18
100
AcDbVertex
100
AcDb2dVertex
 10
1.52476112948284
 20
1.016820220262149
 30
0.0
  0
VERTEX
  5
203
330
201
100
AcDbEntity
  8
Wood
 62
   250
420
  2301728
370
    18
100
AcDbVertex
100
AcDb2dVertex
 10
1.573884065289955
 20
1.079974700245733
 30
0.0
  0
SEQEND
  5
204
330
201
100
AcDbEntity
  8
Wood
 62
   250
420
  2301728
370
    18
  0
POLYLINE
  5
205
330
1D1
100
AcDbEntity
  8
Wood
 62
   250
420
  2301728
370
    18
100
AcDb2dPolyline
 66
     1
 10
0.0
 20
0.0
 30
0.0
  0
VERTEX
  5
206
330
205
100
AcDbEntity
  8
Wood
 62
   250
420
  2301728
370
    18
100
AcDbVertex
100
AcDb2dVertex
 10
1.554239905676468
 20
-0.0214753822775972
 30
0.0
  0
VERTEX
  5
207
330
205
100
AcDbEntity
  8
Wood
 62
   250
420
  2301728
370
    18
100
AcDbVertex
100
AcDb2dVertex
 10
1.570381483664202
 20
0.0030561908628594
 30
0.0
  0
SEQEND
  5
208
330
205
100
AcDbEntity
  8
Wood
 62
   250
420
  2301728
370
    18
  0
POLYLINE
  5
209
330
1D1
100
AcDbEntity
  8
Wood
 62
   250
420
  2301728
370
    18
100
AcDb2dPolyline
 66
     1
 10
0.0
 20
0.0
 30
0.0
  0
VERTEX
  5
20A
330
209
100
AcDbEntity
  8
Wood
 62
   250
420
  2301728
370
    18
100
AcDbVertex
100
AcDb2dVertex
 10
1.598446497560695
 20
0.5923655642791724
 30
0.0
  0
VERTEX
  5
20B
330
209
100
AcDbEntity
  8
Wood
 62
   250
420
  2301728
370
    18
100
AcDbVertex
100
AcDb2dVertex
 10
1.69668085050676
 20
0.7256816164091712
 30
0.0
  0
SEQEND
  5
20C
330
209
100
AcDbEntity
  8
Wood
 62
   250
420
  2301728
370
    18
  0
POLYLINE
  5
20D
330
1D1
100
AcDbEntity
  8
Wood
 62
   250
420
  2301728
370
    18
100
AcDb2dPolyline
 66
     1
 10
0.0
 20
0.0
 30
0.0
  0
VERTEX
  5
20E
330
20D
100
AcDbEntity
  8
Wood
 62
   250
420
  2301728
370
    18
100
AcDbVertex
100
AcDb2dVertex
 10
1.728211746337744
 20
1.315001404991386
 30
0.0
  0
VERTEX
  5
20F
330
20D
100
AcDbEntity
  8
Wood
 62
   250
420
  2301728
370
    18
100
AcDbVertex
100
AcDb2dVertex
 10
1.756276760234212
 20
1.353557191876525
 30
0.0
  0
SEQEND
  5
210
330
20D
100
AcDbEntity
  8
Wood
 62
   250
420
  2301728
370
    18
  0
POLYLINE
  5
211
330
1D1
100
AcDbEntity
  8
Wood
 62
   250
420
  2301728
370
    18
100
AcDb2dPolyline
 66
     1
 10
0.0
 20
0.0
 30
0.0
  0
VERTEX
  5
212
330
211
100
AcDbEntity
  8
Wood
 62
   250
420
  2301728
370
    18
100
AcDbVertex
100
AcDb2dVertex
 10
1.566859614694724
 20
-0.0811272805469798
 30
0.0
  0
VERTEX
  5
213
330
211
100
AcDbEntity
  8
Wood
 62
   250
420
  2301728
370
    18
100
AcDbVertex
100
AcDb2dVertex
 10
1.69668085050676
 20
0.0942583268420852
 30
0.0
  0
SEQEND
  5
214
330
211
100
AcDbEntity
  8
Wood
 62
   250
420
  2301728
370
    18
  0
POLYLINE
  5
215
330
1D1
100
AcDbEntity
  8
Wood
 62
   250
420
  2301728
370
    18
100
AcDb2dPolyline
 66
     1
 10
0.0
 20
0.0
 30
0.0
  0
VERTEX
  5
216
330
215
100
AcDbEntity
  8
Wood
 62
   250
420
  2301728
370
    18
100
AcDbVertex
100
AcDb2dVertex
 10
1.67912738521813
 20
0.6169183534982746
 30
0.0
  0
VERTEX
  5
217
330
215
100
AcDbEntity
  8
Wood
 62
   250
420
  2301728
370
    18
100
AcDbVertex
100
AcDb2dVertex
 10
1.822914532904355
 20
0.8133792419397675
 30
0.0
  0
SEQEND
  5
218
330
215
100
AcDbEntity
  8
Wood
 62
   250
420
  2301728
370
    18
  0
POLYLINE
  5
219
330
1D1
100
AcDbEntity
  8
Wood
 62
   250
420
  2301728
370
    18
100
AcDb2dPolyline
 66
     1
 10
0.0
 20
0.0
 30
0.0
  0
VERTEX
  5
21A
330
219
100
AcDbEntity
  8
Wood
 62
   250
420
  2301728
370
    18
100
AcDbVertex
100
AcDb2dVertex
 10
1.805397767306961
 20
1.339543779044599
 30
0.0
  0
VERTEX
  5
21B
330
219
100
AcDbEntity
  8
Wood
 62
   250
420
  2301728
370
    18
100
AcDbVertex
100
AcDb2dVertex
 10
1.8159093696529
 20
1.353557191876525
 30
0.0
  0
SEQEND
  5
21C
330
219
100
AcDbEntity
  8
Wood
 62
   250
420
  2301728
370
    18
  0
POLYLINE
  5
21D
330
1D1
100
AcDbEntity
  8
Wood
 62
   250
420
  2301728
370
    18
100
AcDb2dPolyline
 66
     1
 10
0.0
 20
0.0
 30
0.0
  0
VERTEX
  5
21E
330
21D
100
AcDbEntity
  8
Wood
 62
   250
420
  2301728
370
    18
100
AcDbVertex
100
AcDb2dVertex
 10
1.826455689217583
 20
0.1819540236382409
 30
0.0
  0
VERTEX
  5
21F
330
21D
100
AcDbEntity
  8
Wood
 62
   250
420
  2301728
370
    18
100
AcDbVertex
100
AcDb2dVertex
 10
1.833462781203429
 20
0.1959971389802983
 30
0.0
  0
SEQEND
  5
220
330
21D
100
AcDbEntity
  8
Wood
 62
   250
420
  2301728
370
    18
  0
POLYLINE
  5
221
330
1D1
100
AcDbEntity
  8
Wood
 62
   250
420
  2301728
370
    18
100
AcDb2dPolyline
 66
     1
 10
0.0
 20
0.0
 30
0.0
  0
VERTEX
  5
222
330
221
100
AcDbEntity
  8
Wood
 62
   250
420
  2301728
370
    18
100
AcDbVertex
100
AcDb2dVertex
 10
1.577405934259433
 20
0.2626638443502113
 30
0.0
  0
VERTEX
  5
223
330
221
100
AcDbEntity
  8
Wood
 62
   250
420
  2301728
370
    18
100
AcDbVertex
100
AcDb2dVertex
 10
1.626492224113412
 20
0.3292842600939517
 30
0.0
  0
SEQEND
  5
224
330
221
100
AcDbEntity
  8
Wood
 62
   250
420
  2301728
370
    18
  0
POLYLINE
  5
225
330
1D1
100
AcDbEntity
  8
Wood
 62
   250
420
  2301728
370
    18
100
AcDb2dPolyline
 66
     1
 10
0.0
 20
0.0
 30
0.0
  0
VERTEX
  5
226
330
225
100
AcDbEntity
  8
Wood
 62
   250
420
  2301728
370
    18
100
AcDbVertex
100
AcDb2dVertex
 10
1.707190470380232
 20
0.9852526239424781
 30
0.0
  0
VERTEX
  5
227
330
225
100
AcDbEntity
  8
Wood
 62
   250
420
  2301728
370
    18
100
AcDbVertex
100
AcDb2dVertex
 10
1.756276760234212
 20
1.048397460253935
 30
0.0
  0
SEQEND
  5
228
330
225
100
AcDbEntity
  8
Wood
 62
   250
420
  2301728
370
    18
  0
POLYLINE
  5
229
330
1D1
100
AcDbEntity
  8
Wood
 62
   250
420
  2301728
370
    18
100
AcDb2dPolyline
 66
     1
 10
0.0
 20
0.0
 30
0.0
  0
VERTEX
  5
22A
330
229
100
AcDbEntity
  8
Wood
 62
   250
420
  2301728
370
    18
100
AcDbVertex
100
AcDb2dVertex
 10
1.672081718544784
 20
-0.0495500405551815
 30
0.0
  0
VERTEX
  5
22B
330
229
100
AcDbEntity
  8
Wood
 62
   250
420
  2301728
370
    18
100
AcDbVertex
100
AcDb2dVertex
 10
1.721243229039424
 20
0.0135851520841596
 30
0.0
  0
SEQEND
  5
22C
330
229
100
AcDbEntity
  8
Wood
 62
   250
420
  2301728
370
    18
  0
POLYLINE
  5
22D
330
1D1
100
AcDbEntity
  8
Wood
 62
   250
420
  2301728
370
    18
100
AcDb2dPolyline
 66
     1
 10
0.0
 20
0.0
 30
0.0
  0
VERTEX
  5
22E
330
22D
100
AcDbEntity
  8
Wood
 62
   250
420
  2301728
370
    18
100
AcDbVertex
100
AcDb2dVertex
 10
1.798392604055506
 20
0.6695631596048012
 30
0.0
  0
VERTEX
  5
22F
330
22D
100
AcDbEntity
  8
Wood
 62
   250
420
  2301728
370
    18
100
AcDbVertex
100
AcDb2dVertex
 10
1.833462781203429
 20
0.7186571656365129
 30
0.0
  0
SEQEND
  5
230
330
22D
100
AcDbEntity
  8
Wood
 62
   250
420
  2301728
370
    18
  0
POLYLINE
  5
231
330
1D1
100
AcDbEntity
  8
Wood
 62
   250
420
  2301728
370
    18
100
AcDb2dPolyline
 66
     1
 10
0.0
 20
0.0
 30
0.0
  0
VERTEX
  5
232
330
231
100
AcDbEntity
  8
Wood
 62
   250
420
  2301728
370
    18
100
AcDbVertex
100
AcDb2dVertex
 10
1.752810824561619
 20
-0.0811272805469798
 30
0.0
  0
VERTEX
  5
233
330
231
100
AcDbEntity
  8
Wood
 62
   250
420
  2301728
370
    18
100
AcDbVertex
100
AcDb2dVertex
 10
1.787844355756432
 20
-0.0355184976196673
 30
0.0
  0
SEQEND
  5
234
330
231
100
AcDbEntity
  8
Wood
 62
   250
420
  2301728
370
    18
  0
POLYLINE
  5
235
330
1D1
100
AcDbEntity
  8
Wood
 62
   250
420
  2301728
370
    18
100
AcDb2dPolyline
 66
     1
 10
0.0
 20
0.0
 30
0.0
  0
VERTEX
  5
236
330
235
100
AcDbEntity
  8
Wood
 62
   250
420
  2301728
370
    18
100
AcDbVertex
100
AcDb2dVertex
 10
1.394986283150577
 20
0.9221155025687215
 30
0.0
  0
VERTEX
  5
237
330
235
100
AcDbEntity
  8
Wood
 62
   250
420
  2301728
370
    18
100
AcDbVertex
100
AcDb2dVertex
 10
1.398508152209034
 20
0.9256200130173384
 30
0.0
  0
SEQEND
  5
238
330
235
100
AcDbEntity
  8
Wood
 62
   250
420
  2301728
370
    18
  0
POLYLINE
  5
239
330
1D1
100
AcDbEntity
  8
Wood
 62
   250
420
  2301728
370
    18
100
AcDb2dPolyline
 66
     1
 10
0.0
 20
0.0
 30
0.0
  0
VERTEX
  5
23A
330
239
100
AcDbEntity
  8
Wood
 62
   250
420
  2301728
370
    18
100
AcDbVertex
100
AcDb2dVertex
 10
1.426573166814478
 20
0.6625367800977149
 30
0.0
  0
VERTEX
  5
23B
330
239
100
AcDbEntity
  8
Wood
 62
   250
420
  2301728
370
    18
100
AcDbVertex
100
AcDb2dVertex
 10
1.475657529174049
 20
0.7256816164091712
 30
0.0
  0
SEQEND
  5
23C
330
239
100
AcDbEntity
  8
Wood
 62
   250
420
  2301728
370
    18
  0
POLYLINE
  5
23D
330
1D1
100
AcDbEntity
  8
Wood
 62
   250
420
  2301728
370
    18
100
AcDb2dPolyline
 66
     1
 10
0.0
 20
0.0
 30
0.0
  0
VERTEX
  5
23E
330
23D
100
AcDbEntity
  8
Wood
 62
   250
420
  2301728
370
    18
100
AcDbVertex
100
AcDb2dVertex
 10
1.394986283150577
 20
0.785314227334311
 30
0.0
  0
VERTEX
  5
23F
330
23D
100
AcDbEntity
  8
Wood
 62
   250
420
  2301728
370
    18
100
AcDbVertex
100
AcDb2dVertex
 10
1.416024918248922
 20
0.8133792419397675
 30
0.0
  0
SEQEND
  5
240
330
23D
100
AcDbEntity
  8
Wood
 62
   250
420
  2301728
370
    18
  0
POLYLINE
  5
241
330
1D1
100
AcDbEntity
  8
Wood
 62
   250
420
  2301728
370
    18
100
AcDb2dPolyline
 66
     1
 10
0.0
 20
0.0
 30
0.0
  0
VERTEX
  5
242
330
241
100
AcDbEntity
  8
Wood
 62
   250
420
  2301728
370
    18
100
AcDbVertex
100
AcDb2dVertex
 10
1.416024918248922
 20
0.1819540236382409
 30
0.0
  0
VERTEX
  5
243
330
241
100
AcDbEntity
  8
Wood
 62
   250
420
  2301728
370
    18
100
AcDbVertex
100
AcDb2dVertex
 10
1.514251455871267
 20
0.3117578503819232
 30
0.0
  0
SEQEND
  5
244
330
241
100
AcDbEntity
  8
Wood
 62
   250
420
  2301728
370
    18
  0
POLYLINE
  5
245
330
1D1
100
AcDbEntity
  8
Wood
 62
   250
420
  2301728
370
    18
100
AcDb2dPolyline
 66
     1
 10
0.0
 20
0.0
 30
0.0
  0
VERTEX
  5
246
330
245
100
AcDbEntity
  8
Wood
 62
   250
420
  2301728
370
    18
100
AcDbVertex
100
AcDb2dVertex
 10
1.542335757111484
 20
0.9010768674703387
 30
0.0
  0
VERTEX
  5
247
330
245
100
AcDbEntity
  8
Wood
 62
   250
420
  2301728
370
    18
100
AcDbVertex
100
AcDb2dVertex
 10
1.640523766694463
 20
1.034356273646293
 30
0.0
  0
SEQEND
  5
248
330
245
100
AcDbEntity
  8
Wood
 62
   250
420
  2301728
370
    18
  0
POLYLINE
  5
249
330
1D1
100
AcDbEntity
  8
Wood
 62
   250
420
  2301728
370
    18
100
AcDb2dPolyline
 66
     1
 10
0.0
 20
0.0
 30
0.0
  0
VERTEX
  5
24A
330
249
100
AcDbEntity
  8
Wood
 62
   250
420
  2301728
370
    18
100
AcDbVertex
100
AcDb2dVertex
 10
1.647550146024059
 20
1.069436095352305
 30
0.0
  0
VERTEX
  5
24B
330
249
100
AcDbEntity
  8
Wood
 62
   250
420
  2301728
370
    18
100
AcDbVertex
100
AcDb2dVertex
 10
1.598446497560695
 20
1.227295293029329
 30
0.0
  0
SEQEND
  5
24C
330
249
100
AcDbEntity
  8
Wood
 62
   250
420
  2301728
370
    18
  0
POLYLINE
  5
24D
330
1D1
100
AcDbEntity
  8
Wood
 62
   250
420
  2301728
370
    18
100
AcDb2dPolyline
 66
     1
 10
0.0
 20
0.0
 30
0.0
  0
VERTEX
  5
24E
330
24D
100
AcDbEntity
  8
Wood
 62
   250
420
  2301728
370
    18
100
AcDbVertex
100
AcDb2dVertex
 10
1.517773324840745
 20
0.3468396008223509
 30
0.0
  0
VERTEX
  5
24F
330
24D
100
AcDbEntity
  8
Wood
 62
   250
420
  2301728
370
    18
100
AcDbVertex
100
AcDb2dVertex
 10
1.472154947459861
 20
0.5046698674830041
 30
0.0
  0
SEQEND
  5
250
330
24D
100
AcDbEntity
  8
Wood
 62
   250
420
  2301728
370
    18
  0
POLYLINE
  5
251
330
1D1
100
AcDbEntity
  8
Wood
 62
   250
420
  2301728
370
    18
100
AcDb2dPolyline
 66
     1
 10
0.0
 20
0.0
 30
0.0
  0
VERTEX
  5
252
330
251
100
AcDbEntity
  8
Wood
 62
   250
420
  2301728
370
    18
100
AcDbVertex
100
AcDb2dVertex
 10
1.672081718544784
 20
1.213261821359386
 30
0.0
  0
VERTEX
  5
253
330
251
100
AcDbEntity
  8
Wood
 62
   250
420
  2301728
370
    18
100
AcDbVertex
100
AcDb2dVertex
 10
1.647550146024059
 20
1.290420841996542
 30
0.0
  0
SEQEND
  5
254
330
251
100
AcDbEntity
  8
Wood
 62
   250
420
  2301728
370
    18
  0
POLYLINE
  5
255
330
1D1
100
AcDbEntity
  8
Wood
 62
   250
420
  2301728
370
    18
100
AcDb2dPolyline
 66
     1
 10
0.0
 20
0.0
 30
0.0
  0
VERTEX
  5
256
330
255
100
AcDbEntity
  8
Wood
 62
   250
420
  2301728
370
    18
100
AcDbVertex
100
AcDb2dVertex
 10
1.545838338737212
 20
0.4906653268294323
 30
0.0
  0
VERTEX
  5
257
330
255
100
AcDbEntity
  8
Wood
 62
   250
420
  2301728
370
    18
100
AcDbVertex
100
AcDb2dVertex
 10
1.521277835200863
 20
0.5713365728529045
 30
0.0
  0
SEQEND
  5
258
330
255
100
AcDbEntity
  8
Wood
 62
   250
420
  2301728
370
    18
  0
POLYLINE
  5
259
330
1D1
100
AcDbEntity
  8
Wood
 62
   250
420
  2301728
370
    18
100
AcDb2dPolyline
 66
     1
 10
0.0
 20
0.0
 30
0.0
  0
VERTEX
  5
25A
330
259
100
AcDbEntity
  8
Wood
 62
   250
420
  2301728
370
    18
100
AcDbVertex
100
AcDb2dVertex
 10
1.784378420083815
 20
0.3749123303655071
 30
0.0
  0
VERTEX
  5
25B
330
259
100
AcDbEntity
  8
Wood
 62
   250
420
  2301728
370
    18
100
AcDbVertex
100
AcDb2dVertex
 10
1.759779341859939
 20
0.455575861451305
 30
0.0
  0
SEQEND
  5
25C
330
259
100
AcDbEntity
  8
Wood
 62
   250
420
  2301728
370
    18
  0
POLYLINE
  5
25D
330
1D1
100
AcDbEntity
  8
Wood
 62
   250
420
  2301728
370
    18
100
AcDb2dPolyline
 66
     1
 10
0.0
 20
0.0
 30
0.0
  0
VERTEX
  5
25E
330
25D
100
AcDbEntity
  8
Wood
 62
   250
420
  2301728
370
    18
100
AcDbVertex
100
AcDb2dVertex
 10
1.647550146024059
 20
1.069436095352305
 30
0.0
  0
VERTEX
  5
25F
330
25D
100
AcDbEntity
  8
Wood
 62
   250
420
  2301728
370
    18
100
AcDbVertex
100
AcDb2dVertex
 10
1.598446497560695
 20
1.223790782580686
 30
0.0
  0
SEQEND
  5
260
330
25D
100
AcDbEntity
  8
Wood
 62
   250
420
  2301728
370
    18
  0
POLYLINE
  5
261
330
1D1
100
AcDbEntity
  8
Wood
 62
   250
420
  2301728
370
    18
100
AcDb2dPolyline
 66
     1
 10
0.0
 20
0.0
 30
0.0
  0
VERTEX
  5
262
330
261
100
AcDbEntity
  8
Wood
 62
   250
420
  2301728
370
    18
100
AcDbVertex
100
AcDb2dVertex
 10
1.833462781203429
 20
0.4380494517392763
 30
0.0
  0
VERTEX
  5
263
330
261
100
AcDbEntity
  8
Wood
 62
   250
420
  2301728
370
    18
100
AcDbVertex
100
AcDb2dVertex
 10
1.787844355756432
 20
0.599391943786246
 30
0.0
  0
SEQEND
  5
264
330
261
100
AcDbEntity
  8
Wood
 62
   250
420
  2301728
370
    18
  0
POLYLINE
  5
265
330
1D1
100
AcDbEntity
  8
Wood
 62
   250
420
  2301728
370
    18
100
AcDb2dPolyline
 66
     1
 10
0.0
 20
0.0
 30
0.0
  0
VERTEX
  5
266
330
265
100
AcDbEntity
  8
Wood
 62
   250
420
  2301728
370
    18
100
AcDbVertex
100
AcDb2dVertex
 10
1.517773324840745
 20
0.3468396008223509
 30
0.0
  0
VERTEX
  5
267
330
265
100
AcDbEntity
  8
Wood
 62
   250
420
  2301728
370
    18
100
AcDbVertex
100
AcDb2dVertex
 10
1.472154947459861
 20
0.5046698674830041
 30
0.0
  0
SEQEND
  5
268
330
265
100
AcDbEntity
  8
Wood
 62
   250
420
  2301728
370
    18
  0
POLYLINE
  5
269
330
1D1
100
AcDbEntity
  8
Wood
 62
   250
420
  2301728
370
    18
100
AcDb2dPolyline
 66
     1
 10
0.0
 20
0.0
 30
0.0
  0
VERTEX
  5
26A
330
269
100
AcDbEntity
  8
Wood
 62
   250
420
  2301728
370
    18
100
AcDbVertex
100
AcDb2dVertex
 10
1.465128567952762
 20
1.101013335344091
 30
0.0
  0
VERTEX
  5
26B
330
269
100
AcDbEntity
  8
Wood
 62
   250
420
  2301728
370
    18
100
AcDbVertex
100
AcDb2dVertex
 10
1.394986283150577
 20
1.339543779044599
 30
0.0
  0
SEQEND
  5
26C
330
269
100
AcDbEntity
  8
Wood
 62
   250
420
  2301728
370
    18
  0
POLYLINE
  5
26D
330
1D1
100
AcDbEntity
  8
Wood
 62
   250
420
  2301728
370
    18
100
AcDb2dPolyline
 66
     1
 10
0.0
 20
0.0
 30
0.0
  0
VERTEX
  5
26E
330
26D
100
AcDbEntity
  8
Wood
 62
   250
420
  2301728
370
    18
100
AcDbVertex
100
AcDb2dVertex
 10
1.461645273582765
 20
1.286927903954443
 30
0.0
  0
VERTEX
  5
26F
330
26D
100
AcDbEntity
  8
Wood
 62
   250
420
  2301728
370
    18
100
AcDbVertex
100
AcDb2dVertex
 10
1.44058735114019
 20
1.353557191876525
 30
0.0
  0
SEQEND
  5
270
330
26D
100
AcDbEntity
  8
Wood
 62
   250
420
  2301728
370
    18
  0
POLYLINE
  5
271
330
1D1
100
AcDbEntity
  8
Wood
 62
   250
420
  2301728
370
    18
100
AcDb2dPolyline
 66
     1
 10
0.0
 20
0.0
 30
0.0
  0
VERTEX
  5
272
330
271
100
AcDbEntity
  8
Wood
 62
   250
420
  2301728
370
    18
100
AcDbVertex
100
AcDb2dVertex
 10
1.69668085050676
 20
0.0942583268420852
 30
0.0
  0
VERTEX
  5
273
330
271
100
AcDbEntity
  8
Wood
 62
   250
420
  2301728
370
    18
100
AcDbVertex
100
AcDb2dVertex
 10
1.826455689217583
 20
0.1819540236382409
 30
0.0
  0
SEQEND
  5
274
330
271
100
AcDbEntity
  8
Wood
 62
   250
420
  2301728
370
    18
  0
POLYLINE
  5
275
330
1D1
100
AcDbEntity
  8
Wood
 62
   250
420
  2301728
370
    18
100
AcDb2dPolyline
 66
     1
 10
0.0
 20
0.0
 30
0.0
  0
VERTEX
  5
276
330
275
100
AcDbEntity
  8
Wood
 62
   250
420
  2301728
370
    18
100
AcDbVertex
100
AcDb2dVertex
 10
1.822914532904355
 20
0.8133792419397675
 30
0.0
  0
VERTEX
  5
277
330
275
100
AcDbEntity
  8
Wood
 62
   250
420
  2301728
370
    18
100
AcDbVertex
100
AcDb2dVertex
 10
1.833462781203429
 20
0.8203766904304959
 30
0.0
  0
SEQEND
  5
278
330
275
100
AcDbEntity
  8
Wood
 62
   250
420
  2301728
370
    18
  0
POLYLINE
  5
279
330
1D1
100
AcDbEntity
  8
Wood
 62
   250
420
  2301728
370
    18
100
AcDb2dPolyline
 66
     1
 10
0.0
 20
0.0
 30
0.0
  0
VERTEX
  5
27A
330
279
100
AcDbEntity
  8
Wood
 62
   250
420
  2301728
370
    18
100
AcDbVertex
100
AcDb2dVertex
 10
1.721243229039424
 20
0.0135851520841596
 30
0.0
  0
VERTEX
  5
27B
330
279
100
AcDbEntity
  8
Wood
 62
   250
420
  2301728
370
    18
100
AcDbVertex
100
AcDb2dVertex
 10
1.833462781203429
 20
0.0942583268420852
 30
0.0
  0
SEQEND
  5
27C
330
279
100
AcDbEntity
  8
Wood
 62
   250
420
  2301728
370
    18
  0
POLYLINE
  5
27D
330
1D1
100
AcDbEntity
  8
Wood
 62
   250
420
  2301728
370
    18
100
AcDb2dPolyline
 66
     1
 10
0.0
 20
0.0
 30
0.0
  0
VERTEX
  5
27E
330
27D
100
AcDbEntity
  8
Wood
 62
   250
420
  2301728
370
    18
100
AcDbVertex
100
AcDb2dVertex
 10
1.394986283150577
 20
0.2942044383879395
 30
0.0
  0
VERTEX
  5
27F
330
27D
100
AcDbEntity
  8
Wood
 62
   250
420
  2301728
370
    18
100
AcDbVertex
100
AcDb2dVertex
 10
1.398508152209034
 20
0.2942044383879395
 30
0.0
  0
SEQEND
  5
280
330
27D
100
AcDbEntity
  8
Wood
 62
   250
420
  2301728
370
    18
  0
POLYLINE
  5
281
330
1D1
100
AcDbEntity
  8
Wood
 62
   250
420
  2301728
370
    18
100
AcDb2dPolyline
 66
     1
 10
0.0
 20
0.0
 30
0.0
  0
VERTEX
  5
282
330
281
100
AcDbEntity
  8
Wood
 62
   250
420
  2301728
370
    18
100
AcDbVertex
100
AcDb2dVertex
 10
1.398508152209034
 20
0.9256200130173384
 30
0.0
  0
VERTEX
  5
283
330
281
100
AcDbEntity
  8
Wood
 62
   250
420
  2301728
370
    18
100
AcDbVertex
100
AcDb2dVertex
 10
1.52476112948284
 20
1.016820220262149
 30
0.0
  0
SEQEND
  5
284
330
281
100
AcDbEntity
  8
Wood
 62
   250
420
  2301728
370
    18
  0
POLYLINE
  5
285
330
1D1
100
AcDbEntity
  8
Wood
 62
   250
420
  2301728
370
    18
100
AcDb2dPolyline
 66
     1
 10
0.0
 20
0.0
 30
0.0
  0
VERTEX
  5
286
330
285
100
AcDbEntity
  8
Wood
 62
   250
420
  2301728
370
    18
100
AcDbVertex
100
AcDb2dVertex
 10
1.394986283150577
 20
0.1644276139262122
 30
0.0
  0
VERTEX
  5
287
330
285
100
AcDbEntity
  8
Wood
 62
   250
420
  2301728
370
    18
100
AcDbVertex
100
AcDb2dVertex
 10
1.416024918248922
 20
0.1819540236382409
 30
0.0
  0
SEQEND
  5
288
330
285
100
AcDbEntity
  8
Wood
 62
   250
420
  2301728
370
    18
  0
POLYLINE
  5
289
330
1D1
100
AcDbEntity
  8
Wood
 62
   250
420
  2301728
370
    18
100
AcDb2dPolyline
 66
     1
 10
0.0
 20
0.0
 30
0.0
  0
VERTEX
  5
28A
330
289
100
AcDbEntity
  8
Wood
 62
   250
420
  2301728
370
    18
100
AcDbVertex
100
AcDb2dVertex
 10
1.416024918248922
 20
0.8133792419397675
 30
0.0
  0
VERTEX
  5
28B
330
289
100
AcDbEntity
  8
Wood
 62
   250
420
  2301728
370
    18
100
AcDbVertex
100
AcDb2dVertex
 10
1.542335757111484
 20
0.9010768674703387
 30
0.0
  0
SEQEND
  5
28C
330
289
100
AcDbEntity
  8
Wood
 62
   250
420
  2301728
370
    18
  0
POLYLINE
  5
28D
330
1D1
100
AcDbEntity
  8
Wood
 62
   250
420
  2301728
370
    18
100
AcDb2dPolyline
 66
     1
 10
0.0
 20
0.0
 30
0.0
  0
VERTEX
  5
28E
330
28D
100
AcDbEntity
  8
Wood
 62
   250
420
  2301728
370
    18
100
AcDbVertex
100
AcDb2dVertex
 10
1.608975458516018
 20
0.2205576431371128
 30
0.0
  0
VERTEX
  5
28F
330
28D
100
AcDbEntity
  8
Wood
 62
   250
420
  2301728
370
    18
100
AcDbVertex
100
AcDb2dVertex
 10
1.735255538989274
 20
0.3082456249955814
 30
0.0
  0
SEQEND
  5
290
330
28D
100
AcDbEntity
  8
Wood
 62
   250
420
  2301728
370
    18
  0
POLYLINE
  5
291
330
1D1
100
AcDbEntity
  8
Wood
 62
   250
420
  2301728
370
    18
100
AcDb2dPolyline
 66
     1
 10
0.0
 20
0.0
 30
0.0
  0
VERTEX
  5
292
330
291
100
AcDbEntity
  8
Wood
 62
   250
420
  2301728
370
    18
100
AcDbVertex
100
AcDb2dVertex
 10
1.735255538989274
 20
0.9431464227293797
 30
0.0
  0
VERTEX
  5
293
330
291
100
AcDbEntity
  8
Wood
 62
   250
420
  2301728
370
    18
100
AcDbVertex
100
AcDb2dVertex
 10
1.833462781203429
 20
1.009803484427165
 30
0.0
  0
SEQEND
  5
294
330
291
100
AcDbEntity
  8
Wood
 62
   250
420
  2301728
370
    18
  0
POLYLINE
  5
295
330
1D1
100
AcDbEntity
  8
Wood
 62
   250
420
  2301728
370
    18
100
AcDb2dPolyline
 66
     1
 10
0.0
 20
0.0
 30
0.0
  0
VERTEX
  5
296
330
295
100
AcDbEntity
  8
Wood
 62
   250
420
  2301728
370
    18
100
AcDbVertex
100
AcDb2dVertex
 10
1.675622874858037
 20
0.1714539934332859
 30
0.0
  0
VERTEX
  5
297
330
295
100
AcDbEntity
  8
Wood
 62
   250
420
  2301728
370
    18
100
AcDbVertex
100
AcDb2dVertex
 10
1.759779341859939
 20
0.2310866043584257
 30
0.0
  0
SEQEND
  5
298
330
295
100
AcDbEntity
  8
Wood
 62
   250
420
  2301728
370
    18
  0
POLYLINE
  5
299
330
1D1
100
AcDbEntity
  8
Wood
 62
   250
420
  2301728
370
    18
100
AcDb2dPolyline
 66
     1
 10
0.0
 20
0.0
 30
0.0
  0
VERTEX
  5
29A
330
299
100
AcDbEntity
  8
Wood
 62
   250
420
  2301728
370
    18
100
AcDbVertex
100
AcDb2dVertex
 10
1.801895185681234
 20
0.8940427730255653
 30
0.0
  0
VERTEX
  5
29B
330
299
100
AcDbEntity
  8
Wood
 62
   250
420
  2301728
370
    18
100
AcDbVertex
100
AcDb2dVertex
 10
1.833462781203429
 20
0.9150910517960508
 30
0.0
  0
SEQEND
  5
29C
330
299
100
AcDbEntity
  8
Wood
 62
   250
420
  2301728
370
    18
  0
POLYLINE
  5
29D
330
1D1
100
AcDbEntity
  8
Wood
 62
   250
420
  2301728
370
    18
100
AcDb2dPolyline
 66
     1
 10
0.0
 20
0.0
 30
0.0
  0
VERTEX
  5
29E
330
29D
100
AcDbEntity
  8
Wood
 62
   250
420
  2301728
370
    18
100
AcDbVertex
100
AcDb2dVertex
 10
1.394986283150577
 20
1.020342089320593
 30
0.0
  0
VERTEX
  5
29F
330
29D
100
AcDbEntity
  8
Wood
 62
   250
420
  2301728
370
    18
100
AcDbVertex
100
AcDb2dVertex
 10
1.458140763134149
 20
1.065923869965963
 30
0.0
  0
SEQEND
  5
2A0
330
29D
100
AcDbEntity
  8
Wood
 62
   250
420
  2301728
370
    18
  0
POLYLINE
  5
2A1
330
1D1
100
AcDbEntity
  8
Wood
 62
   250
420
  2301728
370
    18
100
AcDb2dPolyline
 66
     1
 10
0.0
 20
0.0
 30
0.0
  0
VERTEX
  5
2A2
330
2A1
100
AcDbEntity
  8
Wood
 62
   250
420
  2301728
370
    18
100
AcDbVertex
100
AcDb2dVertex
 10
1.787844355756432
 20
-0.0355184976196673
 30
0.0
  0
VERTEX
  5
2A3
330
2A1
100
AcDbEntity
  8
Wood
 62
   250
420
  2301728
370
    18
100
AcDbVertex
100
AcDb2dVertex
 10
1.833462781203429
 20
-0.0004271035071118
 30
0.0
  0
SEQEND
  5
2A4
330
2A1
100
AcDbEntity
  8
Wood
 62
   250
420
  2301728
370
    18
  0
POLYLINE
  5
2A5
330
1D1
100
AcDbEntity
  8
Wood
 62
   250
420
  2301728
370
    18
100
AcDb2dPolyline
 66
     1
 10
0.0
 20
0.0
 30
0.0
  0
VERTEX
  5
2A6
330
2A5
100
AcDbEntity
  8
Wood
 62
   250
420
  2301728
370
    18
100
AcDbVertex
100
AcDb2dVertex
 10
1.394986283150577
 20
0.0381379413032871
 30
0.0
  0
VERTEX
  5
2A7
330
2A5
100
AcDbEntity
  8
Wood
 62
   250
420
  2301728
370
    18
100
AcDbVertex
100
AcDb2dVertex
 10
1.433580258977321
 20
0.0662029559087437
 30
0.0
  0
SEQEND
  5
2A8
330
2A5
100
AcDbEntity
  8
Wood
 62
   250
420
  2301728
370
    18
  0
POLYLINE
  5
2A9
330
1D1
100
AcDbEntity
  8
Wood
 62
   250
420
  2301728
370
    18
100
AcDb2dPolyline
 66
     1
 10
0.0
 20
0.0
 30
0.0
  0
VERTEX
  5
2AA
330
2A9
100
AcDbEntity
  8
Wood
 62
   250
420
  2301728
370
    18
100
AcDbVertex
100
AcDb2dVertex
 10
1.475657529174049
 20
0.7256816164091712
 30
0.0
  0
VERTEX
  5
2AB
330
2A9
100
AcDbEntity
  8
Wood
 62
   250
420
  2301728
370
    18
100
AcDbVertex
100
AcDb2dVertex
 10
1.559852522708904
 20
0.785314227334311
 30
0.0
  0
SEQEND
  5
2AC
330
2A9
100
AcDbEntity
  8
Wood
 62
   250
420
  2301728
370
    18
  0
POLYLINE
  5
2AD
330
1D1
100
AcDbEntity
  8
Wood
 62
   250
420
  2301728
370
    18
100
AcDb2dPolyline
 66
     1
 10
0.0
 20
0.0
 30
0.0
  0
VERTEX
  5
2AE
330
2AD
100
AcDbEntity
  8
Wood
 62
   250
420
  2301728
370
    18
100
AcDbVertex
100
AcDb2dVertex
 10
1.535290090438139
 20
0.234589186072627
 30
0.0
  0
VERTEX
  5
2AF
330
2AD
100
AcDbEntity
  8
Wood
 62
   250
420
  2301728
370
    18
100
AcDbVertex
100
AcDb2dVertex
 10
1.577405934259433
 20
0.2626638443502113
 30
0.0
  0
SEQEND
  5
2B0
330
2AD
100
AcDbEntity
  8
Wood
 62
   250
420
  2301728
370
    18
  0
POLYLINE
  5
2B1
330
1D1
100
AcDbEntity
  8
Wood
 62
   250
420
  2301728
370
    18
100
AcDb2dPolyline
 66
     1
 10
0.0
 20
0.0
 30
0.0
  0
VERTEX
  5
2B2
330
2B1
100
AcDbEntity
  8
Wood
 62
   250
420
  2301728
370
    18
100
AcDbVertex
100
AcDb2dVertex
 10
1.665113201246464
 20
0.9536830988883795
 30
0.0
  0
VERTEX
  5
2B3
330
2B1
100
AcDbEntity
  8
Wood
 62
   250
420
  2301728
370
    18
100
AcDbVertex
100
AcDb2dVertex
 10
1.707190470380232
 20
0.9852526239424781
 30
0.0
  0
SEQEND
  5
2B4
330
2B1
100
AcDbEntity
  8
Wood
 62
   250
420
  2301728
370
    18
  0
POLYLINE
  5
2B5
330
1D1
100
AcDbEntity
  8
Wood
 62
   250
420
  2301728
370
    18
100
AcDb2dPolyline
 66
     1
 10
0.0
 20
0.0
 30
0.0
  0
VERTEX
  5
2B6
330
2B5
100
AcDbEntity
  8
Wood
 62
   250
420
  2301728
370
    18
100
AcDbVertex
100
AcDb2dVertex
 10
1.759779341859939
 20
1.086962505064333
 30
0.0
  0
VERTEX
  5
2B7
330
2B5
100
AcDbEntity
  8
Wood
 62
   250
420
  2301728
370
    18
100
AcDbVertex
100
AcDb2dVertex
 10
1.672081718544784
 20
1.213261821359386
 30
0.0
  0
SEQEND
  5
2B8
330
2B5
100
AcDbEntity
  8
Wood
 62
   250
420
  2301728
370
    18
  0
POLYLINE
  5
2B9
330
1D1
100
AcDbEntity
  8
Wood
 62
   250
420
  2301728
370
    18
100
AcDb2dPolyline
 66
     1
 10
0.0
 20
0.0
 30
0.0
  0
VERTEX
  5
2BA
330
2B9
100
AcDbEntity
  8
Wood
 62
   250
420
  2301728
370
    18
100
AcDbVertex
100
AcDb2dVertex
 10
1.633516674708618
 20
0.3643660105343795
 30
0.0
  0
VERTEX
  5
2BB
330
2B9
100
AcDbEntity
  8
Wood
 62
   250
420
  2301728
370
    18
100
AcDbVertex
100
AcDb2dVertex
 10
1.545838338737212
 20
0.4906653268294323
 30
0.0
  0
SEQEND
  5
2BC
330
2B9
100
AcDbEntity
  8
Wood
 62
   250
420
  2301728
370
    18
  0
POLYLINE
  5
2BD
330
1D1
100
AcDbEntity
  8
Wood
 62
   250
420
  2301728
370
    18
100
AcDb2dPolyline
 66
     1
 10
0.0
 20
0.0
 30
0.0
  0
VERTEX
  5
2BE
330
2BD
100
AcDbEntity
  8
Wood
 62
   250
420
  2301728
370
    18
100
AcDbVertex
100
AcDb2dVertex
 10
1.833462781203429
 20
1.11502751966979
 30
0.0
  0
VERTEX
  5
2BF
330
2BD
100
AcDbEntity
  8
Wood
 62
   250
420
  2301728
370
    18
100
AcDbVertex
100
AcDb2dVertex
 10
1.721243229039424
 20
1.279911168119485
 30
0.0
  0
SEQEND
  5
2C0
330
2BD
100
AcDbEntity
  8
Wood
 62
   250
420
  2301728
370
    18
  0
POLYLINE
  5
2C1
330
1D1
100
AcDbEntity
  8
Wood
 62
   250
420
  2301728
370
    18
100
AcDb2dPolyline
 66
     1
 10
0.0
 20
0.0
 30
0.0
  0
VERTEX
  5
2C2
330
2C1
100
AcDbEntity
  8
Wood
 62
   250
420
  2301728
370
    18
100
AcDbVertex
100
AcDb2dVertex
 10
1.742262576262545
 20
0.3468396008223509
 30
0.0
  0
VERTEX
  5
2C3
330
2C1
100
AcDbEntity
  8
Wood
 62
   250
420
  2301728
370
    18
100
AcDbVertex
100
AcDb2dVertex
 10
1.594922699856827
 20
0.5572857425731601
 30
0.0
  0
SEQEND
  5
2C4
330
2C1
100
AcDbEntity
  8
Wood
 62
   250
420
  2301728
370
    18
  0
POLYLINE
  5
2C5
330
1D1
100
AcDbEntity
  8
Wood
 62
   250
420
  2301728
370
    18
100
AcDb2dPolyline
 66
     1
 10
0.0
 20
0.0
 30
0.0
  0
VERTEX
  5
2C6
330
2C5
100
AcDbEntity
  8
Wood
 62
   250
420
  2301728
370
    18
100
AcDbVertex
100
AcDb2dVertex
 10
1.833462781203429
 20
1.251855797186143
 30
0.0
  0
VERTEX
  5
2C7
330
2C5
100
AcDbEntity
  8
Wood
 62
   250
420
  2301728
370
    18
100
AcDbVertex
100
AcDb2dVertex
 10
1.798392604055506
 20
1.300950188964723
 30
0.0
  0
SEQEND
  5
2C8
330
2C5
100
AcDbEntity
  8
Wood
 62
   250
420
  2301728
370
    18
  0
POLYLINE
  5
2C9
330
1D1
100
AcDbEntity
  8
Wood
 62
   250
420
  2301728
370
    18
100
AcDb2dPolyline
 66
     1
 10
0.0
 20
0.0
 30
0.0
  0
VERTEX
  5
2CA
330
2C9
100
AcDbEntity
  8
Wood
 62
   250
420
  2301728
370
    18
100
AcDbVertex
100
AcDb2dVertex
 10
1.759779341859939
 20
0.455575861451305
 30
0.0
  0
VERTEX
  5
2CB
330
2C9
100
AcDbEntity
  8
Wood
 62
   250
420
  2301728
370
    18
100
AcDbVertex
100
AcDb2dVertex
 10
1.672081718544784
 20
0.5818655340742175
 30
0.0
  0
SEQEND
  5
2CC
330
2C9
100
AcDbEntity
  8
Wood
 62
   250
420
  2301728
370
    18
  0
POLYLINE
  5
2CD
330
1D1
100
AcDbEntity
  8
Wood
 62
   250
420
  2301728
370
    18
100
AcDb2dPolyline
 66
     1
 10
0.0
 20
0.0
 30
0.0
  0
VERTEX
  5
2CE
330
2CD
100
AcDbEntity
  8
Wood
 62
   250
420
  2301728
370
    18
100
AcDbVertex
100
AcDb2dVertex
 10
1.812443490642813
 20
0.3327964854802808
 30
0.0
  0
VERTEX
  5
2CF
330
2CD
100
AcDbEntity
  8
Wood
 62
   250
420
  2301728
370
    18
100
AcDbVertex
100
AcDb2dVertex
 10
1.784378420083815
 20
0.3749123303655071
 30
0.0
  0
SEQEND
  5
2D0
330
2CD
100
AcDbEntity
  8
Wood
 62
   250
420
  2301728
370
    18
  0
POLYLINE
  5
2D1
330
1D1
100
AcDbEntity
  8
Wood
 62
   250
420
  2301728
370
    18
100
AcDb2dPolyline
 66
     1
 10
0.0
 20
0.0
 30
0.0
  0
VERTEX
  5
2D2
330
2D1
100
AcDbEntity
  8
Wood
 62
   250
420
  2301728
370
    18
100
AcDbVertex
100
AcDb2dVertex
 10
1.580871869932025
 20
1.118539745056132
 30
0.0
  0
VERTEX
  5
2D3
330
2D1
100
AcDbEntity
  8
Wood
 62
   250
420
  2301728
370
    18
100
AcDbVertex
100
AcDb2dVertex
 10
1.461645273582765
 20
1.286927903954443
 30
0.0
  0
SEQEND
  5
2D4
330
2D1
100
AcDbEntity
  8
Wood
 62
   250
420
  2301728
370
    18
  0
POLYLINE
  5
2D5
330
1D1
100
AcDbEntity
  8
Wood
 62
   250
420
  2301728
370
    18
100
AcDb2dPolyline
 66
     1
 10
0.0
 20
0.0
 30
0.0
  0
VERTEX
  5
2D6
330
2D5
100
AcDbEntity
  8
Wood
 62
   250
420
  2301728
370
    18
100
AcDbVertex
100
AcDb2dVertex
 10
1.454618894075692
 20
0.3959432505261778
 30
0.0
  0
VERTEX
  5
2D7
330
2D5
100
AcDbEntity
  8
Wood
 62
   250
420
  2301728
370
    18
100
AcDbVertex
100
AcDb2dVertex
 10
1.394986283150577
 20
0.4801267219360044
 30
0.0
  0
SEQEND
  5
2D8
330
2D5
100
AcDbEntity
  8
Wood
 62
   250
420
  2301728
370
    18
  0
POLYLINE
  5
2D9
330
1D1
100
AcDbEntity
  8
Wood
 62
   250
420
  2301728
370
    18
100
AcDb2dPolyline
 66
     1
 10
0.0
 20
0.0
 30
0.0
  0
VERTEX
  5
2DA
330
2D9
100
AcDbEntity
  8
Wood
 62
   250
420
  2301728
370
    18
100
AcDbVertex
100
AcDb2dVertex
 10
1.598446497560695
 20
1.227295293029329
 30
0.0
  0
VERTEX
  5
2DB
330
2D9
100
AcDbEntity
  8
Wood
 62
   250
420
  2301728
370
    18
100
AcDbVertex
100
AcDb2dVertex
 10
1.538813937892049
 20
1.311488600984717
 30
0.0
  0
SEQEND
  5
2DC
330
2D9
100
AcDbEntity
  8
Wood
 62
   250
420
  2301728
370
    18
  0
POLYLINE
  5
2DD
330
1D1
100
AcDbEntity
  8
Wood
 62
   250
420
  2301728
370
    18
100
AcDb2dPolyline
 66
     1
 10
0.0
 20
0.0
 30
0.0
  0
VERTEX
  5
2DE
330
2DD
100
AcDbEntity
  8
Wood
 62
   250
420
  2301728
370
    18
100
AcDbVertex
100
AcDb2dVertex
 10
1.472154947459861
 20
0.5046698674830041
 30
0.0
  0
VERTEX
  5
2DF
330
2DD
100
AcDbEntity
  8
Wood
 62
   250
420
  2301728
370
    18
100
AcDbVertex
100
AcDb2dVertex
 10
1.412522336534721
 20
0.5888629825649457
 30
0.0
  0
SEQEND
  5
2E0
330
2DD
100
AcDbEntity
  8
Wood
 62
   250
420
  2301728
370
    18
  0
POLYLINE
  5
2E1
330
1D1
100
AcDbEntity
  8
Wood
 62
   250
420
  2301728
370
    18
100
AcDb2dPolyline
 66
     1
 10
0.0
 20
0.0
 30
0.0
  0
VERTEX
  5
2E2
330
2E1
100
AcDbEntity
  8
Wood
 62
   250
420
  2301728
370
    18
100
AcDbVertex
100
AcDb2dVertex
 10
1.647550146024059
 20
1.290420841996542
 30
0.0
  0
VERTEX
  5
2E3
330
2E1
100
AcDbEntity
  8
Wood
 62
   250
420
  2301728
370
    18
100
AcDbVertex
100
AcDb2dVertex
 10
1.65456495294739
 20
1.329014817823299
 30
0.0
  0
SEQEND
  5
2E4
330
2E1
100
AcDbEntity
  8
Wood
 62
   250
420
  2301728
370
    18
  0
POLYLINE
  5
2E5
330
1D1
100
AcDbEntity
  8
Wood
 62
   250
420
  2301728
370
    18
100
AcDb2dPolyline
 66
     1
 10
0.0
 20
0.0
 30
0.0
  0
VERTEX
  5
2E6
330
2E5
100
AcDbEntity
  8
Wood
 62
   250
420
  2301728
370
    18
100
AcDbVertex
100
AcDb2dVertex
 10
1.559852522708904
 20
0.785314227334311
 30
0.0
  0
VERTEX
  5
2E7
330
2E5
100
AcDbEntity
  8
Wood
 62
   250
420
  2301728
370
    18
100
AcDbVertex
100
AcDb2dVertex
 10
1.566859614694724
 20
0.8238812008791253
 30
0.0
  0
SEQEND
  5
2E8
330
2E5
100
AcDbEntity
  8
Wood
 62
   250
420
  2301728
370
    18
  0
POLYLINE
  5
2E9
330
1D1
100
AcDbEntity
  8
Wood
 62
   250
420
  2301728
370
    18
100
AcDb2dPolyline
 66
     1
 10
0.0
 20
0.0
 30
0.0
  0
VERTEX
  5
2EA
330
2E9
100
AcDbEntity
  8
Wood
 62
   250
420
  2301728
370
    18
100
AcDbVertex
100
AcDb2dVertex
 10
1.521277835200863
 20
0.5713365728529045
 30
0.0
  0
VERTEX
  5
2EB
330
2E9
100
AcDbEntity
  8
Wood
 62
   250
420
  2301728
370
    18
100
AcDbVertex
100
AcDb2dVertex
 10
1.528284927186683
 20
0.6064086796212173
 30
0.0
  0
SEQEND
  5
2EC
330
2E9
100
AcDbEntity
  8
Wood
 62
   250
420
  2301728
370
    18
  0
POLYLINE
  5
2ED
330
1D1
100
AcDbEntity
  8
Wood
 62
   250
420
  2301728
370
    18
100
AcDb2dPolyline
 66
     1
 10
0.0
 20
0.0
 30
0.0
  0
VERTEX
  5
2EE
330
2ED
100
AcDbEntity
  8
Wood
 62
   250
420
  2301728
370
    18
100
AcDbVertex
100
AcDb2dVertex
 10
1.433580258977321
 20
0.0662029559087437
 30
0.0
  0
VERTEX
  5
2EF
330
2ED
100
AcDbEntity
  8
Wood
 62
   250
420
  2301728
370
    18
100
AcDbVertex
100
AcDb2dVertex
 10
1.437082840691535
 20
0.1012924212868711
 30
0.0
  0
SEQEND
  5
2F0
330
2ED
100
AcDbEntity
  8
Wood
 62
   250
420
  2301728
370
    18
  0
POLYLINE
  5
2F1
330
1D1
100
AcDbEntity
  8
Wood
 62
   250
420
  2301728
370
    18
100
AcDb2dPolyline
 66
     1
 10
0.0
 20
0.0
 30
0.0
  0
VERTEX
  5
2F2
330
2F1
100
AcDbEntity
  8
Wood
 62
   250
420
  2301728
370
    18
100
AcDbVertex
100
AcDb2dVertex
 10
1.640523766694463
 20
1.034356273646293
 30
0.0
  0
VERTEX
  5
2F3
330
2F1
100
AcDbEntity
  8
Wood
 62
   250
420
  2301728
370
    18
100
AcDbVertex
100
AcDb2dVertex
 10
1.647550146024059
 20
1.069436095352305
 30
0.0
  0
SEQEND
  5
2F4
330
2F1
100
AcDbEntity
  8
Wood
 62
   250
420
  2301728
370
    18
  0
POLYLINE
  5
2F5
330
1D1
100
AcDbEntity
  8
Wood
 62
   250
420
  2301728
370
    18
100
AcDb2dPolyline
 66
     1
 10
0.0
 20
0.0
 30
0.0
  0
VERTEX
  5
2F6
330
2F5
100
AcDbEntity
  8
Wood
 62
   250
420
  2301728
370
    18
100
AcDbVertex
100
AcDb2dVertex
 10
1.514251455871267
 20
0.3117578503819232
 30
0.0
  0
VERTEX
  5
2F7
330
2F5
100
AcDbEntity
  8
Wood
 62
   250
420
  2301728
370
    18
100
AcDbVertex
100
AcDb2dVertex
 10
1.517773324840745
 20
0.3468396008223509
 30
0.0
  0
SEQEND
  5
2F8
330
2F5
100
AcDbEntity
  8
Wood
 62
   250
420
  2301728
370
    18
  0
POLYLINE
  5
2F9
330
1D1
100
AcDbEntity
  8
Wood
 62
   250
420
  2301728
370
    18
100
AcDb2dPolyline
 66
     1
 10
0.0
 20
0.0
 30
0.0
  0
VERTEX
  5
2FA
330
2F9
100
AcDbEntity
  8
Wood
 62
   250
420
  2301728
370
    18
100
AcDbVertex
100
AcDb2dVertex
 10
1.721243229039424
 20
1.279911168119485
 30
0.0
  0
VERTEX
  5
2FB
330
2F9
100
AcDbEntity
  8
Wood
 62
   250
420
  2301728
370
    18
100
AcDbVertex
100
AcDb2dVertex
 10
1.728211746337744
 20
1.315001404991386
 30
0.0
  0
SEQEND
  5
2FC
330
2F9
100
AcDbEntity
  8
Wood
 62
   250
420
  2301728
370
    18
  0
POLYLINE
  5
2FD
330
1D1
100
AcDbEntity
  8
Wood
 62
   250
420
  2301728
370
    18
100
AcDb2dPolyline
 66
     1
 10
0.0
 20
0.0
 30
0.0
  0
VERTEX
  5
2FE
330
2FD
100
AcDbEntity
  8
Wood
 62
   250
420
  2301728
370
    18
100
AcDbVertex
100
AcDb2dVertex
 10
1.626492224113412
 20
0.7396958007348707
 30
0.0
  0
VERTEX
  5
2FF
330
2FD
100
AcDbEntity
  8
Wood
 62
   250
420
  2301728
370
    18
100
AcDbVertex
100
AcDb2dVertex
 10
1.637038543678121
 20
0.8098670165534259
 30
0.0
  0
SEQEND
  5
300
330
2FD
100
AcDbEntity
  8
Wood
 62
   250
420
  2301728
370
    18
  0
POLYLINE
  5
301
330
1D1
100
AcDbEntity
  8
Wood
 62
   250
420
  2301728
370
    18
100
AcDb2dPolyline
 66
     1
 10
0.0
 20
0.0
 30
0.0
  0
VERTEX
  5
302
330
301
100
AcDbEntity
  8
Wood
 62
   250
420
  2301728
370
    18
100
AcDbVertex
100
AcDb2dVertex
 10
1.594922699856827
 20
0.5572857425731601
 30
0.0
  0
VERTEX
  5
303
330
301
100
AcDbEntity
  8
Wood
 62
   250
420
  2301728
370
    18
100
AcDbVertex
100
AcDb2dVertex
 10
1.598446497560695
 20
0.5923655642791724
 30
0.0
  0
SEQEND
  5
304
330
301
100
AcDbEntity
  8
Wood
 62
   250
420
  2301728
370
    18
  0
POLYLINE
  5
305
330
1D1
100
AcDbEntity
  8
Wood
 62
   250
420
  2301728
370
    18
100
AcDb2dPolyline
 66
     1
 10
0.0
 20
0.0
 30
0.0
  0
VERTEX
  5
306
330
305
100
AcDbEntity
  8
Wood
 62
   250
420
  2301728
370
    18
100
AcDbVertex
100
AcDb2dVertex
 10
1.496715451616663
 20
0.0170993062049168
 30
0.0
  0
VERTEX
  5
307
330
305
100
AcDbEntity
  8
Wood
 62
   250
420
  2301728
370
    18
100
AcDbVertex
100
AcDb2dVertex
 10
1.510748874245539
 20
0.090744172721328
 30
0.0
  0
SEQEND
  5
308
330
305
100
AcDbEntity
  8
Wood
 62
   250
420
  2301728
370
    18
  0
POLYLINE
  5
309
330
1D1
100
AcDbEntity
  8
Wood
 62
   250
420
  2301728
370
    18
100
AcDb2dPolyline
 66
     1
 10
0.0
 20
0.0
 30
0.0
  0
VERTEX
  5
30A
330
309
100
AcDbEntity
  8
Wood
 62
   250
420
  2301728
370
    18
100
AcDbVertex
100
AcDb2dVertex
 10
1.798392604055506
 20
1.300950188964723
 30
0.0
  0
VERTEX
  5
30B
330
309
100
AcDbEntity
  8
Wood
 62
   250
420
  2301728
370
    18
100
AcDbVertex
100
AcDb2dVertex
 10
1.805397767306961
 20
1.339543779044599
 30
0.0
  0
SEQEND
  5
30C
330
309
100
AcDbEntity
  8
Wood
 62
   250
420
  2301728
370
    18
  0
POLYLINE
  5
30D
330
1D1
100
AcDbEntity
  8
Wood
 62
   250
420
  2301728
370
    18
100
AcDb2dPolyline
 66
     1
 10
0.0
 20
0.0
 30
0.0
  0
VERTEX
  5
30E
330
30D
100
AcDbEntity
  8
Wood
 62
   250
420
  2301728
370
    18
100
AcDbVertex
100
AcDb2dVertex
 10
1.756276760234212
 20
1.048397460253935
 30
0.0
  0
VERTEX
  5
30F
330
30D
100
AcDbEntity
  8
Wood
 62
   250
420
  2301728
370
    18
100
AcDbVertex
100
AcDb2dVertex
 10
1.759779341859939
 20
1.086962505064333
 30
0.0
  0
SEQEND
  5
310
330
30D
100
AcDbEntity
  8
Wood
 62
   250
420
  2301728
370
    18
  0
POLYLINE
  5
311
330
1D1
100
AcDbEntity
  8
Wood
 62
   250
420
  2301728
370
    18
100
AcDb2dPolyline
 66
     1
 10
0.0
 20
0.0
 30
0.0
  0
VERTEX
  5
312
330
311
100
AcDbEntity
  8
Wood
 62
   250
420
  2301728
370
    18
100
AcDbVertex
100
AcDb2dVertex
 10
1.69668085050676
 20
0.7256816164091712
 30
0.0
  0
VERTEX
  5
313
330
311
100
AcDbEntity
  8
Wood
 62
   250
420
  2301728
370
    18
100
AcDbVertex
100
AcDb2dVertex
 10
1.703649314067004
 20
0.7607633668496115
 30
0.0
  0
SEQEND
  5
314
330
311
100
AcDbEntity
  8
Wood
 62
   250
420
  2301728
370
    18
  0
POLYLINE
  5
315
330
1D1
100
AcDbEntity
  8
Wood
 62
   250
420
  2301728
370
    18
100
AcDb2dPolyline
 66
     1
 10
0.0
 20
0.0
 30
0.0
  0
VERTEX
  5
316
330
315
100
AcDbEntity
  8
Wood
 62
   250
420
  2301728
370
    18
100
AcDbVertex
100
AcDb2dVertex
 10
1.672081718544784
 20
0.5818655340742175
 30
0.0
  0
VERTEX
  5
317
330
315
100
AcDbEntity
  8
Wood
 62
   250
420
  2301728
370
    18
100
AcDbVertex
100
AcDb2dVertex
 10
1.67912738521813
 20
0.6169183534982746
 30
0.0
  0
SEQEND
  5
318
330
315
100
AcDbEntity
  8
Wood
 62
   250
420
  2301728
370
    18
  0
POLYLINE
  5
319
330
1D1
100
AcDbEntity
  8
Wood
 62
   250
420
  2301728
370
    18
100
AcDb2dPolyline
 66
     1
 10
0.0
 20
0.0
 30
0.0
  0
VERTEX
  5
31A
330
319
100
AcDbEntity
  8
Wood
 62
   250
420
  2301728
370
    18
100
AcDbVertex
100
AcDb2dVertex
 10
1.626492224113412
 20
0.3292842600939517
 30
0.0
  0
VERTEX
  5
31B
330
319
100
AcDbEntity
  8
Wood
 62
   250
420
  2301728
370
    18
100
AcDbVertex
100
AcDb2dVertex
 10
1.633516674708618
 20
0.3643660105343795
 30
0.0
  0
SEQEND
  5
31C
330
319
100
AcDbEntity
  8
Wood
 62
   250
420
  2301728
370
    18
  0
POLYLINE
  5
31D
330
1D1
100
AcDbEntity
  8
Wood
 62
   250
420
  2301728
370
    18
100
AcDb2dPolyline
 66
     1
 10
0.0
 20
0.0
 30
0.0
  0
VERTEX
  5
31E
330
31D
100
AcDbEntity
  8
Wood
 62
   250
420
  2301728
370
    18
100
AcDbVertex
100
AcDb2dVertex
 10
1.570381483664202
 20
0.0030561908628594
 30
0.0
  0
VERTEX
  5
31F
330
31D
100
AcDbEntity
  8
Wood
 62
   250
420
  2301728
370
    18
100
AcDbVertex
100
AcDb2dVertex
 10
1.577405934259433
 20
0.0416598103617439
 30
0.0
  0
SEQEND
  5
320
330
31D
100
AcDbEntity
  8
Wood
 62
   250
420
  2301728
370
    18
  0
POLYLINE
  5
321
330
1D1
100
AcDbEntity
  8
Wood
 62
   250
420
  2301728
370
    18
100
AcDb2dPolyline
 66
     1
 10
0.0
 20
0.0
 30
0.0
  0
VERTEX
  5
322
330
321
100
AcDbEntity
  8
Wood
 62
   250
420
  2301728
370
    18
100
AcDbVertex
100
AcDb2dVertex
 10
1.787844355756432
 20
0.599391943786246
 30
0.0
  0
VERTEX
  5
323
330
321
100
AcDbEntity
  8
Wood
 62
   250
420
  2301728
370
    18
100
AcDbVertex
100
AcDb2dVertex
 10
1.798392604055506
 20
0.6695631596048012
 30
0.0
  0
SEQEND
  5
324
330
321
100
AcDbEntity
  8
Wood
 62
   250
420
  2301728
370
    18
  0
POLYLINE
  5
325
330
1D1
100
AcDbEntity
  8
Wood
 62
   250
420
  2301728
370
    18
100
AcDb2dPolyline
 66
     1
 10
0.0
 20
0.0
 30
0.0
  0
VERTEX
  5
326
330
325
100
AcDbEntity
  8
Wood
 62
   250
420
  2301728
370
    18
100
AcDbVertex
100
AcDb2dVertex
 10
1.735255538989274
 20
0.3082456249955814
 30
0.0
  0
VERTEX
  5
327
330
325
100
AcDbEntity
  8
Wood
 62
   250
420
  2301728
370
    18
100
AcDbVertex
100
AcDb2dVertex
 10
1.742262576262545
 20
0.3468396008223509
 30
0.0
  0
SEQEND
  5
328
330
325
100
AcDbEntity
  8
Wood
 62
   250
420
  2301728
370
    18
  0
POLYLINE
  5
329
330
1D1
100
AcDbEntity
  8
Wood
 62
   250
420
  2301728
370
    18
100
AcDb2dPolyline
 66
     1
 10
0.0
 20
0.0
 30
0.0
  0
VERTEX
  5
32A
330
329
100
AcDbEntity
  8
Wood
 62
   250
420
  2301728
370
    18
100
AcDbVertex
100
AcDb2dVertex
 10
1.665113201246464
 20
-0.0811272805469798
 30
0.0
  0
VERTEX
  5
32B
330
329
100
AcDbEntity
  8
Wood
 62
   250
420
  2301728
370
    18
100
AcDbVertex
100
AcDb2dVertex
 10
1.672081718544784
 20
-0.0495500405551815
 30
0.0
  0
SEQEND
  5
32C
330
329
100
AcDbEntity
  8
Wood
 62
   250
420
  2301728
370
    18
  0
POLYLINE
  5
32D
330
1D1
100
AcDbEntity
  8
Wood
 62
   250
420
  2301728
370
    18
100
AcDb2dPolyline
 66
     1
 10
0.0
 20
0.0
 30
0.0
  0
VERTEX
  5
32E
330
32D
100
AcDbEntity
  8
Wood
 62
   250
420
  2301728
370
    18
100
AcDbVertex
100
AcDb2dVertex
 10
1.808902277667054
 20
0.2977166637742812
 30
0.0
  0
VERTEX
  5
32F
330
32D
100
AcDbEntity
  8
Wood
 62
   250
420
  2301728
370
    18
100
AcDbVertex
100
AcDb2dVertex
 10
1.812443490642813
 20
0.3327964854802808
 30
0.0
  0
SEQEND
  5
330
330
32D
100
AcDbEntity
  8
Wood
 62
   250
420
  2301728
370
    18
  0
POLYLINE
  5
331
330
1D1
100
AcDbEntity
  8
Wood
 62
   250
420
  2301728
370
    18
100
AcDb2dPolyline
 66
     1
 10
0.0
 20
0.0
 30
0.0
  0
VERTEX
  5
332
330
331
100
AcDbEntity
  8
Wood
 62
   250
420
  2301728
370
    18
100
AcDbVertex
100
AcDb2dVertex
 10
1.458140763134149
 20
1.065923869965963
 30
0.0
  0
VERTEX
  5
333
330
331
100
AcDbEntity
  8
Wood
 62
   250
420
  2301728
370
    18
100
AcDbVertex
100
AcDb2dVertex
 10
1.465128567952762
 20
1.101013335344091
 30
0.0
  0
SEQEND
  5
334
330
331
100
AcDbEntity
  8
Wood
 62
   250
420
  2301728
370
    18
  0
POLYLINE
  5
335
330
1D1
100
AcDbEntity
  8
Wood
 62
   250
420
  2301728
370
    18
100
AcDb2dPolyline
 66
     1
 10
0.0
 20
0.0
 30
0.0
  0
VERTEX
  5
336
330
335
100
AcDbEntity
  8
Wood
 62
   250
420
  2301728
370
    18
100
AcDbVertex
100
AcDb2dVertex
 10
1.538813937892049
 20
1.311488600984717
 30
0.0
  0
VERTEX
  5
337
330
335
100
AcDbEntity
  8
Wood
 62
   250
420
  2301728
370
    18
100
AcDbVertex
100
AcDb2dVertex
 10
1.54934284909733
 20
1.353557191876525
 30
0.0
  0
SEQEND
  5
338
330
335
100
AcDbEntity
  8
Wood
 62
   250
420
  2301728
370
    18
  0
POLYLINE
  5
339
330
1D1
100
AcDbEntity
  8
Wood
 62
   250
420
  2301728
370
    18
100
AcDb2dPolyline
 66
     1
 10
0.0
 20
0.0
 30
0.0
  0
VERTEX
  5
33A
330
339
100
AcDbEntity
  8
Wood
 62
   250
420
  2301728
370
    18
100
AcDbVertex
100
AcDb2dVertex
 10
1.412522336534721
 20
0.5888629825649457
 30
0.0
  0
VERTEX
  5
33B
330
339
100
AcDbEntity
  8
Wood
 62
   250
420
  2301728
370
    18
100
AcDbVertex
100
AcDb2dVertex
 10
1.426573166814478
 20
0.6625367800977149
 30
0.0
  0
SEQEND
  5
33C
330
339
100
AcDbEntity
  8
Wood
 62
   250
420
  2301728
370
    18
  0
POLYLINE
  5
33D
330
1D1
100
AcDbEntity
  8
Wood
 62
   250
420
  2301728
370
    18
100
AcDb2dPolyline
 66
     1
 10
0.0
 20
0.0
 30
0.0
  0
VERTEX
  5
33E
330
33D
100
AcDbEntity
  8
Wood
 62
   250
420
  2301728
370
    18
100
AcDbVertex
100
AcDb2dVertex
 10
1.573884065289955
 20
1.079974700245733
 30
0.0
  0
VERTEX
  5
33F
330
33D
100
AcDbEntity
  8
Wood
 62
   250
420
  2301728
370
    18
100
AcDbVertex
100
AcDb2dVertex
 10
1.580871869932025
 20
1.118539745056132
 30
0.0
  0
SEQEND
  5
340
330
33D
100
AcDbEntity
  8
Wood
 62
   250
420
  2301728
370
    18
  0
POLYLINE
  5
341
330
1D1
100
AcDbEntity
  8
Wood
 62
   250
420
  2301728
370
    18
100
AcDb2dPolyline
 66
     1
 10
0.0
 20
0.0
 30
0.0
  0
VERTEX
  5
342
330
341
100
AcDbEntity
  8
Wood
 62
   250
420
  2301728
370
    18
100
AcDbVertex
100
AcDb2dVertex
 10
1.447594443303034
 20
0.3608615000857374
 30
0.0
  0
VERTEX
  5
343
330
341
100
AcDbEntity
  8
Wood
 62
   250
420
  2301728
370
    18
100
AcDbVertex
100
AcDb2dVertex
 10
1.454618894075692
 20
0.3959432505261778
 30
0.0
  0
SEQEND
  5
344
330
341
100
AcDbEntity
  8
Wood
 62
   250
420
  2301728
370
    18
  0
ENDBLK
  5
1D4
330
1D1
100
AcDbEntity
  8
0
100
AcDbBlockEnd
  0
BLOCK
  5
358
330
356
100
AcDbEntity
  8
0
100
AcDbBlockBegin
  2
block 4
 70
     0
 10
0.0
 20
0.0
 30
0.0
  3
block 4
  1

  0
POLYLINE
  5
35A
330
356
100
AcDbEntity
  8
SDWC screw
370
     0
100
AcDb2dPolyline
 66
     1
 10
0.0
 20
0.0
 30
0.0
  0
VERTEX
  5
35B
330
35A
100
AcDbEntity
  8
SDWC screw
370
     0
100
AcDbVertex
100
AcDb2dVertex
 10
1.55399495641081
 20
-1.501958425095735
 30
0.0
  0
VERTEX
  5
35C
330
35A
100
AcDbEntity
  8
SDWC screw
370
     0
100
AcDbVertex
100
AcDb2dVertex
 10
1.543427420767961
 20
-0.0108615567416387
 30
0.0
  0
VERTEX
  5
35D
330
35A
100
AcDbEntity
  8
SDWC screw
370
     0
100
AcDbVertex
100
AcDb2dVertex
 10
1.518978783825383
 20
0.0828807224741644
 30
0.0
  0
VERTEX
  5
35E
330
35A
100
AcDbEntity
  8
SDWC screw
370
     0
100
AcDbVertex
100
AcDb2dVertex
 10
1.493438531830078
 20
-0.0165686819026279
 30
0.0
  0
VERTEX
  5
35F
330
35A
100
AcDbEntity
  8
SDWC screw
370
     0
100
AcDbVertex
100
AcDb2dVertex
 10
1.49920154154001
 20
-1.504068460555749
 30
0.0
  0
SEQEND
  5
361
330
35A
100
AcDbEntity
  8
SDWC screw
370
     0
  0
HATCH
  5
360
330
356
100
AcDbEntity
  8
SDWC screw
 62
    30
420
 15955765
100
AcDbHatch
 10
0.0
 20
0.0
 30
0.0
210
0.0
220
0.0
230
1.0
  2
SOLID
 70
     1
 71
     0
 91
        1
 92
        1
 93
        5
 72
     1
 10
1.55399495641081
 20
-1.501958425095735
 11
1.543427420767961
 21
-0.0108615567416388
 72
     1
 10
1.543427420767961
 20
-0.0108615567416387
 11
1.518978783825383
 21
0.0828807224741644
 72
     1
 10
1.518978783825383
 20
0.0828807224741644
 11
1.493438531830078
 21
-0.0165686819026278
 72
     1
 10
1.493438531830078
 20
-0.0165686819026279
 11
1.49920154154001
 21
-1.504068460555749
 72
     1
 10
1.49920154154001
 20
-1.504068460555749
 11
1.55399495641081
 21
-1.501958425095735
 97
        0
 75
     2
 76
     1
 98
        0
  0
POLYLINE
  5
362
330
356
100
AcDbEntity
  8
SDWC screw
370
     0
100
AcDb2dPolyline
 66
     1
 10
0.0
 20
0.0
 30
0.0
  0
VERTEX
  5
363
330
362
100
AcDbEntity
  8
SDWC screw
370
     0
100
AcDbVertex
100
AcDb2dVertex
 10
1.578329798025253
 20
-1.558013233664117
 30
0.0
  0
VERTEX
  5
364
330
362
100
AcDbEntity
  8
SDWC screw
370
     0
100
AcDbVertex
100
AcDb2dVertex
 10
1.478351971164557
 20
-1.559820457819519
 30
0.0
  0
VERTEX
  5
365
330
362
100
AcDbEntity
  8
SDWC screw
370
     0
100
AcDbVertex
100
AcDb2dVertex
 10
1.477428107375418
 20
-1.507194939057247
 30
0.0
  0
VERTEX
  5
366
330
362
100
AcDbEntity
  8
SDWC screw
370
     0
100
AcDbVertex
100
AcDb2dVertex
 10
1.577425221603183
 20
-1.505424360855917
 30
0.0
  0
VERTEX
  5
367
330
362
100
AcDbEntity
  8
SDWC screw
370
     0
100
AcDbVertex
100
AcDb2dVertex
 10
1.578329798025253
 20
-1.558013233664117
 30
0.0
  0
SEQEND
  5
369
330
362
100
AcDbEntity
  8
SDWC screw
370
     0
  0
HATCH
  5
368
330
356
100
AcDbEntity
  8
SDWC screw
 62
    30
420
 15955765
100
AcDbHatch
 10
0.0
 20
0.0
 30
0.0
210
0.0
220
0.0
230
1.0
  2
SOLID
 70
     1
 71
     0
 91
        1
 92
        1
 93
        4
 72
     1
 10
1.578329798025253
 20
-1.558013233664117
 11
1.478351971164557
 21
-1.559820457819519
 72
     1
 10
1.478351971164557
 20
-1.559820457819519
 11
1.477428107375418
 21
-1.507194939057247
 72
     1
 10
1.477428107375418
 20
-1.507194939057247
 11
1.577425221603183
 21
-1.505424360855917
 72
     1
 10
1.577425221603183
 20
-1.505424360855917
 11
1.578329798025253
 21
-1.558013233664117
 97
        0
 75
     2
 76
     1
 98
        0
  0
POLYLINE
  5
36A
330
356
100
AcDbEntity
  8
SDWC screw
370
     0
100
AcDb2dPolyline
 66
     1
 10
0.0
 20
0.0
 30
0.0
  0
VERTEX
  5
36B
330
36A
100
AcDbEntity
  8
SDWC screw
370
     0
100
AcDbVertex
100
AcDb2dVertex
 10
1.495963245191256
 20
-1.485006778242097
 30
0.0
  0
VERTEX
  5
36C
330
36A
100
AcDbEntity
  8
SDWC screw
370
     0
100
AcDbVertex
100
AcDb2dVertex
 10
1.486338860414864
 20
-1.47822534800687
 30
0.0
  0
VERTEX
  5
36D
330
36A
100
AcDbEntity
  8
SDWC screw
370
     0
100
AcDbVertex
100
AcDb2dVertex
 10
1.566255920835222
 20
-1.450953043249734
 30
0.0
  0
VERTEX
  5
36E
330
36A
100
AcDbEntity
  8
SDWC screw
370
     0
100
AcDbVertex
100
AcDb2dVertex
 10
1.553711432457602
 20
-1.444059746417906
 30
0.0
  0
SEQEND
  5
370
330
36A
100
AcDbEntity
  8
SDWC screw
370
     0
  0
HATCH
  5
36F
330
356
100
AcDbEntity
  8
SDWC screw
 62
    30
420
 15955765
100
AcDbHatch
 10
0.0
 20
0.0
 30
0.0
210
0.0
220
0.0
230
1.0
  2
SOLID
 70
     1
 71
     0
 91
        1
 92
        1
 93
        4
 72
     1
 10
1.495963245191256
 20
-1.485006778242097
 11
1.486338860414864
 21
-1.47822534800687
 72
     1
 10
1.486338860414864
 20
-1.47822534800687
 11
1.566255920835222
 21
-1.450953043249734
 72
     1
 10
1.566255920835222
 20
-1.450953043249734
 11
1.553711432457602
 21
-1.444059746417906
 72
     1
 10
1.553711432457602
 20
-1.444059746417906
 11
1.495963245191256
 21
-1.485006778242097
 97
        0
 75
     2
 76
     1
 98
        0
  0
POLYLINE
  5
371
330
356
100
AcDbEntity
  8
SDWC screw
370
     0
100
AcDb2dPolyline
 66
     1
 10
0.0
 20
0.0
 30
0.0
  0
VERTEX
  5
372
330
371
100
AcDbEntity
  8
SDWC screw
370
     0
100
AcDbVertex
100
AcDb2dVertex
 10
1.498053993307015
 20
-1.439878250186414
 30
0.0
  0
VERTEX
  5
373
330
371
100
AcDbEntity
  8
SDWC screw
370
     0
100
AcDbVertex
100
AcDb2dVertex
 10
1.488429608530623
 20
-1.433096819951174
 30
0.0
  0
VERTEX
  5
374
330
371
100
AcDbEntity
  8
SDWC screw
370
     0
100
AcDbVertex
100
AcDb2dVertex
 10
1.568327381554405
 20
-1.405785940505565
 30
0.0
  0
VERTEX
  5
375
330
371
100
AcDbEntity
  8
SDWC screw
370
     0
100
AcDbVertex
100
AcDb2dVertex
 10
1.55584075520806
 20
-1.398854068985252
 30
0.0
  0
SEQEND
  5
377
330
371
100
AcDbEntity
  8
SDWC screw
370
     0
  0
HATCH
  5
376
330
356
100
AcDbEntity
  8
SDWC screw
 62
   254
420
 16376262
100
AcDbHatch
 10
0.0
 20
0.0
 30
0.0
210
0.0
220
0.0
230
1.0
  2
SOLID
 70
     1
 71
     0
 91
        1
 92
        1
 93
        4
 72
     1
 10
1.498053993307015
 20
-1.439878250186414
 11
1.488429608530623
 21
-1.433096819951174
 72
     1
 10
1.488429608530623
 20
-1.433096819951174
 11
1.568327381554405
 21
-1.405785940505565
 72
     1
 10
1.568327381554405
 20
-1.405785940505565
 11
1.55584075520806
 21
-1.398854068985252
 72
     1
 10
1.55584075520806
 20
-1.398854068985252
 11
1.498053993307015
 21
-1.439878250186414
 97
        0
 75
     2
 76
     1
 98
        0
  0
POLYLINE
  5
378
330
356
100
AcDbEntity
  8
SDWC screw
370
     0
100
AcDb2dPolyline
 66
     1
 10
0.0
 20
0.0
 30
0.0
  0
VERTEX
  5
379
330
378
100
AcDbEntity
  8
SDWC screw
370
     0
100
AcDbVertex
100
AcDb2dVertex
 10
1.494059584314654
 20
-1.39584138581477
 30
0.0
  0
VERTEX
  5
37A
330
378
100
AcDbEntity
  8
SDWC screw
370
     0
100
AcDbVertex
100
AcDb2dVertex
 10
1.484435199538262
 20
-1.389096601533588
 30
0.0
  0
VERTEX
  5
37B
330
378
100
AcDbEntity
  8
SDWC screw
370
     0
100
AcDbVertex
100
AcDb2dVertex
 10
1.564354188741087
 20
-1.361785722087966
 30
0.0
  0
VERTEX
  5
37C
330
378
100
AcDbEntity
  8
SDWC screw
370
     0
100
AcDbVertex
100
AcDb2dVertex
 10
1.551828987707217
 20
-1.354855779302094
 30
0.0
  0
SEQEND
  5
37E
330
378
100
AcDbEntity
  8
SDWC screw
370
     0
  0
HATCH
  5
37D
330
356
100
AcDbEntity
  8
SDWC screw
 62
   254
420
 16376262
100
AcDbHatch
 10
0.0
 20
0.0
 30
0.0
210
0.0
220
0.0
230
1.0
  2
SOLID
 70
     1
 71
     0
 91
        1
 92
        1
 93
        4
 72
     1
 10
1.494059584314654
 20
-1.39584138581477
 11
1.484435199538262
 21
-1.389096601533588
 72
     1
 10
1.484435199538262
 20
-1.389096601533588
 11
1.564354188741087
 21
-1.361785722087966
 72
     1
 10
1.564354188741087
 20
-1.361785722087966
 11
1.551828987707217
 21
-1.354855779302094
 72
     1
 10
1.551828987707217
 20
-1.354855779302094
 11
1.494059584314654
 21
-1.39584138581477
 97
        0
 75
     2
 76
     1
 98
        0
  0
POLYLINE
  5
37F
330
356
100
AcDbEntity
  8
SDWC screw
370
     0
100
AcDb2dPolyline
 66
     1
 10
0.0
 20
0.0
 30
0.0
  0
VERTEX
  5
380
330
37F
100
AcDbEntity
  8
SDWC screw
370
     0
100
AcDbVertex
100
AcDb2dVertex
 10
1.496188907118873
 20
-1.350710929024621
 30
0.0
  0
VERTEX
  5
381
330
37F
100
AcDbEntity
  8
SDWC screw
370
     0
100
AcDbVertex
100
AcDb2dVertex
 10
1.486545234998251
 20
-1.343931427523835
 30
0.0
  0
VERTEX
  5
382
330
37F
100
AcDbEntity
  8
SDWC screw
370
     0
100
AcDbVertex
100
AcDb2dVertex
 10
1.56646422414777
 20
-1.316618619343798
 30
0.0
  0
VERTEX
  5
383
330
37F
100
AcDbEntity
  8
SDWC screw
370
     0
100
AcDbVertex
100
AcDb2dVertex
 10
1.553937094379535
 20
-1.309725322511945
 30
0.0
  0
SEQEND
  5
385
330
37F
100
AcDbEntity
  8
SDWC screw
370
     0
  0
HATCH
  5
384
330
356
100
AcDbEntity
  8
SDWC screw
 62
   254
420
 16376262
100
AcDbHatch
 10
0.0
 20
0.0
 30
0.0
210
0.0
220
0.0
230
1.0
  2
SOLID
 70
     1
 71
     0
 91
        1
 92
        1
 93
        4
 72
     1
 10
1.496188907118873
 20
-1.350710929024621
 11
1.486545234998251
 21
-1.343931427523835
 72
     1
 10
1.486545234998251
 20
-1.343931427523835
 11
1.56646422414777
 21
-1.316618619343798
 72
     1
 10
1.56646422414777
 20
-1.316618619343798
 11
1.553937094379535
 21
-1.309725322511945
 72
     1
 10
1.553937094379535
 20
-1.309725322511945
 11
1.496188907118873
 21
-1.350710929024621
 97
        0
 75
     2
 76
     1
 98
        0
  0
POLYLINE
  5
386
330
356
100
AcDbEntity
  8
SDWC screw
370
     0
100
AcDb2dPolyline
 66
     1
 10
0.0
 20
0.0
 30
0.0
  0
VERTEX
  5
387
330
386
100
AcDbEntity
  8
SDWC screw
370
     0
100
AcDbVertex
100
AcDb2dVertex
 10
1.495585213244137
 20
-1.307389625124339
 30
0.0
  0
VERTEX
  5
388
330
386
100
AcDbEntity
  8
SDWC screw
370
     0
100
AcDbVertex
100
AcDb2dVertex
 10
1.485960828467745
 20
-1.300610123623553
 30
0.0
  0
VERTEX
  5
389
330
386
100
AcDbEntity
  8
SDWC screw
370
     0
100
AcDbVertex
100
AcDb2dVertex
 10
1.565879817632018
 20
-1.273297315443491
 30
0.0
  0
VERTEX
  5
38A
330
386
100
AcDbEntity
  8
SDWC screw
370
     0
100
AcDbVertex
100
AcDb2dVertex
 10
1.553335329254398
 20
-1.266442593300149
 30
0.0
  0
SEQEND
  5
38C
330
386
100
AcDbEntity
  8
SDWC screw
370
     0
  0
HATCH
  5
38B
330
356
100
AcDbEntity
  8
SDWC screw
 62
   254
420
 16376262
100
AcDbHatch
 10
0.0
 20
0.0
 30
0.0
210
0.0
220
0.0
230
1.0
  2
SOLID
 70
     1
 71
     0
 91
        1
 92
        1
 93
        4
 72
     1
 10
1.495585213244137
 20
-1.307389625124339
 11
1.485960828467745
 21
-1.300610123623553
 72
     1
 10
1.485960828467745
 20
-1.300610123623553
 11
1.565879817632018
 21
-1.273297315443491
 72
     1
 10
1.565879817632018
 20
-1.273297315443491
 11
1.553335329254398
 21
-1.266442593300149
 72
     1
 10
1.553335329254398
 20
-1.266442593300149
 11
1.495585213244138
 21
-1.307389625124339
 97
        0
 75
     2
 76
     1
 98
        0
  0
POLYLINE
  5
38D
330
356
100
AcDbEntity
  8
SDWC screw
370
     0
100
AcDb2dPolyline
 66
     1
 10
0.0
 20
0.0
 30
0.0
  0
VERTEX
  5
38E
330
38D
100
AcDbEntity
  8
SDWC screw
370
     0
100
AcDbVertex
100
AcDb2dVertex
 10
1.497695248704127
 20
-1.262261097068631
 30
0.0
  0
VERTEX
  5
38F
330
38D
100
AcDbEntity
  8
SDWC screw
370
     0
100
AcDbVertex
100
AcDb2dVertex
 10
1.488051576583505
 20
-1.255443020879359
 30
0.0
  0
VERTEX
  5
390
330
38D
100
AcDbEntity
  8
SDWC screw
370
     0
100
AcDbVertex
100
AcDb2dVertex
 10
1.567989853038726
 20
-1.228130212699297
 30
0.0
  0
VERTEX
  5
391
330
38D
100
AcDbEntity
  8
SDWC screw
370
     0
100
AcDbVertex
100
AcDb2dVertex
 10
1.555445364661106
 20
-1.221275490555955
 30
0.0
  0
SEQEND
  5
393
330
38D
100
AcDbEntity
  8
SDWC screw
370
     0
  0
HATCH
  5
392
330
356
100
AcDbEntity
  8
SDWC screw
 62
   254
420
 16376262
100
AcDbHatch
 10
0.0
 20
0.0
 30
0.0
210
0.0
220
0.0
230
1.0
  2
SOLID
 70
     1
 71
     0
 91
        1
 92
        1
 93
        4
 72
     1
 10
1.497695248704127
 20
-1.262261097068631
 11
1.488051576583505
 21
-1.255443020879359
 72
     1
 10
1.488051576583505
 20
-1.255443020879359
 11
1.567989853038726
 21
-1.228130212699297
 72
     1
 10
1.567989853038726
 20
-1.228130212699297
 11
1.555445364661106
 21
-1.221275490555955
 72
     1
 10
1.555445364661106
 20
-1.221275490555955
 11
1.497695248704127
 21
-1.262261097068631
 97
        0
 75
     2
 76
     1
 98
        0
  0
POLYLINE
  5
394
330
356
100
AcDbEntity
  8
SDWC screw
370
     0
100
AcDb2dPolyline
 66
     1
 10
0.0
 20
0.0
 30
0.0
  0
VERTEX
  5
395
330
394
100
AcDbEntity
  8
SDWC screw
370
     0
100
AcDbVertex
100
AcDb2dVertex
 10
1.493702768446181
 20
-1.218224232696987
 30
0.0
  0
VERTEX
  5
396
330
394
100
AcDbEntity
  8
SDWC screw
370
     0
100
AcDbVertex
100
AcDb2dVertex
 10
1.484059096325558
 20
-1.211481377150246
 30
0.0
  0
VERTEX
  5
397
330
394
100
AcDbEntity
  8
SDWC screw
370
     0
100
AcDbVertex
100
AcDb2dVertex
 10
1.563958798194133
 20
-1.184168568970209
 30
0.0
  0
VERTEX
  5
398
330
394
100
AcDbEntity
  8
SDWC screw
370
     0
100
AcDbVertex
100
AcDb2dVertex
 10
1.551450955769648
 20
-1.177275272138382
 30
0.0
  0
SEQEND
  5
39A
330
394
100
AcDbEntity
  8
SDWC screw
370
     0
  0
HATCH
  5
399
330
356
100
AcDbEntity
  8
SDWC screw
 62
   254
420
 16376262
100
AcDbHatch
 10
0.0
 20
0.0
 30
0.0
210
0.0
220
0.0
230
1.0
  2
SOLID
 70
     1
 71
     0
 91
        1
 92
        1
 93
        4
 72
     1
 10
1.493702768446181
 20
-1.218224232696987
 11
1.484059096325558
 21
-1.211481377150246
 72
     1
 10
1.484059096325558
 20
-1.211481377150246
 11
1.563958798194133
 21
-1.184168568970209
 72
     1
 10
1.563958798194133
 20
-1.184168568970209
 11
1.551450955769648
 21
-1.177275272138382
 72
     1
 10
1.551450955769648
 20
-1.177275272138382
 11
1.493702768446181
 21
-1.218224232696987
 97
        0
 75
     2
 76
     1
 98
        0
  0
POLYLINE
  5
39B
330
356
100
AcDbEntity
  8
SDWC screw
370
     0
100
AcDb2dPolyline
 66
     1
 10
0.0
 20
0.0
 30
0.0
  0
VERTEX
  5
39C
330
39B
100
AcDbEntity
  8
SDWC screw
370
     0
100
AcDbVertex
100
AcDb2dVertex
 10
1.49581280390617
 20
-1.173093775906889
 30
0.0
  0
VERTEX
  5
39D
330
39B
100
AcDbEntity
  8
SDWC screw
370
     0
100
AcDbVertex
100
AcDb2dVertex
 10
1.486169131785548
 20
-1.166275699717567
 30
0.0
  0
VERTEX
  5
39E
330
39B
100
AcDbEntity
  8
SDWC screw
370
     0
100
AcDbVertex
100
AcDb2dVertex
 10
1.566086242649211
 20
-1.139040040914501
 30
0.0
  0
VERTEX
  5
39F
330
39B
100
AcDbEntity
  8
SDWC screw
370
     0
100
AcDbVertex
100
AcDb2dVertex
 10
1.553541703832581
 20
-1.132146744082699
 30
0.0
  0
SEQEND
  5
3A1
330
39B
100
AcDbEntity
  8
SDWC screw
370
     0
  0
HATCH
  5
3A0
330
356
100
AcDbEntity
  8
SDWC screw
 62
   254
420
 16376262
100
AcDbHatch
 10
0.0
 20
0.0
 30
0.0
210
0.0
220
0.0
230
1.0
  2
SOLID
 70
     1
 71
     0
 91
        1
 92
        1
 93
        4
 72
     1
 10
1.49581280390617
 20
-1.173093775906889
 11
1.486169131785548
 21
-1.166275699717567
 72
     1
 10
1.486169131785548
 20
-1.166275699717567
 11
1.566086242649211
 21
-1.139040040914501
 72
     1
 10
1.566086242649211
 20
-1.139040040914501
 11
1.553541703832581
 21
-1.132146744082699
 72
     1
 10
1.553541703832581
 20
-1.132146744082699
 11
1.49581280390617
 21
-1.173093775906889
 97
        0
 75
     2
 76
     1
 98
        0
  0
POLYLINE
  5
3A2
330
356
100
AcDbEntity
  8
SDWC screw
370
     0
100
AcDb2dPolyline
 66
     1
 10
0.0
 20
0.0
 30
0.0
  0
VERTEX
  5
3A3
330
3A2
100
AcDbEntity
  8
SDWC screw
370
     0
100
AcDbVertex
100
AcDb2dVertex
 10
1.493967005062283
 20
-1.125779991748636
 30
0.0
  0
VERTEX
  5
3A4
330
3A2
100
AcDbEntity
  8
SDWC screw
370
     0
100
AcDbVertex
100
AcDb2dVertex
 10
1.484304045597431
 20
-1.118961915559364
 30
0.0
  0
VERTEX
  5
3A5
330
3A2
100
AcDbEntity
  8
SDWC screw
370
     0
100
AcDbVertex
100
AcDb2dVertex
 10
1.564221106069176
 20
-1.091687682067813
 30
0.0
  0
VERTEX
  5
3A6
330
3A2
100
AcDbEntity
  8
SDWC screw
370
     0
100
AcDbVertex
100
AcDb2dVertex
 10
1.551715192379081
 20
-1.084757739281915
 30
0.0
  0
SEQEND
  5
3A8
330
3A2
100
AcDbEntity
  8
SDWC screw
370
     0
  0
HATCH
  5
3A7
330
356
100
AcDbEntity
  8
SDWC screw
 62
   254
420
 16376262
100
AcDbHatch
 10
0.0
 20
0.0
 30
0.0
210
0.0
220
0.0
230
1.0
  2
SOLID
 70
     1
 71
     0
 91
        1
 92
        1
 93
        4
 72
     1
 10
1.493967005062283
 20
-1.125779991748636
 11
1.484304045597431
 21
-1.118961915559364
 72
     1
 10
1.484304045597431
 20
-1.118961915559364
 11
1.564221106069176
 21
-1.091687682067812
 72
     1
 10
1.564221106069176
 20
-1.091687682067813
 11
1.551715192379081
 21
-1.084757739281915
 72
     1
 10
1.551715192379081
 20
-1.084757739281915
 11
1.493967005062283
 21
-1.125779991748636
 97
        0
 75
     2
 76
     1
 98
        0
  0
POLYLINE
  5
3A9
330
356
100
AcDbEntity
  8
SDWC screw
370
     0
100
AcDb2dPolyline
 66
     1
 10
0.0
 20
0.0
 30
0.0
  0
VERTEX
  5
3AA
330
3A9
100
AcDbEntity
  8
SDWC screw
370
     0
100
AcDbVertex
100
AcDb2dVertex
 10
1.496057753178042
 20
-1.080612889004442
 30
0.0
  0
VERTEX
  5
3AB
330
3A9
100
AcDbEntity
  8
SDWC screw
370
     0
100
AcDbVertex
100
AcDb2dVertex
 10
1.486414081057395
 20
-1.07379481281517
 30
0.0
  0
VERTEX
  5
3AC
330
3A9
100
AcDbEntity
  8
SDWC screw
370
     0
100
AcDbVertex
100
AcDb2dVertex
 10
1.566331141475858
 20
-1.046559154012104
 30
0.0
  0
VERTEX
  5
3AD
330
3A9
100
AcDbEntity
  8
SDWC screw
370
     0
100
AcDbVertex
100
AcDb2dVertex
 10
1.553825227785764
 20
-1.039627282491779
 30
0.0
  0
SEQEND
  5
3AF
330
3A9
100
AcDbEntity
  8
SDWC screw
370
     0
  0
HATCH
  5
3AE
330
356
100
AcDbEntity
  8
SDWC screw
 62
   254
420
 16376262
100
AcDbHatch
 10
0.0
 20
0.0
 30
0.0
210
0.0
220
0.0
230
1.0
  2
SOLID
 70
     1
 71
     0
 91
        1
 92
        1
 93
        4
 72
     1
 10
1.496057753178042
 20
-1.080612889004442
 11
1.486414081057395
 21
-1.07379481281517
 72
     1
 10
1.486414081057395
 20
-1.07379481281517
 11
1.566331141475858
 21
-1.046559154012104
 72
     1
 10
1.566331141475858
 20
-1.046559154012104
 11
1.553825227785764
 21
-1.039627282491779
 72
     1
 10
1.553825227785764
 20
-1.039627282491779
 11
1.496057753178042
 21
-1.080612889004442
 97
        0
 75
     2
 76
     1
 98
        0
  0
POLYLINE
  5
3B0
330
356
100
AcDbEntity
  8
SDWC screw
370
     0
100
AcDb2dPolyline
 66
     1
 10
0.0
 20
0.0
 30
0.0
  0
VERTEX
  5
3B1
330
3B0
100
AcDbEntity
  8
SDWC screw
370
     0
100
AcDbVertex
100
AcDb2dVertex
 10
1.492082631529911
 20
-1.036614599321297
 30
0.0
  0
VERTEX
  5
3B2
330
3B0
100
AcDbEntity
  8
SDWC screw
370
     0
100
AcDbVertex
100
AcDb2dVertex
 10
1.482438959409289
 20
-1.029813881741827
 30
0.0
  0
VERTEX
  5
3B3
330
3B0
100
AcDbEntity
  8
SDWC screw
370
     0
100
AcDbVertex
100
AcDb2dVertex
 10
1.562357948662541
 20
-1.002522289640423
 30
0.0
  0
VERTEX
  5
3B4
330
3B0
100
AcDbEntity
  8
SDWC screw
370
     0
100
AcDbVertex
100
AcDb2dVertex
 10
1.549830818894306
 20
-0.9955904181201352
 30
0.0
  0
SEQEND
  5
3B6
330
3B0
100
AcDbEntity
  8
SDWC screw
370
     0
  0
HATCH
  5
3B5
330
356
100
AcDbEntity
  8
SDWC screw
 62
   254
420
 16376262
100
AcDbHatch
 10
0.0
 20
0.0
 30
0.0
210
0.0
220
0.0
230
1.0
  2
SOLID
 70
     1
 71
     0
 91
        1
 92
        1
 93
        4
 72
     1
 10
1.492082631529911
 20
-1.036614599321297
 11
1.482438959409289
 21
-1.029813881741827
 72
     1
 10
1.482438959409289
 20
-1.029813881741827
 11
1.562357948662541
 21
-1.002522289640423
 72
     1
 10
1.562357948662541
 20
-1.002522289640423
 11
1.549830818894306
 21
-0.9955904181201353
 72
     1
 10
1.549830818894306
 20
-0.9955904181201352
 11
1.492082631529911
 21
-1.036614599321297
 97
        0
 75
     2
 76
     1
 98
        0
  0
POLYLINE
  5
3B7
330
356
100
AcDbEntity
  8
SDWC screw
370
     0
100
AcDb2dPolyline
 66
     1
 10
0.0
 20
0.0
 30
0.0
  0
VERTEX
  5
3B8
330
3B7
100
AcDbEntity
  8
SDWC screw
370
     0
100
AcDbVertex
100
AcDb2dVertex
 10
1.49415409230144
 20
-0.9914474965771154
 30
0.0
  0
VERTEX
  5
3B9
330
3B7
100
AcDbEntity
  8
SDWC screw
370
     0
100
AcDbVertex
100
AcDb2dVertex
 10
1.484529707525048
 20
-0.9846660663418889
 30
0.0
  0
VERTEX
  5
3BA
330
3B7
100
AcDbEntity
  8
SDWC screw
370
     0
100
AcDbVertex
100
AcDb2dVertex
 10
1.564448696725473
 20
-0.9573551868962795
 30
0.0
  0
VERTEX
  5
3BB
330
3B7
100
AcDbEntity
  8
SDWC screw
370
     0
100
AcDbVertex
100
AcDb2dVertex
 10
1.551940854300988
 20
-0.9504618900644396
 30
0.0
  0
SEQEND
  5
3BD
330
3B7
100
AcDbEntity
  8
SDWC screw
370
     0
  0
HATCH
  5
3BC
330
356
100
AcDbEntity
  8
SDWC screw
 62
   254
420
 16376262
100
AcDbHatch
 10
0.0
 20
0.0
 30
0.0
210
0.0
220
0.0
230
1.0
  2
SOLID
 70
     1
 71
     0
 91
        1
 92
        1
 93
        4
 72
     1
 10
1.49415409230144
 20
-0.9914474965771154
 11
1.484529707525048
 21
-0.9846660663418888
 72
     1
 10
1.484529707525048
 20
-0.9846660663418889
 11
1.564448696725473
 21
-0.9573551868962795
 72
     1
 10
1.564448696725473
 20
-0.9573551868962795
 11
1.551940854300988
 21
-0.9504618900644396
 72
     1
 10
1.551940854300988
 20
-0.9504618900644396
 11
1.49415409230144
 21
-0.9914474965771155
 97
        0
 75
     2
 76
     1
 98
        0
  0
POLYLINE
  5
3BE
330
356
100
AcDbEntity
  8
SDWC screw
370
     0
100
AcDb2dPolyline
 66
     1
 10
0.0
 20
0.0
 30
0.0
  0
VERTEX
  5
3BF
330
3BE
100
AcDbEntity
  8
SDWC screw
370
     0
100
AcDbVertex
100
AcDb2dVertex
 10
1.493588973115165
 20
-0.9481261926768082
 30
0.0
  0
VERTEX
  5
3C0
330
3BE
100
AcDbEntity
  8
SDWC screw
370
     0
100
AcDbVertex
100
AcDb2dVertex
 10
1.483964588338772
 20
-0.9413447624415817
 30
0.0
  0
VERTEX
  5
3C1
330
3BE
100
AcDbEntity
  8
SDWC screw
370
     0
100
AcDbVertex
100
AcDb2dVertex
 10
1.563864290209722
 20
-0.9140531703402277
 30
0.0
  0
VERTEX
  5
3C2
330
3BE
100
AcDbEntity
  8
SDWC screw
370
     0
100
AcDbVertex
100
AcDb2dVertex
 10
1.551319801832127
 20
-0.9071772321181772
 30
0.0
  0
SEQEND
  5
3C4
330
3BE
100
AcDbEntity
  8
SDWC screw
370
     0
  0
HATCH
  5
3C3
330
356
100
AcDbEntity
  8
SDWC screw
 62
   254
420
 16376262
100
AcDbHatch
 10
0.0
 20
0.0
 30
0.0
210
0.0
220
0.0
230
1.0
  2
SOLID
 70
     1
 71
     0
 91
        1
 92
        1
 93
        4
 72
     1
 10
1.493588973115165
 20
-0.9481261926768082
 11
1.483964588338773
 21
-0.9413447624415816
 72
     1
 10
1.483964588338772
 20
-0.9413447624415817
 11
1.563864290209722
 21
-0.9140531703402277
 72
     1
 10
1.563864290209722
 20
-0.9140531703402277
 11
1.551319801832127
 21
-0.9071772321181772
 72
     1
 10
1.551319801832127
 20
-0.9071772321181772
 11
1.493588973115165
 21
-0.9481261926768082
 97
        0
 75
     2
 76
     1
 98
        0
  0
POLYLINE
  5
3C5
330
356
100
AcDbEntity
  8
SDWC screw
370
     0
100
AcDb2dPolyline
 66
     1
 10
0.0
 20
0.0
 30
0.0
  0
VERTEX
  5
3C6
330
3C5
100
AcDbEntity
  8
SDWC screw
370
     0
100
AcDbVertex
100
AcDb2dVertex
 10
1.495679721230898
 20
-0.902959089932627
 30
0.0
  0
VERTEX
  5
3C7
330
3C5
100
AcDbEntity
  8
SDWC screw
370
     0
100
AcDbVertex
100
AcDb2dVertex
 10
1.486055336454531
 20
-0.8961776596974005
 30
0.0
  0
VERTEX
  5
3C8
330
3C5
100
AcDbEntity
  8
SDWC screw
370
     0
100
AcDbVertex
100
AcDb2dVertex
 10
1.565955038272654
 20
-0.8689034262058359
 30
0.0
  0
VERTEX
  5
3C9
330
3C5
100
AcDbEntity
  8
SDWC screw
370
     0
100
AcDbVertex
100
AcDb2dVertex
 10
1.553447195848195
 20
-0.8620101293740339
 30
0.0
  0
SEQEND
  5
3CB
330
3C5
100
AcDbEntity
  8
SDWC screw
370
     0
  0
HATCH
  5
3CA
330
356
100
AcDbEntity
  8
SDWC screw
 62
   254
420
 16376262
100
AcDbHatch
 10
0.0
 20
0.0
 30
0.0
210
0.0
220
0.0
230
1.0
  2
SOLID
 70
     1
 71
     0
 91
        1
 92
        1
 93
        4
 72
     1
 10
1.495679721230898
 20
-0.902959089932627
 11
1.486055336454531
 21
-0.8961776596974004
 72
     1
 10
1.486055336454531
 20
-0.8961776596974005
 11
1.565955038272654
 21
-0.8689034262058359
 72
     1
 10
1.565955038272654
 20
-0.8689034262058359
 11
1.553447195848195
 21
-0.8620101293740339
 72
     1
 10
1.553447195848195
 20
-0.8620101293740339
 11
1.495679721230898
 21
-0.902959089932627
 97
        0
 75
     2
 76
     1
 98
        0
  0
POLYLINE
  5
3CC
330
356
100
AcDbEntity
  8
SDWC screw
370
     0
100
AcDb2dPolyline
 66
     1
 10
0.0
 20
0.0
 30
0.0
  0
VERTEX
  5
3CD
330
3CC
100
AcDbEntity
  8
SDWC screw
370
     0
100
AcDbVertex
100
AcDb2dVertex
 10
1.491667953628747
 20
-0.8589974462035267
 30
0.0
  0
VERTEX
  5
3CE
330
3CC
100
AcDbEntity
  8
SDWC screw
370
     0
100
AcDbVertex
100
AcDb2dVertex
 10
1.48204356885233
 20
-0.8521967286240447
 30
0.0
  0
VERTEX
  5
3CF
330
3CC
100
AcDbEntity
  8
SDWC screw
370
     0
100
AcDbVertex
100
AcDb2dVertex
 10
1.561962558115586
 20
-0.8249051365226907
 30
0.0
  0
VERTEX
  5
3D0
330
3CC
100
AcDbEntity
  8
SDWC screw
370
     0
100
AcDbVertex
100
AcDb2dVertex
 10
1.549454715691101
 20
-0.8180118396908508
 30
0.0
  0
SEQEND
  5
3D2
330
3CC
100
AcDbEntity
  8
SDWC screw
370
     0
  0
HATCH
  5
3D1
330
356
100
AcDbEntity
  8
SDWC screw
 62
   254
420
 16376262
100
AcDbHatch
 10
0.0
 20
0.0
 30
0.0
210
0.0
220
0.0
230
1.0
  2
SOLID
 70
     1
 71
     0
 91
        1
 92
        1
 93
        4
 72
     1
 10
1.491667953628747
 20
-0.8589974462035267
 11
1.48204356885233
 21
-0.8521967286240447
 72
     1
 10
1.48204356885233
 20
-0.8521967286240447
 11
1.561962558115586
 21
-0.8249051365226907
 72
     1
 10
1.561962558115586
 20
-0.8249051365226907
 11
1.549454715691101
 21
-0.8180118396908508
 72
     1
 10
1.549454715691101
 20
-0.8180118396908508
 11
1.491667953628747
 21
-0.8589974462035267
 97
        0
 75
     2
 76
     1
 98
        0
  0
POLYLINE
  5
3D3
330
356
100
AcDbEntity
  8
SDWC screw
370
     0
100
AcDb2dPolyline
 66
     1
 10
0.0
 20
0.0
 30
0.0
  0
VERTEX
  5
3D4
330
3D3
100
AcDbEntity
  8
SDWC screw
370
     0
100
AcDbVertex
100
AcDb2dVertex
 10
1.493777989088711
 20
-0.8138303434593328
 30
0.0
  0
VERTEX
  5
3D5
330
3D3
100
AcDbEntity
  8
SDWC screw
370
     0
100
AcDbVertex
100
AcDb2dVertex
 10
1.484170962922146
 20
-0.8070489132241062
 30
0.0
  0
VERTEX
  5
3D6
330
3D3
100
AcDbEntity
  8
SDWC screw
370
     0
100
AcDbVertex
100
AcDb2dVertex
 10
1.564070664787904
 20
-0.7797380337784968
 30
0.0
  0
VERTEX
  5
3D7
330
3D3
100
AcDbEntity
  8
SDWC screw
370
     0
100
AcDbVertex
100
AcDb2dVertex
 10
1.551526176410284
 20
-0.7728640242908997
 30
0.0
  0
SEQEND
  5
3D9
330
3D3
100
AcDbEntity
  8
SDWC screw
370
     0
  0
HATCH
  5
3D8
330
356
100
AcDbEntity
  8
SDWC screw
 62
   254
420
 16376262
100
AcDbHatch
 10
0.0
 20
0.0
 30
0.0
210
0.0
220
0.0
230
1.0
  2
SOLID
 70
     1
 71
     0
 91
        1
 92
        1
 93
        4
 72
     1
 10
1.493777989088711
 20
-0.8138303434593328
 11
1.484170962922147
 21
-0.8070489132241062
 72
     1
 10
1.484170962922146
 20
-0.8070489132241062
 11
1.564070664787904
 21
-0.7797380337784968
 72
     1
 10
1.564070664787904
 20
-0.7797380337784968
 11
1.551526176410284
 21
-0.7728640242908997
 72
     1
 10
1.551526176410284
 20
-0.7728640242908997
 11
1.493777989088711
 21
-0.8138303434593328
 97
        0
 75
     2
 76
     1
 98
        0
  0
POLYLINE
  5
3DA
330
356
100
AcDbEntity
  8
SDWC screw
370
     0
100
AcDb2dPolyline
 66
     1
 10
0.0
 20
0.0
 30
0.0
  0
VERTEX
  5
3DB
330
3DA
100
AcDbEntity
  8
SDWC screw
370
     0
100
AcDbVertex
100
AcDb2dVertex
 10
1.491631307674677
 20
-0.7686998866692344
 30
0.0
  0
VERTEX
  5
3DC
330
3DA
100
AcDbEntity
  8
SDWC screw
370
     0
100
AcDbVertex
100
AcDb2dVertex
 10
1.481987635554055
 20
-0.7619203851684107
 30
0.0
  0
VERTEX
  5
3DD
330
3DA
100
AcDbEntity
  8
SDWC screw
370
     0
100
AcDbVertex
100
AcDb2dVertex
 10
1.56188540874056
 20
-0.7346461516768461
 30
0.0
  0
VERTEX
  5
3DE
330
3DA
100
AcDbEntity
  8
SDWC screw
370
     0
100
AcDbVertex
100
AcDb2dVertex
 10
1.549379495050466
 20
-0.7277528548450442
 30
0.0
  0
SEQEND
  5
3E0
330
3DA
100
AcDbEntity
  8
SDWC screw
370
     0
  0
HATCH
  5
3DF
330
356
100
AcDbEntity
  8
SDWC screw
 62
   254
420
 16376262
100
AcDbHatch
 10
0.0
 20
0.0
 30
0.0
210
0.0
220
0.0
230
1.0
  2
SOLID
 70
     1
 71
     0
 91
        1
 92
        1
 93
        4
 72
     1
 10
1.491631307674677
 20
-0.7686998866692344
 11
1.481987635554055
 21
-0.7619203851684107
 72
     1
 10
1.481987635554055
 20
-0.7619203851684107
 11
1.56188540874056
 21
-0.7346461516768461
 72
     1
 10
1.56188540874056
 20
-0.7346461516768461
 11
1.549379495050466
 21
-0.727752854845044
 72
     1
 10
1.549379495050466
 20
-0.7277528548450442
 11
1.491631307674677
 21
-0.7686998866692344
 97
        0
 75
     2
 76
     1
 98
        0
  0
POLYLINE
  5
3E1
330
356
100
AcDbEntity
  8
SDWC screw
370
     0
100
AcDb2dPolyline
 66
     1
 10
0.0
 20
0.0
 30
0.0
  0
VERTEX
  5
3E2
330
3E1
100
AcDbEntity
  8
SDWC screw
370
     0
100
AcDbVertex
100
AcDb2dVertex
 10
1.493739414400251
 20
-0.723552071269296
 30
0.0
  0
VERTEX
  5
3E3
330
3E1
100
AcDbEntity
  8
SDWC screw
370
     0
100
AcDbVertex
100
AcDb2dVertex
 10
1.484095742279603
 20
-0.7167706410340694
 30
0.0
  0
VERTEX
  5
3E4
330
3E1
100
AcDbEntity
  8
SDWC screw
370
     0
100
AcDbVertex
100
AcDb2dVertex
 10
1.564014731491018
 20
-0.6894790489326649
 30
0.0
  0
VERTEX
  5
3E5
330
3E1
100
AcDbEntity
  8
SDWC screw
370
     0
100
AcDbVertex
100
AcDb2dVertex
 10
1.551489530457148
 20
-0.6825857521008629
 30
0.0
  0
SEQEND
  5
3E7
330
3E1
100
AcDbEntity
  8
SDWC screw
370
     0
  0
HATCH
  5
3E6
330
356
100
AcDbEntity
  8
SDWC screw
 62
   254
420
 16376262
100
AcDbHatch
 10
0.0
 20
0.0
 30
0.0
210
0.0
220
0.0
230
1.0
  2
SOLID
 70
     1
 71
     0
 91
        1
 92
        1
 93
        4
 72
     1
 10
1.493739414400251
 20
-0.723552071269296
 11
1.484095742279604
 21
-0.7167706410340694
 72
     1
 10
1.484095742279603
 20
-0.7167706410340694
 11
1.564014731491018
 21
-0.6894790489326649
 72
     1
 10
1.564014731491018
 20
-0.6894790489326649
 11
1.551489530457148
 21
-0.6825857521008628
 72
     1
 10
1.551489530457148
 20
-0.6825857521008629
 11
1.493739414400251
 21
-0.723552071269296
 97
        0
 75
     2
 76
     1
 98
        0
  0
POLYLINE
  5
3E8
330
356
100
AcDbEntity
  8
SDWC screw
370
     0
100
AcDb2dPolyline
 66
     1
 10
0.0
 20
0.0
 30
0.0
  0
VERTEX
  5
3E9
330
3E8
100
AcDbEntity
  8
SDWC screw
370
     0
100
AcDbVertex
100
AcDb2dVertex
 10
1.489746934142305
 20
-0.6795344942418953
 30
0.0
  0
VERTEX
  5
3EA
330
3E8
100
AcDbEntity
  8
SDWC screw
370
     0
100
AcDbVertex
100
AcDb2dVertex
 10
1.480141836710168
 20
-0.6727530640066687
 30
0.0
  0
VERTEX
  5
3EB
330
3E8
100
AcDbEntity
  8
SDWC screw
370
     0
100
AcDbVertex
100
AcDb2dVertex
 10
1.56003960994331
 20
-0.645480759249507
 30
0.0
  0
VERTEX
  5
3EC
330
3E8
100
AcDbEntity
  8
SDWC screw
370
     0
100
AcDbVertex
100
AcDb2dVertex
 10
1.54749705030008
 20
-0.6385855336832643
 30
0.0
  0
SEQEND
  5
3EE
330
3E8
100
AcDbEntity
  8
SDWC screw
370
     0
  0
HATCH
  5
3ED
330
356
100
AcDbEntity
  8
SDWC screw
 62
   254
420
 16376262
100
AcDbHatch
 10
0.0
 20
0.0
 30
0.0
210
0.0
220
0.0
230
1.0
  2
SOLID
 70
     1
 71
     0
 91
        1
 92
        1
 93
        4
 72
     1
 10
1.489746934142305
 20
-0.6795344942418953
 11
1.480141836710168
 21
-0.6727530640066687
 72
     1
 10
1.480141836710168
 20
-0.6727530640066687
 11
1.56003960994331
 21
-0.645480759249507
 72
     1
 10
1.56003960994331
 20
-0.645480759249507
 11
1.54749705030008
 21
-0.6385855336832643
 72
     1
 10
1.54749705030008
 20
-0.6385855336832643
 11
1.489746934142305
 21
-0.6795344942418953
 97
        0
 75
     2
 76
     1
 98
        0
  0
POLYLINE
  5
3EF
330
356
100
AcDbEntity
  8
SDWC screw
370
     0
100
AcDb2dPolyline
 66
     1
 10
0.0
 20
0.0
 30
0.0
  0
VERTEX
  5
3F0
330
3EF
100
AcDbEntity
  8
SDWC screw
370
     0
100
AcDbVertex
100
AcDb2dVertex
 10
1.491837682258039
 20
-0.634404037451759
 30
0.0
  0
VERTEX
  5
3F1
330
3EF
100
AcDbEntity
  8
SDWC screw
370
     0
100
AcDbVertex
100
AcDb2dVertex
 10
1.482213297481672
 20
-0.6276052486067303
 30
0.0
  0
VERTEX
  5
3F2
330
3EF
100
AcDbEntity
  8
SDWC screw
370
     0
100
AcDbVertex
100
AcDb2dVertex
 10
1.562130358006243
 20
-0.6003136565053258
 30
0.0
  0
VERTEX
  5
3F3
330
3EF
100
AcDbEntity
  8
SDWC screw
370
     0
100
AcDbVertex
100
AcDb2dVertex
 10
1.549605156972373
 20
-0.5934377182833259
 30
0.0
  0
SEQEND
  5
3F5
330
3EF
100
AcDbEntity
  8
SDWC screw
370
     0
  0
HATCH
  5
3F4
330
356
100
AcDbEntity
  8
SDWC screw
 62
   254
420
 16376262
100
AcDbHatch
 10
0.0
 20
0.0
 30
0.0
210
0.0
220
0.0
230
1.0
  2
SOLID
 70
     1
 71
     0
 91
        1
 92
        1
 93
        4
 72
     1
 10
1.491837682258039
 20
-0.634404037451759
 11
1.482213297481672
 21
-0.6276052486067303
 72
     1
 10
1.482213297481672
 20
-0.6276052486067303
 11
1.562130358006243
 21
-0.6003136565053258
 72
     1
 10
1.562130358006243
 20
-0.6003136565053258
 11
1.549605156972373
 21
-0.5934377182833258
 72
     1
 10
1.549605156972373
 20
-0.5934377182833259
 11
1.491837682258038
 21
-0.634404037451759
 97
        0
 75
     2
 76
     1
 98
        0
  0
POLYLINE
  5
3F6
330
356
100
AcDbEntity
  8
SDWC screw
370
     0
100
AcDb2dPolyline
 66
     1
 10
0.0
 20
0.0
 30
0.0
  0
VERTEX
  5
3F7
330
3F6
100
AcDbEntity
  8
SDWC screw
370
     0
100
AcDbVertex
100
AcDb2dVertex
 10
1.491253275727533
 20
-0.5911213082399374
 30
0.0
  0
VERTEX
  5
3F8
330
3F6
100
AcDbEntity
  8
SDWC screw
370
     0
100
AcDbVertex
100
AcDb2dVertex
 10
1.481609603606911
 20
-0.5843398780047234
 30
0.0
  0
VERTEX
  5
3F9
330
3F6
100
AcDbEntity
  8
SDWC screw
370
     0
100
AcDbVertex
100
AcDb2dVertex
 10
1.561528592881106
 20
-0.557028998559114
 30
0.0
  0
VERTEX
  5
3FA
330
3F6
100
AcDbEntity
  8
SDWC screw
370
     0
100
AcDbVertex
100
AcDb2dVertex
 10
1.549003391847261
 20
-0.5501164143830187
 30
0.0
  0
SEQEND
  5
3FC
330
3F6
100
AcDbEntity
  8
SDWC screw
370
     0
  0
HATCH
  5
3FB
330
356
100
AcDbEntity
  8
SDWC screw
 62
   254
420
 16376262
100
AcDbHatch
 10
0.0
 20
0.0
 30
0.0
210
0.0
220
0.0
230
1.0
  2
SOLID
 70
     1
 71
     0
 91
        1
 92
        1
 93
        4
 72
     1
 10
1.491253275727533
 20
-0.5911213082399374
 11
1.481609603606911
 21
-0.5843398780047234
 72
     1
 10
1.481609603606911
 20
-0.5843398780047234
 11
1.561528592881106
 21
-0.557028998559114
 72
     1
 10
1.561528592881106
 20
-0.557028998559114
 11
1.549003391847262
 21
-0.5501164143830187
 72
     1
 10
1.549003391847261
 20
-0.5501164143830187
 11
1.491253275727533
 21
-0.5911213082399375
 97
        0
 75
     2
 76
     1
 98
        0
  0
POLYLINE
  5
3FD
330
356
100
AcDbEntity
  8
SDWC screw
370
     0
100
AcDb2dPolyline
 66
     1
 10
0.0
 20
0.0
 30
0.0
  0
VERTEX
  5
3FE
330
3FD
100
AcDbEntity
  8
SDWC screw
370
     0
100
AcDbVertex
100
AcDb2dVertex
 10
1.493363311187522
 20
-0.5459542054957561
 30
0.0
  0
VERTEX
  5
3FF
330
3FD
100
AcDbEntity
  8
SDWC screw
370
     0
100
AcDbVertex
100
AcDb2dVertex
 10
1.48370035172267
 20
-0.5391727752605295
 30
0.0
  0
VERTEX
  5
400
330
3FD
100
AcDbEntity
  8
SDWC screw
370
     0
100
AcDbVertex
100
AcDb2dVertex
 10
1.563619340944064
 20
-0.5118811831591503
 30
0.0
  0
VERTEX
  5
401
330
3FD
100
AcDbEntity
  8
SDWC screw
370
     0
100
AcDbVertex
100
AcDb2dVertex
 10
1.551113427253944
 20
-0.5049589553109526
 30
0.0
  0
SEQEND
  5
403
330
3FD
100
AcDbEntity
  8
SDWC screw
370
     0
  0
HATCH
  5
402
330
356
100
AcDbEntity
  8
SDWC screw
 62
   254
420
 16376262
100
AcDbHatch
 10
0.0
 20
0.0
 30
0.0
210
0.0
220
0.0
230
1.0
  2
SOLID
 70
     1
 71
     0
 91
        1
 92
        1
 93
        4
 72
     1
 10
1.493363311187522
 20
-0.5459542054957561
 11
1.48370035172267
 21
-0.5391727752605295
 72
     1
 10
1.48370035172267
 20
-0.5391727752605295
 11
1.563619340944064
 21
-0.5118811831591503
 72
     1
 10
1.563619340944064
 20
-0.5118811831591503
 11
1.551113427253944
 21
-0.5049589553109525
 72
     1
 10
1.551113427253944
 20
-0.5049589553109526
 11
1.493363311187522
 21
-0.5459542054957562
 97
        0
 75
     2
 76
     1
 98
        0
  0
POLYLINE
  5
404
330
356
100
AcDbEntity
  8
SDWC screw
370
     0
100
AcDb2dPolyline
 66
     1
 10
0.0
 20
0.0
 30
0.0
  0
VERTEX
  5
405
330
404
100
AcDbEntity
  8
SDWC screw
370
     0
100
AcDbVertex
100
AcDb2dVertex
 10
1.489370830929589
 20
-0.5019559158126109
 30
0.0
  0
VERTEX
  5
406
330
404
100
AcDbEntity
  8
SDWC screw
370
     0
100
AcDbVertex
100
AcDb2dVertex
 10
1.479727158808954
 20
-0.4951744855773844
 30
0.0
  0
VERTEX
  5
407
330
404
100
AcDbEntity
  8
SDWC screw
370
     0
100
AcDbVertex
100
AcDb2dVertex
 10
1.559663557016872
 20
-0.4678906084136921
 30
0.0
  0
VERTEX
  5
408
330
404
100
AcDbEntity
  8
SDWC screw
370
     0
100
AcDbVertex
100
AcDb2dVertex
 10
1.547119018362486
 20
-0.460970309299935
 30
0.0
  0
SEQEND
  5
40A
330
404
100
AcDbEntity
  8
SDWC screw
370
     0
  0
HATCH
  5
409
330
356
100
AcDbEntity
  8
SDWC screw
 62
   254
420
 16376262
100
AcDbHatch
 10
0.0
 20
0.0
 30
0.0
210
0.0
220
0.0
230
1.0
  2
SOLID
 70
     1
 71
     0
 91
        1
 92
        1
 93
        4
 72
     1
 10
1.489370830929589
 20
-0.5019559158126109
 11
1.479727158808954
 21
-0.4951744855773844
 72
     1
 10
1.479727158808954
 20
-0.4951744855773844
 11
1.559663557016873
 21
-0.4678906084136921
 72
     1
 10
1.559663557016872
 20
-0.4678906084136921
 11
1.547119018362486
 21
-0.460970309299935
 72
     1
 10
1.547119018362486
 20
-0.460970309299935
 11
1.489370830929589
 21
-0.5019559158126109
 97
        0
 75
     2
 76
     1
 98
        0
  0
POLYLINE
  5
40B
330
356
100
AcDbEntity
  8
SDWC screw
370
     0
100
AcDb2dPolyline
 66
     1
 10
0.0
 20
0.0
 30
0.0
  0
VERTEX
  5
40C
330
40B
100
AcDbEntity
  8
SDWC screw
370
     0
100
AcDbVertex
100
AcDb2dVertex
 10
1.491442291701105
 20
-0.456788813068417
 30
0.0
  0
VERTEX
  5
40D
330
40B
100
AcDbEntity
  8
SDWC screw
370
     0
100
AcDbVertex
100
AcDb2dVertex
 10
1.481837194268943
 20
-0.4500073828331905
 30
0.0
  0
VERTEX
  5
40E
330
40B
100
AcDbEntity
  8
SDWC screw
370
     0
100
AcDbVertex
100
AcDb2dVertex
 10
1.561734967459289
 20
-0.4227235056695109
 30
0.0
  0
VERTEX
  5
40F
330
40B
100
AcDbEntity
  8
SDWC screw
370
     0
100
AcDbVertex
100
AcDb2dVertex
 10
1.549190529093873
 20
-0.4158398525097861
 30
0.0
  0
SEQEND
  5
411
330
40B
100
AcDbEntity
  8
SDWC screw
370
     0
  0
HATCH
  5
410
330
356
100
AcDbEntity
  8
SDWC screw
 62
   254
420
 16376262
100
AcDbHatch
 10
0.0
 20
0.0
 30
0.0
210
0.0
220
0.0
230
1.0
  2
SOLID
 70
     1
 71
     0
 91
        1
 92
        1
 93
        4
 72
     1
 10
1.491442291701105
 20
-0.456788813068417
 11
1.481837194268943
 21
-0.4500073828331905
 72
     1
 10
1.481837194268943
 20
-0.4500073828331905
 11
1.561734967459289
 21
-0.4227235056695109
 72
     1
 10
1.561734967459289
 20
-0.4227235056695109
 11
1.549190529093873
 21
-0.4158398525097861
 72
     1
 10
1.549190529093873
 20
-0.4158398525097861
 11
1.491442291701105
 21
-0.456788813068417
 97
        0
 75
     2
 76
     1
 98
        0
  0
POLYLINE
  5
412
330
356
100
AcDbEntity
  8
SDWC screw
370
     0
100
AcDb2dPolyline
 66
     1
 10
0.0
 20
0.0
 30
0.0
  0
VERTEX
  5
413
330
412
100
AcDbEntity
  8
SDWC screw
370
     0
100
AcDbVertex
100
AcDb2dVertex
 10
1.489596492857219
 20
-0.409473100175761
 30
0.0
  0
VERTEX
  5
414
330
412
100
AcDbEntity
  8
SDWC screw
370
     0
100
AcDbVertex
100
AcDb2dVertex
 10
1.479991395425082
 20
-0.4027032423470649
 30
0.0
  0
VERTEX
  5
415
330
412
100
AcDbEntity
  8
SDWC screw
370
     0
100
AcDbVertex
100
AcDb2dVertex
 10
1.559889168662039
 20
-0.3754000778391552
 30
0.0
  0
VERTEX
  5
416
330
412
100
AcDbEntity
  8
SDWC screw
370
     0
100
AcDbVertex
100
AcDb2dVertex
 10
1.547383254971919
 20
-0.3684874936630851
 30
0.0
  0
SEQEND
  5
418
330
412
100
AcDbEntity
  8
SDWC screw
370
     0
  0
HATCH
  5
417
330
356
100
AcDbEntity
  8
SDWC screw
 62
   254
420
 16376262
100
AcDbHatch
 10
0.0
 20
0.0
 30
0.0
210
0.0
220
0.0
230
1.0
  2
SOLID
 70
     1
 71
     0
 91
        1
 92
        1
 93
        4
 72
     1
 10
1.489596492857219
 20
-0.409473100175761
 11
1.479991395425082
 21
-0.4027032423470649
 72
     1
 10
1.479991395425082
 20
-0.4027032423470649
 11
1.559889168662039
 21
-0.3754000778391552
 72
     1
 10
1.559889168662039
 20
-0.3754000778391552
 11
1.547383254971919
 21
-0.3684874936630851
 72
     1
 10
1.547383254971919
 20
-0.3684874936630851
 11
1.489596492857219
 21
-0.409473100175761
 97
        0
 75
     2
 76
     1
 98
        0
  0
POLYLINE
  5
419
330
356
100
AcDbEntity
  8
SDWC screw
370
     0
100
AcDb2dPolyline
 66
     1
 10
0.0
 20
0.0
 30
0.0
  0
VERTEX
  5
41A
330
419
100
AcDbEntity
  8
SDWC screw
370
     0
100
AcDbVertex
100
AcDb2dVertex
 10
1.491706528317208
 20
-0.3643156411036949
 30
0.0
  0
VERTEX
  5
41B
330
419
100
AcDbEntity
  8
SDWC screw
370
     0
100
AcDbVertex
100
AcDb2dVertex
 10
1.48209950215063
 20
-0.3575361396028837
 30
0.0
  0
VERTEX
  5
41C
330
419
100
AcDbEntity
  8
SDWC screw
370
     0
100
AcDbVertex
100
AcDb2dVertex
 10
1.561999204068722
 20
-0.330232975094974
 30
0.0
  0
VERTEX
  5
41D
330
419
100
AcDbEntity
  8
SDWC screw
370
     0
100
AcDbVertex
100
AcDb2dVertex
 10
1.549474003034851
 20
-0.3233203909189039
 30
0.0
  0
SEQEND
  5
41F
330
419
100
AcDbEntity
  8
SDWC screw
370
     0
  0
HATCH
  5
41E
330
356
100
AcDbEntity
  8
SDWC screw
 62
   254
420
 16376262
100
AcDbHatch
 10
0.0
 20
0.0
 30
0.0
210
0.0
220
0.0
230
1.0
  2
SOLID
 70
     1
 71
     0
 91
        1
 92
        1
 93
        4
 72
     1
 10
1.491706528317208
 20
-0.3643156411036949
 11
1.48209950215063
 21
-0.3575361396028837
 72
     1
 10
1.48209950215063
 20
-0.3575361396028837
 11
1.561999204068722
 21
-0.330232975094974
 72
     1
 10
1.561999204068722
 20
-0.330232975094974
 11
1.549474003034851
 21
-0.3233203909189039
 72
     1
 10
1.549474003034851
 20
-0.3233203909189039
 11
1.491706528317208
 21
-0.3643156411036949
 97
        0
 75
     2
 76
     1
 98
        0
  0
POLYLINE
  5
420
330
356
100
AcDbEntity
  8
SDWC screw
370
     0
100
AcDb2dPolyline
 66
     1
 10
0.0
 20
0.0
 30
0.0
  0
VERTEX
  5
421
330
420
100
AcDbEntity
  8
SDWC screw
370
     0
100
AcDbVertex
100
AcDb2dVertex
 10
1.487731406669102
 20
-0.3202980640762815
 30
0.0
  0
VERTEX
  5
422
330
420
100
AcDbEntity
  8
SDWC screw
370
     0
100
AcDbVertex
100
AcDb2dVertex
 10
1.478068447204224
 20
-0.3135262775131827
 30
0.0
  0
VERTEX
  5
423
330
420
100
AcDbEntity
  8
SDWC screw
370
     0
100
AcDbVertex
100
AcDb2dVertex
 10
1.558006723911628
 20
-0.2862443290839186
 30
0.0
  0
VERTEX
  5
424
330
420
100
AcDbEntity
  8
SDWC screw
370
     0
100
AcDbVertex
100
AcDb2dVertex
 10
1.545481522877784
 20
-0.2793317449078485
 30
0.0
  0
SEQEND
  5
426
330
420
100
AcDbEntity
  8
SDWC screw
370
     0
  0
HATCH
  5
425
330
356
100
AcDbEntity
  8
SDWC screw
 62
   254
420
 16376262
100
AcDbHatch
 10
0.0
 20
0.0
 30
0.0
210
0.0
220
0.0
230
1.0
  2
SOLID
 70
     1
 71
     0
 91
        1
 92
        1
 93
        4
 72
     1
 10
1.487731406669102
 20
-0.3202980640762815
 11
1.478068447204224
 21
-0.3135262775131827
 72
     1
 10
1.478068447204224
 20
-0.3135262775131827
 11
1.558006723911629
 21
-0.2862443290839186
 72
     1
 10
1.558006723911628
 20
-0.2862443290839186
 11
1.545481522877784
 21
-0.2793317449078485
 72
     1
 10
1.545481522877784
 20
-0.2793317449078485
 11
1.487731406669102
 21
-0.3202980640762815
 97
        0
 75
     2
 76
     1
 98
        0
  0
POLYLINE
  5
427
330
356
100
AcDbEntity
  8
SDWC screw
370
     0
100
AcDb2dPolyline
 66
     1
 10
0.0
 20
0.0
 30
0.0
  0
VERTEX
  5
428
330
427
100
AcDbEntity
  8
SDWC screw
370
     0
100
AcDbVertex
100
AcDb2dVertex
 10
1.489822154784835
 20
-0.275140605004228
 30
0.0
  0
VERTEX
  5
429
330
427
100
AcDbEntity
  8
SDWC screw
370
     0
100
AcDbVertex
100
AcDb2dVertex
 10
1.480178482664213
 20
-0.2683591747690015
 30
0.0
  0
VERTEX
  5
42A
330
427
100
AcDbEntity
  8
SDWC screw
370
     0
100
AcDbVertex
100
AcDb2dVertex
 10
1.560114830583946
 20
-0.2410675826676096
 30
0.0
  0
VERTEX
  5
42B
330
427
100
AcDbEntity
  8
SDWC screw
370
     0
100
AcDbVertex
100
AcDb2dVertex
 10
1.547589679521833
 20
-0.2341646421636672
 30
0.0
  0
SEQEND
  5
42D
330
427
100
AcDbEntity
  8
SDWC screw
370
     0
  0
HATCH
  5
42C
330
356
100
AcDbEntity
  8
SDWC screw
 62
   254
420
 16376262
100
AcDbHatch
 10
0.0
 20
0.0
 30
0.0
210
0.0
220
0.0
230
1.0
  2
SOLID
 70
     1
 71
     0
 91
        1
 92
        1
 93
        4
 72
     1
 10
1.489822154784835
 20
-0.275140605004228
 11
1.480178482664213
 21
-0.2683591747690015
 72
     1
 10
1.480178482664213
 20
-0.2683591747690015
 11
1.560114830583946
 21
-0.2410675826676096
 72
     1
 10
1.560114830583946
 20
-0.2410675826676096
 11
1.547589679521833
 21
-0.2341646421636673
 72
     1
 10
1.547589679521833
 20
-0.2341646421636672
 11
1.489822154784835
 21
-0.275140605004228
 97
        0
 75
     2
 76
     1
 98
        0
  0
POLYLINE
  5
42E
330
356
100
AcDbEntity
  8
SDWC screw
370
     0
100
AcDb2dPolyline
 66
     1
 10
0.0
 20
0.0
 30
0.0
  0
VERTEX
  5
42F
330
42E
100
AcDbEntity
  8
SDWC screw
370
     0
100
AcDbVertex
100
AcDb2dVertex
 10
1.489220389644515
 20
-0.2318482321202913
 30
0.0
  0
VERTEX
  5
430
330
42E
100
AcDbEntity
  8
SDWC screw
370
     0
100
AcDbVertex
100
AcDb2dVertex
 10
1.479613363477938
 20
-0.2250764455571925
 30
0.0
  0
VERTEX
  5
431
330
42E
100
AcDbEntity
  8
SDWC screw
370
     0
100
AcDbVertex
100
AcDb2dVertex
 10
1.559513065458835
 20
-0.1977752097836856
 30
0.0
  0
VERTEX
  5
432
330
42E
100
AcDbEntity
  8
SDWC screw
370
     0
100
AcDbVertex
100
AcDb2dVertex
 10
1.546987864424965
 20
-0.1908703405453025
 30
0.0
  0
SEQEND
  5
434
330
42E
100
AcDbEntity
  8
SDWC screw
370
     0
  0
HATCH
  5
433
330
356
100
AcDbEntity
  8
SDWC screw
 62
   254
420
 16376262
100
AcDbHatch
 10
0.0
 20
0.0
 30
0.0
210
0.0
220
0.0
230
1.0
  2
SOLID
 70
     1
 71
     0
 91
        1
 92
        1
 93
        4
 72
     1
 10
1.489220389644515
 20
-0.2318482321202913
 11
1.479613363477938
 21
-0.2250764455571925
 72
     1
 10
1.479613363477938
 20
-0.2250764455571925
 11
1.559513065458835
 21
-0.1977752097836856
 72
     1
 10
1.559513065458835
 20
-0.1977752097836856
 11
1.546987864424965
 21
-0.1908703405453025
 72
     1
 10
1.546987864424965
 20
-0.1908703405453025
 11
1.489220389644515
 21
-0.2318482321202914
 97
        0
 75
     2
 76
     1
 98
        0
  0
POLYLINE
  5
435
330
356
100
AcDbEntity
  8
SDWC screw
370
     0
100
AcDb2dPolyline
 66
     1
 10
0.0
 20
0.0
 30
0.0
  0
VERTEX
  5
436
330
435
100
AcDbEntity
  8
SDWC screw
370
     0
100
AcDbVertex
100
AcDb2dVertex
 10
1.491347783714319
 20
-0.1866811293761227
 30
0.0
  0
VERTEX
  5
437
330
435
100
AcDbEntity
  8
SDWC screw
370
     0
100
AcDbVertex
100
AcDb2dVertex
 10
1.481723398937927
 20
-0.1799093428129986
 30
0.0
  0
VERTEX
  5
438
330
435
100
AcDbEntity
  8
SDWC screw
370
     0
100
AcDbVertex
100
AcDb2dVertex
 10
1.561623100865518
 20
-0.152615821977204
 30
0.0
  0
VERTEX
  5
439
330
435
100
AcDbEntity
  8
SDWC screw
370
     0
100
AcDbVertex
100
AcDb2dVertex
 10
1.549097899831647
 20
-0.145712881473249
 30
0.0
  0
SEQEND
  5
43B
330
435
100
AcDbEntity
  8
SDWC screw
370
     0
  0
HATCH
  5
43A
330
356
100
AcDbEntity
  8
SDWC screw
 62
   254
420
 16376262
100
AcDbHatch
 10
0.0
 20
0.0
 30
0.0
210
0.0
220
0.0
230
1.0
  2
SOLID
 70
     1
 71
     0
 91
        1
 92
        1
 93
        4
 72
     1
 10
1.491347783714319
 20
-0.1866811293761227
 11
1.481723398937927
 21
-0.1799093428129986
 72
     1
 10
1.481723398937927
 20
-0.1799093428129986
 11
1.561623100865517
 21
-0.152615821977204
 72
     1
 10
1.561623100865518
 20
-0.152615821977204
 11
1.549097899831648
 21
-0.145712881473249
 72
     1
 10
1.549097899831647
 20
-0.145712881473249
 11
1.491347783714319
 21
-0.1866811293761227
 97
        0
 75
     2
 76
     1
 98
        0
  0
POLYLINE
  5
43C
330
356
100
AcDbEntity
  8
SDWC screw
370
     0
100
AcDb2dPolyline
 66
     1
 10
0.0
 20
0.0
 30
0.0
  0
VERTEX
  5
43D
330
43C
100
AcDbEntity
  8
SDWC screw
370
     0
100
AcDbVertex
100
AcDb2dVertex
 10
1.487355303456373
 20
-0.1426905546306519
 30
0.0
  0
VERTEX
  5
43E
330
43C
100
AcDbEntity
  8
SDWC screw
370
     0
100
AcDbVertex
100
AcDb2dVertex
 10
1.477730918679994
 20
-0.1359091243954254
 30
0.0
  0
VERTEX
  5
43F
330
43C
100
AcDbEntity
  8
SDWC screw
370
     0
100
AcDbVertex
100
AcDb2dVertex
 10
1.55762869197406
 20
-0.1086271759661612
 30
0.0
  0
VERTEX
  5
440
330
43C
100
AcDbEntity
  8
SDWC screw
370
     0
100
AcDbVertex
100
AcDb2dVertex
 10
1.545103490940189
 20
-0.1017145917900911
 30
0.0
  0
SEQEND
  5
442
330
43C
100
AcDbEntity
  8
SDWC screw
370
     0
  0
HATCH
  5
441
330
356
100
AcDbEntity
  8
SDWC screw
 62
   254
420
 16376262
100
AcDbHatch
 10
0.0
 20
0.0
 30
0.0
210
0.0
220
0.0
230
1.0
  2
SOLID
 70
     1
 71
     0
 91
        1
 92
        1
 93
        4
 72
     1
 10
1.487355303456373
 20
-0.1426905546306519
 11
1.477730918679994
 21
-0.1359091243954253
 72
     1
 10
1.477730918679994
 20
-0.1359091243954254
 11
1.55762869197406
 21
-0.1086271759661612
 72
     1
 10
1.55762869197406
 20
-0.1086271759661612
 11
1.54510349094019
 21
-0.1017145917900911
 72
     1
 10
1.545103490940189
 20
-0.1017145917900911
 11
1.487355303456373
 21
-0.1426905546306519
 97
        0
 75
     2
 76
     1
 98
        0
  0
POLYLINE
  5
443
330
356
100
AcDbEntity
  8
SDWC screw
370
     0
100
AcDb2dPolyline
 66
     1
 10
0.0
 20
0.0
 30
0.0
  0
VERTEX
  5
444
330
443
100
AcDbEntity
  8
SDWC screw
370
     0
100
AcDbVertex
100
AcDb2dVertex
 10
1.489446051572145
 20
-0.0975330955585857
 30
0.0
  0
VERTEX
  5
445
330
443
100
AcDbEntity
  8
SDWC screw
370
     0
100
AcDbVertex
100
AcDb2dVertex
 10
1.47980237945151
 20
-0.0907613089954869
 30
0.0
  0
VERTEX
  5
446
330
443
100
AcDbEntity
  8
SDWC screw
370
     0
100
AcDbVertex
100
AcDb2dVertex
 10
1.559719440036992
 20
-0.0634793605662228
 30
0.0
  0
VERTEX
  5
447
330
443
100
AcDbEntity
  8
SDWC screw
370
     0
100
AcDbVertex
100
AcDb2dVertex
 10
1.547232813690647
 20
-0.0565667763901527
 30
0.0
  0
SEQEND
  5
449
330
443
100
AcDbEntity
  8
SDWC screw
370
     0
  0
HATCH
  5
448
330
356
100
AcDbEntity
  8
SDWC screw
 62
   254
420
 16376262
100
AcDbHatch
 10
0.0
 20
0.0
 30
0.0
210
0.0
220
0.0
230
1.0
  2
SOLID
 70
     1
 71
     0
 91
        1
 92
        1
 93
        4
 72
     1
 10
1.489446051572145
 20
-0.0975330955585857
 11
1.47980237945151
 21
-0.0907613089954869
 72
     1
 10
1.47980237945151
 20
-0.0907613089954869
 11
1.559719440036992
 21
-0.0634793605662228
 72
     1
 10
1.559719440036992
 20
-0.0634793605662228
 11
1.547232813690647
 21
-0.0565667763901527
 72
     1
 10
1.547232813690647
 20
-0.0565667763901527
 11
1.489446051572145
 21
-0.0975330955585857
 97
        0
 75
     2
 76
     1
 98
        0
  0
POLYLINE
  5
44A
330
356
100
AcDbEntity
  8
SDWC screw
370
     0
100
AcDb2dPolyline
 66
     1
 10
0.0
 20
0.0
 30
0.0
  0
VERTEX
  5
44B
330
44A
100
AcDbEntity
  8
SDWC screw
370
     0
100
AcDbVertex
100
AcDb2dVertex
 10
1.485225980652128
 20
-0.0541172836715052
 30
0.0
  0
VERTEX
  5
44C
330
44A
100
AcDbEntity
  8
SDWC screw
370
     0
100
AcDbVertex
100
AcDb2dVertex
 10
1.475601595875762
 20
-0.047328138498579
 30
0.0
  0
VERTEX
  5
44D
330
44A
100
AcDbEntity
  8
SDWC screw
370
     0
100
AcDbVertex
100
AcDb2dVertex
 10
1.555520585301742
 20
-0.0200442613348994
 30
0.0
  0
VERTEX
  5
44E
330
44A
100
AcDbEntity
  8
SDWC screw
370
     0
100
AcDbVertex
100
AcDb2dVertex
 10
1.542995384267872
 20
-0.0131316771588293
 30
0.0
  0
SEQEND
  5
450
330
44A
100
AcDbEntity
  8
SDWC screw
370
     0
  0
HATCH
  5
44F
330
356
100
AcDbEntity
  8
SDWC screw
 62
   254
420
 16376262
100
AcDbHatch
 10
0.0
 20
0.0
 30
0.0
210
0.0
220
0.0
230
1.0
  2
SOLID
 70
     1
 71
     0
 91
        1
 92
        1
 93
        4
 72
     1
 10
1.485225980652128
 20
-0.0541172836715052
 11
1.475601595875762
 21
-0.047328138498579
 72
     1
 10
1.475601595875762
 20
-0.047328138498579
 11
1.555520585301742
 21
-0.0200442613348994
 72
     1
 10
1.555520585301742
 20
-0.0200442613348994
 11
1.542995384267872
 21
-0.0131316771588293
 72
     1
 10
1.542995384267872
 20
-0.0131316771588293
 11
1.485225980652129
 21
-0.0541172836715052
 97
        0
 75
     2
 76
     1
 98
        0
  0
POLYLINE
  5
451
330
356
100
AcDbEntity
  8
SDWC screw
370
     0
100
AcDb2dPolyline
 66
     1
 10
0.0
 20
0.0
 30
0.0
  0
VERTEX
  5
452
330
451
100
AcDbEntity
  8
SDWC screw
370
     0
100
AcDbVertex
100
AcDb2dVertex
 10
1.493438531830078
 20
-0.0104565225125776
 30
0.0
  0
VERTEX
  5
453
330
451
100
AcDbEntity
  8
SDWC screw
370
     0
100
AcDbVertex
100
AcDb2dVertex
 10
1.483794859709431
 20
-0.0036770210117538
 30
0.0
  0
VERTEX
  5
454
330
451
100
AcDbEntity
  8
SDWC screw
370
     0
100
AcDbVertex
100
AcDb2dVertex
 10
1.547853866159509
 20
0.0178804436466938
 30
0.0
  0
VERTEX
  5
455
330
451
100
AcDbEntity
  8
SDWC screw
370
     0
100
AcDbVertex
100
AcDb2dVertex
 10
1.535328665125664
 20
0.0247833841506362
 30
0.0
  0
SEQEND
  5
457
330
451
100
AcDbEntity
  8
SDWC screw
370
     0
  0
HATCH
  5
456
330
356
100
AcDbEntity
  8
SDWC screw
 62
   254
420
 16376262
100
AcDbHatch
 10
0.0
 20
0.0
 30
0.0
210
0.0
220
0.0
230
1.0
  2
SOLID
 70
     1
 71
     0
 91
        1
 92
        1
 93
        4
 72
     1
 10
1.493438531830078
 20
-0.0104565225125776
 11
1.483794859709431
 21
-0.0036770210117538
 72
     1
 10
1.483794859709431
 20
-0.0036770210117538
 11
1.547853866159509
 21
0.0178804436466938
 72
     1
 10
1.547853866159509
 20
0.0178804436466938
 11
1.535328665125664
 21
0.0247833841506362
 72
     1
 10
1.535328665125664
 20
0.0247833841506362
 11
1.493438531830078
 21
-0.0104565225125776
 97
        0
 75
     2
 76
     1
 98
        0
  0
ENDBLK
  5
359
330
356
100
AcDbEntity
  8
0
100
AcDbBlockEnd
  0
BLOCK
  5
45A
330
458
100
AcDbEntity
  8
0
100
AcDbBlockBegin
  2
block 5
 70
     0
 10
0.0
 20
0.0
 30
0.0
  3
block 5
  1

  0
POLYLINE
  5
45C
330
458
100
AcDbEntity
  8
SDWC screw
  6
AI-Linetype-1
 62
   250
420
  2301728
370
    25
100
AcDb2dPolyline
 66
     1
 10
0.0
 20
0.0
 30
0.0
  0
VERTEX
  5
45D
330
45C
100
AcDbEntity
  8
SDWC screw
  6
AI-Linetype-1
 62
   250
420
  2301728
370
    25
100
AcDbVertex
100
AcDb2dVertex
 10
1.55399495641081
 20
-1.501958425095735
 30
0.0
  0
VERTEX
  5
45E
330
45C
100
AcDbEntity
  8
SDWC screw
  6
AI-Linetype-1
 62
   250
420
  2301728
370
    25
100
AcDbVertex
100
AcDb2dVertex
 10
1.543427420767961
 20
-0.0108615567416387
 30
0.0
  0
VERTEX
  5
45F
330
45C
100
AcDbEntity
  8
SDWC screw
  6
AI-Linetype-1
 62
   250
420
  2301728
370
    25
100
AcDbVertex
100
AcDb2dVertex
 10
1.518978783825383
 20
0.0828807224741644
 30
0.0
  0
VERTEX
  5
460
330
45C
100
AcDbEntity
  8
SDWC screw
  6
AI-Linetype-1
 62
   250
420
  2301728
370
    25
100
AcDbVertex
100
AcDb2dVertex
 10
1.493438531830078
 20
-0.0165686819026279
 30
0.0
  0
VERTEX
  5
461
330
45C
100
AcDbEntity
  8
SDWC screw
  6
AI-Linetype-1
 62
   250
420
  2301728
370
    25
100
AcDbVertex
100
AcDb2dVertex
 10
1.49920154154001
 20
-1.504068460555749
 30
0.0
  0
SEQEND
  5
463
330
45C
100
AcDbEntity
  8
SDWC screw
  6
AI-Linetype-1
 62
   250
420
  2301728
370
    25
  0
POLYLINE
  5
464
330
458
100
AcDbEntity
  8
SDWC screw
 62
   250
420
  2301728
370
    30
100
AcDb2dPolyline
 66
     1
 10
0.0
 20
0.0
 30
0.0
  0
VERTEX
  5
465
330
464
100
AcDbEntity
  8
SDWC screw
 62
   250
420
  2301728
370
    30
100
AcDbVertex
100
AcDb2dVertex
 10
1.578329798025253
 20
-1.558013233664117
 30
0.0
  0
VERTEX
  5
466
330
464
100
AcDbEntity
  8
SDWC screw
 62
   250
420
  2301728
370
    30
100
AcDbVertex
100
AcDb2dVertex
 10
1.478351971164557
 20
-1.559820457819519
 30
0.0
  0
VERTEX
  5
467
330
464
100
AcDbEntity
  8
SDWC screw
 62
   250
420
  2301728
370
    30
100
AcDbVertex
100
AcDb2dVertex
 10
1.477428107375418
 20
-1.507194939057247
 30
0.0
  0
VERTEX
  5
468
330
464
100
AcDbEntity
  8
SDWC screw
 62
   250
420
  2301728
370
    30
100
AcDbVertex
100
AcDb2dVertex
 10
1.577425221603183
 20
-1.505424360855917
 30
0.0
  0
VERTEX
  5
469
330
464
100
AcDbEntity
  8
SDWC screw
 62
   250
420
  2301728
370
    30
100
AcDbVertex
100
AcDb2dVertex
 10
1.578329798025253
 20
-1.558013233664117
 30
0.0
  0
SEQEND
  5
46A
330
464
100
AcDbEntity
  8
SDWC screw
 62
   250
420
  2301728
370
    30
  0
POLYLINE
  5
46B
330
458
100
AcDbEntity
  8
SDWC screw
  6
AI-Linetype-2
 62
   250
420
  2301728
370
    25
100
AcDb2dPolyline
 66
     1
 10
0.0
 20
0.0
 30
0.0
  0
VERTEX
  5
46C
330
46B
100
AcDbEntity
  8
SDWC screw
  6
AI-Linetype-2
 62
   250
420
  2301728
370
    25
100
AcDbVertex
100
AcDb2dVertex
 10
1.495963245191256
 20
-1.485006778242097
 30
0.0
  0
VERTEX
  5
46D
330
46B
100
AcDbEntity
  8
SDWC screw
  6
AI-Linetype-2
 62
   250
420
  2301728
370
    25
100
AcDbVertex
100
AcDb2dVertex
 10
1.486338860414864
 20
-1.47822534800687
 30
0.0
  0
VERTEX
  5
46E
330
46B
100
AcDbEntity
  8
SDWC screw
  6
AI-Linetype-2
 62
   250
420
  2301728
370
    25
100
AcDbVertex
100
AcDb2dVertex
 10
1.566255920835222
 20
-1.450953043249734
 30
0.0
  0
VERTEX
  5
46F
330
46B
100
AcDbEntity
  8
SDWC screw
  6
AI-Linetype-2
 62
   250
420
  2301728
370
    25
100
AcDbVertex
100
AcDb2dVertex
 10
1.553711432457602
 20
-1.444059746417906
 30
0.0
  0
SEQEND
  5
471
330
46B
100
AcDbEntity
  8
SDWC screw
  6
AI-Linetype-2
 62
   250
420
  2301728
370
    25
  0
POLYLINE
  5
472
330
458
100
AcDbEntity
  8
SDWC screw
  6
AI-Linetype-3
 62
   250
420
  2301728
370
    25
100
AcDb2dPolyline
 66
     1
 10
0.0
 20
0.0
 30
0.0
  0
VERTEX
  5
473
330
472
100
AcDbEntity
  8
SDWC screw
  6
AI-Linetype-3
 62
   250
420
  2301728
370
    25
100
AcDbVertex
100
AcDb2dVertex
 10
1.498053993307015
 20
-1.439878250186414
 30
0.0
  0
VERTEX
  5
474
330
472
100
AcDbEntity
  8
SDWC screw
  6
AI-Linetype-3
 62
   250
420
  2301728
370
    25
100
AcDbVertex
100
AcDb2dVertex
 10
1.488429608530623
 20
-1.433096819951174
 30
0.0
  0
VERTEX
  5
475
330
472
100
AcDbEntity
  8
SDWC screw
  6
AI-Linetype-3
 62
   250
420
  2301728
370
    25
100
AcDbVertex
100
AcDb2dVertex
 10
1.568327381554405
 20
-1.405785940505565
 30
0.0
  0
VERTEX
  5
476
330
472
100
AcDbEntity
  8
SDWC screw
  6
AI-Linetype-3
 62
   250
420
  2301728
370
    25
100
AcDbVertex
100
AcDb2dVertex
 10
1.55584075520806
 20
-1.398854068985252
 30
0.0
  0
SEQEND
  5
479
330
472
100
AcDbEntity
  8
SDWC screw
  6
AI-Linetype-3
 62
   250
420
  2301728
370
    25
  0
HATCH
  5
478
330
458
100
AcDbEntity
  8
SDWC screw
 62
    30
420
 15955765
100
AcDbHatch
 10
0.0
 20
0.0
 30
0.0
210
0.0
220
0.0
230
1.0
  2
SOLID
 70
     1
 71
     0
 91
        1
 92
        1
 93
        4
 72
     1
 10
1.498053993307015
 20
-1.439878250186414
 11
1.488429608530623
 21
-1.433096819951174
 72
     1
 10
1.488429608530623
 20
-1.433096819951174
 11
1.568327381554405
 21
-1.405785940505565
 72
     1
 10
1.568327381554405
 20
-1.405785940505565
 11
1.55584075520806
 21
-1.398854068985252
 72
     1
 10
1.55584075520806
 20
-1.398854068985252
 11
1.498053993307015
 21
-1.439878250186414
 97
        0
 75
     2
 76
     1
 98
        0
  0
POLYLINE
  5
47A
330
458
100
AcDbEntity
  8
SDWC screw
  6
AI-Linetype-4
 62
   250
420
  2301728
370
    25
100
AcDb2dPolyline
 66
     1
 10
0.0
 20
0.0
 30
0.0
  0
VERTEX
  5
47B
330
47A
100
AcDbEntity
  8
SDWC screw
  6
AI-Linetype-4
 62
   250
420
  2301728
370
    25
100
AcDbVertex
100
AcDb2dVertex
 10
1.494059584314654
 20
-1.39584138581477
 30
0.0
  0
VERTEX
  5
47C
330
47A
100
AcDbEntity
  8
SDWC screw
  6
AI-Linetype-4
 62
   250
420
  2301728
370
    25
100
AcDbVertex
100
AcDb2dVertex
 10
1.484435199538262
 20
-1.389096601533588
 30
0.0
  0
VERTEX
  5
47D
330
47A
100
AcDbEntity
  8
SDWC screw
  6
AI-Linetype-4
 62
   250
420
  2301728
370
    25
100
AcDbVertex
100
AcDb2dVertex
 10
1.564354188741087
 20
-1.361785722087966
 30
0.0
  0
VERTEX
  5
47E
330
47A
100
AcDbEntity
  8
SDWC screw
  6
AI-Linetype-4
 62
   250
420
  2301728
370
    25
100
AcDbVertex
100
AcDb2dVertex
 10
1.551828987707217
 20
-1.354855779302094
 30
0.0
  0
SEQEND
  5
481
330
47A
100
AcDbEntity
  8
SDWC screw
  6
AI-Linetype-4
 62
   250
420
  2301728
370
    25
  0
HATCH
  5
480
330
458
100
AcDbEntity
  8
SDWC screw
 62
    30
420
 15955765
100
AcDbHatch
 10
0.0
 20
0.0
 30
0.0
210
0.0
220
0.0
230
1.0
  2
SOLID
 70
     1
 71
     0
 91
        1
 92
        1
 93
        4
 72
     1
 10
1.494059584314654
 20
-1.39584138581477
 11
1.484435199538262
 21
-1.389096601533588
 72
     1
 10
1.484435199538262
 20
-1.389096601533588
 11
1.564354188741087
 21
-1.361785722087966
 72
     1
 10
1.564354188741087
 20
-1.361785722087966
 11
1.551828987707217
 21
-1.354855779302094
 72
     1
 10
1.551828987707217
 20
-1.354855779302094
 11
1.494059584314654
 21
-1.39584138581477
 97
        0
 75
     2
 76
     1
 98
        0
  0
POLYLINE
  5
482
330
458
100
AcDbEntity
  8
SDWC screw
  6
AI-Linetype-5
 62
   250
420
  2301728
370
    25
100
AcDb2dPolyline
 66
     1
 10
0.0
 20
0.0
 30
0.0
  0
VERTEX
  5
483
330
482
100
AcDbEntity
  8
SDWC screw
  6
AI-Linetype-5
 62
   250
420
  2301728
370
    25
100
AcDbVertex
100
AcDb2dVertex
 10
1.496188907118873
 20
-1.350710929024621
 30
0.0
  0
VERTEX
  5
484
330
482
100
AcDbEntity
  8
SDWC screw
  6
AI-Linetype-5
 62
   250
420
  2301728
370
    25
100
AcDbVertex
100
AcDb2dVertex
 10
1.486545234998251
 20
-1.343931427523835
 30
0.0
  0
VERTEX
  5
485
330
482
100
AcDbEntity
  8
SDWC screw
  6
AI-Linetype-5
 62
   250
420
  2301728
370
    25
100
AcDbVertex
100
AcDb2dVertex
 10
1.56646422414777
 20
-1.316618619343798
 30
0.0
  0
VERTEX
  5
486
330
482
100
AcDbEntity
  8
SDWC screw
  6
AI-Linetype-5
 62
   250
420
  2301728
370
    25
100
AcDbVertex
100
AcDb2dVertex
 10
1.553937094379535
 20
-1.309725322511945
 30
0.0
  0
SEQEND
  5
489
330
482
100
AcDbEntity
  8
SDWC screw
  6
AI-Linetype-5
 62
   250
420
  2301728
370
    25
  0
HATCH
  5
488
330
458
100
AcDbEntity
  8
SDWC screw
 62
    30
420
 15955765
100
AcDbHatch
 10
0.0
 20
0.0
 30
0.0
210
0.0
220
0.0
230
1.0
  2
SOLID
 70
     1
 71
     0
 91
        1
 92
        1
 93
        4
 72
     1
 10
1.496188907118873
 20
-1.350710929024621
 11
1.486545234998251
 21
-1.343931427523835
 72
     1
 10
1.486545234998251
 20
-1.343931427523835
 11
1.56646422414777
 21
-1.316618619343798
 72
     1
 10
1.56646422414777
 20
-1.316618619343798
 11
1.553937094379535
 21
-1.309725322511945
 72
     1
 10
1.553937094379535
 20
-1.309725322511945
 11
1.496188907118873
 21
-1.350710929024621
 97
        0
 75
     2
 76
     1
 98
        0
  0
POLYLINE
  5
48A
330
458
100
AcDbEntity
  8
SDWC screw
  6
AI-Linetype-6
 62
   250
420
  2301728
370
    25
100
AcDb2dPolyline
 66
     1
 10
0.0
 20
0.0
 30
0.0
  0
VERTEX
  5
48B
330
48A
100
AcDbEntity
  8
SDWC screw
  6
AI-Linetype-6
 62
   250
420
  2301728
370
    25
100
AcDbVertex
100
AcDb2dVertex
 10
1.495585213244137
 20
-1.307389625124339
 30
0.0
  0
VERTEX
  5
48C
330
48A
100
AcDbEntity
  8
SDWC screw
  6
AI-Linetype-6
 62
   250
420
  2301728
370
    25
100
AcDbVertex
100
AcDb2dVertex
 10
1.485960828467745
 20
-1.300610123623553
 30
0.0
  0
VERTEX
  5
48D
330
48A
100
AcDbEntity
  8
SDWC screw
  6
AI-Linetype-6
 62
   250
420
  2301728
370
    25
100
AcDbVertex
100
AcDb2dVertex
 10
1.565879817632018
 20
-1.273297315443491
 30
0.0
  0
VERTEX
  5
48E
330
48A
100
AcDbEntity
  8
SDWC screw
  6
AI-Linetype-6
 62
   250
420
  2301728
370
    25
100
AcDbVertex
100
AcDb2dVertex
 10
1.553335329254398
 20
-1.266442593300149
 30
0.0
  0
SEQEND
  5
491
330
48A
100
AcDbEntity
  8
SDWC screw
  6
AI-Linetype-6
 62
   250
420
  2301728
370
    25
  0
HATCH
  5
490
330
458
100
AcDbEntity
  8
SDWC screw
 62
    30
420
 15955765
100
AcDbHatch
 10
0.0
 20
0.0
 30
0.0
210
0.0
220
0.0
230
1.0
  2
SOLID
 70
     1
 71
     0
 91
        1
 92
        1
 93
        4
 72
     1
 10
1.495585213244137
 20
-1.307389625124339
 11
1.485960828467745
 21
-1.300610123623553
 72
     1
 10
1.485960828467745
 20
-1.300610123623553
 11
1.565879817632018
 21
-1.273297315443491
 72
     1
 10
1.565879817632018
 20
-1.273297315443491
 11
1.553335329254398
 21
-1.266442593300149
 72
     1
 10
1.553335329254398
 20
-1.266442593300149
 11
1.495585213244138
 21
-1.307389625124339
 97
        0
 75
     2
 76
     1
 98
        0
  0
POLYLINE
  5
492
330
458
100
AcDbEntity
  8
SDWC screw
  6
AI-Linetype-7
 62
   250
420
  2301728
370
    25
100
AcDb2dPolyline
 66
     1
 10
0.0
 20
0.0
 30
0.0
  0
VERTEX
  5
493
330
492
100
AcDbEntity
  8
SDWC screw
  6
AI-Linetype-7
 62
   250
420
  2301728
370
    25
100
AcDbVertex
100
AcDb2dVertex
 10
1.497695248704127
 20
-1.262261097068631
 30
0.0
  0
VERTEX
  5
494
330
492
100
AcDbEntity
  8
SDWC screw
  6
AI-Linetype-7
 62
   250
420
  2301728
370
    25
100
AcDbVertex
100
AcDb2dVertex
 10
1.488051576583505
 20
-1.255443020879359
 30
0.0
  0
VERTEX
  5
495
330
492
100
AcDbEntity
  8
SDWC screw
  6
AI-Linetype-7
 62
   250
420
  2301728
370
    25
100
AcDbVertex
100
AcDb2dVertex
 10
1.567989853038726
 20
-1.228130212699297
 30
0.0
  0
VERTEX
  5
496
330
492
100
AcDbEntity
  8
SDWC screw
  6
AI-Linetype-7
 62
   250
420
  2301728
370
    25
100
AcDbVertex
100
AcDb2dVertex
 10
1.555445364661106
 20
-1.221275490555955
 30
0.0
  0
SEQEND
  5
499
330
492
100
AcDbEntity
  8
SDWC screw
  6
AI-Linetype-7
 62
   250
420
  2301728
370
    25
  0
HATCH
  5
498
330
458
100
AcDbEntity
  8
SDWC screw
 62
    30
420
 15955765
100
AcDbHatch
 10
0.0
 20
0.0
 30
0.0
210
0.0
220
0.0
230
1.0
  2
SOLID
 70
     1
 71
     0
 91
        1
 92
        1
 93
        4
 72
     1
 10
1.497695248704127
 20
-1.262261097068631
 11
1.488051576583505
 21
-1.255443020879359
 72
     1
 10
1.488051576583505
 20
-1.255443020879359
 11
1.567989853038726
 21
-1.228130212699297
 72
     1
 10
1.567989853038726
 20
-1.228130212699297
 11
1.555445364661106
 21
-1.221275490555955
 72
     1
 10
1.555445364661106
 20
-1.221275490555955
 11
1.497695248704127
 21
-1.262261097068631
 97
        0
 75
     2
 76
     1
 98
        0
  0
POLYLINE
  5
49A
330
458
100
AcDbEntity
  8
SDWC screw
  6
AI-Linetype-8
 62
   250
420
  2301728
370
    25
100
AcDb2dPolyline
 66
     1
 10
0.0
 20
0.0
 30
0.0
  0
VERTEX
  5
49B
330
49A
100
AcDbEntity
  8
SDWC screw
  6
AI-Linetype-8
 62
   250
420
  2301728
370
    25
100
AcDbVertex
100
AcDb2dVertex
 10
1.493702768446181
 20
-1.218224232696987
 30
0.0
  0
VERTEX
  5
49C
330
49A
100
AcDbEntity
  8
SDWC screw
  6
AI-Linetype-8
 62
   250
420
  2301728
370
    25
100
AcDbVertex
100
AcDb2dVertex
 10
1.484059096325558
 20
-1.211481377150246
 30
0.0
  0
VERTEX
  5
49D
330
49A
100
AcDbEntity
  8
SDWC screw
  6
AI-Linetype-8
 62
   250
420
  2301728
370
    25
100
AcDbVertex
100
AcDb2dVertex
 10
1.563958798194133
 20
-1.184168568970209
 30
0.0
  0
VERTEX
  5
49E
330
49A
100
AcDbEntity
  8
SDWC screw
  6
AI-Linetype-8
 62
   250
420
  2301728
370
    25
100
AcDbVertex
100
AcDb2dVertex
 10
1.551450955769648
 20
-1.177275272138382
 30
0.0
  0
SEQEND
  5
4A1
330
49A
100
AcDbEntity
  8
SDWC screw
  6
AI-Linetype-8
 62
   250
420
  2301728
370
    25
  0
HATCH
  5
4A0
330
458
100
AcDbEntity
  8
SDWC screw
 62
    30
420
 15955765
100
AcDbHatch
 10
0.0
 20
0.0
 30
0.0
210
0.0
220
0.0
230
1.0
  2
SOLID
 70
     1
 71
     0
 91
        1
 92
        1
 93
        4
 72
     1
 10
1.493702768446181
 20
-1.218224232696987
 11
1.484059096325558
 21
-1.211481377150246
 72
     1
 10
1.484059096325558
 20
-1.211481377150246
 11
1.563958798194133
 21
-1.184168568970209
 72
     1
 10
1.563958798194133
 20
-1.184168568970209
 11
1.551450955769648
 21
-1.177275272138382
 72
     1
 10
1.551450955769648
 20
-1.177275272138382
 11
1.493702768446181
 21
-1.218224232696987
 97
        0
 75
     2
 76
     1
 98
        0
  0
POLYLINE
  5
4A2
330
458
100
AcDbEntity
  8
SDWC screw
  6
AI-Linetype-9
 62
   250
420
  2301728
370
    25
100
AcDb2dPolyline
 66
     1
 10
0.0
 20
0.0
 30
0.0
  0
VERTEX
  5
4A3
330
4A2
100
AcDbEntity
  8
SDWC screw
  6
AI-Linetype-9
 62
   250
420
  2301728
370
    25
100
AcDbVertex
100
AcDb2dVertex
 10
1.49581280390617
 20
-1.173093775906889
 30
0.0
  0
VERTEX
  5
4A4
330
4A2
100
AcDbEntity
  8
SDWC screw
  6
AI-Linetype-9
 62
   250
420
  2301728
370
    25
100
AcDbVertex
100
AcDb2dVertex
 10
1.486169131785548
 20
-1.166275699717567
 30
0.0
  0
VERTEX
  5
4A5
330
4A2
100
AcDbEntity
  8
SDWC screw
  6
AI-Linetype-9
 62
   250
420
  2301728
370
    25
100
AcDbVertex
100
AcDb2dVertex
 10
1.566086242649211
 20
-1.139040040914501
 30
0.0
  0
VERTEX
  5
4A6
330
4A2
100
AcDbEntity
  8
SDWC screw
  6
AI-Linetype-9
 62
   250
420
  2301728
370
    25
100
AcDbVertex
100
AcDb2dVertex
 10
1.553541703832581
 20
-1.132146744082699
 30
0.0
  0
SEQEND
  5
4A9
330
4A2
100
AcDbEntity
  8
SDWC screw
  6
AI-Linetype-9
 62
   250
420
  2301728
370
    25
  0
HATCH
  5
4A8
330
458
100
AcDbEntity
  8
SDWC screw
 62
    30
420
 15955765
100
AcDbHatch
 10
0.0
 20
0.0
 30
0.0
210
0.0
220
0.0
230
1.0
  2
SOLID
 70
     1
 71
     0
 91
        1
 92
        1
 93
        4
 72
     1
 10
1.49581280390617
 20
-1.173093775906889
 11
1.486169131785548
 21
-1.166275699717567
 72
     1
 10
1.486169131785548
 20
-1.166275699717567
 11
1.566086242649211
 21
-1.139040040914501
 72
     1
 10
1.566086242649211
 20
-1.139040040914501
 11
1.553541703832581
 21
-1.132146744082699
 72
     1
 10
1.553541703832581
 20
-1.132146744082699
 11
1.49581280390617
 21
-1.173093775906889
 97
        0
 75
     2
 76
     1
 98
        0
  0
POLYLINE
  5
4AA
330
458
100
AcDbEntity
  8
SDWC screw
  6
AI-Linetype-10
 62
   250
420
  2301728
370
    25
100
AcDb2dPolyline
 66
     1
 10
0.0
 20
0.0
 30
0.0
  0
VERTEX
  5
4AB
330
4AA
100
AcDbEntity
  8
SDWC screw
  6
AI-Linetype-10
 62
   250
420
  2301728
370
    25
100
AcDbVertex
100
AcDb2dVertex
 10
1.493967005062283
 20
-1.125779991748636
 30
0.0
  0
VERTEX
  5
4AC
330
4AA
100
AcDbEntity
  8
SDWC screw
  6
AI-Linetype-10
 62
   250
420
  2301728
370
    25
100
AcDbVertex
100
AcDb2dVertex
 10
1.484304045597431
 20
-1.118961915559364
 30
0.0
  0
VERTEX
  5
4AD
330
4AA
100
AcDbEntity
  8
SDWC screw
  6
AI-Linetype-10
 62
   250
420
  2301728
370
    25
100
AcDbVertex
100
AcDb2dVertex
 10
1.564221106069176
 20
-1.091687682067813
 30
0.0
  0
VERTEX
  5
4AE
330
4AA
100
AcDbEntity
  8
SDWC screw
  6
AI-Linetype-10
 62
   250
420
  2301728
370
    25
100
AcDbVertex
100
AcDb2dVertex
 10
1.551715192379081
 20
-1.084757739281915
 30
0.0
  0
SEQEND
  5
4B1
330
4AA
100
AcDbEntity
  8
SDWC screw
  6
AI-Linetype-10
 62
   250
420
  2301728
370
    25
  0
HATCH
  5
4B0
330
458
100
AcDbEntity
  8
SDWC screw
 62
    30
420
 15955765
100
AcDbHatch
 10
0.0
 20
0.0
 30
0.0
210
0.0
220
0.0
230
1.0
  2
SOLID
 70
     1
 71
     0
 91
        1
 92
        1
 93
        4
 72
     1
 10
1.493967005062283
 20
-1.125779991748636
 11
1.484304045597431
 21
-1.118961915559364
 72
     1
 10
1.484304045597431
 20
-1.118961915559364
 11
1.564221106069176
 21
-1.091687682067812
 72
     1
 10
1.564221106069176
 20
-1.091687682067813
 11
1.551715192379081
 21
-1.084757739281915
 72
     1
 10
1.551715192379081
 20
-1.084757739281915
 11
1.493967005062283
 21
-1.125779991748636
 97
        0
 75
     2
 76
     1
 98
        0
  0
POLYLINE
  5
4B2
330
458
100
AcDbEntity
  8
SDWC screw
  6
AI-Linetype-11
 62
   250
420
  2301728
370
    25
100
AcDb2dPolyline
 66
     1
 10
0.0
 20
0.0
 30
0.0
  0
VERTEX
  5
4B3
330
4B2
100
AcDbEntity
  8
SDWC screw
  6
AI-Linetype-11
 62
   250
420
  2301728
370
    25
100
AcDbVertex
100
AcDb2dVertex
 10
1.496057753178042
 20
-1.080612889004442
 30
0.0
  0
VERTEX
  5
4B4
330
4B2
100
AcDbEntity
  8
SDWC screw
  6
AI-Linetype-11
 62
   250
420
  2301728
370
    25
100
AcDbVertex
100
AcDb2dVertex
 10
1.486414081057395
 20
-1.07379481281517
 30
0.0
  0
VERTEX
  5
4B5
330
4B2
100
AcDbEntity
  8
SDWC screw
  6
AI-Linetype-11
 62
   250
420
  2301728
370
    25
100
AcDbVertex
100
AcDb2dVertex
 10
1.566331141475858
 20
-1.046559154012104
 30
0.0
  0
VERTEX
  5
4B6
330
4B2
100
AcDbEntity
  8
SDWC screw
  6
AI-Linetype-11
 62
   250
420
  2301728
370
    25
100
AcDbVertex
100
AcDb2dVertex
 10
1.553825227785764
 20
-1.039627282491779
 30
0.0
  0
SEQEND
  5
4B9
330
4B2
100
AcDbEntity
  8
SDWC screw
  6
AI-Linetype-11
 62
   250
420
  2301728
370
    25
  0
HATCH
  5
4B8
330
458
100
AcDbEntity
  8
SDWC screw
 62
    30
420
 15955765
100
AcDbHatch
 10
0.0
 20
0.0
 30
0.0
210
0.0
220
0.0
230
1.0
  2
SOLID
 70
     1
 71
     0
 91
        1
 92
        1
 93
        4
 72
     1
 10
1.496057753178042
 20
-1.080612889004442
 11
1.486414081057395
 21
-1.07379481281517
 72
     1
 10
1.486414081057395
 20
-1.07379481281517
 11
1.566331141475858
 21
-1.046559154012104
 72
     1
 10
1.566331141475858
 20
-1.046559154012104
 11
1.553825227785764
 21
-1.039627282491779
 72
     1
 10
1.553825227785764
 20
-1.039627282491779
 11
1.496057753178042
 21
-1.080612889004442
 97
        0
 75
     2
 76
     1
 98
        0
  0
POLYLINE
  5
4BA
330
458
100
AcDbEntity
  8
SDWC screw
  6
AI-Linetype-12
 62
   250
420
  2301728
370
    25
100
AcDb2dPolyline
 66
     1
 10
0.0
 20
0.0
 30
0.0
  0
VERTEX
  5
4BB
330
4BA
100
AcDbEntity
  8
SDWC screw
  6
AI-Linetype-12
 62
   250
420
  2301728
370
    25
100
AcDbVertex
100
AcDb2dVertex
 10
1.492082631529911
 20
-1.036614599321297
 30
0.0
  0
VERTEX
  5
4BC
330
4BA
100
AcDbEntity
  8
SDWC screw
  6
AI-Linetype-12
 62
   250
420
  2301728
370
    25
100
AcDbVertex
100
AcDb2dVertex
 10
1.482438959409289
 20
-1.029813881741827
 30
0.0
  0
VERTEX
  5
4BD
330
4BA
100
AcDbEntity
  8
SDWC screw
  6
AI-Linetype-12
 62
   250
420
  2301728
370
    25
100
AcDbVertex
100
AcDb2dVertex
 10
1.562357948662541
 20
-1.002522289640423
 30
0.0
  0
VERTEX
  5
4BE
330
4BA
100
AcDbEntity
  8
SDWC screw
  6
AI-Linetype-12
 62
   250
420
  2301728
370
    25
100
AcDbVertex
100
AcDb2dVertex
 10
1.549830818894306
 20
-0.9955904181201352
 30
0.0
  0
SEQEND
  5
4C1
330
4BA
100
AcDbEntity
  8
SDWC screw
  6
AI-Linetype-12
 62
   250
420
  2301728
370
    25
  0
HATCH
  5
4C0
330
458
100
AcDbEntity
  8
SDWC screw
 62
    30
420
 15955765
100
AcDbHatch
 10
0.0
 20
0.0
 30
0.0
210
0.0
220
0.0
230
1.0
  2
SOLID
 70
     1
 71
     0
 91
        1
 92
        1
 93
        4
 72
     1
 10
1.492082631529911
 20
-1.036614599321297
 11
1.482438959409289
 21
-1.029813881741827
 72
     1
 10
1.482438959409289
 20
-1.029813881741827
 11
1.562357948662541
 21
-1.002522289640423
 72
     1
 10
1.562357948662541
 20
-1.002522289640423
 11
1.549830818894306
 21
-0.9955904181201353
 72
     1
 10
1.549830818894306
 20
-0.9955904181201352
 11
1.492082631529911
 21
-1.036614599321297
 97
        0
 75
     2
 76
     1
 98
        0
  0
POLYLINE
  5
4C2
330
458
100
AcDbEntity
  8
SDWC screw
  6
AI-Linetype-13
 62
   250
420
  2301728
370
    25
100
AcDb2dPolyline
 66
     1
 10
0.0
 20
0.0
 30
0.0
  0
VERTEX
  5
4C3
330
4C2
100
AcDbEntity
  8
SDWC screw
  6
AI-Linetype-13
 62
   250
420
  2301728
370
    25
100
AcDbVertex
100
AcDb2dVertex
 10
1.49415409230144
 20
-0.9914474965771154
 30
0.0
  0
VERTEX
  5
4C4
330
4C2
100
AcDbEntity
  8
SDWC screw
  6
AI-Linetype-13
 62
   250
420
  2301728
370
    25
100
AcDbVertex
100
AcDb2dVertex
 10
1.484529707525048
 20
-0.9846660663418889
 30
0.0
  0
VERTEX
  5
4C5
330
4C2
100
AcDbEntity
  8
SDWC screw
  6
AI-Linetype-13
 62
   250
420
  2301728
370
    25
100
AcDbVertex
100
AcDb2dVertex
 10
1.564448696725473
 20
-0.9573551868962795
 30
0.0
  0
VERTEX
  5
4C6
330
4C2
100
AcDbEntity
  8
SDWC screw
  6
AI-Linetype-13
 62
   250
420
  2301728
370
    25
100
AcDbVertex
100
AcDb2dVertex
 10
1.551940854300988
 20
-0.9504618900644396
 30
0.0
  0
SEQEND
  5
4C9
330
4C2
100
AcDbEntity
  8
SDWC screw
  6
AI-Linetype-13
 62
   250
420
  2301728
370
    25
  0
HATCH
  5
4C8
330
458
100
AcDbEntity
  8
SDWC screw
 62
    30
420
 15955765
100
AcDbHatch
 10
0.0
 20
0.0
 30
0.0
210
0.0
220
0.0
230
1.0
  2
SOLID
 70
     1
 71
     0
 91
        1
 92
        1
 93
        4
 72
     1
 10
1.49415409230144
 20
-0.9914474965771154
 11
1.484529707525048
 21
-0.9846660663418888
 72
     1
 10
1.484529707525048
 20
-0.9846660663418889
 11
1.564448696725473
 21
-0.9573551868962795
 72
     1
 10
1.564448696725473
 20
-0.9573551868962795
 11
1.551940854300988
 21
-0.9504618900644396
 72
     1
 10
1.551940854300988
 20
-0.9504618900644396
 11
1.49415409230144
 21
-0.9914474965771155
 97
        0
 75
     2
 76
     1
 98
        0
  0
POLYLINE
  5
4CA
330
458
100
AcDbEntity
  8
SDWC screw
  6
AI-Linetype-14
 62
   250
420
  2301728
370
    25
100
AcDb2dPolyline
 66
     1
 10
0.0
 20
0.0
 30
0.0
  0
VERTEX
  5
4CB
330
4CA
100
AcDbEntity
  8
SDWC screw
  6
AI-Linetype-14
 62
   250
420
  2301728
370
    25
100
AcDbVertex
100
AcDb2dVertex
 10
1.493588973115165
 20
-0.9481261926768082
 30
0.0
  0
VERTEX
  5
4CC
330
4CA
100
AcDbEntity
  8
SDWC screw
  6
AI-Linetype-14
 62
   250
420
  2301728
370
    25
100
AcDbVertex
100
AcDb2dVertex
 10
1.483964588338772
 20
-0.9413447624415817
 30
0.0
  0
VERTEX
  5
4CD
330
4CA
100
AcDbEntity
  8
SDWC screw
  6
AI-Linetype-14
 62
   250
420
  2301728
370
    25
100
AcDbVertex
100
AcDb2dVertex
 10
1.563864290209722
 20
-0.9140531703402277
 30
0.0
  0
VERTEX
  5
4CE
330
4CA
100
AcDbEntity
  8
SDWC screw
  6
AI-Linetype-14
 62
   250
420
  2301728
370
    25
100
AcDbVertex
100
AcDb2dVertex
 10
1.551319801832127
 20
-0.9071772321181772
 30
0.0
  0
SEQEND
  5
4D1
330
4CA
100
AcDbEntity
  8
SDWC screw
  6
AI-Linetype-14
 62
   250
420
  2301728
370
    25
  0
HATCH
  5
4D0
330
458
100
AcDbEntity
  8
SDWC screw
 62
    30
420
 15955765
100
AcDbHatch
 10
0.0
 20
0.0
 30
0.0
210
0.0
220
0.0
230
1.0
  2
SOLID
 70
     1
 71
     0
 91
        1
 92
        1
 93
        4
 72
     1
 10
1.493588973115165
 20
-0.9481261926768082
 11
1.483964588338773
 21
-0.9413447624415816
 72
     1
 10
1.483964588338772
 20
-0.9413447624415817
 11
1.563864290209722
 21
-0.9140531703402277
 72
     1
 10
1.563864290209722
 20
-0.9140531703402277
 11
1.551319801832127
 21
-0.9071772321181772
 72
     1
 10
1.551319801832127
 20
-0.9071772321181772
 11
1.493588973115165
 21
-0.9481261926768082
 97
        0
 75
     2
 76
     1
 98
        0
  0
POLYLINE
  5
4D2
330
458
100
AcDbEntity
  8
SDWC screw
  6
AI-Linetype-15
 62
   250
420
  2301728
370
    25
100
AcDb2dPolyline
 66
     1
 10
0.0
 20
0.0
 30
0.0
  0
VERTEX
  5
4D3
330
4D2
100
AcDbEntity
  8
SDWC screw
  6
AI-Linetype-15
 62
   250
420
  2301728
370
    25
100
AcDbVertex
100
AcDb2dVertex
 10
1.495679721230898
 20
-0.902959089932627
 30
0.0
  0
VERTEX
  5
4D4
330
4D2
100
AcDbEntity
  8
SDWC screw
  6
AI-Linetype-15
 62
   250
420
  2301728
370
    25
100
AcDbVertex
100
AcDb2dVertex
 10
1.486055336454531
 20
-0.8961776596974005
 30
0.0
  0
VERTEX
  5
4D5
330
4D2
100
AcDbEntity
  8
SDWC screw
  6
AI-Linetype-15
 62
   250
420
  2301728
370
    25
100
AcDbVertex
100
AcDb2dVertex
 10
1.565955038272654
 20
-0.8689034262058359
 30
0.0
  0
VERTEX
  5
4D6
330
4D2
100
AcDbEntity
  8
SDWC screw
  6
AI-Linetype-15
 62
   250
420
  2301728
370
    25
100
AcDbVertex
100
AcDb2dVertex
 10
1.553447195848195
 20
-0.8620101293740339
 30
0.0
  0
SEQEND
  5
4D9
330
4D2
100
AcDbEntity
  8
SDWC screw
  6
AI-Linetype-15
 62
   250
420
  2301728
370
    25
  0
HATCH
  5
4D8
330
458
100
AcDbEntity
  8
SDWC screw
 62
    30
420
 15955765
100
AcDbHatch
 10
0.0
 20
0.0
 30
0.0
210
0.0
220
0.0
230
1.0
  2
SOLID
 70
     1
 71
     0
 91
        1
 92
        1
 93
        4
 72
     1
 10
1.495679721230898
 20
-0.902959089932627
 11
1.486055336454531
 21
-0.8961776596974004
 72
     1
 10
1.486055336454531
 20
-0.8961776596974005
 11
1.565955038272654
 21
-0.8689034262058359
 72
     1
 10
1.565955038272654
 20
-0.8689034262058359
 11
1.553447195848195
 21
-0.8620101293740339
 72
     1
 10
1.553447195848195
 20
-0.8620101293740339
 11
1.495679721230898
 21
-0.902959089932627
 97
        0
 75
     2
 76
     1
 98
        0
  0
POLYLINE
  5
4DA
330
458
100
AcDbEntity
  8
SDWC screw
  6
AI-Linetype-16
 62
   250
420
  2301728
370
    25
100
AcDb2dPolyline
 66
     1
 10
0.0
 20
0.0
 30
0.0
  0
VERTEX
  5
4DB
330
4DA
100
AcDbEntity
  8
SDWC screw
  6
AI-Linetype-16
 62
   250
420
  2301728
370
    25
100
AcDbVertex
100
AcDb2dVertex
 10
1.491667953628747
 20
-0.8589974462035267
 30
0.0
  0
VERTEX
  5
4DC
330
4DA
100
AcDbEntity
  8
SDWC screw
  6
AI-Linetype-16
 62
   250
420
  2301728
370
    25
100
AcDbVertex
100
AcDb2dVertex
 10
1.48204356885233
 20
-0.8521967286240447
 30
0.0
  0
VERTEX
  5
4DD
330
4DA
100
AcDbEntity
  8
SDWC screw
  6
AI-Linetype-16
 62
   250
420
  2301728
370
    25
100
AcDbVertex
100
AcDb2dVertex
 10
1.561962558115586
 20
-0.8249051365226907
 30
0.0
  0
VERTEX
  5
4DE
330
4DA
100
AcDbEntity
  8
SDWC screw
  6
AI-Linetype-16
 62
   250
420
  2301728
370
    25
100
AcDbVertex
100
AcDb2dVertex
 10
1.549454715691101
 20
-0.8180118396908508
 30
0.0
  0
SEQEND
  5
4E1
330
4DA
100
AcDbEntity
  8
SDWC screw
  6
AI-Linetype-16
 62
   250
420
  2301728
370
    25
  0
HATCH
  5
4E0
330
458
100
AcDbEntity
  8
SDWC screw
 62
    30
420
 15955765
100
AcDbHatch
 10
0.0
 20
0.0
 30
0.0
210
0.0
220
0.0
230
1.0
  2
SOLID
 70
     1
 71
     0
 91
        1
 92
        1
 93
        4
 72
     1
 10
1.491667953628747
 20
-0.8589974462035267
 11
1.48204356885233
 21
-0.8521967286240447
 72
     1
 10
1.48204356885233
 20
-0.8521967286240447
 11
1.561962558115586
 21
-0.8249051365226907
 72
     1
 10
1.561962558115586
 20
-0.8249051365226907
 11
1.549454715691101
 21
-0.8180118396908508
 72
     1
 10
1.549454715691101
 20
-0.8180118396908508
 11
1.491667953628747
 21
-0.8589974462035267
 97
        0
 75
     2
 76
     1
 98
        0
  0
POLYLINE
  5
4E2
330
458
100
AcDbEntity
  8
SDWC screw
  6
AI-Linetype-17
 62
   250
420
  2301728
370
    25
100
AcDb2dPolyline
 66
     1
 10
0.0
 20
0.0
 30
0.0
  0
VERTEX
  5
4E3
330
4E2
100
AcDbEntity
  8
SDWC screw
  6
AI-Linetype-17
 62
   250
420
  2301728
370
    25
100
AcDbVertex
100
AcDb2dVertex
 10
1.493777989088711
 20
-0.8138303434593328
 30
0.0
  0
VERTEX
  5
4E4
330
4E2
100
AcDbEntity
  8
SDWC screw
  6
AI-Linetype-17
 62
   250
420
  2301728
370
    25
100
AcDbVertex
100
AcDb2dVertex
 10
1.484170962922146
 20
-0.8070489132241062
 30
0.0
  0
VERTEX
  5
4E5
330
4E2
100
AcDbEntity
  8
SDWC screw
  6
AI-Linetype-17
 62
   250
420
  2301728
370
    25
100
AcDbVertex
100
AcDb2dVertex
 10
1.564070664787904
 20
-0.7797380337784968
 30
0.0
  0
VERTEX
  5
4E6
330
4E2
100
AcDbEntity
  8
SDWC screw
  6
AI-Linetype-17
 62
   250
420
  2301728
370
    25
100
AcDbVertex
100
AcDb2dVertex
 10
1.551526176410284
 20
-0.7728640242908997
 30
0.0
  0
SEQEND
  5
4E9
330
4E2
100
AcDbEntity
  8
SDWC screw
  6
AI-Linetype-17
 62
   250
420
  2301728
370
    25
  0
HATCH
  5
4E8
330
458
100
AcDbEntity
  8
SDWC screw
 62
    30
420
 15955765
100
AcDbHatch
 10
0.0
 20
0.0
 30
0.0
210
0.0
220
0.0
230
1.0
  2
SOLID
 70
     1
 71
     0
 91
        1
 92
        1
 93
        4
 72
     1
 10
1.493777989088711
 20
-0.8138303434593328
 11
1.484170962922147
 21
-0.8070489132241062
 72
     1
 10
1.484170962922146
 20
-0.8070489132241062
 11
1.564070664787904
 21
-0.7797380337784968
 72
     1
 10
1.564070664787904
 20
-0.7797380337784968
 11
1.551526176410284
 21
-0.7728640242908997
 72
     1
 10
1.551526176410284
 20
-0.7728640242908997
 11
1.493777989088711
 21
-0.8138303434593328
 97
        0
 75
     2
 76
     1
 98
        0
  0
POLYLINE
  5
4EA
330
458
100
AcDbEntity
  8
SDWC screw
  6
AI-Linetype-18
 62
   250
420
  2301728
370
    25
100
AcDb2dPolyline
 66
     1
 10
0.0
 20
0.0
 30
0.0
  0
VERTEX
  5
4EB
330
4EA
100
AcDbEntity
  8
SDWC screw
  6
AI-Linetype-18
 62
   250
420
  2301728
370
    25
100
AcDbVertex
100
AcDb2dVertex
 10
1.491631307674677
 20
-0.7686998866692344
 30
0.0
  0
VERTEX
  5
4EC
330
4EA
100
AcDbEntity
  8
SDWC screw
  6
AI-Linetype-18
 62
   250
420
  2301728
370
    25
100
AcDbVertex
100
AcDb2dVertex
 10
1.481987635554055
 20
-0.7619203851684107
 30
0.0
  0
VERTEX
  5
4ED
330
4EA
100
AcDbEntity
  8
SDWC screw
  6
AI-Linetype-18
 62
   250
420
  2301728
370
    25
100
AcDbVertex
100
AcDb2dVertex
 10
1.56188540874056
 20
-0.7346461516768461
 30
0.0
  0
VERTEX
  5
4EE
330
4EA
100
AcDbEntity
  8
SDWC screw
  6
AI-Linetype-18
 62
   250
420
  2301728
370
    25
100
AcDbVertex
100
AcDb2dVertex
 10
1.549379495050466
 20
-0.7277528548450442
 30
0.0
  0
SEQEND
  5
4F1
330
4EA
100
AcDbEntity
  8
SDWC screw
  6
AI-Linetype-18
 62
   250
420
  2301728
370
    25
  0
HATCH
  5
4F0
330
458
100
AcDbEntity
  8
SDWC screw
 62
    30
420
 15955765
100
AcDbHatch
 10
0.0
 20
0.0
 30
0.0
210
0.0
220
0.0
230
1.0
  2
SOLID
 70
     1
 71
     0
 91
        1
 92
        1
 93
        4
 72
     1
 10
1.491631307674677
 20
-0.7686998866692344
 11
1.481987635554055
 21
-0.7619203851684107
 72
     1
 10
1.481987635554055
 20
-0.7619203851684107
 11
1.56188540874056
 21
-0.7346461516768461
 72
     1
 10
1.56188540874056
 20
-0.7346461516768461
 11
1.549379495050466
 21
-0.727752854845044
 72
     1
 10
1.549379495050466
 20
-0.7277528548450442
 11
1.491631307674677
 21
-0.7686998866692344
 97
        0
 75
     2
 76
     1
 98
        0
  0
POLYLINE
  5
4F2
330
458
100
AcDbEntity
  8
SDWC screw
  6
AI-Linetype-19
 62
   250
420
  2301728
370
    25
100
AcDb2dPolyline
 66
     1
 10
0.0
 20
0.0
 30
0.0
  0
VERTEX
  5
4F3
330
4F2
100
AcDbEntity
  8
SDWC screw
  6
AI-Linetype-19
 62
   250
420
  2301728
370
    25
100
AcDbVertex
100
AcDb2dVertex
 10
1.493739414400251
 20
-0.723552071269296
 30
0.0
  0
VERTEX
  5
4F4
330
4F2
100
AcDbEntity
  8
SDWC screw
  6
AI-Linetype-19
 62
   250
420
  2301728
370
    25
100
AcDbVertex
100
AcDb2dVertex
 10
1.484095742279603
 20
-0.7167706410340694
 30
0.0
  0
VERTEX
  5
4F5
330
4F2
100
AcDbEntity
  8
SDWC screw
  6
AI-Linetype-19
 62
   250
420
  2301728
370
    25
100
AcDbVertex
100
AcDb2dVertex
 10
1.564014731491018
 20
-0.6894790489326649
 30
0.0
  0
VERTEX
  5
4F6
330
4F2
100
AcDbEntity
  8
SDWC screw
  6
AI-Linetype-19
 62
   250
420
  2301728
370
    25
100
AcDbVertex
100
AcDb2dVertex
 10
1.551489530457148
 20
-0.6825857521008629
 30
0.0
  0
SEQEND
  5
4F9
330
4F2
100
AcDbEntity
  8
SDWC screw
  6
AI-Linetype-19
 62
   250
420
  2301728
370
    25
  0
HATCH
  5
4F8
330
458
100
AcDbEntity
  8
SDWC screw
 62
    30
420
 15955765
100
AcDbHatch
 10
0.0
 20
0.0
 30
0.0
210
0.0
220
0.0
230
1.0
  2
SOLID
 70
     1
 71
     0
 91
        1
 92
        1
 93
        4
 72
     1
 10
1.493739414400251
 20
-0.723552071269296
 11
1.484095742279604
 21
-0.7167706410340694
 72
     1
 10
1.484095742279603
 20
-0.7167706410340694
 11
1.564014731491018
 21
-0.6894790489326649
 72
     1
 10
1.564014731491018
 20
-0.6894790489326649
 11
1.551489530457148
 21
-0.6825857521008628
 72
     1
 10
1.551489530457148
 20
-0.6825857521008629
 11
1.493739414400251
 21
-0.723552071269296
 97
        0
 75
     2
 76
     1
 98
        0
  0
POLYLINE
  5
4FA
330
458
100
AcDbEntity
  8
SDWC screw
  6
AI-Linetype-20
 62
   250
420
  2301728
370
    25
100
AcDb2dPolyline
 66
     1
 10
0.0
 20
0.0
 30
0.0
  0
VERTEX
  5
4FB
330
4FA
100
AcDbEntity
  8
SDWC screw
  6
AI-Linetype-20
 62
   250
420
  2301728
370
    25
100
AcDbVertex
100
AcDb2dVertex
 10
1.489746934142305
 20
-0.6795344942418953
 30
0.0
  0
VERTEX
  5
4FC
330
4FA
100
AcDbEntity
  8
SDWC screw
  6
AI-Linetype-20
 62
   250
420
  2301728
370
    25
100
AcDbVertex
100
AcDb2dVertex
 10
1.480141836710168
 20
-0.6727530640066687
 30
0.0
  0
VERTEX
  5
4FD
330
4FA
100
AcDbEntity
  8
SDWC screw
  6
AI-Linetype-20
 62
   250
420
  2301728
370
    25
100
AcDbVertex
100
AcDb2dVertex
 10
1.56003960994331
 20
-0.645480759249507
 30
0.0
  0
VERTEX
  5
4FE
330
4FA
100
AcDbEntity
  8
SDWC screw
  6
AI-Linetype-20
 62
   250
420
  2301728
370
    25
100
AcDbVertex
100
AcDb2dVertex
 10
1.54749705030008
 20
-0.6385855336832643
 30
0.0
  0
SEQEND
  5
501
330
4FA
100
AcDbEntity
  8
SDWC screw
  6
AI-Linetype-20
 62
   250
420
  2301728
370
    25
  0
HATCH
  5
500
330
458
100
AcDbEntity
  8
SDWC screw
 62
    30
420
 15955765
100
AcDbHatch
 10
0.0
 20
0.0
 30
0.0
210
0.0
220
0.0
230
1.0
  2
SOLID
 70
     1
 71
     0
 91
        1
 92
        1
 93
        4
 72
     1
 10
1.489746934142305
 20
-0.6795344942418953
 11
1.480141836710168
 21
-0.6727530640066687
 72
     1
 10
1.480141836710168
 20
-0.6727530640066687
 11
1.56003960994331
 21
-0.645480759249507
 72
     1
 10
1.56003960994331
 20
-0.645480759249507
 11
1.54749705030008
 21
-0.6385855336832643
 72
     1
 10
1.54749705030008
 20
-0.6385855336832643
 11
1.489746934142305
 21
-0.6795344942418953
 97
        0
 75
     2
 76
     1
 98
        0
  0
POLYLINE
  5
502
330
458
100
AcDbEntity
  8
SDWC screw
  6
AI-Linetype-21
 62
   250
420
  2301728
370
    25
100
AcDb2dPolyline
 66
     1
 10
0.0
 20
0.0
 30
0.0
  0
VERTEX
  5
503
330
502
100
AcDbEntity
  8
SDWC screw
  6
AI-Linetype-21
 62
   250
420
  2301728
370
    25
100
AcDbVertex
100
AcDb2dVertex
 10
1.491837682258039
 20
-0.634404037451759
 30
0.0
  0
VERTEX
  5
504
330
502
100
AcDbEntity
  8
SDWC screw
  6
AI-Linetype-21
 62
   250
420
  2301728
370
    25
100
AcDbVertex
100
AcDb2dVertex
 10
1.482213297481672
 20
-0.6276052486067303
 30
0.0
  0
VERTEX
  5
505
330
502
100
AcDbEntity
  8
SDWC screw
  6
AI-Linetype-21
 62
   250
420
  2301728
370
    25
100
AcDbVertex
100
AcDb2dVertex
 10
1.562130358006243
 20
-0.6003136565053258
 30
0.0
  0
VERTEX
  5
506
330
502
100
AcDbEntity
  8
SDWC screw
  6
AI-Linetype-21
 62
   250
420
  2301728
370
    25
100
AcDbVertex
100
AcDb2dVertex
 10
1.549605156972373
 20
-0.5934377182833259
 30
0.0
  0
SEQEND
  5
509
330
502
100
AcDbEntity
  8
SDWC screw
  6
AI-Linetype-21
 62
   250
420
  2301728
370
    25
  0
HATCH
  5
508
330
458
100
AcDbEntity
  8
SDWC screw
 62
    30
420
 15955765
100
AcDbHatch
 10
0.0
 20
0.0
 30
0.0
210
0.0
220
0.0
230
1.0
  2
SOLID
 70
     1
 71
     0
 91
        1
 92
        1
 93
        4
 72
     1
 10
1.491837682258039
 20
-0.634404037451759
 11
1.482213297481672
 21
-0.6276052486067303
 72
     1
 10
1.482213297481672
 20
-0.6276052486067303
 11
1.562130358006243
 21
-0.6003136565053258
 72
     1
 10
1.562130358006243
 20
-0.6003136565053258
 11
1.549605156972373
 21
-0.5934377182833258
 72
     1
 10
1.549605156972373
 20
-0.5934377182833259
 11
1.491837682258038
 21
-0.634404037451759
 97
        0
 75
     2
 76
     1
 98
        0
  0
POLYLINE
  5
50A
330
458
100
AcDbEntity
  8
SDWC screw
  6
AI-Linetype-22
 62
   250
420
  2301728
370
    25
100
AcDb2dPolyline
 66
     1
 10
0.0
 20
0.0
 30
0.0
  0
VERTEX
  5
50B
330
50A
100
AcDbEntity
  8
SDWC screw
  6
AI-Linetype-22
 62
   250
420
  2301728
370
    25
100
AcDbVertex
100
AcDb2dVertex
 10
1.491253275727533
 20
-0.5911213082399374
 30
0.0
  0
VERTEX
  5
50C
330
50A
100
AcDbEntity
  8
SDWC screw
  6
AI-Linetype-22
 62
   250
420
  2301728
370
    25
100
AcDbVertex
100
AcDb2dVertex
 10
1.481609603606911
 20
-0.5843398780047234
 30
0.0
  0
VERTEX
  5
50D
330
50A
100
AcDbEntity
  8
SDWC screw
  6
AI-Linetype-22
 62
   250
420
  2301728
370
    25
100
AcDbVertex
100
AcDb2dVertex
 10
1.561528592881106
 20
-0.557028998559114
 30
0.0
  0
VERTEX
  5
50E
330
50A
100
AcDbEntity
  8
SDWC screw
  6
AI-Linetype-22
 62
   250
420
  2301728
370
    25
100
AcDbVertex
100
AcDb2dVertex
 10
1.549003391847261
 20
-0.5501164143830187
 30
0.0
  0
SEQEND
  5
511
330
50A
100
AcDbEntity
  8
SDWC screw
  6
AI-Linetype-22
 62
   250
420
  2301728
370
    25
  0
HATCH
  5
510
330
458
100
AcDbEntity
  8
SDWC screw
 62
    30
420
 15955765
100
AcDbHatch
 10
0.0
 20
0.0
 30
0.0
210
0.0
220
0.0
230
1.0
  2
SOLID
 70
     1
 71
     0
 91
        1
 92
        1
 93
        4
 72
     1
 10
1.491253275727533
 20
-0.5911213082399374
 11
1.481609603606911
 21
-0.5843398780047234
 72
     1
 10
1.481609603606911
 20
-0.5843398780047234
 11
1.561528592881106
 21
-0.557028998559114
 72
     1
 10
1.561528592881106
 20
-0.557028998559114
 11
1.549003391847262
 21
-0.5501164143830187
 72
     1
 10
1.549003391847261
 20
-0.5501164143830187
 11
1.491253275727533
 21
-0.5911213082399375
 97
        0
 75
     2
 76
     1
 98
        0
  0
POLYLINE
  5
512
330
458
100
AcDbEntity
  8
SDWC screw
  6
AI-Linetype-23
 62
   250
420
  2301728
370
    25
100
AcDb2dPolyline
 66
     1
 10
0.0
 20
0.0
 30
0.0
  0
VERTEX
  5
513
330
512
100
AcDbEntity
  8
SDWC screw
  6
AI-Linetype-23
 62
   250
420
  2301728
370
    25
100
AcDbVertex
100
AcDb2dVertex
 10
1.493363311187522
 20
-0.5459542054957561
 30
0.0
  0
VERTEX
  5
514
330
512
100
AcDbEntity
  8
SDWC screw
  6
AI-Linetype-23
 62
   250
420
  2301728
370
    25
100
AcDbVertex
100
AcDb2dVertex
 10
1.48370035172267
 20
-0.5391727752605295
 30
0.0
  0
VERTEX
  5
515
330
512
100
AcDbEntity
  8
SDWC screw
  6
AI-Linetype-23
 62
   250
420
  2301728
370
    25
100
AcDbVertex
100
AcDb2dVertex
 10
1.563619340944064
 20
-0.5118811831591503
 30
0.0
  0
VERTEX
  5
516
330
512
100
AcDbEntity
  8
SDWC screw
  6
AI-Linetype-23
 62
   250
420
  2301728
370
    25
100
AcDbVertex
100
AcDb2dVertex
 10
1.551113427253944
 20
-0.5049589553109526
 30
0.0
  0
SEQEND
  5
519
330
512
100
AcDbEntity
  8
SDWC screw
  6
AI-Linetype-23
 62
   250
420
  2301728
370
    25
  0
HATCH
  5
518
330
458
100
AcDbEntity
  8
SDWC screw
 62
    30
420
 15955765
100
AcDbHatch
 10
0.0
 20
0.0
 30
0.0
210
0.0
220
0.0
230
1.0
  2
SOLID
 70
     1
 71
     0
 91
        1
 92
        1
 93
        4
 72
     1
 10
1.493363311187522
 20
-0.5459542054957561
 11
1.48370035172267
 21
-0.5391727752605295
 72
     1
 10
1.48370035172267
 20
-0.5391727752605295
 11
1.563619340944064
 21
-0.5118811831591503
 72
     1
 10
1.563619340944064
 20
-0.5118811831591503
 11
1.551113427253944
 21
-0.5049589553109525
 72
     1
 10
1.551113427253944
 20
-0.5049589553109526
 11
1.493363311187522
 21
-0.5459542054957562
 97
        0
 75
     2
 76
     1
 98
        0
  0
POLYLINE
  5
51A
330
458
100
AcDbEntity
  8
SDWC screw
  6
AI-Linetype-24
 62
   250
420
  2301728
370
    25
100
AcDb2dPolyline
 66
     1
 10
0.0
 20
0.0
 30
0.0
  0
VERTEX
  5
51B
330
51A
100
AcDbEntity
  8
SDWC screw
  6
AI-Linetype-24
 62
   250
420
  2301728
370
    25
100
AcDbVertex
100
AcDb2dVertex
 10
1.489370830929589
 20
-0.5019559158126109
 30
0.0
  0
VERTEX
  5
51C
330
51A
100
AcDbEntity
  8
SDWC screw
  6
AI-Linetype-24
 62
   250
420
  2301728
370
    25
100
AcDbVertex
100
AcDb2dVertex
 10
1.479727158808954
 20
-0.4951744855773844
 30
0.0
  0
VERTEX
  5
51D
330
51A
100
AcDbEntity
  8
SDWC screw
  6
AI-Linetype-24
 62
   250
420
  2301728
370
    25
100
AcDbVertex
100
AcDb2dVertex
 10
1.559663557016872
 20
-0.4678906084136921
 30
0.0
  0
VERTEX
  5
51E
330
51A
100
AcDbEntity
  8
SDWC screw
  6
AI-Linetype-24
 62
   250
420
  2301728
370
    25
100
AcDbVertex
100
AcDb2dVertex
 10
1.547119018362486
 20
-0.460970309299935
 30
0.0
  0
SEQEND
  5
521
330
51A
100
AcDbEntity
  8
SDWC screw
  6
AI-Linetype-24
 62
   250
420
  2301728
370
    25
  0
HATCH
  5
520
330
458
100
AcDbEntity
  8
SDWC screw
 62
    30
420
 15955765
100
AcDbHatch
 10
0.0
 20
0.0
 30
0.0
210
0.0
220
0.0
230
1.0
  2
SOLID
 70
     1
 71
     0
 91
        1
 92
        1
 93
        4
 72
     1
 10
1.489370830929589
 20
-0.5019559158126109
 11
1.479727158808954
 21
-0.4951744855773844
 72
     1
 10
1.479727158808954
 20
-0.4951744855773844
 11
1.559663557016873
 21
-0.4678906084136921
 72
     1
 10
1.559663557016872
 20
-0.4678906084136921
 11
1.547119018362486
 21
-0.460970309299935
 72
     1
 10
1.547119018362486
 20
-0.460970309299935
 11
1.489370830929589
 21
-0.5019559158126109
 97
        0
 75
     2
 76
     1
 98
        0
  0
POLYLINE
  5
522
330
458
100
AcDbEntity
  8
SDWC screw
  6
AI-Linetype-25
 62
   250
420
  2301728
370
    25
100
AcDb2dPolyline
 66
     1
 10
0.0
 20
0.0
 30
0.0
  0
VERTEX
  5
523
330
522
100
AcDbEntity
  8
SDWC screw
  6
AI-Linetype-25
 62
   250
420
  2301728
370
    25
100
AcDbVertex
100
AcDb2dVertex
 10
1.491442291701105
 20
-0.456788813068417
 30
0.0
  0
VERTEX
  5
524
330
522
100
AcDbEntity
  8
SDWC screw
  6
AI-Linetype-25
 62
   250
420
  2301728
370
    25
100
AcDbVertex
100
AcDb2dVertex
 10
1.481837194268943
 20
-0.4500073828331905
 30
0.0
  0
VERTEX
  5
525
330
522
100
AcDbEntity
  8
SDWC screw
  6
AI-Linetype-25
 62
   250
420
  2301728
370
    25
100
AcDbVertex
100
AcDb2dVertex
 10
1.561734967459289
 20
-0.4227235056695109
 30
0.0
  0
VERTEX
  5
526
330
522
100
AcDbEntity
  8
SDWC screw
  6
AI-Linetype-25
 62
   250
420
  2301728
370
    25
100
AcDbVertex
100
AcDb2dVertex
 10
1.549190529093873
 20
-0.4158398525097861
 30
0.0
  0
SEQEND
  5
529
330
522
100
AcDbEntity
  8
SDWC screw
  6
AI-Linetype-25
 62
   250
420
  2301728
370
    25
  0
HATCH
  5
528
330
458
100
AcDbEntity
  8
SDWC screw
 62
    30
420
 15955765
100
AcDbHatch
 10
0.0
 20
0.0
 30
0.0
210
0.0
220
0.0
230
1.0
  2
SOLID
 70
     1
 71
     0
 91
        1
 92
        1
 93
        4
 72
     1
 10
1.491442291701105
 20
-0.456788813068417
 11
1.481837194268943
 21
-0.4500073828331905
 72
     1
 10
1.481837194268943
 20
-0.4500073828331905
 11
1.561734967459289
 21
-0.4227235056695109
 72
     1
 10
1.561734967459289
 20
-0.4227235056695109
 11
1.549190529093873
 21
-0.4158398525097861
 72
     1
 10
1.549190529093873
 20
-0.4158398525097861
 11
1.491442291701105
 21
-0.456788813068417
 97
        0
 75
     2
 76
     1
 98
        0
  0
POLYLINE
  5
52A
330
458
100
AcDbEntity
  8
SDWC screw
  6
AI-Linetype-26
 62
   250
420
  2301728
370
    25
100
AcDb2dPolyline
 66
     1
 10
0.0
 20
0.0
 30
0.0
  0
VERTEX
  5
52B
330
52A
100
AcDbEntity
  8
SDWC screw
  6
AI-Linetype-26
 62
   250
420
  2301728
370
    25
100
AcDbVertex
100
AcDb2dVertex
 10
1.489596492857219
 20
-0.409473100175761
 30
0.0
  0
VERTEX
  5
52C
330
52A
100
AcDbEntity
  8
SDWC screw
  6
AI-Linetype-26
 62
   250
420
  2301728
370
    25
100
AcDbVertex
100
AcDb2dVertex
 10
1.479991395425082
 20
-0.4027032423470649
 30
0.0
  0
VERTEX
  5
52D
330
52A
100
AcDbEntity
  8
SDWC screw
  6
AI-Linetype-26
 62
   250
420
  2301728
370
    25
100
AcDbVertex
100
AcDb2dVertex
 10
1.559889168662039
 20
-0.3754000778391552
 30
0.0
  0
VERTEX
  5
52E
330
52A
100
AcDbEntity
  8
SDWC screw
  6
AI-Linetype-26
 62
   250
420
  2301728
370
    25
100
AcDbVertex
100
AcDb2dVertex
 10
1.547383254971919
 20
-0.3684874936630851
 30
0.0
  0
SEQEND
  5
531
330
52A
100
AcDbEntity
  8
SDWC screw
  6
AI-Linetype-26
 62
   250
420
  2301728
370
    25
  0
HATCH
  5
530
330
458
100
AcDbEntity
  8
SDWC screw
 62
    30
420
 15955765
100
AcDbHatch
 10
0.0
 20
0.0
 30
0.0
210
0.0
220
0.0
230
1.0
  2
SOLID
 70
     1
 71
     0
 91
        1
 92
        1
 93
        4
 72
     1
 10
1.489596492857219
 20
-0.409473100175761
 11
1.479991395425082
 21
-0.4027032423470649
 72
     1
 10
1.479991395425082
 20
-0.4027032423470649
 11
1.559889168662039
 21
-0.3754000778391552
 72
     1
 10
1.559889168662039
 20
-0.3754000778391552
 11
1.547383254971919
 21
-0.3684874936630851
 72
     1
 10
1.547383254971919
 20
-0.3684874936630851
 11
1.489596492857219
 21
-0.409473100175761
 97
        0
 75
     2
 76
     1
 98
        0
  0
POLYLINE
  5
532
330
458
100
AcDbEntity
  8
SDWC screw
  6
AI-Linetype-27
 62
   250
420
  2301728
370
    25
100
AcDb2dPolyline
 66
     1
 10
0.0
 20
0.0
 30
0.0
  0
VERTEX
  5
533
330
532
100
AcDbEntity
  8
SDWC screw
  6
AI-Linetype-27
 62
   250
420
  2301728
370
    25
100
AcDbVertex
100
AcDb2dVertex
 10
1.491706528317208
 20
-0.3643156411036949
 30
0.0
  0
VERTEX
  5
534
330
532
100
AcDbEntity
  8
SDWC screw
  6
AI-Linetype-27
 62
   250
420
  2301728
370
    25
100
AcDbVertex
100
AcDb2dVertex
 10
1.48209950215063
 20
-0.3575361396028837
 30
0.0
  0
VERTEX
  5
535
330
532
100
AcDbEntity
  8
SDWC screw
  6
AI-Linetype-27
 62
   250
420
  2301728
370
    25
100
AcDbVertex
100
AcDb2dVertex
 10
1.561999204068722
 20
-0.330232975094974
 30
0.0
  0
VERTEX
  5
536
330
532
100
AcDbEntity
  8
SDWC screw
  6
AI-Linetype-27
 62
   250
420
  2301728
370
    25
100
AcDbVertex
100
AcDb2dVertex
 10
1.549474003034851
 20
-0.3233203909189039
 30
0.0
  0
SEQEND
  5
539
330
532
100
AcDbEntity
  8
SDWC screw
  6
AI-Linetype-27
 62
   250
420
  2301728
370
    25
  0
HATCH
  5
538
330
458
100
AcDbEntity
  8
SDWC screw
 62
    30
420
 15955765
100
AcDbHatch
 10
0.0
 20
0.0
 30
0.0
210
0.0
220
0.0
230
1.0
  2
SOLID
 70
     1
 71
     0
 91
        1
 92
        1
 93
        4
 72
     1
 10
1.491706528317208
 20
-0.3643156411036949
 11
1.48209950215063
 21
-0.3575361396028837
 72
     1
 10
1.48209950215063
 20
-0.3575361396028837
 11
1.561999204068722
 21
-0.330232975094974
 72
     1
 10
1.561999204068722
 20
-0.330232975094974
 11
1.549474003034851
 21
-0.3233203909189039
 72
     1
 10
1.549474003034851
 20
-0.3233203909189039
 11
1.491706528317208
 21
-0.3643156411036949
 97
        0
 75
     2
 76
     1
 98
        0
  0
POLYLINE
  5
53A
330
458
100
AcDbEntity
  8
SDWC screw
  6
AI-Linetype-28
 62
   250
420
  2301728
370
    25
100
AcDb2dPolyline
 66
     1
 10
0.0
 20
0.0
 30
0.0
  0
VERTEX
  5
53B
330
53A
100
AcDbEntity
  8
SDWC screw
  6
AI-Linetype-28
 62
   250
420
  2301728
370
    25
100
AcDbVertex
100
AcDb2dVertex
 10
1.487731406669102
 20
-0.3202980640762815
 30
0.0
  0
VERTEX
  5
53C
330
53A
100
AcDbEntity
  8
SDWC screw
  6
AI-Linetype-28
 62
   250
420
  2301728
370
    25
100
AcDbVertex
100
AcDb2dVertex
 10
1.478068447204224
 20
-0.3135262775131827
 30
0.0
  0
VERTEX
  5
53D
330
53A
100
AcDbEntity
  8
SDWC screw
  6
AI-Linetype-28
 62
   250
420
  2301728
370
    25
100
AcDbVertex
100
AcDb2dVertex
 10
1.558006723911628
 20
-0.2862443290839186
 30
0.0
  0
VERTEX
  5
53E
330
53A
100
AcDbEntity
  8
SDWC screw
  6
AI-Linetype-28
 62
   250
420
  2301728
370
    25
100
AcDbVertex
100
AcDb2dVertex
 10
1.545481522877784
 20
-0.2793317449078485
 30
0.0
  0
SEQEND
  5
541
330
53A
100
AcDbEntity
  8
SDWC screw
  6
AI-Linetype-28
 62
   250
420
  2301728
370
    25
  0
HATCH
  5
540
330
458
100
AcDbEntity
  8
SDWC screw
 62
    30
420
 15955765
100
AcDbHatch
 10
0.0
 20
0.0
 30
0.0
210
0.0
220
0.0
230
1.0
  2
SOLID
 70
     1
 71
     0
 91
        1
 92
        1
 93
        4
 72
     1
 10
1.487731406669102
 20
-0.3202980640762815
 11
1.478068447204224
 21
-0.3135262775131827
 72
     1
 10
1.478068447204224
 20
-0.3135262775131827
 11
1.558006723911629
 21
-0.2862443290839186
 72
     1
 10
1.558006723911628
 20
-0.2862443290839186
 11
1.545481522877784
 21
-0.2793317449078485
 72
     1
 10
1.545481522877784
 20
-0.2793317449078485
 11
1.487731406669102
 21
-0.3202980640762815
 97
        0
 75
     2
 76
     1
 98
        0
  0
POLYLINE
  5
542
330
458
100
AcDbEntity
  8
SDWC screw
  6
AI-Linetype-29
 62
   250
420
  2301728
370
    25
100
AcDb2dPolyline
 66
     1
 10
0.0
 20
0.0
 30
0.0
  0
VERTEX
  5
543
330
542
100
AcDbEntity
  8
SDWC screw
  6
AI-Linetype-29
 62
   250
420
  2301728
370
    25
100
AcDbVertex
100
AcDb2dVertex
 10
1.489822154784835
 20
-0.275140605004228
 30
0.0
  0
VERTEX
  5
544
330
542
100
AcDbEntity
  8
SDWC screw
  6
AI-Linetype-29
 62
   250
420
  2301728
370
    25
100
AcDbVertex
100
AcDb2dVertex
 10
1.480178482664213
 20
-0.2683591747690015
 30
0.0
  0
VERTEX
  5
545
330
542
100
AcDbEntity
  8
SDWC screw
  6
AI-Linetype-29
 62
   250
420
  2301728
370
    25
100
AcDbVertex
100
AcDb2dVertex
 10
1.560114830583946
 20
-0.2410675826676096
 30
0.0
  0
VERTEX
  5
546
330
542
100
AcDbEntity
  8
SDWC screw
  6
AI-Linetype-29
 62
   250
420
  2301728
370
    25
100
AcDbVertex
100
AcDb2dVertex
 10
1.547589679521833
 20
-0.2341646421636672
 30
0.0
  0
SEQEND
  5
549
330
542
100
AcDbEntity
  8
SDWC screw
  6
AI-Linetype-29
 62
   250
420
  2301728
370
    25
  0
HATCH
  5
548
330
458
100
AcDbEntity
  8
SDWC screw
 62
    30
420
 15955765
100
AcDbHatch
 10
0.0
 20
0.0
 30
0.0
210
0.0
220
0.0
230
1.0
  2
SOLID
 70
     1
 71
     0
 91
        1
 92
        1
 93
        4
 72
     1
 10
1.489822154784835
 20
-0.275140605004228
 11
1.480178482664213
 21
-0.2683591747690015
 72
     1
 10
1.480178482664213
 20
-0.2683591747690015
 11
1.560114830583946
 21
-0.2410675826676096
 72
     1
 10
1.560114830583946
 20
-0.2410675826676096
 11
1.547589679521833
 21
-0.2341646421636673
 72
     1
 10
1.547589679521833
 20
-0.2341646421636672
 11
1.489822154784835
 21
-0.275140605004228
 97
        0
 75
     2
 76
     1
 98
        0
  0
POLYLINE
  5
54A
330
458
100
AcDbEntity
  8
SDWC screw
  6
AI-Linetype-30
 62
   250
420
  2301728
370
    25
100
AcDb2dPolyline
 66
     1
 10
0.0
 20
0.0
 30
0.0
  0
VERTEX
  5
54B
330
54A
100
AcDbEntity
  8
SDWC screw
  6
AI-Linetype-30
 62
   250
420
  2301728
370
    25
100
AcDbVertex
100
AcDb2dVertex
 10
1.489220389644515
 20
-0.2318482321202913
 30
0.0
  0
VERTEX
  5
54C
330
54A
100
AcDbEntity
  8
SDWC screw
  6
AI-Linetype-30
 62
   250
420
  2301728
370
    25
100
AcDbVertex
100
AcDb2dVertex
 10
1.479613363477938
 20
-0.2250764455571925
 30
0.0
  0
VERTEX
  5
54D
330
54A
100
AcDbEntity
  8
SDWC screw
  6
AI-Linetype-30
 62
   250
420
  2301728
370
    25
100
AcDbVertex
100
AcDb2dVertex
 10
1.559513065458835
 20
-0.1977752097836856
 30
0.0
  0
VERTEX
  5
54E
330
54A
100
AcDbEntity
  8
SDWC screw
  6
AI-Linetype-30
 62
   250
420
  2301728
370
    25
100
AcDbVertex
100
AcDb2dVertex
 10
1.546987864424965
 20
-0.1908703405453025
 30
0.0
  0
SEQEND
  5
551
330
54A
100
AcDbEntity
  8
SDWC screw
  6
AI-Linetype-30
 62
   250
420
  2301728
370
    25
  0
HATCH
  5
550
330
458
100
AcDbEntity
  8
SDWC screw
 62
    30
420
 15955765
100
AcDbHatch
 10
0.0
 20
0.0
 30
0.0
210
0.0
220
0.0
230
1.0
  2
SOLID
 70
     1
 71
     0
 91
        1
 92
        1
 93
        4
 72
     1
 10
1.489220389644515
 20
-0.2318482321202913
 11
1.479613363477938
 21
-0.2250764455571925
 72
     1
 10
1.479613363477938
 20
-0.2250764455571925
 11
1.559513065458835
 21
-0.1977752097836856
 72
     1
 10
1.559513065458835
 20
-0.1977752097836856
 11
1.546987864424965
 21
-0.1908703405453025
 72
     1
 10
1.546987864424965
 20
-0.1908703405453025
 11
1.489220389644515
 21
-0.2318482321202914
 97
        0
 75
     2
 76
     1
 98
        0
  0
POLYLINE
  5
552
330
458
100
AcDbEntity
  8
SDWC screw
  6
AI-Linetype-31
 62
   250
420
  2301728
370
    25
100
AcDb2dPolyline
 66
     1
 10
0.0
 20
0.0
 30
0.0
  0
VERTEX
  5
553
330
552
100
AcDbEntity
  8
SDWC screw
  6
AI-Linetype-31
 62
   250
420
  2301728
370
    25
100
AcDbVertex
100
AcDb2dVertex
 10
1.491347783714319
 20
-0.1866811293761227
 30
0.0
  0
VERTEX
  5
554
330
552
100
AcDbEntity
  8
SDWC screw
  6
AI-Linetype-31
 62
   250
420
  2301728
370
    25
100
AcDbVertex
100
AcDb2dVertex
 10
1.481723398937927
 20
-0.1799093428129986
 30
0.0
  0
VERTEX
  5
555
330
552
100
AcDbEntity
  8
SDWC screw
  6
AI-Linetype-31
 62
   250
420
  2301728
370
    25
100
AcDbVertex
100
AcDb2dVertex
 10
1.561623100865518
 20
-0.152615821977204
 30
0.0
  0
VERTEX
  5
556
330
552
100
AcDbEntity
  8
SDWC screw
  6
AI-Linetype-31
 62
   250
420
  2301728
370
    25
100
AcDbVertex
100
AcDb2dVertex
 10
1.549097899831647
 20
-0.145712881473249
 30
0.0
  0
SEQEND
  5
559
330
552
100
AcDbEntity
  8
SDWC screw
  6
AI-Linetype-31
 62
   250
420
  2301728
370
    25
  0
HATCH
  5
558
330
458
100
AcDbEntity
  8
SDWC screw
 62
    30
420
 15955765
100
AcDbHatch
 10
0.0
 20
0.0
 30
0.0
210
0.0
220
0.0
230
1.0
  2
SOLID
 70
     1
 71
     0
 91
        1
 92
        1
 93
        4
 72
     1
 10
1.491347783714319
 20
-0.1866811293761227
 11
1.481723398937927
 21
-0.1799093428129986
 72
     1
 10
1.481723398937927
 20
-0.1799093428129986
 11
1.561623100865517
 21
-0.152615821977204
 72
     1
 10
1.561623100865518
 20
-0.152615821977204
 11
1.549097899831648
 21
-0.145712881473249
 72
     1
 10
1.549097899831647
 20
-0.145712881473249
 11
1.491347783714319
 21
-0.1866811293761227
 97
        0
 75
     2
 76
     1
 98
        0
  0
POLYLINE
  5
55A
330
458
100
AcDbEntity
  8
SDWC screw
  6
AI-Linetype-32
 62
   250
420
  2301728
370
    25
100
AcDb2dPolyline
 66
     1
 10
0.0
 20
0.0
 30
0.0
  0
VERTEX
  5
55B
330
55A
100
AcDbEntity
  8
SDWC screw
  6
AI-Linetype-32
 62
   250
420
  2301728
370
    25
100
AcDbVertex
100
AcDb2dVertex
 10
1.487355303456373
 20
-0.1426905546306519
 30
0.0
  0
VERTEX
  5
55C
330
55A
100
AcDbEntity
  8
SDWC screw
  6
AI-Linetype-32
 62
   250
420
  2301728
370
    25
100
AcDbVertex
100
AcDb2dVertex
 10
1.477730918679994
 20
-0.1359091243954254
 30
0.0
  0
VERTEX
  5
55D
330
55A
100
AcDbEntity
  8
SDWC screw
  6
AI-Linetype-32
 62
   250
420
  2301728
370
    25
100
AcDbVertex
100
AcDb2dVertex
 10
1.55762869197406
 20
-0.1086271759661612
 30
0.0
  0
VERTEX
  5
55E
330
55A
100
AcDbEntity
  8
SDWC screw
  6
AI-Linetype-32
 62
   250
420
  2301728
370
    25
100
AcDbVertex
100
AcDb2dVertex
 10
1.545103490940189
 20
-0.1017145917900911
 30
0.0
  0
SEQEND
  5
561
330
55A
100
AcDbEntity
  8
SDWC screw
  6
AI-Linetype-32
 62
   250
420
  2301728
370
    25
  0
HATCH
  5
560
330
458
100
AcDbEntity
  8
SDWC screw
 62
    30
420
 15955765
100
AcDbHatch
 10
0.0
 20
0.0
 30
0.0
210
0.0
220
0.0
230
1.0
  2
SOLID
 70
     1
 71
     0
 91
        1
 92
        1
 93
        4
 72
     1
 10
1.487355303456373
 20
-0.1426905546306519
 11
1.477730918679994
 21
-0.1359091243954253
 72
     1
 10
1.477730918679994
 20
-0.1359091243954254
 11
1.55762869197406
 21
-0.1086271759661612
 72
     1
 10
1.55762869197406
 20
-0.1086271759661612
 11
1.54510349094019
 21
-0.1017145917900911
 72
     1
 10
1.545103490940189
 20
-0.1017145917900911
 11
1.487355303456373
 21
-0.1426905546306519
 97
        0
 75
     2
 76
     1
 98
        0
  0
POLYLINE
  5
562
330
458
100
AcDbEntity
  8
SDWC screw
  6
AI-Linetype-33
 62
   250
420
  2301728
370
    25
100
AcDb2dPolyline
 66
     1
 10
0.0
 20
0.0
 30
0.0
  0
VERTEX
  5
563
330
562
100
AcDbEntity
  8
SDWC screw
  6
AI-Linetype-33
 62
   250
420
  2301728
370
    25
100
AcDbVertex
100
AcDb2dVertex
 10
1.489446051572145
 20
-0.0975330955585857
 30
0.0
  0
VERTEX
  5
564
330
562
100
AcDbEntity
  8
SDWC screw
  6
AI-Linetype-33
 62
   250
420
  2301728
370
    25
100
AcDbVertex
100
AcDb2dVertex
 10
1.47980237945151
 20
-0.0907613089954869
 30
0.0
  0
VERTEX
  5
565
330
562
100
AcDbEntity
  8
SDWC screw
  6
AI-Linetype-33
 62
   250
420
  2301728
370
    25
100
AcDbVertex
100
AcDb2dVertex
 10
1.559719440036992
 20
-0.0634793605662228
 30
0.0
  0
VERTEX
  5
566
330
562
100
AcDbEntity
  8
SDWC screw
  6
AI-Linetype-33
 62
   250
420
  2301728
370
    25
100
AcDbVertex
100
AcDb2dVertex
 10
1.547232813690647
 20
-0.0565667763901527
 30
0.0
  0
SEQEND
  5
569
330
562
100
AcDbEntity
  8
SDWC screw
  6
AI-Linetype-33
 62
   250
420
  2301728
370
    25
  0
HATCH
  5
568
330
458
100
AcDbEntity
  8
SDWC screw
 62
    30
420
 15955765
100
AcDbHatch
 10
0.0
 20
0.0
 30
0.0
210
0.0
220
0.0
230
1.0
  2
SOLID
 70
     1
 71
     0
 91
        1
 92
        1
 93
        4
 72
     1
 10
1.489446051572145
 20
-0.0975330955585857
 11
1.47980237945151
 21
-0.0907613089954869
 72
     1
 10
1.47980237945151
 20
-0.0907613089954869
 11
1.559719440036992
 21
-0.0634793605662228
 72
     1
 10
1.559719440036992
 20
-0.0634793605662228
 11
1.547232813690647
 21
-0.0565667763901527
 72
     1
 10
1.547232813690647
 20
-0.0565667763901527
 11
1.489446051572145
 21
-0.0975330955585857
 97
        0
 75
     2
 76
     1
 98
        0
  0
POLYLINE
  5
56A
330
458
100
AcDbEntity
  8
SDWC screw
  6
AI-Linetype-34
 62
   250
420
  2301728
370
    25
100
AcDb2dPolyline
 66
     1
 10
0.0
 20
0.0
 30
0.0
  0
VERTEX
  5
56B
330
56A
100
AcDbEntity
  8
SDWC screw
  6
AI-Linetype-34
 62
   250
420
  2301728
370
    25
100
AcDbVertex
100
AcDb2dVertex
 10
1.485225980652128
 20
-0.0541172836715052
 30
0.0
  0
VERTEX
  5
56C
330
56A
100
AcDbEntity
  8
SDWC screw
  6
AI-Linetype-34
 62
   250
420
  2301728
370
    25
100
AcDbVertex
100
AcDb2dVertex
 10
1.475601595875762
 20
-0.047328138498579
 30
0.0
  0
VERTEX
  5
56D
330
56A
100
AcDbEntity
  8
SDWC screw
  6
AI-Linetype-34
 62
   250
420
  2301728
370
    25
100
AcDbVertex
100
AcDb2dVertex
 10
1.555520585301742
 20
-0.0200442613348994
 30
0.0
  0
VERTEX
  5
56E
330
56A
100
AcDbEntity
  8
SDWC screw
  6
AI-Linetype-34
 62
   250
420
  2301728
370
    25
100
AcDbVertex
100
AcDb2dVertex
 10
1.542995384267872
 20
-0.0131316771588293
 30
0.0
  0
SEQEND
  5
571
330
56A
100
AcDbEntity
  8
SDWC screw
  6
AI-Linetype-34
 62
   250
420
  2301728
370
    25
  0
HATCH
  5
570
330
458
100
AcDbEntity
  8
SDWC screw
 62
    30
420
 15955765
100
AcDbHatch
 10
0.0
 20
0.0
 30
0.0
210
0.0
220
0.0
230
1.0
  2
SOLID
 70
     1
 71
     0
 91
        1
 92
        1
 93
        4
 72
     1
 10
1.485225980652128
 20
-0.0541172836715052
 11
1.475601595875762
 21
-0.047328138498579
 72
     1
 10
1.475601595875762
 20
-0.047328138498579
 11
1.555520585301742
 21
-0.0200442613348994
 72
     1
 10
1.555520585301742
 20
-0.0200442613348994
 11
1.542995384267872
 21
-0.0131316771588293
 72
     1
 10
1.542995384267872
 20
-0.0131316771588293
 11
1.485225980652129
 21
-0.0541172836715052
 97
        0
 75
     2
 76
     1
 98
        0
  0
POLYLINE
  5
572
330
458
100
AcDbEntity
  8
SDWC screw
  6
AI-Linetype-35
 62
   250
420
  2301728
370
    25
100
AcDb2dPolyline
 66
     1
 10
0.0
 20
0.0
 30
0.0
  0
VERTEX
  5
573
330
572
100
AcDbEntity
  8
SDWC screw
  6
AI-Linetype-35
 62
   250
420
  2301728
370
    25
100
AcDbVertex
100
AcDb2dVertex
 10
1.493438531830078
 20
-0.0104565225125776
 30
0.0
  0
VERTEX
  5
574
330
572
100
AcDbEntity
  8
SDWC screw
  6
AI-Linetype-35
 62
   250
420
  2301728
370
    25
100
AcDbVertex
100
AcDb2dVertex
 10
1.483794859709431
 20
-0.0036770210117538
 30
0.0
  0
VERTEX
  5
575
330
572
100
AcDbEntity
  8
SDWC screw
  6
AI-Linetype-35
 62
   250
420
  2301728
370
    25
100
AcDbVertex
100
AcDb2dVertex
 10
1.547853866159509
 20
0.0178804436466938
 30
0.0
  0
VERTEX
  5
576
330
572
100
AcDbEntity
  8
SDWC screw
  6
AI-Linetype-35
 62
   250
420
  2301728
370
    25
100
AcDbVertex
100
AcDb2dVertex
 10
1.535328665125664
 20
0.0247833841506362
 30
0.0
  0
SEQEND
  5
579
330
572
100
AcDbEntity
  8
SDWC screw
  6
AI-Linetype-35
 62
   250
420
  2301728
370
    25
  0
HATCH
  5
578
330
458
100
AcDbEntity
  8
SDWC screw
 62
    30
420
 15955765
100
AcDbHatch
 10
0.0
 20
0.0
 30
0.0
210
0.0
220
0.0
230
1.0
  2
SOLID
 70
     1
 71
     0
 91
        1
 92
        1
 93
        4
 72
     1
 10
1.493438531830078
 20
-0.0104565225125776
 11
1.483794859709431
 21
-0.0036770210117538
 72
     1
 10
1.483794859709431
 20
-0.0036770210117538
 11
1.547853866159509
 21
0.0178804436466938
 72
     1
 10
1.547853866159509
 20
0.0178804436466938
 11
1.535328665125664
 21
0.0247833841506362
 72
     1
 10
1.535328665125664
 20
0.0247833841506362
 11
1.493438531830078
 21
-0.0104565225125776
 97
        0
 75
     2
 76
     1
 98
        0
  0
ENDBLK
  5
45B
330
458
100
AcDbEntity
  8
0
100
AcDbBlockEnd
  0
BLOCK
  5
58B
330
589
100
AcDbEntity
  8
0
100
AcDbBlockBegin
  2
block 6
 70
     0
 10
0.0
 20
0.0
 30
0.0
  3
block 6
  1

  0
POLYLINE
  5
58D
330
589
100
AcDbEntity
  8
Callout
370
     0
100
AcDb2dPolyline
 66
     1
 10
0.0
 20
0.0
 30
0.0
  0
VERTEX
  5
58E
330
58D
100
AcDbEntity
  8
Callout
370
     0
100
AcDbVertex
100
AcDb2dVertex
 10
1.51967698566927
 20
0.2167908248068089
 30
0.0
  0
VERTEX
  5
58F
330
58D
100
AcDbEntity
  8
Callout
370
     0
100
AcDbVertex
100
AcDb2dVertex
 10
1.663267402449214
 20
0.1791959334117463
 30
0.0
  0
VERTEX
  5
590
330
58D
100
AcDbEntity
  8
Callout
370
     0
100
AcDbVertex
100
AcDb2dVertex
 10
1.662061943464576
 20
0.2619193528625045
 30
0.0
  0
VERTEX
  5
591
330
58D
100
AcDbEntity
  8
Callout
370
     0
100
AcDbVertex
100
AcDb2dVertex
 10
1.51967698566927
 20
0.2167908248068089
 30
0.0
  0
SEQEND
  5
593
330
58D
100
AcDbEntity
  8
Callout
370
     0
  0
HATCH
  5
592
330
589
100
AcDbEntity
  8
Callout
 62
   250
420
  2301728
100
AcDbHatch
 10
0.0
 20
0.0
 30
0.0
210
0.0
220
0.0
230
1.0
  2
SOLID
 70
     1
 71
     0
 91
        1
 92
        1
 93
        3
 72
     1
 10
1.51967698566927
 20
0.2167908248068089
 11
1.663267402449214
 21
0.1791959334117463
 72
     1
 10
1.663267402449214
 20
0.1791959334117463
 11
1.662061943464576
 21
0.2619193528625045
 72
     1
 10
1.662061943464576
 20
0.2619193528625045
 11
1.51967698566927
 21
0.2167908248068089
 97
        0
 75
     2
 76
     1
 98
        0
  0
POLYLINE
  5
594
330
589
100
AcDbEntity
  8
Callout
 62
   250
420
  2301728
370
    25
100
AcDb2dPolyline
 66
     1
 10
0.0
 20
0.0
 30
0.0
  0
VERTEX
  5
595
330
594
100
AcDbEntity
  8
Callout
 62
   250
420
  2301728
370
    25
100
AcDbVertex
100
AcDb2dVertex
 10
1.595827327469225
 20
0.2209723210383016
 30
0.0
  0
VERTEX
  5
596
330
594
100
AcDbEntity
  8
Callout
 62
   250
420
  2301728
370
    25
100
AcDbVertex
100
AcDb2dVertex
 10
1.790104832444386
 20
0.2209723210383016
 30
0.0
  0
SEQEND
  5
597
330
594
100
AcDbEntity
  8
Callout
 62
   250
420
  2301728
370
    25
  0
ENDBLK
  5
58C
330
589
100
AcDbEntity
  8
0
100
AcDbBlockEnd
  0
BLOCK
  5
59A
330
598
100
AcDbEntity
  8
0
100
AcDbBlockBegin
  2
block 7
 70
     0
 10
0.0
 20
0.0
 30
0.0
  3
block 7
  1

  0
POLYLINE
  5
59C
330
598
100
AcDbEntity
  8
Callout
370
     0
100
AcDb2dPolyline
 66
     1
 10
0.0
 20
0.0
 30
0.0
  0
VERTEX
  5
59D
330
59C
100
AcDbEntity
  8
Callout
370
     0
100
AcDbVertex
100
AcDb2dVertex
 10
1.386528782700781
 20
0.2243244614674419
 30
0.0
  0
VERTEX
  5
59E
330
59C
100
AcDbEntity
  8
Callout
370
     0
100
AcDbVertex
100
AcDb2dVertex
 10
1.242928718621316
 20
0.2619193528625045
 30
0.0
  0
VERTEX
  5
59F
330
59C
100
AcDbEntity
  8
Callout
370
     0
100
AcDbVertex
100
AcDb2dVertex
 10
1.244134177636397
 20
0.1791959334117463
 30
0.0
  0
VERTEX
  5
5A0
330
59C
100
AcDbEntity
  8
Callout
370
     0
100
AcDbVertex
100
AcDb2dVertex
 10
1.386528782700781
 20
0.2243244614674419
 30
0.0
  0
SEQEND
  5
5A2
330
59C
100
AcDbEntity
  8
Callout
370
     0
  0
HATCH
  5
5A1
330
598
100
AcDbEntity
  8
Callout
 62
   250
420
  2301728
100
AcDbHatch
 10
0.0
 20
0.0
 30
0.0
210
0.0
220
0.0
230
1.0
  2
SOLID
 70
     1
 71
     0
 91
        1
 92
        1
 93
        3
 72
     1
 10
1.386528782700781
 20
0.2243244614674419
 11
1.242928718621316
 21
0.2619193528625045
 72
     1
 10
1.242928718621316
 20
0.2619193528625045
 11
1.244134177636397
 21
0.1791959334117463
 72
     1
 10
1.244134177636397
 20
0.1791959334117463
 11
1.386528782700781
 21
0.2243244614674419
 97
        0
 75
     2
 76
     1
 98
        0
  0
POLYLINE
  5
5A3
330
598
100
AcDbEntity
  8
Callout
 62
   250
420
  2301728
370
    25
100
AcDb2dPolyline
 66
     1
 10
0.0
 20
0.0
 30
0.0
  0
VERTEX
  5
5A4
330
5A3
100
AcDbEntity
  8
Callout
 62
   250
420
  2301728
370
    25
100
AcDbVertex
100
AcDb2dVertex
 10
1.310378490167422
 20
0.2201429652359366
 30
0.0
  0
VERTEX
  5
5A5
330
5A3
100
AcDbEntity
  8
Callout
 62
   250
420
  2301728
370
    25
100
AcDbVertex
100
AcDb2dVertex
 10
1.141645087807193
 20
0.2201429652359366
 30
0.0
  0
SEQEND
  5
5A6
330
5A3
100
AcDbEntity
  8
Callout
 62
   250
420
  2301728
370
    25
  0
ENDBLK
  5
59B
330
598
100
AcDbEntity
  8
0
100
AcDbBlockEnd
  0
ENDSEC
  0
SECTION
  2
ENTITIES
  0
SPLINE
  5
41
330
1F
100
AcDbEntity
  8
fill layer
370
     0
100
AcDbSpline
210
0.0
220
0.0
230
1.0
 70
     8
 71
     3
 72
    80
 73
    76
 74
     0
 42
0.0000000001
 43
0.0000000001
 12
1.0
 22
0.0
 32
0.0
 13
1.0
 23
0.0
 33
0.0
 40
0.0
 40
0.0
 40
0.0
 40
0.0
 40
1.0
 40
1.0
 40
1.0
 40
2.0
 40
2.0
 40
2.0
 40
3.0
 40
3.0
 40
3.0
 40
4.0
 40
4.0
 40
4.0
 40
5.0
 40
5.0
 40
5.0
 40
6.0
 40
6.0
 40
6.0
 40
7.0
 40
7.0
 40
7.0
 40
8.0
 40
8.0
 40
8.0
 40
9.0
 40
9.0
 40
9.0
 40
10.0
 40
10.0
 40
10.0
 40
11.0
 40
11.0
 40
11.0
 40
12.0
 40
12.0
 40
12.0
 40
13.0
 40
13.0
 40
13.0
 40
14.0
 40
14.0
 40
14.0
 40
15.0
 40
15.0
 40
15.0
 40
16.0
 40
16.0
 40
16.0
 40
17.0
 40
17.0
 40
17.0
 40
18.0
 40
18.0
 40
18.0
 40
19.0
 40
19.0
 40
19.0
 40
20.0
 40
20.0
 40
20.0
 40
21.0
 40
21.0
 40
21.0
 40
22.0
 40
22.0
 40
22.0
 40
23.0
 40
23.0
 40
23.0
 40
24.0
 40
24.0
 40
24.0
 40
25.0
 40
25.0
 40
25.0
 40
25.0
 10
1.394986283150577
 20
-1.557899438333101
 30
0.0
 10
1.394986283150577
 20
-1.557899438333101
 30
0.0
 10
-0.1414454878426265
 20
-1.557899438333101
 30
0.0
 10
-0.1414454878426265
 20
-1.557899438333101
 30
0.0
 10
-0.1414454878426265
 20
-1.557899438333101
 30
0.0
 10
-0.1414454878426265
 20
-1.392412096008684
 30
0.0
 10
-0.1414454878426265
 20
-1.392412096008684
 30
0.0
 10
-0.1414454878426265
 20
-1.392412096008684
 30
0.0
 10
-0.2041197129546062
 20
-1.349580690652071
 30
0.0
 10
-0.2041197129546062
 20
-1.349580690652071
 30
0.0
 10
-0.2041197129546062
 20
-1.349580690652071
 30
0.0
 10
-0.075540632570235
 20
-1.306184166109258
 30
0.0
 10
-0.075540632570235
 20
-1.306184166109258
 30
0.0
 10
-0.075540632570235
 20
-1.306184166109258
 30
0.0
 10
-0.1414454878426265
 20
-1.260829976125958
 30
0.0
 10
-0.1414454878426265
 20
-1.260829976125958
 30
0.0
 10
-0.1414454878426265
 20
-1.260829976125958
 30
0.0
 10
-0.1414454878426265
 20
-0.9795799936654753
 30
0.0
 10
-0.1414454878426265
 20
-0.9795799936654753
 30
0.0
 10
-0.1414454878426265
 20
-0.9795799936654753
 30
0.0
 10
-0.2073406994429029
 20
-0.9348661435109432
 30
0.0
 10
-0.2073406994429029
 20
-0.9348661435109432
 30
0.0
 10
-0.2073406994429029
 20
-0.9348661435109432
 30
0.0
 10
-0.075540632570235
 20
-0.8914696189681182
 30
0.0
 10
-0.075540632570235
 20
-0.8914696189681182
 30
0.0
 10
-0.075540632570235
 20
-0.8914696189681182
 30
0.0
 10
-0.1414454878426265
 20
-0.8473941799079764
 30
0.0
 10
-0.1414454878426265
 20
-0.8473941799079764
 30
0.0
 10
-0.1414454878426265
 20
-0.8473941799079764
 30
0.0
 10
-0.1414454878426265
 20
-0.6774244587818808
 30
0.0
 10
-0.1414454878426265
 20
-0.6774244587818808
 30
0.0
 10
-0.1414454878426265
 20
-0.6774244587818808
 30
0.0
 10
1.394986283150577
 20
-0.6774244587818808
 30
0.0
 10
1.394986283150577
 20
-0.6774244587818808
 30
0.0
 10
1.394986283150577
 20
-0.6774244587818808
 30
0.0
 10
1.394986283150577
 20
1.353557191876525
 30
0.0
 10
1.394986283150577
 20
1.353557191876525
 30
0.0
 10
1.394986283150577
 20
1.353557191876525
 30
0.0
 10
1.833462781203429
 20
1.353557191876525
 30
0.0
 10
1.833462781203429
 20
1.353557191876525
 30
0.0
 10
1.833462781203429
 20
1.353557191876525
 30
0.0
 10
1.833462781203429
 20
-0.6774244587818808
 30
0.0
 10
1.833462781203429
 20
-0.6774244587818808
 30
0.0
 10
1.833501355890929
 20
-0.6774244587818808
 30
0.0
 10
3.373399023743205
 20
-0.6774244587818808
 30
0.0
 10
3.373399023743205
 20
-0.6774244587818808
 30
0.0
 10
3.373399023743205
 20
-0.6774244587818808
 30
0.0
 10
3.373399023743205
 20
-0.8381266110000575
 30
0.0
 10
3.373399023743205
 20
-0.8381266110000575
 30
0.0
 10
3.373399023743205
 20
-0.8381266110000575
 30
0.0
 10
3.443730322742239
 20
-0.8858936477479599
 30
0.0
 10
3.443730322742239
 20
-0.8858936477479599
 30
0.0
 10
3.443730322742239
 20
-0.8858936477479599
 30
0.0
 10
3.292521405179463
 20
-0.9389338444114325
 30
0.0
 10
3.292521405179463
 20
-0.9389338444114325
 30
0.0
 10
3.292521405179463
 20
-0.9389338444114325
 30
0.0
 10
3.373399023743205
 20
-0.9808240273690165
 30
0.0
 10
3.373399023743205
 20
-0.9808240273690165
 30
0.0
 10
3.373399023743205
 20
-0.9808240273690165
 30
0.0
 10
3.373399023743205
 20
-1.257853938909521
 30
0.0
 10
3.373399023743205
 20
-1.257853938909521
 30
0.0
 10
3.373399023743205
 20
-1.257853938909521
 30
0.0
 10
3.443730322742239
 20
-1.301890803281165
 30
0.0
 10
3.443730322742239
 20
-1.301890803281165
 30
0.0
 10
3.443730322742239
 20
-1.301890803281165
 30
0.0
 10
3.294932323148714
 20
-1.354930999944625
 30
0.0
 10
3.294932323148714
 20
-1.354930999944625
 30
0.0
 10
3.294932323148714
 20
-1.354930999944625
 30
0.0
 10
3.373399023743205
 20
-1.404881364060619
 30
0.0
 10
3.373399023743205
 20
-1.404881364060619
 30
0.0
 10
3.373399023743205
 20
-1.404881364060619
 30
0.0
 10
3.373399023743205
 20
-1.557899438333101
 30
0.0
 10
3.373399023743205
 20
-1.557899438333101
 30
0.0
 10
3.373399023743205
 20
-1.557899438333101
 30
0.0
 10
1.833501355890929
 20
-1.557899438333101
 30
0.0
 10
1.833462781203429
 20
-1.557899438333101
 30
0.0
  0
HATCH
  5
42
330
1F
100
AcDbEntity
  8
fill layer
 62
    33
420
 15180889
100
AcDbHatch
 10
0.0
 20
0.0
 30
0.0
210
0.0
220
0.0
230
1.0
  2
SOLID
 70
     1
 71
     0
 91
        1
 92
        1
 93
        2
 72
     4
 94
        3
 73
     0
 74
     0
 95
       80
 96
       76
 40
0.0
 40
0.0
 40
0.0
 40
0.0
 40
0.0138888888888889
 40
0.0138888888888889
 40
0.0138888888888889
 40
0.0277777777777778
 40
0.0277777777777778
 40
0.0277777777777778
 40
0.0416666666666667
 40
0.0416666666666667
 40
0.0416666666666667
 40
0.0555555555555556
 40
0.0555555555555556
 40
0.0555555555555556
 40
0.0694444444444444
 40
0.0694444444444444
 40
0.0694444444444444
 40
0.0833333333333333
 40
0.0833333333333333
 40
0.0833333333333333
 40
0.0972222222222222
 40
0.0972222222222222
 40
0.0972222222222222
 40
0.1111111111111111
 40
0.1111111111111111
 40
0.1111111111111111
 40
0.125
 40
0.125
 40
0.125
 40
0.1388888888888889
 40
0.1388888888888889
 40
0.1388888888888889
 40
0.1527777777777778
 40
0.1527777777777778
 40
0.1527777777777778
 40
0.1666666666666667
 40
0.1666666666666667
 40
0.1666666666666667
 40
0.1805555555555556
 40
0.1805555555555556
 40
0.1805555555555556
 40
0.1944444444444444
 40
0.1944444444444444
 40
0.1944444444444444
 40
0.2083333333333333
 40
0.2083333333333333
 40
0.2083333333333333
 40
0.2222222222222222
 40
0.2222222222222222
 40
0.2222222222222222
 40
0.2361111111111111
 40
0.2361111111111111
 40
0.2361111111111111
 40
0.25
 40
0.25
 40
0.25
 40
0.2638888888888889
 40
0.2638888888888889
 40
0.2638888888888889
 40
0.2777777777777778
 40
0.2777777777777778
 40
0.2777777777777778
 40
0.2916666666666666
 40
0.2916666666666666
 40
0.2916666666666666
 40
0.3055555555555555
 40
0.3055555555555555
 40
0.3055555555555555
 40
0.3194444444444444
 40
0.3194444444444444
 40
0.3194444444444444
 40
0.3333333333333333
 40
0.3333333333333333
 40
0.3333333333333333
 40
0.3472222222222222
 40
0.3472222222222222
 40
0.3472222222222222
 40
0.3472222222222222
 10
1.394986283150577
 20
-1.557899438333101
 10
1.394986283150577
 20
-1.557899438333101
 10
-0.1414454878426265
 20
-1.557899438333101
 10
-0.1414454878426265
 20
-1.557899438333101
 10
-0.1414454878426265
 20
-1.557899438333101
 10
-0.1414454878426265
 20
-1.392412096008684
 10
-0.1414454878426265
 20
-1.392412096008684
 10
-0.1414454878426265
 20
-1.392412096008684
 10
-0.2041197129546062
 20
-1.349580690652071
 10
-0.2041197129546062
 20
-1.349580690652071
 10
-0.2041197129546062
 20
-1.349580690652071
 10
-0.075540632570235
 20
-1.306184166109258
 10
-0.075540632570235
 20
-1.306184166109258
 10
-0.075540632570235
 20
-1.306184166109258
 10
-0.1414454878426265
 20
-1.260829976125958
 10
-0.1414454878426265
 20
-1.260829976125958
 10
-0.1414454878426265
 20
-1.260829976125958
 10
-0.1414454878426265
 20
-0.9795799936654753
 10
-0.1414454878426265
 20
-0.9795799936654753
 10
-0.1414454878426265
 20
-0.9795799936654753
 10
-0.2073406994429029
 20
-0.9348661435109432
 10
-0.2073406994429029
 20
-0.9348661435109432
 10
-0.2073406994429029
 20
-0.9348661435109432
 10
-0.075540632570235
 20
-0.8914696189681182
 10
-0.075540632570235
 20
-0.8914696189681182
 10
-0.075540632570235
 20
-0.8914696189681182
 10
-0.1414454878426265
 20
-0.8473941799079764
 10
-0.1414454878426265
 20
-0.8473941799079764
 10
-0.1414454878426265
 20
-0.8473941799079764
 10
-0.1414454878426265
 20
-0.6774244587818808
 10
-0.1414454878426265
 20
-0.6774244587818808
 10
-0.1414454878426265
 20
-0.6774244587818808
 10
1.394986283150577
 20
-0.6774244587818808
 10
1.394986283150577
 20
-0.6774244587818808
 10
1.394986283150577
 20
-0.6774244587818808
 10
1.394986283150577
 20
1.353557191876525
 10
1.394986283150577
 20
1.353557191876525
 10
1.394986283150577
 20
1.353557191876525
 10
1.833462781203429
 20
1.353557191876525
 10
1.833462781203429
 20
1.353557191876525
 10
1.833462781203429
 20
1.353557191876525
 10
1.833462781203429
 20
-0.6774244587818808
 10
1.833462781203429
 20
-0.6774244587818808
 10
1.833501355890929
 20
-0.6774244587818808
 10
3.373399023743205
 20
-0.6774244587818808
 10
3.373399023743205
 20
-0.6774244587818808
 10
3.373399023743205
 20
-0.6774244587818808
 10
3.373399023743205
 20
-0.8381266110000575
 10
3.373399023743205
 20
-0.8381266110000575
 10
3.373399023743205
 20
-0.8381266110000575
 10
3.443730322742239
 20
-0.8858936477479599
 10
3.443730322742239
 20
-0.8858936477479599
 10
3.443730322742239
 20
-0.8858936477479599
 10
3.292521405179463
 20
-0.9389338444114325
 10
3.292521405179463
 20
-0.9389338444114325
 10
3.292521405179463
 20
-0.9389338444114325
 10
3.373399023743205
 20
-0.9808240273690165
 10
3.373399023743205
 20
-0.9808240273690165
 10
3.373399023743205
 20
-0.9808240273690165
 10
3.373399023743205
 20
-1.257853938909521
 10
3.373399023743205
 20
-1.257853938909521
 10
3.373399023743205
 20
-1.257853938909521
 10
3.443730322742239
 20
-1.301890803281165
 10
3.443730322742239
 20
-1.301890803281165
 10
3.443730322742239
 20
-1.301890803281165
 10
3.294932323148714
 20
-1.354930999944625
 10
3.294932323148714
 20
-1.354930999944625
 10
3.294932323148714
 20
-1.354930999944625
 10
3.373399023743205
 20
-1.404881364060619
 10
3.373399023743205
 20
-1.404881364060619
 10
3.373399023743205
 20
-1.404881364060619
 10
3.373399023743205
 20
-1.557899438333101
 10
3.373399023743205
 20
-1.557899438333101
 10
3.373399023743205
 20
-1.557899438333101
 10
1.833501355890929
 20
-1.557899438333101
 10
1.833462781203429
 20
-1.557899438333101
 97
        0
 72
     1
 10
1.833462781203429
 20
-1.557899438333101
 11
1.394986283150577
 21
-1.557899438333101
 97
        0
 75
     2
 76
     1
 98
        0
  0
POLYLINE
  5
43
330
1F
100
AcDbEntity
  8
fill layer
370
     0
100
AcDb2dPolyline
 66
     1
 10
0.0
 20
0.0
 30
0.0
  0
VERTEX
  5
44
330
43
100
AcDbEntity
  8
fill layer
370
     0
100
AcDbVertex
100
AcDb2dVertex
 10
1.615980621767474
 20
-1.119413239414623
 30
0.0
  0
VERTEX
  5
45
330
43
100
AcDbEntity
  8
fill layer
370
     0
100
AcDbVertex
100
AcDb2dVertex
 10
1.615980621767474
 20
-1.557899438333101
 30
0.0
  0
SEQEND
  5
46
330
43
100
AcDbEntity
  8
fill layer
370
     0
  0
POLYLINE
  5
47
330
1F
100
AcDbEntity
  8
fill layer
370
     0
100
AcDb2dPolyline
 66
     1
 10
0.0
 20
0.0
 30
0.0
  0
VERTEX
  5
48
330
47
100
AcDbEntity
  8
fill layer
370
     0
100
AcDbVertex
100
AcDb2dVertex
 10
1.833501355890929
 20
-1.557899438333101
 30
0.0
  0
VERTEX
  5
49
330
47
100
AcDbEntity
  8
fill layer
370
     0
100
AcDbVertex
100
AcDb2dVertex
 10
1.394986283150577
 20
-1.557899438333101
 30
0.0
  0
SEQEND
  5
4A
330
47
100
AcDbEntity
  8
fill layer
370
     0
  0
INSERT
  5
4C
330
1F
100
AcDbEntity
  8
fill layer
100
AcDbBlockReference
  2
block 2
 10
0.0
 20
0.0
 30
0.0
  0
POLYLINE
  5
1BF
330
1F
100
AcDbEntity
  8
fill layer
370
     0
100
AcDb2dPolyline
 66
     1
 10
0.0
 20
0.0
 30
0.0
  0
VERTEX
  5
1C0
330
1BF
100
AcDbEntity
  8
fill layer
370
     0
100
AcDbVertex
100
AcDb2dVertex
 10
-0.1414454878426265
 20
-1.119413239414623
 30
0.0
  0
VERTEX
  5
1C1
330
1BF
100
AcDbEntity
  8
fill layer
370
     0
100
AcDbVertex
100
AcDb2dVertex
 10
3.373399023743205
 20
-1.119413239414623
 30
0.0
  0
SEQEND
  5
1C2
330
1BF
100
AcDbEntity
  8
fill layer
370
     0
  0
POLYLINE
  5
1C3
330
1F
100
AcDbEntity
  8
fill layer
370
     0
100
AcDb2dPolyline
 66
     1
 10
0.0
 20
0.0
 30
0.0
  0
VERTEX
  5
1C4
330
1C3
100
AcDbEntity
  8
fill layer
370
     0
100
AcDbVertex
100
AcDb2dVertex
 10
1.394986283150577
 20
-0.6774244587818808
 30
0.0
  0
VERTEX
  5
1C5
330
1C3
100
AcDbEntity
  8
fill layer
370
     0
100
AcDbVertex
100
AcDb2dVertex
 10
1.833501355890929
 20
-0.6774244587818808
 30
0.0
  0
SEQEND
  5
1C6
330
1C3
100
AcDbEntity
  8
fill layer
370
     0
  0
POLYLINE
  5
1C7
330
1F
100
AcDbEntity
  8
fill layer
370
     0
100
AcDb2dPolyline
 66
     1
 10
0.0
 20
0.0
 30
0.0
  0
VERTEX
  5
1C8
330
1C7
100
AcDbEntity
  8
fill layer
370
     0
100
AcDbVertex
100
AcDb2dVertex
 10
1.394986283150577
 20
-0.0811272805469798
 30
0.0
  0
VERTEX
  5
1C9
330
1C7
100
AcDbEntity
  8
fill layer
370
     0
100
AcDbVertex
100
AcDb2dVertex
 10
1.833462781203429
 20
-0.0811272805469798
 30
0.0
  0
SEQEND
  5
1CA
330
1C7
100
AcDbEntity
  8
fill layer
370
     0
  0
SPLINE
  5
1CC
330
1F
100
AcDbEntity
  8
Wood
 62
   250
420
  2301728
370
    50
100
AcDbSpline
210
0.0
220
0.0
230
1.0
 70
     8
 71
     3
 72
    80
 73
    76
 74
     0
 42
0.0000000001
 43
0.0000000001
 12
1.0
 22
0.0
 32
0.0
 13
1.0
 23
0.0
 33
0.0
 40
0.0
 40
0.0
 40
0.0
 40
0.0
 40
1.0
 40
1.0
 40
1.0
 40
2.0
 40
2.0
 40
2.0
 40
3.0
 40
3.0
 40
3.0
 40
4.0
 40
4.0
 40
4.0
 40
5.0
 40
5.0
 40
5.0
 40
6.0
 40
6.0
 40
6.0
 40
7.0
 40
7.0
 40
7.0
 40
8.0
 40
8.0
 40
8.0
 40
9.0
 40
9.0
 40
9.0
 40
10.0
 40
10.0
 40
10.0
 40
11.0
 40
11.0
 40
11.0
 40
12.0
 40
12.0
 40
12.0
 40
13.0
 40
13.0
 40
13.0
 40
14.0
 40
14.0
 40
14.0
 40
15.0
 40
15.0
 40
15.0
 40
16.0
 40
16.0
 40
16.0
 40
17.0
 40
17.0
 40
17.0
 40
18.0
 40
18.0
 40
18.0
 40
19.0
 40
19.0
 40
19.0
 40
20.0
 40
20.0
 40
20.0
 40
21.0
 40
21.0
 40
21.0
 40
22.0
 40
22.0
 40
22.0
 40
23.0
 40
23.0
 40
23.0
 40
24.0
 40
24.0
 40
24.0
 40
25.0
 40
25.0
 40
25.0
 40
25.0
 10
1.394986283150577
 20
-1.557899438333101
 30
0.0
 10
1.394986283150577
 20
-1.557899438333101
 30
0.0
 10
-0.1414454878426265
 20
-1.557899438333101
 30
0.0
 10
-0.1414454878426265
 20
-1.557899438333101
 30
0.0
 10
-0.1414454878426265
 20
-1.557899438333101
 30
0.0
 10
-0.1414454878426265
 20
-1.392412096008684
 30
0.0
 10
-0.1414454878426265
 20
-1.392412096008684
 30
0.0
 10
-0.1414454878426265
 20
-1.392412096008684
 30
0.0
 10
-0.2041197129546062
 20
-1.349580690652071
 30
0.0
 10
-0.2041197129546062
 20
-1.349580690652071
 30
0.0
 10
-0.2041197129546062
 20
-1.349580690652071
 30
0.0
 10
-0.075540632570235
 20
-1.306184166109258
 30
0.0
 10
-0.075540632570235
 20
-1.306184166109258
 30
0.0
 10
-0.075540632570235
 20
-1.306184166109258
 30
0.0
 10
-0.1414454878426265
 20
-1.260829976125958
 30
0.0
 10
-0.1414454878426265
 20
-1.260829976125958
 30
0.0
 10
-0.1414454878426265
 20
-1.260829976125958
 30
0.0
 10
-0.1414454878426265
 20
-0.9795799936654753
 30
0.0
 10
-0.1414454878426265
 20
-0.9795799936654753
 30
0.0
 10
-0.1414454878426265
 20
-0.9795799936654753
 30
0.0
 10
-0.2073406994429029
 20
-0.9348661435109432
 30
0.0
 10
-0.2073406994429029
 20
-0.9348661435109432
 30
0.0
 10
-0.2073406994429029
 20
-0.9348661435109432
 30
0.0
 10
-0.075540632570235
 20
-0.8914696189681182
 30
0.0
 10
-0.075540632570235
 20
-0.8914696189681182
 30
0.0
 10
-0.075540632570235
 20
-0.8914696189681182
 30
0.0
 10
-0.1414454878426265
 20
-0.8473941799079764
 30
0.0
 10
-0.1414454878426265
 20
-0.8473941799079764
 30
0.0
 10
-0.1414454878426265
 20
-0.8473941799079764
 30
0.0
 10
-0.1414454878426265
 20
-0.6774244587818808
 30
0.0
 10
-0.1414454878426265
 20
-0.6774244587818808
 30
0.0
 10
-0.1414454878426265
 20
-0.6774244587818808
 30
0.0
 10
1.394986283150577
 20
-0.6774244587818808
 30
0.0
 10
1.394986283150577
 20
-0.6774244587818808
 30
0.0
 10
1.394986283150577
 20
-0.6774244587818808
 30
0.0
 10
1.394986283150577
 20
1.353557191876525
 30
0.0
 10
1.394986283150577
 20
1.353557191876525
 30
0.0
 10
1.394986283150577
 20
1.353557191876525
 30
0.0
 10
1.833462781203429
 20
1.353557191876525
 30
0.0
 10
1.833462781203429
 20
1.353557191876525
 30
0.0
 10
1.833462781203429
 20
1.353557191876525
 30
0.0
 10
1.833462781203429
 20
-0.6774244587818808
 30
0.0
 10
1.833462781203429
 20
-0.6774244587818808
 30
0.0
 10
1.833501355890929
 20
-0.6774244587818808
 30
0.0
 10
3.373399023743205
 20
-0.6774244587818808
 30
0.0
 10
3.373399023743205
 20
-0.6774244587818808
 30
0.0
 10
3.373399023743205
 20
-0.6774244587818808
 30
0.0
 10
3.373399023743205
 20
-0.8381266110000575
 30
0.0
 10
3.373399023743205
 20
-0.8381266110000575
 30
0.0
 10
3.373399023743205
 20
-0.8381266110000575
 30
0.0
 10
3.443730322742239
 20
-0.8858936477479599
 30
0.0
 10
3.443730322742239
 20
-0.8858936477479599
 30
0.0
 10
3.443730322742239
 20
-0.8858936477479599
 30
0.0
 10
3.292521405179463
 20
-0.9389338444114325
 30
0.0
 10
3.292521405179463
 20
-0.9389338444114325
 30
0.0
 10
3.292521405179463
 20
-0.9389338444114325
 30
0.0
 10
3.373399023743205
 20
-0.9808240273690165
 30
0.0
 10
3.373399023743205
 20
-0.9808240273690165
 30
0.0
 10
3.373399023743205
 20
-0.9808240273690165
 30
0.0
 10
3.373399023743205
 20
-1.257853938909521
 30
0.0
 10
3.373399023743205
 20
-1.257853938909521
 30
0.0
 10
3.373399023743205
 20
-1.257853938909521
 30
0.0
 10
3.443730322742239
 20
-1.301890803281165
 30
0.0
 10
3.443730322742239
 20
-1.301890803281165
 30
0.0
 10
3.443730322742239
 20
-1.301890803281165
 30
0.0
 10
3.294932323148714
 20
-1.354930999944625
 30
0.0
 10
3.294932323148714
 20
-1.354930999944625
 30
0.0
 10
3.294932323148714
 20
-1.354930999944625
 30
0.0
 10
3.373399023743205
 20
-1.404881364060619
 30
0.0
 10
3.373399023743205
 20
-1.404881364060619
 30
0.0
 10
3.373399023743205
 20
-1.404881364060619
 30
0.0
 10
3.373399023743205
 20
-1.557899438333101
 30
0.0
 10
3.373399023743205
 20
-1.557899438333101
 30
0.0
 10
3.373399023743205
 20
-1.557899438333101
 30
0.0
 10
1.833501355890929
 20
-1.557899438333101
 30
0.0
 10
1.833462781203429
 20
-1.557899438333101
 30
0.0
  0
POLYLINE
  5
1CD
330
1F
100
AcDbEntity
  8
Wood
 62
   250
420
  2301728
370
    50
100
AcDb2dPolyline
 66
     1
 10
0.0
 20
0.0
 30
0.0
  0
VERTEX
  5
1CE
330
1CD
100
AcDbEntity
  8
Wood
 62
   250
420
  2301728
370
    50
100
AcDbVertex
100
AcDb2dVertex
 10
1.833501355890929
 20
-1.557899438333101
 30
0.0
  0
VERTEX
  5
1CF
330
1CD
100
AcDbEntity
  8
Wood
 62
   250
420
  2301728
370
    50
100
AcDbVertex
100
AcDb2dVertex
 10
1.394986283150577
 20
-1.557899438333101
 30
0.0
  0
SEQEND
  5
1D0
330
1CD
100
AcDbEntity
  8
Wood
 62
   250
420
  2301728
370
    50
  0
INSERT
  5
1D2
330
1F
100
AcDbEntity
  8
Wood
100
AcDbBlockReference
  2
block 3
 10
0.0
 20
0.0
 30
0.0
  0
POLYLINE
  5
345
330
1F
100
AcDbEntity
  8
Wood
 62
   250
420
  2301728
370
    50
100
AcDb2dPolyline
 66
     1
 10
0.0
 20
0.0
 30
0.0
  0
VERTEX
  5
346
330
345
100
AcDbEntity
  8
Wood
 62
   250
420
  2301728
370
    50
100
AcDbVertex
100
AcDb2dVertex
 10
3.373399023743205
 20
-0.6774244587818808
 30
0.0
  0
VERTEX
  5
347
330
345
100
AcDbEntity
  8
Wood
 62
   250
420
  2301728
370
    50
100
AcDbVertex
100
AcDb2dVertex
 10
3.373399023743205
 20
-0.5911213082399374
 30
0.0
  0
SEQEND
  5
348
330
345
100
AcDbEntity
  8
Wood
 62
   250
420
  2301728
370
    50
  0
POLYLINE
  5
349
330
1F
100
AcDbEntity
  8
Wood
 62
   250
420
  2301728
370
    50
100
AcDb2dPolyline
 66
     1
 10
0.0
 20
0.0
 30
0.0
  0
VERTEX
  5
34A
330
349
100
AcDbEntity
  8
Wood
 62
   250
420
  2301728
370
    50
100
AcDbVertex
100
AcDb2dVertex
 10
3.373399023743205
 20
-1.557899438333101
 30
0.0
  0
VERTEX
  5
34B
330
349
100
AcDbEntity
  8
Wood
 62
   250
420
  2301728
370
    50
100
AcDbVertex
100
AcDb2dVertex
 10
3.373399023743205
 20
-1.651549138296534
 30
0.0
  0
SEQEND
  5
34C
330
349
100
AcDbEntity
  8
Wood
 62
   250
420
  2301728
370
    50
  0
POLYLINE
  5
34D
330
1F
100
AcDbEntity
  8
Wood
 62
   250
420
  2301728
370
    50
100
AcDb2dPolyline
 66
     1
 10
0.0
 20
0.0
 30
0.0
  0
VERTEX
  5
34E
330
34D
100
AcDbEntity
  8
Wood
 62
   250
420
  2301728
370
    50
100
AcDbVertex
100
AcDb2dVertex
 10
-0.1414454878426265
 20
-0.6774244587818808
 30
0.0
  0
VERTEX
  5
34F
330
34D
100
AcDbEntity
  8
Wood
 62
   250
420
  2301728
370
    50
100
AcDbVertex
100
AcDb2dVertex
 10
-0.1414454878426265
 20
-0.5848297765484555
 30
0.0
  0
SEQEND
  5
350
330
34D
100
AcDbEntity
  8
Wood
 62
   250
420
  2301728
370
    50
  0
POLYLINE
  5
351
330
1F
100
AcDbEntity
  8
Wood
 62
   250
420
  2301728
370
    50
100
AcDb2dPolyline
 66
     1
 10
0.0
 20
0.0
 30
0.0
  0
VERTEX
  5
352
330
351
100
AcDbEntity
  8
Wood
 62
   250
420
  2301728
370
    50
100
AcDbVertex
100
AcDb2dVertex
 10
-0.1414454878426265
 20
-1.557899438333101
 30
0.0
  0
VERTEX
  5
353
330
351
100
AcDbEntity
  8
Wood
 62
   250
420
  2301728
370
    50
100
AcDbVertex
100
AcDb2dVertex
 10
-0.1414454878426265
 20
-1.651549138296534
 30
0.0
  0
SEQEND
  5
354
330
351
100
AcDbEntity
  8
Wood
 62
   250
420
  2301728
370
    50
  0
INSERT
  5
357
330
1F
100
AcDbEntity
  8
SDWC screw
100
AcDbBlockReference
  2
block 4
 10
0.0
 20
0.0
 30
0.0
  0
INSERT
  5
459
330
1F
100
AcDbEntity
  8
SDWC screw
100
AcDbBlockReference
  2
block 5
 10
0.0
 20
0.0
 30
0.0
  0
POLYLINE
  5
57A
330
1F
100
AcDbEntity
  8
SDWC screw
 62
   250
420
  2301728
370
    50
100
AcDb2dPolyline
 66
     1
 10
0.0
 20
0.0
 30
0.0
  0
VERTEX
  5
57B
330
57A
100
AcDbEntity
  8
SDWC screw
 62
   250
420
  2301728
370
    50
100
AcDbVertex
100
AcDb2dVertex
 10
-0.1414454878426265
 20
-1.119413239414623
 30
0.0
  0
VERTEX
  5
57C
330
57A
100
AcDbEntity
  8
SDWC screw
 62
   250
420
  2301728
370
    50
100
AcDbVertex
100
AcDb2dVertex
 10
3.373399023743205
 20
-1.119413239414623
 30
0.0
  0
SEQEND
  5
57D
330
57A
100
AcDbEntity
  8
SDWC screw
 62
   250
420
  2301728
370
    50
  0
POLYLINE
  5
57E
330
1F
100
AcDbEntity
  8
SDWC screw
 62
   250
420
  2301728
370
    50
100
AcDb2dPolyline
 66
     1
 10
0.0
 20
0.0
 30
0.0
  0
VERTEX
  5
57F
330
57E
100
AcDbEntity
  8
SDWC screw
 62
   250
420
  2301728
370
    50
100
AcDbVertex
100
AcDb2dVertex
 10
1.394986283150577
 20
-0.6774244587818808
 30
0.0
  0
VERTEX
  5
580
330
57E
100
AcDbEntity
  8
SDWC screw
 62
   250
420
  2301728
370
    50
100
AcDbVertex
100
AcDb2dVertex
 10
1.833501355890929
 20
-0.6774244587818808
 30
0.0
  0
SEQEND
  5
581
330
57E
100
AcDbEntity
  8
SDWC screw
 62
   250
420
  2301728
370
    50
  0
POLYLINE
  5
582
330
1F
100
AcDbEntity
  8
SDWC screw
 62
   250
420
  2301728
370
    50
100
AcDb2dPolyline
 66
     1
 10
0.0
 20
0.0
 30
0.0
  0
VERTEX
  5
583
330
582
100
AcDbEntity
  8
SDWC screw
 62
   250
420
  2301728
370
    50
100
AcDbVertex
100
AcDb2dVertex
 10
1.394986283150577
 20
-0.0811272805469798
 30
0.0
  0
VERTEX
  5
584
330
582
100
AcDbEntity
  8
SDWC screw
 62
   250
420
  2301728
370
    50
100
AcDbVertex
100
AcDb2dVertex
 10
1.833462781203429
 20
-0.0811272805469798
 30
0.0
  0
SEQEND
  5
585
330
582
100
AcDbEntity
  8
SDWC screw
 62
   250
420
  2301728
370
    50
  0
MTEXT
  5
587
330
1F
100
AcDbEntity
  8
Callout
 62
   250
420
  2301728
100
AcDbMText
 10
0.0902473661634657
 20
0.2636414501402113
 30
0.0
 40
0.118
 41
0.0
 46
0.0
 71
     7
 72
     1
  1
\fHelvetica Neue LT Std 57 Condensed|b0|i0|c0|p34;\W1;13mm minimum
 73
     1
 44
1.0
  0
MTEXT
  5
588
330
1F
100
AcDbEntity
  8
Callout
 62
   250
420
  2301728
100
AcDbMText
 10
0.2552457385592991
 20
0.0969747834735446
 30
0.0
 40
0.118
 41
0.0
 46
0.0
 71
     7
 72
     1
  1
\fHelvetica Neue LT Std 57 Condensed|b0|i0|c0|p34;\W1;edge distance
 73
     1
 44
1.0
  0
INSERT
  5
58A
330
1F
100
AcDbEntity
  8
Callout
100
AcDbBlockReference
  2
block 6
 10
0.0
 20
0.0
 30
0.0
  0
INSERT
  5
599
330
1F
100
AcDbEntity
  8
Callout
100
AcDbBlockReference
  2
block 7
 10
0.0
 20
0.0
 30
0.0
  0
POLYLINE
  5
5A7
330
1F
100
AcDbEntity
  8
Callout
 62
   250
420
  2301728
370
    25
100
AcDb2dPolyline
 66
     1
 10
0.0
 20
0.0
 30
0.0
  0
VERTEX
  5
5A8
330
5A7
100
AcDbEntity
  8
Callout
 62
   250
420
  2301728
370
    25
100
AcDbVertex
100
AcDb2dVertex
 10
1.517360575684405
 20
0.1153239642223853
 30
0.0
  0
VERTEX
  5
5A9
330
5A7
100
AcDbEntity
  8
Callout
 62
   250
420
  2301728
370
    25
100
AcDbVertex
100
AcDb2dVertex
 10
1.517360575684405
 20
0.2872069898972237
 30
0.0
  0
SEQEND
  5
5AA
330
5A7
100
AcDbEntity
  8
Callout
 62
   250
420
  2301728
370
    25
  0
MTEXT
  5
5AB
330
1F
100
AcDbEntity
  8
Callout
 62
   250
420
  2301728
100
AcDbMText
 10
0.8822444279988606
 20
-2.317256179120805
 30
0.0
 40
0.118
 41
0.0
 46
0.0
 71
     7
 72
     1
  1
\fHelvetica Neue LT Std 55 Roman|b0|i0|c0|p34;\W1;SIMPSON Strong-Tie\H0.068794;®\H0.118; ^C
 73
     1
 44
1.0
  0
MTEXT
  5
5AC
330
1F
100
AcDbEntity
  8
Callout
 62
   250
420
  2301728
100
AcDbMText
 10
0.0306276745266385
 20
-2.517248041099972
 30
0.0
 40
0.118
 41
0.0
 46
0.0
 71
     7
 72
     1
  1
\fHelvetica Neue LT Std 55 Roman|b0|i0|c0|p34;\W1;SDWC Truss/Rafter-to-Top Plate Installation - 
 73
     1
 44
1.0
  0
MTEXT
  5
5AD
330
1F
100
AcDbEntity
  8
Callout
 62
   250
420
  2301728
100
AcDbMText
 10
1.192777739630805
 20
-2.717253466447194
 30
0.0
 40
0.118
 41
0.0
 46
0.0
 71
     7
 72
     1
  1
\fHelvetica Neue LT Std 55 Roman|b0|i0|c0|p34;\W1;Cross Section 
 73
     1
 44
1.0
  0
MTEXT
  5
5AE
330
1F
100
AcDbEntity
  8
Callout
 62
   250
420
  2236191
100
AcDbMText
 10
2.109210544162326
 20
0.8765037324693468
 30
0.0
 40
0.118
 41
0.0
 46
0.0
 71
     7
 72
     1
  1
\fHelvetica Neue LT Std 57 Condensed|b0|i0|c0|p34;\W1;Truss/Rafter
 73
     1
 44
1.0
  0
MTEXT
  5
5AF
330
1F
100
AcDbEntity
  8
Callout
 62
   250
420
  2236191
100
AcDbMText
 10
2.567991892496745
 20
-0.1457145478990343
 30
0.0
 40
0.118
 41
0.0
 46
0.0
 71
     7
 72
     1
  1
\fHelvetica Neue LT Std 57 Condensed|b0|i0|c0|p34;\W1;Top Plate
 73
     1
 44
1.0
  0
POLYLINE
  5
5B0
330
1F
100
AcDbEntity
  8
Callout
 62
   250
420
  2236191
370
    18
100
AcDb2dPolyline
 66
     1
 10
0.0
 20
0.0
 30
0.0
  0
VERTEX
  5
5B1
330
5B0
100
AcDbEntity
  8
Callout
 62
   250
420
  2236191
370
    18
100
AcDbVertex
100
AcDb2dVertex
 10
2.211053776153247
 20
0.778699281808397
 30
0.0
  0
VERTEX
  5
5B2
330
5B0
100
AcDbEntity
  8
Callout
 62
   250
420
  2236191
370
    18
100
AcDbVertex
100
AcDb2dVertex
 10
1.833501355890929
 20
0.4341180774340501
 30
0.0
  0
SEQEND
  5
5B3
330
5B0
100
AcDbEntity
  8
Callout
 62
   250
420
  2236191
370
    18
  0
POLYLINE
  5
5B4
330
1F
100
AcDbEntity
  8
Callout
 62
   250
420
  2236191
370
    18
100
AcDb2dPolyline
 66
     1
 10
0.0
 20
0.0
 30
0.0
  0
VERTEX
  5
5B5
330
5B4
100
AcDbEntity
  8
Callout
 62
   250
420
  2236191
370
    18
100
AcDbVertex
100
AcDb2dVertex
 10
2.728525476292159
 20
-0.2366318922462874
 30
0.0
  0
VERTEX
  5
5B6
330
5B4
100
AcDbEntity
  8
Callout
 62
   250
420
  2236191
370
    18
100
AcDbVertex
100
AcDb2dVertex
 10
2.46889928864837
 20
-0.6769457338905719
 30
0.0
  0
SEQEND
  5
5B7
330
5B4
100
AcDbEntity
  8
Callout
 62
   250
420
  2236191
370
    18
  0
MTEXT
  5
5B8
330
1F
100
AcDbEntity
  8
Callout
 62
   250
420
  2301728
100
AcDbMText
 10
0.2976101769341363
 20
-0.275143027305603
 30
0.0
 40
0.118
 41
0.0
 46
0.0
 71
     7
 72
     1
  1
\fHelvetica Neue LT Std 57 Condensed|b0|i0|c0|p34;\W1;SDWC15600
 73
     1
 44
1.0
  0
POLYLINE
  5
5B9
330
1F
100
AcDbEntity
  8
Callout
 62
   250
420
  2301728
370
    18
100
AcDb2dPolyline
 66
     1
 10
0.0
 20
0.0
 30
0.0
  0
VERTEX
  5
5BA
330
5B9
100
AcDbEntity
  8
Callout
 62
   250
420
  2301728
370
    18
100
AcDbVertex
100
AcDb2dVertex
 10
1.127406948747193
 20
-0.254652623583954
 30
0.0
  0
VERTEX
  5
5BB
330
5B9
100
AcDbEntity
  8
Callout
 62
   250
420
  2301728
370
    18
100
AcDbVertex
100
AcDb2dVertex
 10
1.454618894075692
 20
-0.5049589553109526
 30
0.0
  0
SEQEND
  5
5BC
330
5B9
100
AcDbEntity
  8
Callout
 62
   250
420
  2301728
370
    18
  0
ENDSEC
  0
SECTION
  2
OBJECTS
  0
DICTIONARY
  5
C
330
0
100
AcDbDictionary
281
     1
  3
ACAD_GROUP
350
D
  3
ACAD_LAYOUT
350
1A
  3
ACAD_MATERIAL
350
3B
  3
ACAD_MLEADERSTYLE
350
5BE
  3
ACAD_MLINESTYLE
350
17
  3
ACAD_PLOTSETTINGS
350
19
  3
ACAD_PLOTSTYLENAME
350
E
  3
ACAD_TABLESTYLE
350
5BD
  3
ACAD_VISUALSTYLE
350
2A
  0
SUN
  5
3F
330
29
100
AcDbSun
 90
        1
290
     0
 63
     7
421
 16777215
 40
1.0
291
     1
 91
  2455826
 92
 54000000
292
     0
 70
     2
 71
   256
280
     1
  0
DICTIONARY
  5
D
102
{ACAD_REACTORS
330
C
102
}
330
C
100
AcDbDictionary
281
     1
  0
DICTIONARY
  5
1A
102
{ACAD_REACTORS
330
C
102
}
330
C
100
AcDbDictionary
281
     1
  3
Layout1
350
1E
  3
Layout2
350
26
  3
Model
350
22
  0
DICTIONARY
  5
3B
102
{ACAD_REACTORS
330
C
102
}
330
C
100
AcDbDictionary
281
     1
  3
ByBlock
350
3D
  3
ByLayer
350
3C
  3
Global
350
3E
  0
DICTIONARY
  5
5BE
102
{ACAD_REACTORS
330
C
102
}
330
C
100
AcDbDictionary
281
     1
  0
DICTIONARY
  5
17
102
{ACAD_REACTORS
330
C
102
}
330
C
100
AcDbDictionary
281
     1
  3
Standard
350
18
  0
DICTIONARY
  5
19
102
{ACAD_REACTORS
330
C
102
}
330
C
100
AcDbDictionary
281
     1
  0
ACDBDICTIONARYWDFLT
  5
E
102
{ACAD_REACTORS
330
C
102
}
330
C
100
AcDbDictionary
281
     1
  3
Normal
350
F
100
AcDbDictionaryWithDefault
340
F
  0
DICTIONARY
  5
5BD
102
{ACAD_REACTORS
330
C
102
}
330
C
100
AcDbDictionary
281
     1
  0
DICTIONARY
  5
2A
102
{ACAD_REACTORS
330
C
102
}
330
C
100
AcDbDictionary
281
     1
  3
2dWireframe
350
2F
  3
3D Hidden
350
31
  3
3dWireframe
350
30
  3
Basic
350
32
  3
Brighten
350
36
  3
ColorChange
350
3A
  3
Conceptual
350
34
  3
Dim
350
35
  3
Facepattern
350
39
  3
Flat
350
2B
  3
FlatWithEdges
350
2C
  3
Gouraud
350
2D
  3
GouraudWithEdges
350
2E
  3
Linepattern
350
38
  3
Realistic
350
33
  3
Thicken
350
37
  0
LAYOUT
  5
1E
102
{ACAD_REACTORS
330
1A
102
}
330
1A
100
AcDbPlotSettings
  1

  2
none_device
  4

  6

 40
0.0
 41
0.0
 42
0.0
 43
0.0
 44
0.0
 45
0.0
 46
0.0
 47
0.0
 48
0.0
 49
0.0
140
0.0
141
0.0
142
1.0
143
1.0
 70
   688
 72
     0
 73
     0
 74
     5
  7

 75
    16
 76
     0
 77
     2
 78
   300
147
1.0
148
0.0
149
0.0
100
AcDbLayout
  1
Layout1
 70
     1
 71
     1
 10
0.0
 20
0.0
 11
12.0
 21
9.0
 12
0.0
 22
0.0
 32
0.0
 14
1.000000000000000E+20
 24
1.000000000000000E+20
 34
1.000000000000000E+20
 15
-1.000000000000000E+20
 25
-1.000000000000000E+20
 35
-1.000000000000000E+20
146
0.0
 13
0.0
 23
0.0
 33
0.0
 16
1.0
 26
0.0
 36
0.0
 17
0.0
 27
1.0
 37
0.0
 76
     0
330
1B
  0
LAYOUT
  5
26
102
{ACAD_REACTORS
330
1A
102
}
330
1A
100
AcDbPlotSettings
  1

  2
none_device
  4

  6

 40
0.0
 41
0.0
 42
0.0
 43
0.0
 44
0.0
 45
0.0
 46
0.0
 47
0.0
 48
0.0
 49
0.0
140
0.0
141
0.0
142
1.0
143
1.0
 70
   688
 72
     0
 73
     0
 74
     5
  7

 75
    16
 76
     0
 77
     2
 78
   300
147
1.0
148
0.0
149
0.0
100
AcDbLayout
  1
Layout2
 70
     1
 71
     2
 10
0.0
 20
0.0
 11
0.0
 21
0.0
 12
0.0
 22
0.0
 32
0.0
 14
0.0
 24
0.0
 34
0.0
 15
0.0
 25
0.0
 35
0.0
146
0.0
 13
0.0
 23
0.0
 33
0.0
 16
1.0
 26
0.0
 36
0.0
 17
0.0
 27
1.0
 37
0.0
 76
     0
330
23
  0
LAYOUT
  5
22
102
{ACAD_REACTORS
330
1A
102
}
330
1A
100
AcDbPlotSettings
  1

  2
none_device
  4

  6

 40
0.0
 41
0.0
 42
0.0
 43
0.0
 44
0.0
 45
0.0
 46
0.0
 47
0.0
 48
0.0
 49
0.0
140
0.0
141
0.0
142
1.0
143
1.0
 70
  1712
 72
     0
 73
     0
 74
     0
  7

 75
     0
 76
     0
 77
     2
 78
   300
147
1.0
148
0.0
149
0.0
100
AcDbLayout
  1
Model
 70
     1
 71
     0
 10
0.0
 20
0.0
 11
12.0
 21
9.0
 12
0.0
 22
0.0
 32
0.0
 14
1.000000000000000E+20
 24
1.000000000000000E+20
 34
1.000000000000000E+20
 15
-1.000000000000000E+20
 25
-1.000000000000000E+20
 35
-1.000000000000000E+20
146
0.0
 13
0.0
 23
0.0
 33
0.0
 16
1.0
 26
0.0
 36
0.0
 17
0.0
 27
1.0
 37
0.0
 76
     0
330
1F
331
29
  0
MATERIAL
  5
3D
102
{ACAD_REACTORS
330
3B
102
}
330
3B
100
AcDbMaterial
  1
ByBlock
 72
     1
 94
      127
  0
MATERIAL
  5
3C
102
{ACAD_REACTORS
330
3B
102
}
330
3B
100
AcDbMaterial
  1
ByLayer
 72
     1
 94
      127
  0
MATERIAL
  5
3E
102
{ACAD_REACTORS
330
3B
102
}
330
3B
100
AcDbMaterial
  1
Global
 72
     1
 94
      127
  0
MLINESTYLE
  5
18
102
{ACAD_REACTORS
330
17
102
}
330
17
100
AcDbMlineStyle
  2
Standard
 70
     0
  3

 62
   256
 51
90.0
 52
90.0
 71
     2
 49
0.5
 62
   256
  6
BYLAYER
 49
-0.5
 62
   256
  6
BYLAYER
  0
ACDBPLACEHOLDER
  5
F
102
{ACAD_REACTORS
330
E
102
}
330
E
  0
VISUALSTYLE
  5
2F
102
{ACAD_REACTORS
330
2A
102
}
330
2A
100
AcDbVisualStyle
  2
2dWireframe
 70
     4
177
     2
291
     0
 71
     0
176
     1
 72
     2
176
     1
 73
     0
176
     1
 90
        0
176
     1
 40
-0.6
176
     1
 41
-30.0
176
     1
 62
     5
 63
     7
421
 16777215
176
     1
 74
     1
176
     1
 91
        4
176
     1
 64
     7
176
     1
 65
   257
176
     1
 75
     1
176
     1
175
     1
176
     1
 42
1.0
176
     1
 92
        0
176
     1
 66
   257
176
     1
 43
1.0
176
     1
 76
     1
176
     1
 77
     6
176
     1
 78
     2
176
     1
 67
     7
176
     1
 79
     5
176
     1
170
     0
176
     1
171
     0
176
     1
290
     0
176
     1
 93
        1
176
     1
 44
0.0
176
     1
173
     0
176
     1
  0
VISUALSTYLE
  5
31
102
{ACAD_REACTORS
330
2A
102
}
330
2A
100
AcDbVisualStyle
  2
3D Hidden
 70
     6
177
     2
291
     0
 71
     1
176
     1
 72
     2
176
     1
 73
     2
176
     1
 90
        0
176
     1
 40
-0.6
176
     1
 41
-30.0
176
     1
 62
     5
 63
     7
421
 16777215
176
     1
 74
     2
176
     1
 91
        2
176
     1
 64
     7
176
     1
 65
   257
176
     1
 75
     2
176
     1
175
     1
176
     1
 42
40.0
176
     1
 92
        0
176
     1
 66
   257
176
     1
 43
1.0
176
     1
 76
     1
176
     1
 77
     6
176
     1
 78
     2
176
     1
 67
     7
176
     1
 79
     3
176
     1
170
     0
176
     1
171
     0
176
     1
290
     0
176
     1
 93
        1
176
     1
 44
0.0
176
     1
173
     0
176
     1
  0
VISUALSTYLE
  5
30
102
{ACAD_REACTORS
330
2A
102
}
330
2A
100
AcDbVisualStyle
  2
3dWireframe
 70
     5
177
     2
291
     0
 71
     0
176
     1
 72
     2
176
     1
 73
     0
176
     1
 90
        0
176
     1
 40
-0.6
176
     1
 41
-30.0
176
     1
 62
     5
 63
     7
421
 16777215
176
     1
 74
     1
176
     1
 91
        4
176
     1
 64
     7
176
     1
 65
   257
176
     1
 75
     1
176
     1
175
     1
176
     1
 42
1.0
176
     1
 92
        0
176
     1
 66
   257
176
     1
 43
1.0
176
     1
 76
     1
176
     1
 77
     6
176
     1
 78
     2
176
     1
 67
     7
176
     1
 79
     5
176
     1
170
     0
176
     1
171
     0
176
     1
290
     0
176
     1
 93
        1
176
     1
 44
0.0
176
     1
173
     0
176
     1
  0
VISUALSTYLE
  5
32
102
{ACAD_REACTORS
330
2A
102
}
330
2A
100
AcDbVisualStyle
  2
Basic
 70
     7
177
     2
291
     1
 71
     1
176
     1
 72
     0
176
     1
 73
     1
176
     1
 90
        0
176
     1
 40
-0.6
176
     1
 41
-30.0
176
     1
 62
     5
 63
     7
421
 16777215
176
     1
 74
     0
176
     1
 91
        4
176
     1
 64
     7
176
     1
 65
   257
176
     1
 75
     1
176
     1
175
     1
176
     1
 42
1.0
176
     1
 92
        8
176
     1
 66
     7
176
     1
 43
1.0
176
     1
 76
     1
176
     1
 77
     6
176
     1
 78
     2
176
     1
 67
     7
176
     1
 79
     5
176
     1
170
     0
176
     1
171
     0
176
     1
290
     0
176
     1
 93
        1
176
     1
 44
0.0
176
     1
173
     0
176
     1
  0
VISUALSTYLE
  5
36
102
{ACAD_REACTORS
330
2A
102
}
330
2A
100
AcDbVisualStyle
  2
Brighten
 70
    12
177
     2
291
     1
 71
     2
176
     1
 72
     2
176
     1
 73
     0
176
     1
 90
        0
176
     1
 40
-0.6
176
     1
 41
-30.0
176
     1
 62
     5
 63
     7
421
 16777215
176
     1
 74
     1
176
     1
 91
        4
176
     1
 64
     7
176
     1
 65
   257
176
     1
 75
     1
176
     1
175
     1
176
     1
 42
1.0
176
     1
 92
        8
176
     1
 66
     7
176
     1
 43
1.0
176
     1
 76
     1
176
     1
 77
     6
176
     1
 78
     2
176
     1
 67
     7
176
     1
 79
     5
176
     1
170
     0
176
     1
171
     0
176
     1
290
     0
176
     1
 93
        1
176
     1
 44
50.0
176
     1
173
     0
176
     1
  0
VISUALSTYLE
  5
3A
102
{ACAD_REACTORS
330
2A
102
}
330
2A
100
AcDbVisualStyle
  2
ColorChange
 70
    16
177
     2
291
     1
 71
     2
176
     1
 72
     2
176
     1
 73
     3
176
     1
 90
        0
176
     1
 40
-0.6
176
     1
 41
-30.0
176
     1
 62
     5
 63
     8
421
  8421504
176
     1
 74
     1
176
     1
 91
        4
176
     1
 64
     7
176
     1
 65
   257
176
     1
 75
     1
176
     1
175
     1
176
     1
 42
1.0
176
     1
 92
        8
176
     1
 66
     8
424
  8421504
176
     1
 43
1.0
176
     1
 76
     1
176
     1
 77
     6
176
     1
 78
     2
176
     1
 67
     7
176
     1
 79
     5
176
     1
170
     0
176
     1
171
     0
176
     1
290
     0
176
     1
 93
        1
176
     1
 44
0.0
176
     1
173
     0
176
     1
  0
VISUALSTYLE
  5
34
102
{ACAD_REACTORS
330
2A
102
}
330
2A
100
AcDbVisualStyle
  2
Conceptual
 70
     9
177
     2
291
     0
 71
     3
176
     1
 72
     2
176
     1
 73
     0
176
     1
 90
        0
176
     1
 40
-0.6
176
     1
 41
-30.0
176
     1
 62
     5
 63
     7
421
 16777215
176
     1
 74
     2
176
     1
 91
        2
176
     1
 64
     7
176
     1
 65
   257
176
     1
 75
     1
176
     1
175
     1
176
     1
 42
40.0
176
     1
 92
        8
176
     1
 66
     7
176
     1
 43
1.0
176
     1
 76
     1
176
     1
 77
     6
176
     1
 78
     2
176
     1
 67
     7
176
     1
 79
     3
176
     1
170
     0
176
     1
171
     0
176
     1
290
     0
176
     1
 93
        1
176
     1
 44
0.0
176
     1
173
     0
176
     1
  0
VISUALSTYLE
  5
35
102
{ACAD_REACTORS
330
2A
102
}
330
2A
100
AcDbVisualStyle
  2
Dim
 70
    11
177
     2
291
     1
 71
     2
176
     1
 72
     2
176
     1
 73
     0
176
     1
 90
        0
176
     1
 40
-0.6
176
     1
 41
-30.0
176
     1
 62
     5
 63
     7
421
 16777215
176
     1
 74
     1
176
     1
 91
        4
176
     1
 64
     7
176
     1
 65
   257
176
     1
 75
     1
176
     1
175
     1
176
     1
 42
1.0
176
     1
 92
        8
176
     1
 66
     7
176
     1
 43
1.0
176
     1
 76
     1
176
     1
 77
     6
176
     1
 78
     2
176
     1
 67
     7
176
     1
 79
     5
176
     1
170
     0
176
     1
171
     0
176
     1
290
     0
176
     1
 93
        1
176
     1
 44
-50.0
176
     1
173
     0
176
     1
  0
VISUALSTYLE
  5
39
102
{ACAD_REACTORS
330
2A
102
}
330
2A
100
AcDbVisualStyle
  2
Facepattern
 70
    15
177
     2
291
     1
 71
     2
176
     1
 72
     2
176
     1
 73
     0
176
     1
 90
        0
176
     1
 40
-0.6
176
     1
 41
-30.0
176
     1
 62
     5
 63
     7
421
 16777215
176
     1
 74
     1
176
     1
 91
        4
176
     1
 64
     7
176
     1
 65
   257
176
     1
 75
     1
176
     1
175
     1
176
     1
 42
1.0
176
     1
 92
        8
176
     1
 66
     7
176
     1
 43
1.0
176
     1
 76
     1
176
     1
 77
     6
176
     1
 78
     2
176
     1
 67
     7
176
     1
 79
     5
176
     1
170
     0
176
     1
171
     0
176
     1
290
     0
176
     1
 93
        1
176
     1
 44
0.0
176
     1
173
     0
176
     1
  0
VISUALSTYLE
  5
2B
102
{ACAD_REACTORS
330
2A
102
}
330
2A
100
AcDbVisualStyle
  2
Flat
 70
     0
177
     2
291
     1
 71
     2
176
     1
 72
     1
176
     1
 73
     1
176
     1
 90
        2
176
     1
 40
-0.6
176
     1
 41
30.0
176
     1
 62
     5
 63
     7
421
 16777215
176
     1
 74
     0
176
     1
 91
        4
176
     1
 64
     7
176
     1
 65
   257
176
     1
 75
     1
176
     1
175
     1
176
     1
 42
1.0
176
     1
 92
        8
176
     1
 66
     7
176
     1
 43
1.0
176
     1
 76
     1
176
     1
 77
     6
176
     1
 78
     2
176
     1
 67
     7
176
     1
 79
     5
176
     1
170
     0
176
     1
171
     0
176
     1
290
     0
176
     1
 93
       13
176
     1
 44
0.0
176
     1
173
     0
176
     1
  0
VISUALSTYLE
  5
2C
102
{ACAD_REACTORS
330
2A
102
}
330
2A
100
AcDbVisualStyle
  2
FlatWithEdges
 70
     1
177
     2
291
     1
 71
     2
176
     1
 72
     1
176
     1
 73
     1
176
     1
 90
        2
176
     1
 40
-0.6
176
     1
 41
30.0
176
     1
 62
     5
 63
     7
421
 16777215
176
     1
 74
     1
176
     1
 91
        4
176
     1
 64
     7
176
     1
 65
   257
176
     1
 75
     1
176
     1
175
     1
176
     1
 42
1.0
176
     1
 92
        0
176
     1
 66
   257
176
     1
 43
1.0
176
     1
 76
     1
176
     1
 77
     6
176
     1
 78
     2
176
     1
 67
     7
176
     1
 79
     5
176
     1
170
     0
176
     1
171
     0
176
     1
290
     0
176
     1
 93
       13
176
     1
 44
0.0
176
     1
173
     0
176
     1
  0
VISUALSTYLE
  5
2D
102
{ACAD_REACTORS
330
2A
102
}
330
2A
100
AcDbVisualStyle
  2
Gouraud
 70
     2
177
     2
291
     1
 71
     2
176
     1
 72
     2
176
     1
 73
     1
176
     1
 90
        2
176
     1
 40
-0.6
176
     1
 41
30.0
176
     1
 62
     5
 63
     7
421
 16777215
176
     1
 74
     0
176
     1
 91
        4
176
     1
 64
     7
176
     1
 65
   257
176
     1
 75
     1
176
     1
175
     1
176
     1
 42
1.0
176
     1
 92
        0
176
     1
 66
     7
176
     1
 43
1.0
176
     1
 76
     1
176
     1
 77
     6
176
     1
 78
     2
176
     1
 67
     7
176
     1
 79
     5
176
     1
170
     0
176
     1
171
     0
176
     1
290
     0
176
     1
 93
       13
176
     1
 44
0.0
176
     1
173
     0
176
     1
  0
VISUALSTYLE
  5
2E
102
{ACAD_REACTORS
330
2A
102
}
330
2A
100
AcDbVisualStyle
  2
GouraudWithEdges
 70
     3
177
     2
291
     1
 71
     2
176
     1
 72
     2
176
     1
 73
     1
176
     1
 90
        2
176
     1
 40
-0.6
176
     1
 41
30.0
176
     1
 62
     5
 63
     7
421
 16777215
176
     1
 74
     1
176
     1
 91
        4
176
     1
 64
     7
176
     1
 65
   257
176
     1
 75
     1
176
     1
175
     1
176
     1
 42
1.0
176
     1
 92
        0
176
     1
 66
   257
176
     1
 43
1.0
176
     1
 76
     1
176
     1
 77
     6
176
     1
 78
     2
176
     1
 67
     7
176
     1
 79
     5
176
     1
170
     0
176
     1
171
     0
176
     1
290
     0
176
     1
 93
       13
176
     1
 44
0.0
176
     1
173
     0
176
     1
  0
VISUALSTYLE
  5
38
102
{ACAD_REACTORS
330
2A
102
}
330
2A
100
AcDbVisualStyle
  2
Linepattern
 70
    14
177
     2
291
     1
 71
     2
176
     1
 72
     2
176
     1
 73
     0
176
     1
 90
        0
176
     1
 40
-0.6
176
     1
 41
-30.0
176
     1
 62
     5
 63
     7
421
 16777215
176
     1
 74
     1
176
     1
 91
        4
176
     1
 64
     7
176
     1
 65
   257
176
     1
 75
     7
176
     1
175
     7
176
     1
 42
1.0
176
     1
 92
        8
176
     1
 66
     7
176
     1
 43
1.0
176
     1
 76
     1
176
     1
 77
     6
176
     1
 78
     2
176
     1
 67
     7
176
     1
 79
     5
176
     1
170
     0
176
     1
171
     0
176
     1
290
     0
176
     1
 93
        1
176
     1
 44
0.0
176
     1
173
     0
176
     1
  0
VISUALSTYLE
  5
33
102
{ACAD_REACTORS
330
2A
102
}
330
2A
100
AcDbVisualStyle
  2
Realistic
 70
     8
177
     2
291
     0
 71
     2
176
     1
 72
     2
176
     1
 73
     0
176
     1
 90
        0
176
     1
 40
-0.6
176
     1
 41
-30.0
176
     1
 62
     5
 63
     7
421
 16777215
176
     1
 74
     1
176
     1
 91
        0
176
     1
 64
     7
176
     1
 65
   257
176
     1
 75
     1
176
     1
175
     1
176
     1
 42
1.0
176
     1
 92
        8
176
     1
 66
     8
424
  7895160
176
     1
 43
1.0
176
     1
 76
     1
176
     1
 77
     6
176
     1
 78
     2
176
     1
 67
     7
176
     1
 79
     5
176
     1
170
     0
176
     1
171
     0
176
     1
290
     0
176
     1
 93
       13
176
     1
 44
0.0
176
     1
173
     0
176
     1
  0
VISUALSTYLE
  5
37
102
{ACAD_REACTORS
330
2A
102
}
330
2A
100
AcDbVisualStyle
  2
Thicken
 70
    13
177
     2
291
     1
 71
     2
176
     1
 72
     2
176
     1
 73
     0
176
     1
 90
        0
176
     1
 40
-0.6
176
     1
 41
-30.0
176
     1
 62
     5
 63
     7
421
 16777215
176
     1
 74
     1
176
     1
 91
        4
176
     1
 64
     7
176
     1
 65
   257
176
     1
 75
     1
176
     1
175
     1
176
     1
 42
1.0
176
     1
 92
       12
176
     1
 66
     7
176
     1
 43
1.0
176
     1
 76
     1
176
     1
 77
     6
176
     1
 78
     2
176
     1
 67
     7
176
     1
 79
     5
176
     1
170
     0
176
     1
171
     0
176
     1
290
     0
176
     1
 93
        1
176
     1
 44
0.0
176
     1
173
     0
176
     1
  0
ENDSEC
  0
EOF
