  0
SECTION
  2
HEADER
  9
$ACADVER
  1
AC1024
  9
$ACADMAINTVER
 70
   226
  9
$DWGCODEPAGE
  3
ANSI_1252
  9
$INSBASE
 10
0.0
 20
0.0
 30
0.0
  9
$EXTMIN
 10
1.000000000000000E+20
 20
1.000000000000000E+20
 30
1.000000000000000E+20
  9
$EXTMAX
 10
-1.000000000000000E+20
 20
-1.000000000000000E+20
 30
-1.000000000000000E+20
  9
$LIMMIN
 10
0.0
 20
0.0
  9
$LIMMAX
 10
12.0
 20
9.0
  9
$ORTHOMODE
 70
     0
  9
$REGENMODE
 70
     1
  9
$FILLMODE
 70
     1
  9
$QTEXTMODE
 70
     0
  9
$MIRRTEXT
 70
     0
  9
$LTSCALE
 40
1.0
  9
$ATTMODE
 70
     1
  9
$TEXTSIZE
 40
0.2
  9
$TRACEWID
 40
0.05
  9
$TEXTSTYLE
  7
Standard
  9
$CLAYER
  8
0
  9
$CELTYPE
  6
ByLayer
  9
$CECOLOR
 62
   256
  9
$CELTSCALE
 40
1.0
  9
$DISPSILH
 70
     0
  9
$DIMSCALE
 40
1.0
  9
$DIMASZ
 40
0.18
  9
$DIMEXO
 40
0.0625
  9
$DIMDLI
 40
0.38
  9
$DIMRND
 40
0.0
  9
$DIMDLE
 40
0.0
  9
$DIMEXE
 40
0.18
  9
$DIMTP
 40
0.0
  9
$DIMTM
 40
0.0
  9
$DIMTXT
 40
0.18
  9
$DIMCEN
 40
0.09
  9
$DIMTSZ
 40
0.0
  9
$DIMTOL
 70
     0
  9
$DIMLIM
 70
     0
  9
$DIMTIH
 70
     1
  9
$DIMTOH
 70
     1
  9
$DIMSE1
 70
     0
  9
$DIMSE2
 70
     0
  9
$DIMTAD
 70
     0
  9
$DIMZIN
 70
     0
  9
$DIMBLK
  1

  9
$DIMASO
 70
     1
  9
$DIMSHO
 70
     1
  9
$DIMPOST
  1

  9
$DIMAPOST
  1

  9
$DIMALT
 70
     0
  9
$DIMALTD
 70
     2
  9
$DIMALTF
 40
25.4
  9
$DIMLFAC
 40
1.0
  9
$DIMTOFL
 70
     0
  9
$DIMTVP
 40
0.0
  9
$DIMTIX
 70
     0
  9
$DIMSOXD
 70
     0
  9
$DIMSAH
 70
     0
  9
$DIMBLK1
  1

  9
$DIMBLK2
  1

  9
$DIMSTYLE
  2
Standard
  9
$DIMCLRD
 70
     0
  9
$DIMCLRE
 70
     0
  9
$DIMCLRT
 70
     0
  9
$DIMTFAC
 40
1.0
  9
$DIMGAP
 40
0.09
  9
$DIMJUST
 70
     0
  9
$DIMSD1
 70
     0
  9
$DIMSD2
 70
     0
  9
$DIMTOLJ
 70
     1
  9
$DIMTZIN
 70
     0
  9
$DIMALTZ
 70
     0
  9
$DIMALTTZ
 70
     0
  9
$DIMUPT
 70
     0
  9
$DIMDEC
 70
     4
  9
$DIMTDEC
 70
     4
  9
$DIMALTU
 70
     2
  9
$DIMALTTD
 70
     2
  9
$DIMTXSTY
  7
Standard
  9
$DIMAUNIT
 70
     0
  9
$DIMADEC
 70
     0
  9
$DIMALTRND
 40
0.0
  9
$DIMAZIN
 70
     0
  9
$DIMDSEP
 70
    46
  9
$DIMATFIT
 70
     3
  9
$DIMFRAC
 70
     0
  9
$DIMLDRBLK
  1

  9
$DIMLUNIT
 70
     2
  9
$DIMLWD
 70
    -2
  9
$DIMLWE
 70
    -2
  9
$DIMTMOVE
 70
     0
  9
$DIMFXL
 40
1.0
  9
$DIMFXLON
 70
     0
  9
$DIMJOGANG
 40
0.7853981633974483
  9
$DIMTFILL
 70
     0
  9
$DIMTFILLCLR
 70
     0
  9
$DIMARCSYM
 70
     0
  9
$DIMLTYPE
  6

  9
$DIMLTEX1
  6

  9
$DIMLTEX2
  6

  9
$DIMTXTDIRECTION
 70
     0
  9
$LUNITS
 70
     2
  9
$LUPREC
 70
     4
  9
$SKETCHINC
 40
0.1
  9
$FILLETRAD
 40
0.0
  9
$AUNITS
 70
     0
  9
$AUPREC
 70
     0
  9
$MENU
  1
.
  9
$ELEVATION
 40
0.0
  9
$PELEVATION
 40
0.0
  9
$THICKNESS
 40
0.0
  9
$LIMCHECK
 70
     0
  9
$CHAMFERA
 40
0.0
  9
$CHAMFERB
 40
0.0
  9
$CHAMFERC
 40
0.0
  9
$CHAMFERD
 40
0.0
  9
$SKPOLY
 70
     0
  9
$TDCREATE
 40
2459286.487094908
  9
$TDUCREATE
 40
2459285.945428241
  9
$TDUPDATE
 40
2459286.487094908
  9
$TDUUPDATE
 40
2459285.945428241
  9
$TDINDWG
 40
0.0000000000
  9
$TDUSRTIMER
 40
0.0000000000
  9
$USRTIMER
 70
     1
  9
$ANGBASE
 50
0.0
  9
$ANGDIR
 70
     0
  9
$PDMODE
 70
     0
  9
$PDSIZE
 40
0.0
  9
$PLINEWID
 40
0.0
  9
$SPLFRAME
 70
     0
  9
$SPLINETYPE
 70
     6
  9
$SPLINESEGS
 70
     8
  9
$HANDSEED
  5
202
  9
$SURFTAB1
 70
     6
  9
$SURFTAB2
 70
     6
  9
$SURFTYPE
 70
     6
  9
$SURFU
 70
     6
  9
$SURFV
 70
     6
  9
$UCSBASE
  2

  9
$UCSNAME
  2

  9
$UCSORG
 10
0.0
 20
0.0
 30
0.0
  9
$UCSXDIR
 10
1.0
 20
0.0
 30
0.0
  9
$UCSYDIR
 10
0.0
 20
1.0
 30
0.0
  9
$UCSORTHOREF
  2

  9
$UCSORTHOVIEW
 70
     0
  9
$UCSORGTOP
 10
0.0
 20
0.0
 30
0.0
  9
$UCSORGBOTTOM
 10
0.0
 20
0.0
 30
0.0
  9
$UCSORGLEFT
 10
0.0
 20
0.0
 30
0.0
  9
$UCSORGRIGHT
 10
0.0
 20
0.0
 30
0.0
  9
$UCSORGFRONT
 10
0.0
 20
0.0
 30
0.0
  9
$UCSORGBACK
 10
0.0
 20
0.0
 30
0.0
  9
$PUCSBASE
  2

  9
$PUCSNAME
  2

  9
$PUCSORG
 10
0.0
 20
0.0
 30
0.0
  9
$PUCSXDIR
 10
1.0
 20
0.0
 30
0.0
  9
$PUCSYDIR
 10
0.0
 20
1.0
 30
0.0
  9
$PUCSORTHOREF
  2

  9
$PUCSORTHOVIEW
 70
     0
  9
$PUCSORGTOP
 10
0.0
 20
0.0
 30
0.0
  9
$PUCSORGBOTTOM
 10
0.0
 20
0.0
 30
0.0
  9
$PUCSORGLEFT
 10
0.0
 20
0.0
 30
0.0
  9
$PUCSORGRIGHT
 10
0.0
 20
0.0
 30
0.0
  9
$PUCSORGFRONT
 10
0.0
 20
0.0
 30
0.0
  9
$PUCSORGBACK
 10
0.0
 20
0.0
 30
0.0
  9
$USERI1
 70
     0
  9
$USERI2
 70
     0
  9
$USERI3
 70
     0
  9
$USERI4
 70
     0
  9
$USERI5
 70
     0
  9
$USERR1
 40
0.0
  9
$USERR2
 40
0.0
  9
$USERR3
 40
0.0
  9
$USERR4
 40
0.0
  9
$USERR5
 40
0.0
  9
$WORLDVIEW
 70
     1
  9
$SHADEDGE
 70
     3
  9
$SHADEDIF
 70
    70
  9
$TILEMODE
 70
     1
  9
$MAXACTVP
 70
    64
  9
$PINSBASE
 10
0.0
 20
0.0
 30
0.0
  9
$PLIMCHECK
 70
     0
  9
$PEXTMIN
 10
1.000000000000000E+20
 20
1.000000000000000E+20
 30
1.000000000000000E+20
  9
$PEXTMAX
 10
-1.000000000000000E+20
 20
-1.000000000000000E+20
 30
-1.000000000000000E+20
  9
$PLIMMIN
 10
0.0
 20
0.0
  9
$PLIMMAX
 10
12.0
 20
9.0
  9
$UNITMODE
 70
     0
  9
$VISRETAIN
 70
     1
  9
$PLINEGEN
 70
     0
  9
$PSLTSCALE
 70
     1
  9
$TREEDEPTH
 70
  3020
  9
$CMLSTYLE
  2
Standard
  9
$CMLJUST
 70
     0
  9
$CMLSCALE
 40
1.0
  9
$PROXYGRAPHICS
 70
     1
  9
$MEASUREMENT
 70
     0
  9
$CELWEIGHT
370
    -1
  9
$ENDCAPS
280
     0
  9
$JOINSTYLE
280
     0
  9
$LWDISPLAY
290
     1
  9
$INSUNITS
 70
     1
  9
$HYPERLINKBASE
  1

  9
$STYLESHEET
  1

  9
$XEDIT
290
     1
  9
$CEPSNTYPE
380
     0
  9
$PSTYLEMODE
290
     1
  9
$FINGERPRINTGUID
  2
{0616DD71-9355-0D4E-9808-FB75DACF9B07}
  9
$VERSIONGUID
  2
{6108371A-ECC7-054F-9289-7E2695881086}
  9
$EXTNAMES
290
     1
  9
$PSVPSCALE
 40
0.0
  9
$OLESTARTUP
290
     0
  9
$SORTENTS
280
   127
  9
$INDEXCTL
280
     0
  9
$HIDETEXT
280
     1
  9
$XCLIPFRAME
280
     2
  9
$HALOGAP
280
     0
  9
$OBSCOLOR
 70
   257
  9
$OBSLTYPE
280
     0
  9
$INTERSECTIONDISPLAY
280
     0
  9
$INTERSECTIONCOLOR
 70
   257
  9
$DIMASSOC
280
     2
  9
$PROJECTNAME
  1

  9
$CAMERADISPLAY
290
     0
  9
$LENSLENGTH
 40
50.0
  9
$CAMERAHEIGHT
 40
0.0
  9
$STEPSPERSEC
 40
2.0
  9
$STEPSIZE
 40
6.0
  9
$3DDWFPREC
 40
2.0
  9
$PSOLWIDTH
 40
0.25
  9
$PSOLHEIGHT
 40
4.0
  9
$LOFTANG1
 40
1.570796326794896
  9
$LOFTANG2
 40
1.570796326794896
  9
$LOFTMAG1
 40
0.0
  9
$LOFTMAG2
 40
0.0
  9
$LOFTPARAM
 70
     7
  9
$LOFTNORMALS
280
     1
  9
$LATITUDE
 40
37.795
  9
$LONGITUDE
 40
-122.394
  9
$NORTHDIRECTION
 40
0.0
  9
$TIMEZONE
 70
 -8000
  9
$LIGHTGLYPHDISPLAY
280
     1
  9
$TILEMODELIGHTSYNCH
280
     1
  9
$CMATERIAL
347
11
  9
$SOLIDHIST
280
     0
  9
$SHOWHIST
280
     1
  9
$DWFFRAME
280
     2
  9
$DGNFRAME
280
     0
  9
$REALWORLDSCALE
290
     1
  9
$INTERFERECOLOR
 62
     1
  9
$INTERFEREOBJVS
345
33
  9
$INTERFEREVPVS
346
30
  9
$CSHADOW
280
     0
  9
$SHADOWPLANELOCATION
 40
0.0
  0
ENDSEC
  0
SECTION
  2
CLASSES
  0
CLASS
  1
ACDBDICTIONARYWDFLT
  2
AcDbDictionaryWithDefault
  3
ObjectDBX Classes
 90
        0
 91
        1
280
     0
281
     0
  0
CLASS
  1
MATERIAL
  2
AcDbMaterial
  3
ObjectDBX Classes
 90
     1153
 91
        3
280
     0
281
     0
  0
CLASS
  1
VISUALSTYLE
  2
AcDbVisualStyle
  3
ObjectDBX Classes
 90
     4095
 91
       24
280
     0
281
     0
  0
CLASS
  1
SCALE
  2
AcDbScale
  3
ObjectDBX Classes
 90
     1153
 91
       17
280
     0
281
     0
  0
CLASS
  1
TABLESTYLE
  2
AcDbTableStyle
  3
ObjectDBX Classes
 90
     4095
 91
        1
280
     0
281
     0
  0
CLASS
  1
MLEADERSTYLE
  2
AcDbMLeaderStyle
  3
ACDB_MLEADERSTYLE_CLASS
 90
     4095
 91
        1
280
     0
281
     0
  0
CLASS
  1
ACDBSECTIONVIEWSTYLE
  2
AcDbSectionViewStyle
  3
ObjectDBX Classes
 90
     1025
 91
        1
280
     0
281
     0
  0
CLASS
  1
ACDBDETAILVIEWSTYLE
  2
AcDbDetailViewStyle
  3
ObjectDBX Classes
 90
     1025
 91
        1
280
     0
281
     0
  0
CLASS
  1
DICTIONARYVAR
  2
AcDbDictionaryVar
  3
ObjectDBX Classes
 90
        0
 91
        5
280
     0
281
     0
  0
CLASS
  1
CELLSTYLEMAP
  2
AcDbCellStyleMap
  3
ObjectDBX Classes
 90
     1152
 91
        1
280
     0
281
     0
  0
ENDSEC
  0
SECTION
  2
TABLES
  0
TABLE
  2
VPORT
  5
8
330
0
100
AcDbSymbolTable
 70
     1
  0
VPORT
  5
57
330
8
100
AcDbSymbolTableRecord
100
AcDbViewportTableRecord
  2
*Active
 70
     0
 10
0.0
 20
0.0
 11
1.0
 21
1.0
 12
0.0
 22
0.0
 13
0.0
 23
0.0
 14
1.0
 24
1.0
 15
0.0
 25
0.0
 16
0.0
 26
0.0
 36
1.0
 17
1.475433297894135
 27
-1.45791597222223
 37
0.0
 40
11.9267716535433
 41
0.7070707070707077
 42
50.0
 43
0.0
 44
0.0
 50
0.0
 51
0.0
 71
     0
 72
   100
 73
     1
 74
     0
 75
     1
 76
     0
 77
     0
 78
     0
281
     0
 65
     1
110
0.0
120
0.0
130
0.0
111
1.0
121
0.0
131
0.0
112
0.0
122
1.0
132
0.0
 79
     0
146
0.0
 60
     3
 61
     5
292
     1
282
     1
141
0.0
142
0.0
 63
   250
421
  3355443
  0
ENDTAB
  0
TABLE
  2
LTYPE
  5
5
330
0
100
AcDbSymbolTable
 70
     1
  0
LTYPE
  5
5B
330
5
100
AcDbSymbolTableRecord
100
AcDbLinetypeTableRecord
  2
ByBlock
 70
     0
  3

 72
    65
 73
     0
 40
0.0
  0
LTYPE
  5
5C
330
5
100
AcDbSymbolTableRecord
100
AcDbLinetypeTableRecord
  2
ByLayer
 70
     0
  3

 72
    65
 73
     0
 40
0.0
  0
LTYPE
  5
5D
330
5
100
AcDbSymbolTableRecord
100
AcDbLinetypeTableRecord
  2
Continuous
 70
     0
  3
Solid line
 72
    65
 73
     0
 40
0.0
  0
ENDTAB
  0
TABLE
  2
LAYER
  5
2
330
0
100
AcDbSymbolTable
 70
     5
  0
LAYER
  5
54
330
2
100
AcDbSymbolTableRecord
100
AcDbLayerTableRecord
  2
0
 70
     0
 62
     7
  6
Continuous
370
    -3
390
F
347
21
  0
LAYER
  5
78
330
2
100
AcDbSymbolTableRecord
100
AcDbLayerTableRecord
  2
fill layer
 70
     0
 62
     7
  6
Continuous
370
     0
390
F
347
21
  0
LAYER
  5
83
330
2
100
AcDbSymbolTableRecord
100
AcDbLayerTableRecord
  2
Wood
 70
     0
 62
     7
  6
Continuous
370
     0
390
F
347
21
  0
LAYER
  5
EF
330
2
100
AcDbSymbolTableRecord
100
AcDbLayerTableRecord
  2
SDPW screw
 70
     0
 62
     7
  6
Continuous
370
     0
390
F
347
21
  0
LAYER
  5
193
330
2
100
AcDbSymbolTableRecord
100
AcDbLayerTableRecord
  2
Callout
 70
     0
 62
     7
  6
Continuous
370
     0
390
F
347
21
  0
ENDTAB
  0
TABLE
  2
STYLE
  5
3
330
0
100
AcDbSymbolTable
 70
     2
  0
STYLE
  5
55
330
3
100
AcDbSymbolTableRecord
100
AcDbTextStyleTableRecord
  2
Standard
 70
     0
 40
0.0
 41
1.0
 50
0.0
 71
     0
 42
0.2
  3
txt
  4

  0
STYLE
  5
5A
330
3
100
AcDbSymbolTableRecord
100
AcDbTextStyleTableRecord
  2
Annotative
 70
     0
 40
0.0
 41
1.0
 50
0.0
 71
     0
 42
0.2
  3
txt
  4

1001
AcadAnnotative
1000
AnnotativeData
1002
{
1070
     1
1070
     1
1002
}
  0
ENDTAB
  0
TABLE
  2
VIEW
  5
6
330
0
100
AcDbSymbolTable
 70
     0
  0
ENDTAB
  0
TABLE
  2
UCS
  5
7
330
0
100
AcDbSymbolTable
 70
     0
  0
ENDTAB
  0
TABLE
  2
APPID
  5
9
330
0
100
AcDbSymbolTable
 70
     2
  0
APPID
  5
56
330
9
100
AcDbSymbolTableRecord
100
AcDbRegAppTableRecord
  2
ACAD
 70
     0
  0
APPID
  5
5E
330
9
100
AcDbSymbolTableRecord
100
AcDbRegAppTableRecord
  2
AcadAnnotative
 70
     0
  0
ENDTAB
  0
TABLE
  2
DIMSTYLE
  5
A
330
0
100
AcDbSymbolTable
 70
     2
100
AcDbDimStyleTable
 71
     0
  0
DIMSTYLE
105
58
330
A
100
AcDbSymbolTableRecord
100
AcDbDimStyleTableRecord
  2
Standard
 70
     0
340
55
  0
DIMSTYLE
105
59
330
A
100
AcDbSymbolTableRecord
100
AcDbDimStyleTableRecord
  2
Annotative
 70
     0
340
55
1001
AcadAnnotative
1000
AnnotativeData
1002
{
1070
     1
1070
     1
1002
}
  0
ENDTAB
  0
TABLE
  2
BLOCK_RECORD
  5
1
330
0
100
AcDbSymbolTable
 70
    23
  0
BLOCK_RECORD
  5
70
330
1
100
AcDbSymbolTableRecord
100
AcDbBlockTableRecord
  2
*Model_Space
340
73
 70
     0
280
     1
281
     0
  0
BLOCK_RECORD
  5
6C
330
1
100
AcDbSymbolTableRecord
100
AcDbBlockTableRecord
  2
*Paper_Space
340
6F
 70
     0
280
     1
281
     0
  0
BLOCK_RECORD
  5
74
330
1
100
AcDbSymbolTableRecord
100
AcDbBlockTableRecord
  2
*Paper_Space0
340
77
 70
     0
280
     1
281
     0
  0
BLOCK_RECORD
  5
8A
330
1
100
AcDbSymbolTableRecord
100
AcDbBlockTableRecord
  2
Block_0
340
0
102
{BLKREFS
331
8B
102
}
 70
     0
280
     1
281
     0
  0
BLOCK_RECORD
  5
F2
330
1
100
AcDbSymbolTableRecord
100
AcDbBlockTableRecord
  2
Block_1
340
0
102
{BLKREFS
331
F3
102
}
 70
     0
280
     1
281
     0
  0
BLOCK_RECORD
  5
F6
330
1
100
AcDbSymbolTableRecord
100
AcDbBlockTableRecord
  2
Block_2
340
0
102
{BLKREFS
331
F7
102
}
 70
     0
280
     1
281
     0
  0
BLOCK_RECORD
  5
101
330
1
100
AcDbSymbolTableRecord
100
AcDbBlockTableRecord
  2
Block_3
340
0
102
{BLKREFS
331
102
102
}
 70
     0
280
     1
281
     0
  0
BLOCK_RECORD
  5
109
330
1
100
AcDbSymbolTableRecord
100
AcDbBlockTableRecord
  2
Block_4
340
0
102
{BLKREFS
331
10A
102
}
 70
     0
280
     1
281
     0
  0
BLOCK_RECORD
  5
10D
330
1
100
AcDbSymbolTableRecord
100
AcDbBlockTableRecord
  2
Block_5
340
0
102
{BLKREFS
331
10E
102
}
 70
     0
280
     1
281
     0
  0
BLOCK_RECORD
  5
115
330
1
100
AcDbSymbolTableRecord
100
AcDbBlockTableRecord
  2
Block_6
340
0
102
{BLKREFS
331
116
102
}
 70
     0
280
     1
281
     0
  0
BLOCK_RECORD
  5
11D
330
1
100
AcDbSymbolTableRecord
100
AcDbBlockTableRecord
  2
Block_7
340
0
102
{BLKREFS
331
11E
102
}
 70
     0
280
     1
281
     0
  0
BLOCK_RECORD
  5
125
330
1
100
AcDbSymbolTableRecord
100
AcDbBlockTableRecord
  2
Block_8
340
0
102
{BLKREFS
331
126
102
}
 70
     0
280
     1
281
     0
  0
BLOCK_RECORD
  5
12D
330
1
100
AcDbSymbolTableRecord
100
AcDbBlockTableRecord
  2
Block_9
340
0
102
{BLKREFS
331
12E
102
}
 70
     0
280
     1
281
     0
  0
BLOCK_RECORD
  5
135
330
1
100
AcDbSymbolTableRecord
100
AcDbBlockTableRecord
  2
Block_10
340
0
102
{BLKREFS
331
136
102
}
 70
     0
280
     1
281
     0
  0
BLOCK_RECORD
  5
13D
330
1
100
AcDbSymbolTableRecord
100
AcDbBlockTableRecord
  2
Block_11
340
0
102
{BLKREFS
331
13E
102
}
 70
     0
280
     1
281
     0
  0
BLOCK_RECORD
  5
145
330
1
100
AcDbSymbolTableRecord
100
AcDbBlockTableRecord
  2
Block_12
340
0
102
{BLKREFS
331
146
102
}
 70
     0
280
     1
281
     0
  0
BLOCK_RECORD
  5
14D
330
1
100
AcDbSymbolTableRecord
100
AcDbBlockTableRecord
  2
Block_13
340
0
102
{BLKREFS
331
14E
102
}
 70
     0
280
     1
281
     0
  0
BLOCK_RECORD
  5
155
330
1
100
AcDbSymbolTableRecord
100
AcDbBlockTableRecord
  2
Block_14
340
0
102
{BLKREFS
331
156
102
}
 70
     0
280
     1
281
     0
  0
BLOCK_RECORD
  5
15D
330
1
100
AcDbSymbolTableRecord
100
AcDbBlockTableRecord
  2
Block_15
340
0
102
{BLKREFS
331
15E
102
}
 70
     0
280
     1
281
     0
  0
BLOCK_RECORD
  5
165
330
1
100
AcDbSymbolTableRecord
100
AcDbBlockTableRecord
  2
Block_16
340
0
102
{BLKREFS
331
166
102
}
 70
     0
280
     1
281
     0
  0
BLOCK_RECORD
  5
178
330
1
100
AcDbSymbolTableRecord
100
AcDbBlockTableRecord
  2
Block_17
340
0
102
{BLKREFS
331
179
102
}
 70
     0
280
     1
281
     0
  0
BLOCK_RECORD
  5
197
330
1
100
AcDbSymbolTableRecord
100
AcDbBlockTableRecord
  2
Block_18
340
0
102
{BLKREFS
331
198
102
}
 70
     0
280
     1
281
     0
  0
BLOCK_RECORD
  5
19E
330
1
100
AcDbSymbolTableRecord
100
AcDbBlockTableRecord
  2
Block_19
340
0
102
{BLKREFS
331
19F
102
}
 70
     0
280
     1
281
     0
  0
BLOCK_RECORD
  5
1A6
330
1
100
AcDbSymbolTableRecord
100
AcDbBlockTableRecord
  2
Block_20
340
0
102
{BLKREFS
331
1A7
102
}
 70
     0
280
     1
281
     0
  0
BLOCK_RECORD
  5
1AD
330
1
100
AcDbSymbolTableRecord
100
AcDbBlockTableRecord
  2
Block_21
340
0
102
{BLKREFS
331
1AE
102
}
 70
     0
280
     1
281
     0
  0
ENDTAB
  0
ENDSEC
  0
SECTION
  2
BLOCKS
  0
BLOCK
  5
71
330
70
100
AcDbEntity
  8
0
100
AcDbBlockBegin
  2
*Model_Space
 70
     0
 10
0.0
 20
0.0
 30
0.0
  3
*Model_Space
  1

  0
ENDBLK
  5
72
330
70
100
AcDbEntity
  8
0
100
AcDbBlockEnd
  0
BLOCK
  5
6D
330
6C
100
AcDbEntity
 67
     1
  8
0
100
AcDbBlockBegin
  2
*Paper_Space
 70
     0
 10
0.0
 20
0.0
 30
0.0
  3
*Paper_Space
  1

  0
ENDBLK
  5
6E
330
6C
100
AcDbEntity
 67
     1
  8
0
100
AcDbBlockEnd
  0
BLOCK
  5
75
330
74
100
AcDbEntity
 67
     1
  8
0
100
AcDbBlockBegin
  2
*Paper_Space0
 70
     0
 10
0.0
 20
0.0
 30
0.0
  3
*Paper_Space0
  1

  0
ENDBLK
  5
76
330
74
100
AcDbEntity
 67
     1
  8
0
100
AcDbBlockEnd
  0
BLOCK
  5
8C
330
8A
100
AcDbEntity
  8
0
100
AcDbBlockBegin
  2
Block_0
 70
     0
 10
0.0
 20
0.0
 30
0.0
  3
Block_0
  1

  0
LINE
  5
8E
330
8A
100
AcDbEntity
  8
Wood
 62
   250
420
  2301728
370
    20
100
AcDbLine
 10
1.357925545741181
 20
0.1012924212868711
 30
0.0
 11
1.511455976704635
 21
0.234589186072627
 31
0.0
  0
LINE
  5
8F
330
8A
100
AcDbEntity
  8
Wood
 62
   250
420
  2301728
370
    20
100
AcDbLine
 10
1.560809590383188
 20
0.8238812008791253
 30
0.0
 11
1.714412461107258
 21
0.9536830988883796
 31
0.0
  0
LINE
  5
90
330
8A
100
AcDbEntity
  8
Wood
 62
   250
420
  2301728
370
    20
100
AcDbLine
 10
1.341495447517356
 20
-0.0811272805469798
 30
0.0
 11
1.451151050766876
 21
0.0170993062049168
 31
0.0
  0
LINE
  5
91
330
8A
100
AcDbEntity
  8
Wood
 62
   250
420
  2301728
370
    20
100
AcDbLine
 10
1.50050458833218
 20
0.6064086796212173
 30
0.0
 11
1.654035093053809
 21
0.7396958007348708
 31
0.0
  0
LINE
  5
92
330
8A
100
AcDbEntity
  8
Wood
 62
   250
420
  2301728
370
    20
100
AcDbLine
 10
1.697922058296398
 20
1.329014817823298
 30
0.0
 11
1.730842558916037
 21
1.353557191876524
 31
0.0
  0
LINE
  5
93
330
8A
100
AcDbEntity
  8
Wood
 62
   250
420
  2301728
370
    20
100
AcDbLine
 10
1.473089934399821
 20
0.0907441727213281
 30
0.0
 11
1.62665059162244
 21
0.2205576431371128
 31
0.0
  0
LINE
  5
94
330
8A
100
AcDbEntity
  8
Wood
 62
   250
420
  2301728
370
    20
100
AcDbLine
 10
1.67052248061456
 20
0.8098670165534258
 30
0.0
 11
1.824068147120492
 21
0.9431464227293796
 31
0.0
  0
LINE
  5
95
330
8A
100
AcDbEntity
  8
Wood
 62
   250
420
  2301728
370
    20
100
AcDbLine
 10
1.577296977943938
 20
0.0416598103617439
 30
0.0
 11
1.730842558916037
 21
0.1714539934332859
 31
0.0
  0
LINE
  5
96
330
8A
100
AcDbEntity
  8
Wood
 62
   250
420
  2301728
370
    20
100
AcDbLine
 10
1.774657158156186
 20
0.7607633668496116
 30
0.0
 11
1.92824796787982
 21
0.8940427730255652
 31
0.0
  0
LINE
  5
97
330
8A
100
AcDbEntity
  8
Wood
 62
   250
420
  2301728
370
    20
100
AcDbLine
 10
1.862406966640567
 20
0.2310866043584256
 30
0.0
 11
1.939202371502384
 21
0.2977166637742812
 31
0.0
  0
LINE
  5
98
330
8A
100
AcDbEntity
  8
Wood
 62
   250
420
  2301728
370
    20
100
AcDbLine
 10
1.297620542166795
 20
0.2942044383879395
 30
0.0
 11
1.374358659215241
 21
0.3608615000857374
 31
0.0
  0
LINE
  5
99
330
8A
100
AcDbEntity
  8
Wood
 62
   250
420
  2301728
370
    20
100
AcDbLine
 10
1.494995726394841
 20
1.016820220262148
 30
0.0
 11
1.571791131256683
 21
1.079974700245732
 31
0.0
  0
LINE
  5
9A
330
8A
100
AcDbEntity
  8
Wood
 62
   250
420
  2301728
370
    20
100
AcDbLine
 10
1.541080808962204
 20
-0.0214753822775972
 30
0.0
 11
1.566315437070417
 21
0.0030561908628594
 31
0.0
  0
LINE
  5
9B
330
8A
100
AcDbEntity
  8
Wood
 62
   250
420
  2301728
370
    20
100
AcDbLine
 10
1.610190341312621
 20
0.5923655642791724
 30
0.0
 11
1.763763143546081
 21
0.7256816164091712
 31
0.0
  0
LINE
  5
9C
330
8A
100
AcDbEntity
  8
Wood
 62
   250
420
  2301728
370
    20
100
AcDbLine
 10
1.813056368212149
 20
1.315001404991385
 30
0.0
 11
1.856931272454327
 21
1.353557191876524
 31
0.0
  0
LINE
  5
9D
330
8A
100
AcDbEntity
  8
Wood
 62
   250
420
  2301728
370
    20
100
AcDbLine
 10
1.560809590383188
 20
-0.0811272805469798
 30
0.0
 11
1.763763143546081
 21
0.0942583268420852
 31
0.0
  0
LINE
  5
9E
330
8A
100
AcDbEntity
  8
Wood
 62
   250
420
  2301728
370
    20
100
AcDbLine
 10
1.736321268352361
 20
0.6169183534982747
 30
0.0
 11
1.961108163497404
 21
0.8133792419397675
 31
0.0
  0
LINE
  5
9F
330
8A
100
AcDbEntity
  8
Wood
 62
   250
420
  2301728
370
    20
100
AcDbLine
 10
1.93372366206606
 20
1.339543779044598
 30
0.0
 11
1.950156775124949
 21
1.353557191876524
 31
0.0
  0
LINE
  5
A0
330
8A
100
AcDbEntity
  8
Wood
 62
   250
420
  2301728
370
    20
100
AcDbLine
 10
1.966644162685648
 20
0.1819540236382409
 30
0.0
 11
1.977598566308238
 21
0.1959971389802983
 31
0.0
  0
LINE
  5
A1
330
8A
100
AcDbEntity
  8
Wood
 62
   250
420
  2301728
370
    20
100
AcDbLine
 10
1.577296977943938
 20
0.2626638443502113
 30
0.0
 11
1.654035093053809
 21
0.3292842600939517
 31
0.0
  0
LINE
  5
A2
330
8A
100
AcDbEntity
  8
Wood
 62
   250
420
  2301728
370
    20
100
AcDbLine
 10
1.78019315734443
 20
0.9852526239424781
 30
0.0
 11
1.856931272454327
 21
1.048397460253934
 31
0.0
  0
LINE
  5
A3
330
8A
100
AcDbEntity
  8
Wood
 62
   250
420
  2301728
370
    20
100
AcDbLine
 10
1.725306559727742
 20
-0.0495500405551815
 30
0.0
 11
1.802162269591639
 21
0.0135851520841597
 31
0.0
  0
LINE
  5
A4
330
8A
100
AcDbEntity
  8
Wood
 62
   250
420
  2301728
370
    20
100
AcDbLine
 10
1.922772273693605
 20
0.6695631596048012
 30
0.0
 11
1.977598566308238
 21
0.718657165636513
 31
0.0
  0
LINE
  5
A5
330
8A
100
AcDbEntity
  8
Wood
 62
   250
420
  2301728
370
    20
100
AcDbLine
 10
1.851512868020058
 20
-0.0811272805469798
 30
0.0
 11
1.906281870882771
 21
-0.0355184976196673
 31
0.0
  0
LINE
  5
A6
330
8A
100
AcDbEntity
  8
Wood
 62
   250
420
  2301728
370
    20
100
AcDbLine
 10
1.29211469534045
 20
0.9221155025687215
 30
0.0
 11
1.297620542166795
 21
0.9256200130173384
 31
0.0
  0
LINE
  5
A7
330
8A
100
AcDbEntity
  8
Wood
 62
   250
420
  2301728
370
    20
100
AcDbLine
 10
1.341495447517356
 20
0.6625367800977149
 30
0.0
 11
1.418230549315605
 21
0.7256816164091712
 31
0.0
  0
LINE
  5
A8
330
8A
100
AcDbEntity
  8
Wood
 62
   250
420
  2301728
370
    20
100
AcDbLine
 10
1.29211469534045
 20
0.785314227334311
 30
0.0
 11
1.325005044289911
 21
0.8133792419397675
 31
0.0
  0
LINE
  5
A9
330
8A
100
AcDbEntity
  8
Wood
 62
   250
420
  2301728
370
    20
100
AcDbLine
 10
1.325005044289911
 20
0.1819540236382409
 30
0.0
 11
1.478565628586061
 21
0.3117578503819232
 31
0.0
  0
LINE
  5
AA
330
8A
100
AcDbEntity
  8
Wood
 62
   250
420
  2301728
370
    20
100
AcDbLine
 10
1.522470685329254
 20
0.9010768674703387
 30
0.0
 11
1.675971037549844
 21
1.034356273646292
 31
0.0
  0
LINE
  5
AB
330
8A
100
AcDbEntity
  8
Wood
 62
   250
420
  2301728
370
    20
100
AcDbLine
 10
1.686955593673448
 20
1.069436095352304
 30
0.0
 11
1.610190341312621
 21
1.227295293029328
 31
0.0
  0
LINE
  5
AC
330
8A
100
AcDbEntity
  8
Wood
 62
   250
420
  2301728
370
    20
100
AcDbLine
 10
1.484071475273291
 20
0.3468396008223509
 30
0.0
 11
1.412754854991072
 21
0.5046698674830042
 31
0.0
  0
LINE
  5
AD
330
8A
100
AcDbEntity
  8
Wood
 62
   250
420
  2301728
370
    20
100
AcDbLine
 10
1.725306559727742
 20
1.213261821359386
 30
0.0
 11
1.686955593673448
 21
1.290420841996541
 31
0.0
  0
LINE
  5
AE
330
8A
100
AcDbEntity
  8
Wood
 62
   250
420
  2301728
370
    20
100
AcDbLine
 10
1.527946379515469
 20
0.4906653268294324
 30
0.0
 11
1.489550184709641
 21
0.5713365728529045
 31
0.0
  0
LINE
  5
AF
330
8A
100
AcDbEntity
  8
Wood
 62
   250
420
  2301728
370
    20
100
AcDbLine
 10
1.900863466448451
 20
0.3749123303655071
 30
0.0
 11
1.862406966640567
 21
0.455575861451305
 31
0.0
  0
LINE
  5
B0
330
8A
100
AcDbEntity
  8
Wood
 62
   250
420
  2301728
370
    20
100
AcDbLine
 10
1.686955593673448
 20
1.069436095352304
 30
0.0
 11
1.610190341312621
 21
1.223790782580686
 31
0.0
  0
LINE
  5
B1
330
8A
100
AcDbEntity
  8
Wood
 62
   250
420
  2301728
370
    20
100
AcDbLine
 10
1.977598566308238
 20
0.4380494517392764
 30
0.0
 11
1.906281870882771
 21
0.5993919437862461
 31
0.0
  0
LINE
  5
B2
330
8A
100
AcDbEntity
  8
Wood
 62
   250
420
  2301728
370
    20
100
AcDbLine
 10
1.484071475273291
 20
0.3468396008223509
 30
0.0
 11
1.412754854991072
 21
0.5046698674830042
 31
0.0
  0
LINE
  5
B3
330
8A
100
AcDbEntity
  8
Wood
 62
   250
420
  2301728
370
    20
100
AcDbLine
 10
1.401770298589983
 20
1.10101333534409
 30
0.0
 11
1.29211469534045
 21
1.339543779044598
 31
0.0
  0
LINE
  5
B4
330
8A
100
AcDbEntity
  8
Wood
 62
   250
420
  2301728
370
    20
100
AcDbLine
 10
1.396324756767171
 20
1.286927903954443
 30
0.0
 11
1.363404255315951
 21
1.353557191876524
 31
0.0
  0
LINE
  5
B5
330
8A
100
AcDbEntity
  8
Wood
 62
   250
420
  2301728
370
    20
100
AcDbLine
 10
1.763763143546081
 20
0.0942583268420852
 30
0.0
 11
1.966644162685648
 21
0.1819540236382409
 31
0.0
  0
LINE
  5
B6
330
8A
100
AcDbEntity
  8
Wood
 62
   250
420
  2301728
370
    20
100
AcDbLine
 10
1.961108163497404
 20
0.8133792419397675
 30
0.0
 11
1.977598566308238
 21
0.8203766904304959
 31
0.0
  0
LINE
  5
B7
330
8A
100
AcDbEntity
  8
Wood
 62
   250
420
  2301728
370
    20
100
AcDbLine
 10
1.802162269591639
 20
0.0135851520841597
 30
0.0
 11
1.977598566308238
 21
0.0942583268420852
 31
0.0
  0
LINE
  5
B8
330
8A
100
AcDbEntity
  8
Wood
 62
   250
420
  2301728
370
    20
100
AcDbLine
 10
1.29211469534045
 20
0.2942044383879395
 30
0.0
 11
1.297620542166795
 21
0.2942044383879395
 31
0.0
  0
LINE
  5
B9
330
8A
100
AcDbEntity
  8
Wood
 62
   250
420
  2301728
370
    20
100
AcDbLine
 10
1.297620542166795
 20
0.9256200130173384
 30
0.0
 11
1.494995726394841
 21
1.016820220262148
 31
0.0
  0
LINE
  5
BA
330
8A
100
AcDbEntity
  8
Wood
 62
   250
420
  2301728
370
    20
100
AcDbLine
 10
1.29211469534045
 20
0.1644276139262122
 30
0.0
 11
1.325005044289911
 21
0.1819540236382409
 31
0.0
  0
LINE
  5
BB
330
8A
100
AcDbEntity
  8
Wood
 62
   250
420
  2301728
370
    20
100
AcDbLine
 10
1.325005044289911
 20
0.8133792419397675
 30
0.0
 11
1.522470685329254
 21
0.9010768674703387
 31
0.0
  0
LINE
  5
BC
330
8A
100
AcDbEntity
  8
Wood
 62
   250
420
  2301728
370
    20
100
AcDbLine
 10
1.62665059162244
 20
0.2205576431371128
 30
0.0
 11
1.824068147120492
 21
0.3082456249955814
 31
0.0
  0
LINE
  5
BD
330
8A
100
AcDbEntity
  8
Wood
 62
   250
420
  2301728
370
    20
100
AcDbLine
 10
1.824068147120492
 20
0.9431464227293796
 30
0.0
 11
1.977598566308238
 21
1.009803484427165
 31
0.0
  0
LINE
  5
BE
330
8A
100
AcDbEntity
  8
Wood
 62
   250
420
  2301728
370
    20
100
AcDbLine
 10
1.730842558916037
 20
0.1714539934332859
 30
0.0
 11
1.862406966640567
 21
0.2310866043584256
 31
0.0
  0
LINE
  5
BF
330
8A
100
AcDbEntity
  8
Wood
 62
   250
420
  2301728
370
    20
100
AcDbLine
 10
1.92824796787982
 20
0.8940427730255652
 30
0.0
 11
1.977598566308238
 21
0.9150910517960507
 31
0.0
  0
LINE
  5
C0
330
8A
100
AcDbEntity
  8
Wood
 62
   250
420
  2301728
370
    20
100
AcDbLine
 10
1.29211469534045
 20
1.020342089320593
 30
0.0
 11
1.390846047192477
 21
1.065923869965963
 31
0.0
  0
LINE
  5
C1
330
8A
100
AcDbEntity
  8
Wood
 62
   250
420
  2301728
370
    20
100
AcDbLine
 10
1.906281870882771
 20
-0.0355184976196673
 30
0.0
 11
1.977598566308238
 21
-0.0004271035071118
 31
0.0
  0
LINE
  5
C2
330
8A
100
AcDbEntity
  8
Wood
 62
   250
420
  2301728
370
    20
100
AcDbLine
 10
1.29211469534045
 20
0.0381379413032871
 30
0.0
 11
1.352449851416622
 21
0.0662029559087437
 31
0.0
  0
LINE
  5
C3
330
8A
100
AcDbEntity
  8
Wood
 62
   250
420
  2301728
370
    20
100
AcDbLine
 10
1.418230549315605
 20
0.7256816164091712
 30
0.0
 11
1.549855186760623
 21
0.785314227334311
 31
0.0
  0
LINE
  5
C4
330
8A
100
AcDbEntity
  8
Wood
 62
   250
420
  2301728
370
    20
100
AcDbLine
 10
1.511455976704635
 20
0.234589186072627
 30
0.0
 11
1.577296977943938
 21
0.2626638443502113
 31
0.0
  0
LINE
  5
C5
330
8A
100
AcDbEntity
  8
Wood
 62
   250
420
  2301728
370
    20
100
AcDbLine
 10
1.714412461107258
 20
0.9536830988883796
 30
0.0
 11
1.78019315734443
 21
0.9852526239424781
 31
0.0
  0
LINE
  5
C6
330
8A
100
AcDbEntity
  8
Wood
 62
   250
420
  2301728
370
    20
100
AcDbLine
 10
1.862406966640567
 20
1.086962505064333
 30
0.0
 11
1.725306559727742
 21
1.213261821359386
 31
0.0
  0
LINE
  5
C7
330
8A
100
AcDbEntity
  8
Wood
 62
   250
420
  2301728
370
    20
100
AcDbLine
 10
1.66501663392728
 20
0.3643660105343795
 30
0.0
 11
1.527946379515469
 21
0.4906653268294324
 31
0.0
  0
LINE
  5
C8
330
8A
100
AcDbEntity
  8
Wood
 62
   250
420
  2301728
370
    20
100
AcDbLine
 10
1.977598566308238
 20
1.115027519669789
 30
0.0
 11
1.802162269591639
 21
1.279911168119484
 31
0.0
  0
LINE
  5
C9
330
8A
100
AcDbEntity
  8
Wood
 62
   250
420
  2301728
370
    20
100
AcDbLine
 10
1.835022465209198
 20
0.3468396008223509
 30
0.0
 11
1.604681479375257
 21
0.5572857425731601
 31
0.0
  0
LINE
  5
CA
330
8A
100
AcDbEntity
  8
Wood
 62
   250
420
  2301728
370
    20
100
AcDbLine
 10
1.977598566308238
 20
1.251855797186143
 30
0.0
 11
1.922772273693605
 21
1.300950188964722
 31
0.0
  0
LINE
  5
CB
330
8A
100
AcDbEntity
  8
Wood
 62
   250
420
  2301728
370
    20
100
AcDbLine
 10
1.862406966640567
 20
0.455575861451305
 30
0.0
 11
1.725306559727742
 21
0.5818655340742175
 31
0.0
  0
LINE
  5
CC
330
8A
100
AcDbEntity
  8
Wood
 62
   250
420
  2301728
370
    20
100
AcDbLine
 10
1.944738459272937
 20
0.3327964854802809
 30
0.0
 11
1.900863466448451
 21
0.3749123303655071
 31
0.0
  0
LINE
  5
CD
330
8A
100
AcDbEntity
  8
Wood
 62
   250
420
  2301728
370
    20
100
AcDbLine
 10
1.582715382378207
 20
1.118539745056131
 30
0.0
 11
1.396324756767171
 21
1.286927903954443
 31
0.0
  0
LINE
  5
CE
330
8A
100
AcDbEntity
  8
Wood
 62
   250
420
  2301728
370
    20
100
AcDbLine
 10
1.38534020036612
 20
0.3959432505261778
 30
0.0
 11
1.29211469534045
 21
0.4801267219360044
 31
0.0
  0
LINE
  5
CF
330
8A
100
AcDbEntity
  8
Wood
 62
   250
420
  2301728
370
    20
100
AcDbLine
 10
1.610190341312621
 20
1.227295293029328
 30
0.0
 11
1.516964916417818
 21
1.311488600984716
 31
0.0
  0
LINE
  5
D0
330
8A
100
AcDbEntity
  8
Wood
 62
   250
420
  2301728
370
    20
100
AcDbLine
 10
1.412754854991072
 20
0.5046698674830042
 30
0.0
 11
1.319529349965364
 21
0.5888629825649458
 31
0.0
  0
LINE
  5
D1
330
8A
100
AcDbEntity
  8
Wood
 62
   250
420
  2301728
370
    20
100
AcDbLine
 10
1.686955593673448
 20
1.290420841996541
 30
0.0
 11
1.697922058296398
 21
1.329014817823298
 31
0.0
  0
LINE
  5
D2
330
8A
100
AcDbEntity
  8
Wood
 62
   250
420
  2301728
370
    20
100
AcDbLine
 10
1.549855186760623
 20
0.785314227334311
 30
0.0
 11
1.560809590383188
 21
0.8238812008791253
 31
0.0
  0
LINE
  5
D3
330
8A
100
AcDbEntity
  8
Wood
 62
   250
420
  2301728
370
    20
100
AcDbLine
 10
1.489550184709641
 20
0.5713365728529045
 30
0.0
 11
1.50050458833218
 21
0.6064086796212173
 31
0.0
  0
LINE
  5
D4
330
8A
100
AcDbEntity
  8
Wood
 62
   250
420
  2301728
370
    20
100
AcDbLine
 10
1.352449851416622
 20
0.0662029559087437
 30
0.0
 11
1.357925545741181
 21
0.1012924212868711
 31
0.0
  0
LINE
  5
D5
330
8A
100
AcDbEntity
  8
Wood
 62
   250
420
  2301728
370
    20
100
AcDbLine
 10
1.675971037549844
 20
1.034356273646292
 30
0.0
 11
1.686955593673448
 21
1.069436095352304
 31
0.0
  0
LINE
  5
D6
330
8A
100
AcDbEntity
  8
Wood
 62
   250
420
  2301728
370
    20
100
AcDbLine
 10
1.478565628586061
 20
0.3117578503819232
 30
0.0
 11
1.484071475273291
 21
0.3468396008223509
 31
0.0
  0
LINE
  5
D7
330
8A
100
AcDbEntity
  8
Wood
 62
   250
420
  2301728
370
    20
100
AcDbLine
 10
1.802162269591639
 20
1.279911168119484
 30
0.0
 11
1.813056368212149
 21
1.315001404991385
 31
0.0
  0
LINE
  5
D8
330
8A
100
AcDbEntity
  8
Wood
 62
   250
420
  2301728
370
    20
100
AcDbLine
 10
1.654035093053809
 20
0.7396958007348708
 30
0.0
 11
1.67052248061456
 21
0.8098670165534258
 31
0.0
  0
LINE
  5
D9
330
8A
100
AcDbEntity
  8
Wood
 62
   250
420
  2301728
370
    20
100
AcDbLine
 10
1.604681479375257
 20
0.5572857425731601
 30
0.0
 11
1.610190341312621
 21
0.5923655642791724
 31
0.0
  0
LINE
  5
DA
330
8A
100
AcDbEntity
  8
Wood
 62
   250
420
  2301728
370
    20
100
AcDbLine
 10
1.451151050766876
 20
0.0170993062049168
 30
0.0
 11
1.473089934399821
 21
0.0907441727213281
 31
0.0
  0
LINE
  5
DB
330
8A
100
AcDbEntity
  8
Wood
 62
   250
420
  2301728
370
    20
100
AcDbLine
 10
1.922772273693605
 20
1.300950188964722
 30
0.0
 11
1.93372366206606
 21
1.339543779044598
 31
0.0
  0
LINE
  5
DC
330
8A
100
AcDbEntity
  8
Wood
 62
   250
420
  2301728
370
    20
100
AcDbLine
 10
1.856931272454327
 20
1.048397460253934
 30
0.0
 11
1.862406966640567
 21
1.086962505064333
 31
0.0
  0
LINE
  5
DD
330
8A
100
AcDbEntity
  8
Wood
 62
   250
420
  2301728
370
    20
100
AcDbLine
 10
1.763763143546081
 20
0.7256816164091712
 30
0.0
 11
1.774657158156186
 21
0.7607633668496116
 31
0.0
  0
LINE
  5
DE
330
8A
100
AcDbEntity
  8
Wood
 62
   250
420
  2301728
370
    20
100
AcDbLine
 10
1.725306559727742
 20
0.5818655340742175
 30
0.0
 11
1.736321268352361
 21
0.6169183534982747
 31
0.0
  0
LINE
  5
DF
330
8A
100
AcDbEntity
  8
Wood
 62
   250
420
  2301728
370
    20
100
AcDbLine
 10
1.654035093053809
 20
0.3292842600939517
 30
0.0
 11
1.66501663392728
 21
0.3643660105343795
 31
0.0
  0
LINE
  5
E0
330
8A
100
AcDbEntity
  8
Wood
 62
   250
420
  2301728
370
    20
100
AcDbLine
 10
1.566315437070417
 20
0.0030561908628594
 30
0.0
 11
1.577296977943938
 21
0.0416598103617439
 31
0.0
  0
LINE
  5
E1
330
8A
100
AcDbEntity
  8
Wood
 62
   250
420
  2301728
370
    20
100
AcDbLine
 10
1.906281870882771
 20
0.5993919437862461
 30
0.0
 11
1.922772273693605
 21
0.6695631596048012
 31
0.0
  0
LINE
  5
E2
330
8A
100
AcDbEntity
  8
Wood
 62
   250
420
  2301728
370
    20
100
AcDbLine
 10
1.824068147120492
 20
0.3082456249955814
 30
0.0
 11
1.835022465209198
 21
0.3468396008223509
 31
0.0
  0
LINE
  5
E3
330
8A
100
AcDbEntity
  8
Wood
 62
   250
420
  2301728
370
    20
100
AcDbLine
 10
1.714412461107258
 20
-0.0811272805469798
 30
0.0
 11
1.725306559727742
 21
-0.0495500405551815
 31
0.0
  0
LINE
  5
E4
330
8A
100
AcDbEntity
  8
Wood
 62
   250
420
  2301728
370
    20
100
AcDbLine
 10
1.939202371502384
 20
0.2977166637742812
 30
0.0
 11
1.944738459272937
 21
0.3327964854802809
 31
0.0
  0
LINE
  5
E5
330
8A
100
AcDbEntity
  8
Wood
 62
   250
420
  2301728
370
    20
100
AcDbLine
 10
1.390846047192477
 20
1.065923869965963
 30
0.0
 11
1.401770298589983
 21
1.10101333534409
 31
0.0
  0
LINE
  5
E6
330
8A
100
AcDbEntity
  8
Wood
 62
   250
420
  2301728
370
    20
100
AcDbLine
 10
1.516964916417818
 20
1.311488600984716
 30
0.0
 11
1.533425088951819
 21
1.353557191876524
 31
0.0
  0
LINE
  5
E7
330
8A
100
AcDbEntity
  8
Wood
 62
   250
420
  2301728
370
    20
100
AcDbLine
 10
1.319529349965364
 20
0.5888629825649458
 30
0.0
 11
1.341495447517356
 21
0.6625367800977149
 31
0.0
  0
LINE
  5
E8
330
8A
100
AcDbEntity
  8
Wood
 62
   250
420
  2301728
370
    20
100
AcDbLine
 10
1.571791131256683
 20
1.079974700245732
 30
0.0
 11
1.582715382378207
 21
1.118539745056131
 31
0.0
  0
LINE
  5
E9
330
8A
100
AcDbEntity
  8
Wood
 62
   250
420
  2301728
370
    20
100
AcDbLine
 10
1.374358659215241
 20
0.3608615000857374
 30
0.0
 11
1.38534020036612
 21
0.3959432505261778
 31
0.0
  0
ENDBLK
  5
8D
330
8A
100
AcDbEntity
  8
0
100
AcDbBlockEnd
  0
BLOCK
  5
F4
330
F2
100
AcDbEntity
  8
0
100
AcDbBlockBegin
  2
Block_1
 70
     0
 10
0.0
 20
0.0
 30
0.0
  3
Block_1
  1

  0
INSERT
  5
F7
330
F2
100
AcDbEntity
  8
SDPW screw
100
AcDbBlockReference
  2
Block_2
 10
0.0
 20
0.0
 30
0.0
  0
INSERT
  5
179
330
F2
100
AcDbEntity
  8
SDPW screw
100
AcDbBlockReference
  2
Block_17
 10
0.0
 20
0.0
 30
0.0
  0
ENDBLK
  5
F5
330
F2
100
AcDbEntity
  8
0
100
AcDbBlockEnd
  0
BLOCK
  5
F8
330
F6
100
AcDbEntity
  8
0
100
AcDbBlockBegin
  2
Block_2
 70
     0
 10
0.0
 20
0.0
 30
0.0
  3
Block_2
  1

  0
SPLINE
  5
FA
330
F6
100
AcDbEntity
  8
SDPW screw
 62
   250
420
  2301728
370
     5
100
AcDbSpline
210
0.0
220
0.0
230
1.0
 70
     9
 71
     3
 72
    68
 73
    64
 74
     0
 42
0.0000000001
 43
0.0000000001
 40
0.0
 40
0.0
 40
0.0
 40
0.0
 40
1.0
 40
1.0
 40
1.0
 40
2.0
 40
2.0
 40
2.0
 40
3.0
 40
3.0
 40
3.0
 40
4.0
 40
4.0
 40
4.0
 40
5.0
 40
5.0
 40
5.0
 40
6.0
 40
6.0
 40
6.0
 40
7.0
 40
7.0
 40
7.0
 40
8.0
 40
8.0
 40
8.0
 40
9.0
 40
9.0
 40
9.0
 40
10.0
 40
10.0
 40
10.0
 40
11.0
 40
11.0
 40
11.0
 40
12.0
 40
12.0
 40
12.0
 40
13.0
 40
13.0
 40
13.0
 40
14.0
 40
14.0
 40
14.0
 40
15.0
 40
15.0
 40
15.0
 40
16.0
 40
16.0
 40
16.0
 40
17.0
 40
17.0
 40
17.0
 40
18.0
 40
18.0
 40
18.0
 40
19.0
 40
19.0
 40
19.0
 40
20.0
 40
20.0
 40
20.0
 40
21.0
 40
21.0
 40
21.0
 40
21.0
 10
1.593353797569408
 20
0.3018561706395531
 30
0.0
 10
1.593493154708792
 20
0.3010976444378457
 30
0.0
 10
1.594217282629263
 20
0.3003396206405442
 30
0.0
 10
1.595461353800752
 20
0.2995814740416638
 30
0.0
 10
1.600074251515782
 20
0.2967700760556984
 30
0.0
 10
1.604672596111817
 20
0.2939260438028997
 30
0.0
 10
1.609203467156198
 20
0.2909964568506337
 30
0.0
 10
1.609203467156198
 20
0.2909964568506337
 30
0.0
 10
1.609203467156198
 20
-0.3446652583134488
 30
0.0
 10
1.609203467156198
 20
-0.3446652583134488
 30
0.0
 10
1.609203467156198
 20
-0.3446652583134488
 30
0.0
 10
1.605631337950474
 20
-0.3499281953431692
 30
0.0
 10
1.605631337950474
 20
-0.3499281953431692
 30
0.0
 10
1.605631337950474
 20
-0.3499281953431692
 30
0.0
 10
1.605631337950474
 20
-1.505442755819078
 30
0.0
 10
1.605631337950474
 20
-1.505442755819078
 30
0.0
 10
1.605631337950474
 20
-1.505442755819078
 30
0.0
 10
1.66199159875143
 20
-1.505442755819078
 30
0.0
 10
1.66199159875143
 20
-1.505442755819078
 30
0.0
 10
1.66199159875143
 20
-1.505442755819078
 30
0.0
 10
1.66199159875143
 20
-0.3455556445932441
 30
0.0
 10
1.66199159875143
 20
-0.3455556445932441
 30
0.0
 10
1.66199159875143
 20
-0.3455556445932441
 30
0.0
 10
1.658419469545732
 20
-0.3419835153875586
 30
0.0
 10
1.658419469545732
 20
-0.3419835153875586
 30
0.0
 10
1.658419469545732
 20
-0.3419835153875586
 30
0.0
 10
1.658419469545732
 20
0.3564127266934443
 30
0.0
 10
1.658419469545732
 20
0.3564127266934443
 30
0.0
 10
1.658419469545732
 20
0.3564127266934443
 30
0.0
 10
1.633811468350965
 20
0.448250845561006
 30
0.0
 10
1.633811468350965
 20
0.448250845561006
 30
0.0
 10
1.633811468350965
 20
0.448250845561006
 30
0.0
 10
1.623252078017483
 20
0.4088409993464792
 30
0.0
 10
1.623252078017483
 20
0.4088409993464792
 30
0.0
 10
1.618926273649751
 20
0.406339626895298
 30
0.0
 10
1.614590767202672
 20
0.4038347264152359
 30
0.0
 10
1.610326262336128
 20
0.4013691392091106
 30
0.0
 10
1.609773684818289
 20
0.3994873128708352
 30
0.0
 10
1.6112867681892
 20
0.3979914286404917
 30
0.0
 10
1.612925978591394
 20
0.3968703974749764
 30
0.0
 10
1.614949303134077
 20
0.3954817409250937
 30
0.0
 10
1.616953664521689
 20
0.3940629685214263
 30
0.0
 10
1.618901136444214
 20
0.3926041285939795
 30
0.0
 10
1.618901136444214
 20
0.3926041285939795
 30
0.0
 10
1.610172793081346
 20
0.3600289562596875
 30
0.0
 10
1.610172793081346
 20
0.3600289562596875
 30
0.0
 10
1.605406426111635
 20
0.3572766527568723
 30
0.0
 10
1.600596840788461
 20
0.3544983300413378
 30
0.0
 10
1.59584321410365
 20
0.3517530825962214
 30
0.0
 10
1.594754425020937
 20
0.3508150679270253
 30
0.0
 10
1.597907600801287
 20
0.3486519452413606
 30
0.0
 10
1.597907600801287
 20
0.3486519452413606
 30
0.0
 10
1.597907600801287
 20
0.3486519452413606
 30
0.0
 10
1.605486247764221
 20
0.3438683791309561
 30
0.0
 10
1.609203467156198
 20
0.3414005229538032
 30
0.0
 10
1.609203467156198
 20
0.3414005229538032
 30
0.0
 10
1.609203467156198
 20
0.3113064369048414
 30
0.0
 10
1.609203467156198
 20
0.3113064369048414
 30
0.0
 10
1.603911423888474
 20
0.308251604928551
 30
0.0
 10
1.598619821624374
 20
0.305196331948663
 30
0.0
 10
1.593328660363896
 20
0.3021414999723977
 30
0.0
 10
1.593327337353103
 20
0.302046304637492
 30
0.0
 10
1.593336157425179
 20
0.3019509864147696
 30
0.0
 10
1.593353797569408
 20
0.3018561706395531
 30
0.0
  0
HATCH
  5
FB
330
F6
100
AcDbEntity
  8
SDPW screw
440
 33554687
100
AcDbHatch
 10
0.0
 20
0.0
 30
0.0
210
0.0
220
0.0
230
1.0
  2
SOLID
 70
     1
 71
     1
 91
        1
 92
        1
 93
        2
 72
     4
 94
        3
 73
     0
 74
     0
 95
       68
 96
       64
 40
0.0
 40
0.0
 40
0.0
 40
0.0
 40
1.0
 40
1.0
 40
1.0
 40
2.0
 40
2.0
 40
2.0
 40
3.0
 40
3.0
 40
3.0
 40
4.0
 40
4.0
 40
4.0
 40
5.0
 40
5.0
 40
5.0
 40
6.0
 40
6.0
 40
6.0
 40
7.0
 40
7.0
 40
7.0
 40
8.0
 40
8.0
 40
8.0
 40
9.0
 40
9.0
 40
9.0
 40
10.0
 40
10.0
 40
10.0
 40
11.0
 40
11.0
 40
11.0
 40
12.0
 40
12.0
 40
12.0
 40
13.0
 40
13.0
 40
13.0
 40
14.0
 40
14.0
 40
14.0
 40
15.0
 40
15.0
 40
15.0
 40
16.0
 40
16.0
 40
16.0
 40
17.0
 40
17.0
 40
17.0
 40
18.0
 40
18.0
 40
18.0
 40
19.0
 40
19.0
 40
19.0
 40
20.0
 40
20.0
 40
20.0
 40
21.0
 40
21.0
 40
21.0
 40
21.0
 10
1.593353797569408
 20
0.3018561706395531
 10
1.593493154708792
 20
0.3010976444378457
 10
1.594217282629263
 20
0.3003396206405442
 10
1.595461353800752
 20
0.2995814740416638
 10
1.600074251515782
 20
0.2967700760556984
 10
1.604672596111817
 20
0.2939260438028997
 10
1.609203467156198
 20
0.2909964568506337
 10
1.609203467156198
 20
0.2909964568506337
 10
1.609203467156198
 20
-0.3446652583134488
 10
1.609203467156198
 20
-0.3446652583134488
 10
1.609203467156198
 20
-0.3446652583134488
 10
1.605631337950474
 20
-0.3499281953431692
 10
1.605631337950474
 20
-0.3499281953431692
 10
1.605631337950474
 20
-0.3499281953431692
 10
1.605631337950474
 20
-1.505442755819078
 10
1.605631337950474
 20
-1.505442755819078
 10
1.605631337950474
 20
-1.505442755819078
 10
1.66199159875143
 20
-1.505442755819078
 10
1.66199159875143
 20
-1.505442755819078
 10
1.66199159875143
 20
-1.505442755819078
 10
1.66199159875143
 20
-0.3455556445932441
 10
1.66199159875143
 20
-0.3455556445932441
 10
1.66199159875143
 20
-0.3455556445932441
 10
1.658419469545732
 20
-0.3419835153875586
 10
1.658419469545732
 20
-0.3419835153875586
 10
1.658419469545732
 20
-0.3419835153875586
 10
1.658419469545732
 20
0.3564127266934443
 10
1.658419469545732
 20
0.3564127266934443
 10
1.658419469545732
 20
0.3564127266934443
 10
1.633811468350965
 20
0.448250845561006
 10
1.633811468350965
 20
0.448250845561006
 10
1.633811468350965
 20
0.448250845561006
 10
1.623252078017483
 20
0.4088409993464792
 10
1.623252078017483
 20
0.4088409993464792
 10
1.618926273649751
 20
0.406339626895298
 10
1.614590767202672
 20
0.4038347264152359
 10
1.610326262336128
 20
0.4013691392091106
 10
1.609773684818289
 20
0.3994873128708352
 10
1.6112867681892
 20
0.3979914286404917
 10
1.612925978591394
 20
0.3968703974749764
 10
1.614949303134077
 20
0.3954817409250937
 10
1.616953664521689
 20
0.3940629685214263
 10
1.618901136444214
 20
0.3926041285939795
 10
1.618901136444214
 20
0.3926041285939795
 10
1.610172793081346
 20
0.3600289562596875
 10
1.610172793081346
 20
0.3600289562596875
 10
1.605406426111635
 20
0.3572766527568723
 10
1.600596840788461
 20
0.3544983300413378
 10
1.59584321410365
 20
0.3517530825962214
 10
1.594754425020937
 20
0.3508150679270253
 10
1.597907600801287
 20
0.3486519452413606
 10
1.597907600801287
 20
0.3486519452413606
 10
1.597907600801287
 20
0.3486519452413606
 10
1.605486247764221
 20
0.3438683791309561
 10
1.609203467156198
 20
0.3414005229538032
 10
1.609203467156198
 20
0.3414005229538032
 10
1.609203467156198
 20
0.3113064369048414
 10
1.609203467156198
 20
0.3113064369048414
 10
1.603911423888474
 20
0.308251604928551
 10
1.598619821624374
 20
0.305196331948663
 10
1.593328660363896
 20
0.3021414999723977
 10
1.593327337353103
 20
0.302046304637492
 10
1.593336157425179
 20
0.3019509864147696
 10
1.593353797569408
 20
0.3018561706395531
 97
        0
 72
     1
 10
1.593353797569408
 20
0.3018561706395531
 11
1.593353797569408
 21
0.3018561706395531
 97
        0
 75
     2
 76
     0
 98
        1
 10
0.0
 20
0.0
450
        1
451
        0
460
-90.0
461
0.0
452
        0
462
0.0
453
        2
463
0.0
 63
   250
421
  3157551
463
1.0
 63
   250
421
  3157551
470
LINEAR
  0
LINE
  5
FC
330
F6
100
AcDbEntity
  8
SDPW screw
 62
   250
420
  2301728
370
     5
100
AcDbLine
 10
1.66199159875143
 20
-0.3455556445932441
 30
0.0
 11
1.609847332420435
 21
-0.3455556445932441
 31
0.0
  0
SPLINE
  5
FD
330
F6
100
AcDbEntity
  8
SDPW screw
 62
   250
420
  2301728
370
     5
100
AcDbSpline
210
0.0
220
0.0
230
1.0
 70
    11
 71
     3
 72
    35
 73
    31
 74
     0
 42
0.0000000001
 43
0.0000000001
 40
0.0
 40
0.0
 40
0.0
 40
0.0
 40
1.0
 40
1.0
 40
1.0
 40
2.0
 40
2.0
 40
2.0
 40
3.0
 40
3.0
 40
3.0
 40
4.0
 40
4.0
 40
4.0
 40
5.0
 40
5.0
 40
5.0
 40
6.0
 40
6.0
 40
6.0
 40
7.0
 40
7.0
 40
7.0
 40
8.0
 40
8.0
 40
8.0
 40
9.0
 40
9.0
 40
9.0
 40
10.0
 40
10.0
 40
10.0
 40
10.0
 10
1.570306949138587
 20
-1.541164047876034
 30
0.0
 10
1.570306949138587
 20
-1.541164047876034
 30
0.0
 10
1.532601140856311
 20
-1.541164047876034
 30
0.0
 10
1.532601140856311
 20
-1.541164047876034
 30
0.0
 10
1.528216683009001
 20
-1.541164047876034
 30
0.0
 10
1.524663075954726
 20
-1.544718081143223
 30
0.0
 10
1.524663075954726
 20
-1.549102112777594
 30
0.0
 10
1.524663075954726
 20
-1.549102112777594
 30
0.0
 10
1.524663075954726
 20
-1.557833984169342
 30
0.0
 10
1.524663075954726
 20
-1.557833984169342
 30
0.0
 10
1.524663075954726
 20
-1.562218442016576
 30
0.0
 10
1.528216683009001
 20
-1.565772049070852
 30
0.0
 10
1.532601140856311
 20
-1.565772049070852
 30
0.0
 10
1.532601140856311
 20
-1.565772049070852
 30
0.0
 10
1.735021795845619
 20
-1.565772049070852
 30
0.0
 10
1.735021795845619
 20
-1.565772049070852
 30
0.0
 10
1.739405812689306
 20
-1.565772049070852
 30
0.0
 10
1.742959860747153
 20
-1.562218442016576
 30
0.0
 10
1.742959860747153
 20
-1.557833984169342
 30
0.0
 10
1.742959860747153
 20
-1.557833984169342
 30
0.0
 10
1.742959860747153
 20
-1.549102112777594
 30
0.0
 10
1.742959860747153
 20
-1.549102112777594
 30
0.0
 10
1.742959860747153
 20
-1.544718081143223
 30
0.0
 10
1.739405812689306
 20
-1.541164047876034
 30
0.0
 10
1.735021795845619
 20
-1.541164047876034
 30
0.0
 10
1.735021795845619
 20
-1.541164047876034
 30
0.0
 10
1.697315987563266
 20
-1.541164047876034
 30
0.0
 10
1.697315987563266
 20
-1.541164047876034
 30
0.0
 10
1.697315987563266
 20
-1.541164047876034
 30
0.0
 10
1.570306949138587
 20
-1.541164047876034
 30
0.0
 10
1.570306949138587
 20
-1.541164047876034
 30
0.0
  0
HATCH
  5
FE
330
F6
100
AcDbEntity
  8
SDPW screw
440
 33554687
100
AcDbHatch
 10
0.0
 20
0.0
 30
0.0
210
0.0
220
0.0
230
1.0
  2
SOLID
 70
     1
 71
     1
 91
        1
 92
        1
 93
        1
 72
     4
 94
        3
 73
     0
 74
     0
 95
       35
 96
       31
 40
0.0
 40
0.0
 40
0.0
 40
0.0
 40
1.0
 40
1.0
 40
1.0
 40
2.0
 40
2.0
 40
2.0
 40
3.0
 40
3.0
 40
3.0
 40
4.0
 40
4.0
 40
4.0
 40
5.0
 40
5.0
 40
5.0
 40
6.0
 40
6.0
 40
6.0
 40
7.0
 40
7.0
 40
7.0
 40
8.0
 40
8.0
 40
8.0
 40
9.0
 40
9.0
 40
9.0
 40
10.0
 40
10.0
 40
10.0
 40
10.0
 10
1.570306949138587
 20
-1.541164047876034
 10
1.570306949138587
 20
-1.541164047876034
 10
1.532601140856311
 20
-1.541164047876034
 10
1.532601140856311
 20
-1.541164047876034
 10
1.528216683009001
 20
-1.541164047876034
 10
1.524663075954726
 20
-1.544718081143223
 10
1.524663075954726
 20
-1.549102112777594
 10
1.524663075954726
 20
-1.549102112777594
 10
1.524663075954726
 20
-1.557833984169342
 10
1.524663075954726
 20
-1.557833984169342
 10
1.524663075954726
 20
-1.562218442016576
 10
1.528216683009001
 20
-1.565772049070852
 10
1.532601140856311
 20
-1.565772049070852
 10
1.532601140856311
 20
-1.565772049070852
 10
1.735021795845619
 20
-1.565772049070852
 10
1.735021795845619
 20
-1.565772049070852
 10
1.739405812689306
 20
-1.565772049070852
 10
1.742959860747153
 20
-1.562218442016576
 10
1.742959860747153
 20
-1.557833984169342
 10
1.742959860747153
 20
-1.557833984169342
 10
1.742959860747153
 20
-1.549102112777594
 10
1.742959860747153
 20
-1.549102112777594
 10
1.742959860747153
 20
-1.544718081143223
 10
1.739405812689306
 20
-1.541164047876034
 10
1.735021795845619
 20
-1.541164047876034
 10
1.735021795845619
 20
-1.541164047876034
 10
1.697315987563266
 20
-1.541164047876034
 10
1.697315987563266
 20
-1.541164047876034
 10
1.697315987563266
 20
-1.541164047876034
 10
1.570306949138587
 20
-1.541164047876034
 10
1.570306949138587
 20
-1.541164047876034
 97
        0
 97
        1
330
FD
 75
     2
 76
     0
 98
        1
 10
0.0
 20
0.0
450
        1
451
        0
460
-90.0
461
0.0
452
        0
462
0.0
453
        2
463
0.0
 63
   250
421
  3157551
463
1.0
 63
   250
421
  3157551
470
LINEAR
  0
LWPOLYLINE
  5
FF
330
F6
100
AcDbEntity
  8
SDPW screw
 62
   250
420
  2301728
370
     5
100
AcDbPolyline
 90
        4
 70
     1
 43
0.0
 10
1.570306949138587
 20
-1.541164047876034
 10
1.605631337950474
 20
-1.505442755819078
 10
1.66199159875143
 20
-1.505442755819078
 10
1.697315987563266
 20
-1.541164047876034
  0
HATCH
  5
100
330
F6
100
AcDbEntity
  8
SDPW screw
440
 33554687
100
AcDbHatch
 10
0.0
 20
0.0
 30
0.0
210
0.0
220
0.0
230
1.0
  2
SOLID
 70
     1
 71
     1
 91
        1
 92
        1
 93
        4
 72
     1
 10
1.570306949138587
 20
-1.541164047876034
 11
1.605631337950474
 21
-1.505442755819078
 72
     1
 10
1.605631337950474
 20
-1.505442755819078
 11
1.66199159875143
 21
-1.505442755819078
 72
     1
 10
1.66199159875143
 20
-1.505442755819078
 11
1.697315987563266
 21
-1.541164047876034
 72
     1
 10
1.697315987563266
 20
-1.541164047876034
 11
1.570306949138587
 21
-1.541164047876034
 97
        1
330
FF
 75
     2
 76
     0
 98
        1
 10
0.0
 20
0.0
450
        1
451
        0
460
-90.0
461
0.0
452
        0
462
0.0
453
        2
463
0.0
 63
   250
421
  3157551
463
1.0
 63
   250
421
  3157551
470
LINEAR
  0
INSERT
  5
102
330
F6
100
AcDbEntity
  8
SDPW screw
100
AcDbBlockReference
  2
Block_3
 10
0.0
 20
0.0
 30
0.0
  0
INSERT
  5
10A
330
F6
100
AcDbEntity
  8
SDPW screw
100
AcDbBlockReference
  2
Block_4
 10
0.0
 20
0.0
 30
0.0
  0
LINE
  5
16D
330
F6
100
AcDbEntity
  8
SDPW screw
 62
   250
420
  2301728
370
     5
100
AcDbLine
 10
1.66199159875143
 20
-1.505442755819078
 30
0.0
 11
1.605631337950474
 21
-1.505442755819078
 31
0.0
  0
LINE
  5
16E
330
F6
100
AcDbEntity
  8
SDPW screw
 62
   250
420
  2301728
370
     5
100
AcDbLine
 10
1.658419469545732
 20
-0.3419835153875586
 30
0.0
 11
1.626465671291776
 21
-0.3419835153875586
 31
0.0
  0
LINE
  5
16F
330
F6
100
AcDbEntity
  8
SDPW screw
 62
   250
420
  2301728
370
     5
100
AcDbLine
 10
1.658419469545732
 20
0.3564127266934443
 30
0.0
 11
1.62821116356291
 21
0.3564127266934443
 31
0.0
  0
SPLINE
  5
170
330
F6
100
AcDbEntity
  8
SDPW screw
 62
   250
420
  2301728
370
     5
100
AcDbSpline
210
0.0
220
0.0
230
1.0
 70
     9
 71
     3
 72
    29
 73
    25
 74
     0
 42
0.0000000001
 43
0.0000000001
 40
0.0
 40
0.0
 40
0.0
 40
0.0
 40
1.0
 40
1.0
 40
1.0
 40
2.0
 40
2.0
 40
2.0
 40
3.0
 40
3.0
 40
3.0
 40
4.0
 40
4.0
 40
4.0
 40
5.0
 40
5.0
 40
5.0
 40
6.0
 40
6.0
 40
6.0
 40
7.0
 40
7.0
 40
7.0
 40
8.0
 40
8.0
 40
8.0
 40
8.0
 10
1.623957194673519
 20
0.3547377949992096
 30
0.0
 10
1.625354342205582
 20
0.3553107214724176
 30
0.0
 10
1.626779617820905
 20
0.3558694102512921
 30
0.0
 10
1.628210722559313
 20
0.3564180187366901
 30
0.0
 10
1.640754629118166
 20
0.3598075724496539
 30
0.0
 10
1.652011687155764
 20
0.3651617972257478
 30
0.0
 10
1.66222003861915
 20
0.3728872983893501
 30
0.0
 10
1.665661189753968
 20
0.375072471255319
 30
0.0
 10
1.6653414621399
 20
0.3772320659121406
 30
0.0
 10
1.661728319598877
 20
0.3794397299619732
 30
0.0
 10
1.657875271096347
 20
0.3818224724432563
 30
0.0
 10
1.654029719655176
 20
0.3842466692634742
 30
0.0
 10
1.650286922054091
 20
0.3867625948336632
 30
0.0
 10
1.650286922054091
 20
0.3867625948336632
 30
0.0
 10
1.650909619145295
 20
0.3844393878391277
 30
0.0
 10
1.650909619145295
 20
0.3844393878391277
 30
0.0
 10
1.651478513796519
 20
0.3817721980322201
 30
0.0
 10
1.649659814926887
 20
0.3802044302141717
 30
0.0
 10
1.647334796399112
 20
0.3785242064766786
 30
0.0
 10
1.641372916173269
 20
0.3746389647109759
 30
0.0
 10
1.63322890258789
 20
0.3721252441588124
 30
0.0
 10
1.62641936591318
 20
0.3694501162869856
 30
0.0
 10
1.62641936591318
 20
0.3694501162869856
 30
0.0
 10
1.623957194673519
 20
0.3547377949992096
 30
0.0
 10
1.623957194673519
 20
0.3547377949992096
 30
0.0
  0
HATCH
  5
171
330
F6
100
AcDbEntity
  8
SDPW screw
440
 33554687
100
AcDbHatch
 10
0.0
 20
0.0
 30
0.0
210
0.0
220
0.0
230
1.0
  2
SOLID
 70
     1
 71
     1
 91
        1
 92
        1
 93
        1
 72
     4
 94
        3
 73
     0
 74
     0
 95
       29
 96
       25
 40
0.0
 40
0.0
 40
0.0
 40
0.0
 40
1.0
 40
1.0
 40
1.0
 40
2.0
 40
2.0
 40
2.0
 40
3.0
 40
3.0
 40
3.0
 40
4.0
 40
4.0
 40
4.0
 40
5.0
 40
5.0
 40
5.0
 40
6.0
 40
6.0
 40
6.0
 40
7.0
 40
7.0
 40
7.0
 40
8.0
 40
8.0
 40
8.0
 40
8.0
 10
1.623957194673519
 20
0.3547377949992096
 10
1.625354342205582
 20
0.3553107214724176
 10
1.626779617820905
 20
0.3558694102512921
 10
1.628210722559313
 20
0.3564180187366901
 10
1.640754629118166
 20
0.3598075724496539
 10
1.652011687155764
 20
0.3651617972257478
 10
1.66222003861915
 20
0.3728872983893501
 10
1.665661189753968
 20
0.375072471255319
 10
1.6653414621399
 20
0.3772320659121406
 10
1.661728319598877
 20
0.3794397299619732
 10
1.657875271096347
 20
0.3818224724432563
 10
1.654029719655176
 20
0.3842466692634742
 10
1.650286922054091
 20
0.3867625948336632
 10
1.650286922054091
 20
0.3867625948336632
 10
1.650909619145295
 20
0.3844393878391277
 10
1.650909619145295
 20
0.3844393878391277
 10
1.651478513796519
 20
0.3817721980322201
 10
1.649659814926887
 20
0.3802044302141717
 10
1.647334796399112
 20
0.3785242064766786
 10
1.641372916173269
 20
0.3746389647109759
 10
1.63322890258789
 20
0.3721252441588124
 10
1.62641936591318
 20
0.3694501162869856
 10
1.62641936591318
 20
0.3694501162869856
 10
1.623957194673519
 20
0.3547377949992096
 10
1.623957194673519
 20
0.3547377949992096
 97
        0
 97
        1
330
170
 75
     2
 76
     0
 98
        1
 10
0.0
 20
0.0
450
        1
451
        0
460
90.0
461
0.0
452
        0
462
0.0
453
        2
463
0.0
 63
   250
421
  3157551
463
1.0
 63
     9
421
 12369600
470
LINEAR
  0
SPLINE
  5
172
330
F6
100
AcDbEntity
  8
SDPW screw
 62
   250
420
  2301728
370
     5
100
AcDbSpline
210
0.0
220
0.0
230
1.0
 70
     9
 71
     3
 72
    29
 73
    25
 74
     0
 42
0.0000000001
 43
0.0000000001
 40
0.0
 40
0.0
 40
0.0
 40
0.0
 40
1.0
 40
1.0
 40
1.0
 40
2.0
 40
2.0
 40
2.0
 40
3.0
 40
3.0
 40
3.0
 40
4.0
 40
4.0
 40
4.0
 40
5.0
 40
5.0
 40
5.0
 40
6.0
 40
6.0
 40
6.0
 40
7.0
 40
7.0
 40
7.0
 40
8.0
 40
8.0
 40
8.0
 40
8.0
 10
1.610480613598105
 20
0.2955401169995437
 30
0.0
 10
1.629948276765541
 20
0.3066728120203757
 30
0.0
 10
1.654300495869064
 20
0.3095424224822838
 30
0.0
 10
1.67215188082178
 20
0.324366758685907
 30
0.0
 10
1.67215188082178
 20
0.324366758685907
 30
0.0
 10
1.671939317083873
 20
0.32424019065109
 30
0.0
 10
1.671939317083873
 20
0.32424019065109
 30
0.0
 10
1.674975626908715
 20
0.3260046460772451
 30
0.0
 10
1.675035162395463
 20
0.3277686604998153
 30
0.0
 10
1.672141737738886
 20
0.3295331159259957
 30
0.0
 10
1.667535455077919
 20
0.3323418678903004
 30
0.0
 10
1.662945489550439
 20
0.3351789063663217
 30
0.0
 10
1.658419469545732
 20
0.3380956419331116
 30
0.0
 10
1.658419469545732
 20
0.3380956419331116
 30
0.0
 10
1.658419469545732
 20
0.3361031876428215
 30
0.0
 10
1.658419469545732
 20
0.3361031876428215
 30
0.0
 10
1.657792362418528
 20
0.3327246590200098
 30
0.0
 10
1.654734443416979
 20
0.3317707682210135
 30
0.0
 10
1.651332982606643
 20
0.3299578023982121
 30
0.0
 10
1.640404913258887
 20
0.3251147008010724
 30
0.0
 10
1.627090132397395
 20
0.3222619104307745
 30
0.0
 10
1.616129869786365
 20
0.3173786155509029
 30
0.0
 10
1.616129869786365
 20
0.3173786155509029
 30
0.0
 10
1.610480613598105
 20
0.2955401169995437
 30
0.0
 10
1.610480613598105
 20
0.2955401169995437
 30
0.0
  0
HATCH
  5
173
330
F6
100
AcDbEntity
  8
SDPW screw
440
 33554687
100
AcDbHatch
 10
0.0
 20
0.0
 30
0.0
210
0.0
220
0.0
230
1.0
  2
SOLID
 70
     1
 71
     1
 91
        1
 92
        1
 93
        1
 72
     4
 94
        3
 73
     0
 74
     0
 95
       29
 96
       25
 40
0.0
 40
0.0
 40
0.0
 40
0.0
 40
1.0
 40
1.0
 40
1.0
 40
2.0
 40
2.0
 40
2.0
 40
3.0
 40
3.0
 40
3.0
 40
4.0
 40
4.0
 40
4.0
 40
5.0
 40
5.0
 40
5.0
 40
6.0
 40
6.0
 40
6.0
 40
7.0
 40
7.0
 40
7.0
 40
8.0
 40
8.0
 40
8.0
 40
8.0
 10
1.610480613598105
 20
0.2955401169995437
 10
1.629948276765541
 20
0.3066728120203757
 10
1.654300495869064
 20
0.3095424224822838
 10
1.67215188082178
 20
0.324366758685907
 10
1.67215188082178
 20
0.324366758685907
 10
1.671939317083873
 20
0.32424019065109
 10
1.671939317083873
 20
0.32424019065109
 10
1.674975626908715
 20
0.3260046460772451
 10
1.675035162395463
 20
0.3277686604998153
 10
1.672141737738886
 20
0.3295331159259957
 10
1.667535455077919
 20
0.3323418678903004
 10
1.662945489550439
 20
0.3351789063663217
 10
1.658419469545732
 20
0.3380956419331116
 10
1.658419469545732
 20
0.3380956419331116
 10
1.658419469545732
 20
0.3361031876428215
 10
1.658419469545732
 20
0.3361031876428215
 10
1.657792362418528
 20
0.3327246590200098
 10
1.654734443416979
 20
0.3317707682210135
 10
1.651332982606643
 20
0.3299578023982121
 10
1.640404913258887
 20
0.3251147008010724
 10
1.627090132397395
 20
0.3222619104307745
 10
1.616129869786365
 20
0.3173786155509029
 10
1.616129869786365
 20
0.3173786155509029
 10
1.610480613598105
 20
0.2955401169995437
 10
1.610480613598105
 20
0.2955401169995437
 97
        0
 97
        1
330
172
 75
     2
 76
     0
 98
        1
 10
0.0
 20
0.0
450
        1
451
        0
460
90.0
461
0.0
452
        0
462
0.0
453
        2
463
0.0
 63
   250
421
  3157551
463
1.0
 63
     9
421
 12369600
470
LINEAR
  0
SPLINE
  5
174
330
F6
100
AcDbEntity
  8
SDPW screw
 62
   250
420
  2301728
370
     5
100
AcDbSpline
210
0.0
220
0.0
230
1.0
 70
     9
 71
     3
 72
    20
 73
    16
 74
     0
 42
0.0000000001
 43
0.0000000001
 40
0.0
 40
0.0
 40
0.0
 40
0.0
 40
1.0
 40
1.0
 40
1.0
 40
2.0
 40
2.0
 40
2.0
 40
3.0
 40
3.0
 40
3.0
 40
4.0
 40
4.0
 40
4.0
 40
5.0
 40
5.0
 40
5.0
 40
5.0
 10
1.631098855172644
 20
0.406497065182508
 30
0.0
 10
1.637620416492887
 20
0.4108114034564779
 30
0.0
 10
1.642169809688665
 20
0.4168782900592811
 30
0.0
 10
1.648538736272889
 20
0.4215961466324467
 30
0.0
 10
1.654236109342617
 20
0.427887504070529
 30
0.0
 10
1.639941859472981
 20
0.4349704629807118
 30
0.0
 10
1.636314116015733
 20
0.4389121532079419
 30
0.0
 10
1.636314116015733
 20
0.4389121532079419
 30
0.0
 10
1.637832098223599
 20
0.4332456978790762
 30
0.0
 10
1.637832098223599
 20
0.4332456978790762
 30
0.0
 10
1.63960360970744
 20
0.4277776941727199
 30
0.0
 10
1.636082636920011
 20
0.4229998611091964
 30
0.0
 10
1.632228706410286
 20
0.4194422850224934
 30
0.0
 10
1.632228706410286
 20
0.4194422850224934
 30
0.0
 10
1.631098855172644
 20
0.406497065182508
 30
0.0
 10
1.631098855172644
 20
0.406497065182508
 30
0.0
  0
HATCH
  5
175
330
F6
100
AcDbEntity
  8
SDPW screw
440
 33554687
100
AcDbHatch
 10
0.0
 20
0.0
 30
0.0
210
0.0
220
0.0
230
1.0
  2
SOLID
 70
     1
 71
     1
 91
        1
 92
        1
 93
        1
 72
     4
 94
        3
 73
     0
 74
     0
 95
       20
 96
       16
 40
0.0
 40
0.0
 40
0.0
 40
0.0
 40
1.0
 40
1.0
 40
1.0
 40
2.0
 40
2.0
 40
2.0
 40
3.0
 40
3.0
 40
3.0
 40
4.0
 40
4.0
 40
4.0
 40
5.0
 40
5.0
 40
5.0
 40
5.0
 10
1.631098855172644
 20
0.406497065182508
 10
1.637620416492887
 20
0.4108114034564779
 10
1.642169809688665
 20
0.4168782900592811
 10
1.648538736272889
 20
0.4215961466324467
 10
1.654236109342617
 20
0.427887504070529
 10
1.639941859472981
 20
0.4349704629807118
 10
1.636314116015733
 20
0.4389121532079419
 10
1.636314116015733
 20
0.4389121532079419
 10
1.637832098223599
 20
0.4332456978790762
 10
1.637832098223599
 20
0.4332456978790762
 10
1.63960360970744
 20
0.4277776941727199
 10
1.636082636920011
 20
0.4229998611091964
 10
1.632228706410286
 20
0.4194422850224934
 10
1.632228706410286
 20
0.4194422850224934
 10
1.631098855172644
 20
0.406497065182508
 10
1.631098855172644
 20
0.406497065182508
 97
        0
 97
        1
330
174
 75
     2
 76
     0
 98
        1
 10
0.0
 20
0.0
450
        1
451
        0
460
90.0
461
0.0
452
        0
462
0.0
453
        2
463
0.0
 63
   250
421
  3157551
463
1.0
 63
     9
421
 12369600
470
LINEAR
  0
SPLINE
  5
176
330
F6
100
AcDbEntity
  8
SDPW screw
 62
   250
420
  2301728
370
     5
100
AcDbSpline
210
0.0
220
0.0
230
1.0
 70
     9
 71
     3
 72
    56
 73
    52
 74
     0
 42
0.0000000001
 43
0.0000000001
 40
0.0
 40
0.0
 40
0.0
 40
0.0
 40
1.0
 40
1.0
 40
1.0
 40
2.0
 40
2.0
 40
2.0
 40
3.0
 40
3.0
 40
3.0
 40
4.0
 40
4.0
 40
4.0
 40
5.0
 40
5.0
 40
5.0
 40
6.0
 40
6.0
 40
6.0
 40
7.0
 40
7.0
 40
7.0
 40
8.0
 40
8.0
 40
8.0
 40
9.0
 40
9.0
 40
9.0
 40
10.0
 40
10.0
 40
10.0
 40
11.0
 40
11.0
 40
11.0
 40
12.0
 40
12.0
 40
12.0
 40
13.0
 40
13.0
 40
13.0
 40
14.0
 40
14.0
 40
14.0
 40
15.0
 40
15.0
 40
15.0
 40
16.0
 40
16.0
 40
16.0
 40
17.0
 40
17.0
 40
17.0
 40
17.0
 10
1.59584321410365
 20
0.3517530825962214
 30
0.0
 10
1.600277995181613
 20
0.3491917336546445
 30
0.0
 10
1.604759473822115
 20
0.3466039244967507
 30
0.0
 10
1.609203467156198
 20
0.3440372835119155
 30
0.0
 10
1.609203467156198
 20
0.3440372835119155
 30
0.0
 10
1.609203467156198
 20
0.3113064369048414
 30
0.0
 10
1.609203467156198
 20
0.3113064369048414
 30
0.0
 10
1.609203467156198
 20
0.3113064369048414
 30
0.0
 10
1.593328660363896
 20
0.3021414999723977
 30
0.0
 10
1.593328660363896
 20
0.3021414999723977
 30
0.0
 10
1.593328660363896
 20
0.3021414999723977
 30
0.0
 10
1.609203467156198
 20
0.2929756810327464
 30
0.0
 10
1.609203467156198
 20
0.2929756810327464
 30
0.0
 10
1.609203467156198
 20
0.2929756810327464
 30
0.0
 10
1.609203467156198
 20
0.2909964568506337
 30
0.0
 10
1.609203467156198
 20
0.2909964568506337
 30
0.0
 10
1.609203467156198
 20
0.2909964568506337
 30
0.0
 10
1.610480124144664
 20
0.2955370912537773
 30
0.0
 10
1.610480124144664
 20
0.2955370912537773
 30
0.0
 10
1.610480124144664
 20
0.2955370912537773
 30
0.0
 10
1.616129869786365
 20
0.3173786155509029
 30
0.0
 10
1.616129869786365
 20
0.3173786155509029
 30
0.0
 10
1.616129869786365
 20
0.3173786155509029
 30
0.0
 10
1.621738946481097
 20
0.3423535317455793
 30
0.0
 10
1.623957194673519
 20
0.3547369129919894
 30
0.0
 10
1.623957194673519
 20
0.3547377949992096
 30
0.0
 10
1.62641936591318
 20
0.3694501162869856
 30
0.0
 10
1.62641936591318
 20
0.3694501162869856
 30
0.0
 10
1.62832582450038
 20
0.3818903869985206
 30
0.0
 10
1.629873747156175
 20
0.3942799422954093
 30
0.0
 10
1.631098855172644
 20
0.406497065182508
 30
0.0
 10
1.631098855172644
 20
0.406497065182508
 30
0.0
 10
1.632228706410286
 20
0.4194422850224934
 30
0.0
 10
1.632228706410286
 20
0.4194422850224934
 30
0.0
 10
1.632968710460595
 20
0.4292021358189307
 30
0.0
 10
1.633502765827011
 20
0.4388235763823837
 30
0.0
 10
1.633811468350965
 20
0.448250845561006
 30
0.0
 10
1.633811468350965
 20
0.448250845561006
 30
0.0
 10
1.623252078017483
 20
0.4088409993464792
 30
0.0
 10
1.623252078017483
 20
0.4088409993464792
 30
0.0
 10
1.623252078017483
 20
0.4088409993464792
 30
0.0
 10
1.610326262336128
 20
0.4013691392091106
 30
0.0
 10
1.610326262336128
 20
0.4013691392091106
 30
0.0
 10
1.610326262336128
 20
0.4013691392091106
 30
0.0
 10
1.619785789677153
 20
0.3959059225894255
 30
0.0
 10
1.619785789677153
 20
0.3959059225894255
 30
0.0
 10
1.619785789677153
 20
0.3959059225894255
 30
0.0
 10
1.610172793081346
 20
0.3600289562596875
 30
0.0
 10
1.610172793081346
 20
0.3600289562596875
 30
0.0
 10
1.610172793081346
 20
0.3600289562596875
 30
0.0
 10
1.59584321410365
 20
0.3517530825962214
 30
0.0
 10
1.59584321410365
 20
0.3517530825962214
 30
0.0
  0
HATCH
  5
177
330
F6
100
AcDbEntity
  8
SDPW screw
440
 33554687
100
AcDbHatch
 10
0.0
 20
0.0
 30
0.0
210
0.0
220
0.0
230
1.0
  2
SOLID
 70
     1
 71
     1
 91
        1
 92
        1
 93
        1
 72
     4
 94
        3
 73
     0
 74
     0
 95
       56
 96
       52
 40
0.0
 40
0.0
 40
0.0
 40
0.0
 40
1.0
 40
1.0
 40
1.0
 40
2.0
 40
2.0
 40
2.0
 40
3.0
 40
3.0
 40
3.0
 40
4.0
 40
4.0
 40
4.0
 40
5.0
 40
5.0
 40
5.0
 40
6.0
 40
6.0
 40
6.0
 40
7.0
 40
7.0
 40
7.0
 40
8.0
 40
8.0
 40
8.0
 40
9.0
 40
9.0
 40
9.0
 40
10.0
 40
10.0
 40
10.0
 40
11.0
 40
11.0
 40
11.0
 40
12.0
 40
12.0
 40
12.0
 40
13.0
 40
13.0
 40
13.0
 40
14.0
 40
14.0
 40
14.0
 40
15.0
 40
15.0
 40
15.0
 40
16.0
 40
16.0
 40
16.0
 40
17.0
 40
17.0
 40
17.0
 40
17.0
 10
1.59584321410365
 20
0.3517530825962214
 10
1.600277995181613
 20
0.3491917336546445
 10
1.604759473822115
 20
0.3466039244967507
 10
1.609203467156198
 20
0.3440372835119155
 10
1.609203467156198
 20
0.3440372835119155
 10
1.609203467156198
 20
0.3113064369048414
 10
1.609203467156198
 20
0.3113064369048414
 10
1.609203467156198
 20
0.3113064369048414
 10
1.593328660363896
 20
0.3021414999723977
 10
1.593328660363896
 20
0.3021414999723977
 10
1.593328660363896
 20
0.3021414999723977
 10
1.609203467156198
 20
0.2929756810327464
 10
1.609203467156198
 20
0.2929756810327464
 10
1.609203467156198
 20
0.2929756810327464
 10
1.609203467156198
 20
0.2909964568506337
 10
1.609203467156198
 20
0.2909964568506337
 10
1.609203467156198
 20
0.2909964568506337
 10
1.610480124144664
 20
0.2955370912537773
 10
1.610480124144664
 20
0.2955370912537773
 10
1.610480124144664
 20
0.2955370912537773
 10
1.616129869786365
 20
0.3173786155509029
 10
1.616129869786365
 20
0.3173786155509029
 10
1.616129869786365
 20
0.3173786155509029
 10
1.621738946481097
 20
0.3423535317455793
 10
1.623957194673519
 20
0.3547369129919894
 10
1.623957194673519
 20
0.3547377949992096
 10
1.62641936591318
 20
0.3694501162869856
 10
1.62641936591318
 20
0.3694501162869856
 10
1.62832582450038
 20
0.3818903869985206
 10
1.629873747156175
 20
0.3942799422954093
 10
1.631098855172644
 20
0.406497065182508
 10
1.631098855172644
 20
0.406497065182508
 10
1.632228706410286
 20
0.4194422850224934
 10
1.632228706410286
 20
0.4194422850224934
 10
1.632968710460595
 20
0.4292021358189307
 10
1.633502765827011
 20
0.4388235763823837
 10
1.633811468350965
 20
0.448250845561006
 10
1.633811468350965
 20
0.448250845561006
 10
1.623252078017483
 20
0.4088409993464792
 10
1.623252078017483
 20
0.4088409993464792
 10
1.623252078017483
 20
0.4088409993464792
 10
1.610326262336128
 20
0.4013691392091106
 10
1.610326262336128
 20
0.4013691392091106
 10
1.610326262336128
 20
0.4013691392091106
 10
1.619785789677153
 20
0.3959059225894255
 10
1.619785789677153
 20
0.3959059225894255
 10
1.619785789677153
 20
0.3959059225894255
 10
1.610172793081346
 20
0.3600289562596875
 10
1.610172793081346
 20
0.3600289562596875
 10
1.610172793081346
 20
0.3600289562596875
 10
1.59584321410365
 20
0.3517530825962214
 10
1.59584321410365
 20
0.3517530825962214
 97
        0
 97
        1
330
176
 75
     2
 76
     0
 98
        1
 10
0.0
 20
0.0
450
        1
451
        0
460
85.52510000000001
461
0.0
452
        0
462
0.0
453
        2
463
0.0
 63
   250
421
  3157551
463
1.0
 63
     9
421
 12369600
470
LINEAR
  0
ENDBLK
  5
F9
330
F6
100
AcDbEntity
  8
0
100
AcDbBlockEnd
  0
BLOCK
  5
103
330
101
100
AcDbEntity
  8
0
100
AcDbBlockBegin
  2
Block_3
 70
     0
 10
0.0
 20
0.0
 30
0.0
  3
Block_3
  1

  0
SPLINE
  5
105
330
101
100
AcDbEntity
  8
SDPW screw
 62
   250
420
  2301728
370
     5
100
AcDbSpline
210
0.0
220
0.0
230
1.0
 70
     9
 71
     3
 72
    35
 73
    31
 74
     0
 42
0.0000000001
 43
0.0000000001
 40
0.0
 40
0.0
 40
0.0
 40
0.0
 40
1.0
 40
1.0
 40
1.0
 40
2.0
 40
2.0
 40
2.0
 40
3.0
 40
3.0
 40
3.0
 40
4.0
 40
4.0
 40
4.0
 40
5.0
 40
5.0
 40
5.0
 40
6.0
 40
6.0
 40
6.0
 40
7.0
 40
7.0
 40
7.0
 40
8.0
 40
8.0
 40
8.0
 40
9.0
 40
9.0
 40
9.0
 40
10.0
 40
10.0
 40
10.0
 40
10.0
 10
1.671410994764351
 20
-0.3210199679897919
 30
0.0
 10
1.667870617818228
 20
-0.3228845312344346
 30
0.0
 10
1.661049174046158
 20
-0.3247499764862974
 30
0.0
 10
1.652588960875517
 20
-0.3266154217381603
 30
0.0
 10
1.644128306701304
 20
-0.3284808669900233
 30
0.0
 10
1.634029717280782
 20
-0.3303463122418988
 30
0.0
 10
1.624723707049497
 20
-0.332211757493749
 30
0.0
 10
1.615417648963228
 20
-0.334076761742027
 30
0.0
 10
1.606904956363576
 20
-0.3359422069938773
 30
0.0
 10
1.60123585501305
 20
-0.3378076522457276
 30
0.0
 10
1.598760942778199
 20
-0.3386216996424815
 30
0.0
 10
1.596828905981889
 20
-0.3394362785613667
 30
0.0
 10
1.595493988067573
 20
-0.3402499302137711
 30
0.0
 10
1.601163089418125
 20
-0.3367920209419202
 30
0.0
 10
1.606816755642436
 20
-0.3332899659155828
 30
0.0
 10
1.612332828741778
 20
-0.3296398244656555
 30
0.0
 10
1.623988064926682
 20
-0.32297317295916
 30
0.0
 10
1.639346504605352
 20
-0.3205410380740482
 30
0.0
 10
1.651573329571773
 20
-0.3149001150957878
 30
0.0
 10
1.65468416900593
 20
-0.313286969764868
 30
0.0
 10
1.658013305224914
 20
-0.3119352937135696
 30
0.0
 10
1.658419469545732
 20
-0.3088654676147244
 30
0.0
 10
1.658419469545732
 20
-0.3088654676147244
 30
0.0
 10
1.658419469545732
 20
-0.3068734543280192
 30
0.0
 10
1.658419469545732
 20
-0.3068734543280192
 30
0.0
 10
1.662950734469354
 20
-0.3097932932134629
 30
0.0
 10
1.667547803178927
 20
-0.3126333565055195
 30
0.0
 10
1.672158889987763
 20
-0.3154439184000668
 30
0.0
 10
1.675208035808888
 20
-0.3173023075942436
 30
0.0
 10
1.674937700598623
 20
-0.3191611377920177
 30
0.0
 10
1.671410994764351
 20
-0.3210199679897919
 30
0.0
  0
HATCH
  5
106
330
101
100
AcDbEntity
  8
SDPW screw
440
 33554687
100
AcDbHatch
 10
0.0
 20
0.0
 30
0.0
210
0.0
220
0.0
230
1.0
  2
SOLID
 70
     1
 71
     1
 91
        1
 92
        1
 93
        1
 72
     4
 94
        3
 73
     0
 74
     0
 95
       35
 96
       31
 40
0.0
 40
0.0
 40
0.0
 40
0.0
 40
1.0
 40
1.0
 40
1.0
 40
2.0
 40
2.0
 40
2.0
 40
3.0
 40
3.0
 40
3.0
 40
4.0
 40
4.0
 40
4.0
 40
5.0
 40
5.0
 40
5.0
 40
6.0
 40
6.0
 40
6.0
 40
7.0
 40
7.0
 40
7.0
 40
8.0
 40
8.0
 40
8.0
 40
9.0
 40
9.0
 40
9.0
 40
10.0
 40
10.0
 40
10.0
 40
10.0
 10
1.671410994764351
 20
-0.3210199679897919
 10
1.667870617818228
 20
-0.3228845312344346
 10
1.661049174046158
 20
-0.3247499764862974
 10
1.652588960875517
 20
-0.3266154217381603
 10
1.644128306701304
 20
-0.3284808669900233
 10
1.634029717280782
 20
-0.3303463122418988
 10
1.624723707049497
 20
-0.332211757493749
 10
1.615417648963228
 20
-0.334076761742027
 10
1.606904956363576
 20
-0.3359422069938773
 10
1.60123585501305
 20
-0.3378076522457276
 10
1.598760942778199
 20
-0.3386216996424815
 10
1.596828905981889
 20
-0.3394362785613667
 10
1.595493988067573
 20
-0.3402499302137711
 10
1.601163089418125
 20
-0.3367920209419202
 10
1.606816755642436
 20
-0.3332899659155828
 10
1.612332828741778
 20
-0.3296398244656555
 10
1.623988064926682
 20
-0.32297317295916
 10
1.639346504605352
 20
-0.3205410380740482
 10
1.651573329571773
 20
-0.3149001150957878
 10
1.65468416900593
 20
-0.313286969764868
 10
1.658013305224914
 20
-0.3119352937135696
 10
1.658419469545732
 20
-0.3088654676147244
 10
1.658419469545732
 20
-0.3088654676147244
 10
1.658419469545732
 20
-0.3068734543280192
 10
1.658419469545732
 20
-0.3068734543280192
 10
1.662950734469354
 20
-0.3097932932134629
 10
1.667547803178927
 20
-0.3126333565055195
 10
1.672158889987763
 20
-0.3154439184000668
 10
1.675208035808888
 20
-0.3173023075942436
 10
1.674937700598623
 20
-0.3191611377920177
 10
1.671410994764351
 20
-0.3210199679897919
 97
        0
 97
        1
330
105
 75
     2
 76
     0
 98
        1
 10
0.0
 20
0.0
450
        1
451
        0
460
90.0
461
0.0
452
        0
462
0.0
453
        2
463
0.0
 63
   250
421
  3157551
463
1.0
 63
     9
421
 12369600
470
LINEAR
  0
SPLINE
  5
107
330
101
100
AcDbEntity
  8
SDPW screw
 62
   250
420
  2301728
370
     5
100
AcDbSpline
210
0.0
220
0.0
230
1.0
 70
     9
 71
     3
 72
    38
 73
    34
 74
     0
 42
0.0000000001
 43
0.0000000001
 40
0.0
 40
0.0
 40
0.0
 40
0.0
 40
1.0
 40
1.0
 40
1.0
 40
2.0
 40
2.0
 40
2.0
 40
3.0
 40
3.0
 40
3.0
 40
4.0
 40
4.0
 40
4.0
 40
5.0
 40
5.0
 40
5.0
 40
6.0
 40
6.0
 40
6.0
 40
7.0
 40
7.0
 40
7.0
 40
8.0
 40
8.0
 40
8.0
 40
9.0
 40
9.0
 40
9.0
 40
10.0
 40
10.0
 40
10.0
 40
11.0
 40
11.0
 40
11.0
 40
11.0
 10
1.671410994764351
 20
-0.3210199679897919
 30
0.0
 10
1.667870617818228
 20
-0.3228845312344346
 30
0.0
 10
1.661049174046158
 20
-0.3247499764862974
 30
0.0
 10
1.652588960875517
 20
-0.3266154217381603
 30
0.0
 10
1.644128306701304
 20
-0.3284808669900233
 30
0.0
 10
1.634029717280782
 20
-0.3303463122418988
 30
0.0
 10
1.624723707049497
 20
-0.332211757493749
 30
0.0
 10
1.615417648963228
 20
-0.334076761742027
 30
0.0
 10
1.606904956363576
 20
-0.3359422069938773
 30
0.0
 10
1.60123585501305
 20
-0.3378076522457276
 30
0.0
 10
1.598760942778199
 20
-0.3386216996424815
 30
0.0
 10
1.596828905981889
 20
-0.3394362785613667
 30
0.0
 10
1.595493988067573
 20
-0.3402499302137711
 30
0.0
 10
1.590489430195904
 20
-0.3431107206035651
 30
0.0
 10
1.59551912527311
 20
-0.3454616657387532
 30
0.0
 10
1.598293478956217
 20
-0.3471229714077077
 30
0.0
 10
1.598293478956217
 20
-0.3471229714077077
 30
0.0
 10
1.598288186912946
 20
-0.3471313504761989
 30
0.0
 10
1.598288186912946
 20
-0.3471313504761989
 30
0.0
 10
1.598288186912946
 20
-0.3471313504761989
 30
0.0
 10
1.605631337950474
 20
-0.3516370843150172
 30
0.0
 10
1.605631337950474
 20
-0.3516370843150172
 30
0.0
 10
1.605631337950474
 20
-0.3516370843150172
 30
0.0
 10
1.608982083346164
 20
-0.3486091535587042
 30
0.0
 10
1.610500017756749
 20
-0.3475520228822941
 30
0.0
 10
1.615199352178478
 20
-0.3442797760458107
 30
0.0
 10
1.620654077583822
 20
-0.3431530569497201
 30
0.0
 10
1.626465671291776
 20
-0.3419830743839611
 30
0.0
 10
1.635901384438082
 20
-0.3386213038981319
 30
0.0
 10
1.646900896369995
 20
-0.3361715288688047
 30
0.0
 10
1.655348320436031
 20
-0.3311718709916502
 30
0.0
 10
1.660853809448856
 20
-0.3275388832883866
 30
0.0
 10
1.671410994764351
 20
-0.3210199679897919
 30
0.0
 10
1.671410994764351
 20
-0.3210199679897919
 30
0.0
  0
HATCH
  5
108
330
101
100
AcDbEntity
  8
SDPW screw
440
 33554687
100
AcDbHatch
 10
0.0
 20
0.0
 30
0.0
210
0.0
220
0.0
230
1.0
  2
SOLID
 70
     1
 71
     1
 91
        1
 92
        1
 93
        1
 72
     4
 94
        3
 73
     0
 74
     0
 95
       38
 96
       34
 40
0.0
 40
0.0
 40
0.0
 40
0.0
 40
1.0
 40
1.0
 40
1.0
 40
2.0
 40
2.0
 40
2.0
 40
3.0
 40
3.0
 40
3.0
 40
4.0
 40
4.0
 40
4.0
 40
5.0
 40
5.0
 40
5.0
 40
6.0
 40
6.0
 40
6.0
 40
7.0
 40
7.0
 40
7.0
 40
8.0
 40
8.0
 40
8.0
 40
9.0
 40
9.0
 40
9.0
 40
10.0
 40
10.0
 40
10.0
 40
11.0
 40
11.0
 40
11.0
 40
11.0
 10
1.671410994764351
 20
-0.3210199679897919
 10
1.667870617818228
 20
-0.3228845312344346
 10
1.661049174046158
 20
-0.3247499764862974
 10
1.652588960875517
 20
-0.3266154217381603
 10
1.644128306701304
 20
-0.3284808669900233
 10
1.634029717280782
 20
-0.3303463122418988
 10
1.624723707049497
 20
-0.332211757493749
 10
1.615417648963228
 20
-0.334076761742027
 10
1.606904956363576
 20
-0.3359422069938773
 10
1.60123585501305
 20
-0.3378076522457276
 10
1.598760942778199
 20
-0.3386216996424815
 10
1.596828905981889
 20
-0.3394362785613667
 10
1.595493988067573
 20
-0.3402499302137711
 10
1.590489430195904
 20
-0.3431107206035651
 10
1.59551912527311
 20
-0.3454616657387532
 10
1.598293478956217
 20
-0.3471229714077077
 10
1.598293478956217
 20
-0.3471229714077077
 10
1.598288186912946
 20
-0.3471313504761989
 10
1.598288186912946
 20
-0.3471313504761989
 10
1.598288186912946
 20
-0.3471313504761989
 10
1.605631337950474
 20
-0.3516370843150172
 10
1.605631337950474
 20
-0.3516370843150172
 10
1.605631337950474
 20
-0.3516370843150172
 10
1.608982083346164
 20
-0.3486091535587042
 10
1.610500017756749
 20
-0.3475520228822941
 10
1.615199352178478
 20
-0.3442797760458107
 10
1.620654077583822
 20
-0.3431530569497201
 10
1.626465671291776
 20
-0.3419830743839611
 10
1.635901384438082
 20
-0.3386213038981319
 10
1.646900896369995
 20
-0.3361715288688047
 10
1.655348320436031
 20
-0.3311718709916502
 10
1.660853809448856
 20
-0.3275388832883866
 10
1.671410994764351
 20
-0.3210199679897919
 10
1.671410994764351
 20
-0.3210199679897919
 97
        0
 97
        1
330
107
 75
     2
 76
     0
 98
        1
 10
0.0
 20
0.0
450
        1
451
        0
460
-72.4435
461
0.0
452
        0
462
0.0
453
        2
463
0.0
 63
   250
421
  3157551
463
1.0
 63
     9
421
 12369600
470
LINEAR
  0
ENDBLK
  5
104
330
101
100
AcDbEntity
  8
0
100
AcDbBlockEnd
  0
BLOCK
  5
10B
330
109
100
AcDbEntity
  8
0
100
AcDbBlockBegin
  2
Block_4
 70
     0
 10
0.0
 20
0.0
 30
0.0
  3
Block_4
  1

  0
INSERT
  5
10E
330
109
100
AcDbEntity
  8
SDPW screw
100
AcDbBlockReference
  2
Block_5
 10
0.0
 20
0.0
 30
0.0
  0
INSERT
  5
116
330
109
100
AcDbEntity
  8
SDPW screw
100
AcDbBlockReference
  2
Block_6
 10
0.0
 20
0.0
 30
0.0
  0
INSERT
  5
11E
330
109
100
AcDbEntity
  8
SDPW screw
100
AcDbBlockReference
  2
Block_7
 10
0.0
 20
0.0
 30
0.0
  0
INSERT
  5
126
330
109
100
AcDbEntity
  8
SDPW screw
100
AcDbBlockReference
  2
Block_8
 10
0.0
 20
0.0
 30
0.0
  0
INSERT
  5
12E
330
109
100
AcDbEntity
  8
SDPW screw
100
AcDbBlockReference
  2
Block_9
 10
0.0
 20
0.0
 30
0.0
  0
INSERT
  5
136
330
109
100
AcDbEntity
  8
SDPW screw
100
AcDbBlockReference
  2
Block_10
 10
0.0
 20
0.0
 30
0.0
  0
INSERT
  5
13E
330
109
100
AcDbEntity
  8
SDPW screw
100
AcDbBlockReference
  2
Block_11
 10
0.0
 20
0.0
 30
0.0
  0
INSERT
  5
146
330
109
100
AcDbEntity
  8
SDPW screw
100
AcDbBlockReference
  2
Block_12
 10
0.0
 20
0.0
 30
0.0
  0
INSERT
  5
14E
330
109
100
AcDbEntity
  8
SDPW screw
100
AcDbBlockReference
  2
Block_13
 10
0.0
 20
0.0
 30
0.0
  0
INSERT
  5
156
330
109
100
AcDbEntity
  8
SDPW screw
100
AcDbBlockReference
  2
Block_14
 10
0.0
 20
0.0
 30
0.0
  0
INSERT
  5
15E
330
109
100
AcDbEntity
  8
SDPW screw
100
AcDbBlockReference
  2
Block_15
 10
0.0
 20
0.0
 30
0.0
  0
INSERT
  5
166
330
109
100
AcDbEntity
  8
SDPW screw
100
AcDbBlockReference
  2
Block_16
 10
0.0
 20
0.0
 30
0.0
  0
ENDBLK
  5
10C
330
109
100
AcDbEntity
  8
0
100
AcDbBlockEnd
  0
BLOCK
  5
10F
330
10D
100
AcDbEntity
  8
0
100
AcDbBlockBegin
  2
Block_5
 70
     0
 10
0.0
 20
0.0
 30
0.0
  3
Block_5
  1

  0
SPLINE
  5
111
330
10D
100
AcDbEntity
  8
SDPW screw
 62
   250
420
  2301728
370
     5
100
AcDbSpline
210
0.0
220
0.0
230
1.0
 70
     8
 71
     3
 72
    35
 73
    31
 74
     0
 42
0.0000000001
 43
0.0000000001
 40
0.0
 40
0.0
 40
0.0
 40
0.0
 40
1.0
 40
1.0
 40
1.0
 40
2.0
 40
2.0
 40
2.0
 40
3.0
 40
3.0
 40
3.0
 40
4.0
 40
4.0
 40
4.0
 40
5.0
 40
5.0
 40
5.0
 40
6.0
 40
6.0
 40
6.0
 40
7.0
 40
7.0
 40
7.0
 40
8.0
 40
8.0
 40
8.0
 40
9.0
 40
9.0
 40
9.0
 40
10.0
 40
10.0
 40
10.0
 40
10.0
 10
1.672665650022357
 20
-0.270655592211142
 30
0.0
 10
1.669983907096467
 20
-0.2725210374630049
 30
0.0
 10
1.663910405439562
 20
-0.2743864827148551
 30
0.0
 10
1.655909718026047
 20
-0.2762519279667306
 30
0.0
 10
1.647908101100913
 20
-0.2781173732185683
 30
0.0
 10
1.637978511420619
 20
-0.2799828184704438
 30
0.0
 10
1.628511046014738
 20
-0.2818473817150991
 30
0.0
 10
1.619044021612454
 20
-0.2837128269669493
 30
0.0
 10
1.61003912052787
 20
-0.2855782722188249
 30
0.0
 10
1.603665343876526
 20
-0.2874437174706878
 30
0.0
 10
1.600009864989361
 20
-0.2885135922179466
 30
0.0
 10
1.597220517183712
 20
-0.2895830259616458
 30
0.0
 10
1.595465322833231
 20
-0.2906529007089299
 30
0.0
 10
1.601139275223406
 20
-0.2871945504334942
 30
0.0
 10
1.606798233491013
 20
-0.283692540801111
 30
0.0
 10
1.612321362648041
 20
-0.2800387791891631
 30
0.0
 10
1.62541652371399
 20
-0.2709082872771786
 30
0.0
 10
1.648754434524486
 20
-0.2721298672648041
 30
0.0
 10
1.658419469545732
 20
-0.2592503569620451
 30
0.0
 10
1.658419469545732
 20
-0.2592503569620451
 30
0.0
 10
1.658419469545732
 20
-0.2572574616681575
 30
0.0
 10
1.658419469545732
 20
-0.2572574616681575
 30
0.0
 10
1.66293799248913
 20
-0.2601711724906358
 30
0.0
 10
1.667523106976988
 20
-0.2630072195090507
 30
0.0
 10
1.672123215587437
 20
-0.2658138136248201
 30
0.0
 10
1.674768796217626
 20
-0.2674278868214515
 30
0.0
 10
1.674986210995232
 20
-0.2690419600180954
 30
0.0
 10
1.672665650022357
 20
-0.270655592211142
 30
0.0
 10
1.672665650022357
 20
-0.270655592211142
 30
0.0
 10
1.672177459030939
 20
-0.2709731148071973
 30
0.0
 10
1.672177459030939
 20
-0.2709731148071973
 30
0.0
  0
HATCH
  5
112
330
10D
100
AcDbEntity
  8
SDPW screw
440
 33554687
100
AcDbHatch
 10
0.0
 20
0.0
 30
0.0
210
0.0
220
0.0
230
1.0
  2
SOLID
 70
     1
 71
     1
 91
        1
 92
        1
 93
        2
 72
     4
 94
        3
 73
     0
 74
     0
 95
       35
 96
       31
 40
0.0
 40
0.0
 40
0.0
 40
0.0
 40
1.0
 40
1.0
 40
1.0
 40
2.0
 40
2.0
 40
2.0
 40
3.0
 40
3.0
 40
3.0
 40
4.0
 40
4.0
 40
4.0
 40
5.0
 40
5.0
 40
5.0
 40
6.0
 40
6.0
 40
6.0
 40
7.0
 40
7.0
 40
7.0
 40
8.0
 40
8.0
 40
8.0
 40
9.0
 40
9.0
 40
9.0
 40
10.0
 40
10.0
 40
10.0
 40
10.0
 10
1.672665650022357
 20
-0.270655592211142
 10
1.669983907096467
 20
-0.2725210374630049
 10
1.663910405439562
 20
-0.2743864827148551
 10
1.655909718026047
 20
-0.2762519279667306
 10
1.647908101100913
 20
-0.2781173732185683
 10
1.637978511420619
 20
-0.2799828184704438
 10
1.628511046014738
 20
-0.2818473817150991
 10
1.619044021612454
 20
-0.2837128269669493
 10
1.61003912052787
 20
-0.2855782722188249
 10
1.603665343876526
 20
-0.2874437174706878
 10
1.600009864989361
 20
-0.2885135922179466
 10
1.597220517183712
 20
-0.2895830259616458
 10
1.595465322833231
 20
-0.2906529007089299
 10
1.601139275223406
 20
-0.2871945504334942
 10
1.606798233491013
 20
-0.283692540801111
 10
1.612321362648041
 20
-0.2800387791891631
 10
1.62541652371399
 20
-0.2709082872771786
 10
1.648754434524486
 20
-0.2721298672648041
 10
1.658419469545732
 20
-0.2592503569620451
 10
1.658419469545732
 20
-0.2592503569620451
 10
1.658419469545732
 20
-0.2572574616681575
 10
1.658419469545732
 20
-0.2572574616681575
 10
1.66293799248913
 20
-0.2601711724906358
 10
1.667523106976988
 20
-0.2630072195090507
 10
1.672123215587437
 20
-0.2658138136248201
 10
1.674768796217626
 20
-0.2674278868214515
 10
1.674986210995232
 20
-0.2690419600180954
 10
1.672665650022357
 20
-0.270655592211142
 10
1.672665650022357
 20
-0.270655592211142
 10
1.672177459030939
 20
-0.2709731148071973
 10
1.672177459030939
 20
-0.2709731148071973
 97
        0
 72
     1
 10
1.672177459030939
 20
-0.2709731148071973
 11
1.672665650022357
 21
-0.270655592211142
 97
        0
 75
     2
 76
     0
 98
        1
 10
0.0
 20
0.0
450
        1
451
        0
460
90.0
461
0.0
452
        0
462
0.0
453
        2
463
0.0
 63
   250
421
  3157551
463
1.0
 63
     9
421
 12369600
470
LINEAR
  0
SPLINE
  5
113
330
10D
100
AcDbEntity
  8
SDPW screw
 62
   250
420
  2301728
370
     5
100
AcDbSpline
210
0.0
220
0.0
230
1.0
 70
     9
 71
     3
 72
    38
 73
    34
 74
     0
 42
0.0000000001
 43
0.0000000001
 40
0.0
 40
0.0
 40
0.0
 40
0.0
 40
1.0
 40
1.0
 40
1.0
 40
2.0
 40
2.0
 40
2.0
 40
3.0
 40
3.0
 40
3.0
 40
4.0
 40
4.0
 40
4.0
 40
5.0
 40
5.0
 40
5.0
 40
6.0
 40
6.0
 40
6.0
 40
7.0
 40
7.0
 40
7.0
 40
8.0
 40
8.0
 40
8.0
 40
9.0
 40
9.0
 40
9.0
 40
10.0
 40
10.0
 40
10.0
 40
11.0
 40
11.0
 40
11.0
 40
11.0
 10
1.672665650022357
 20
-0.270655592211142
 30
0.0
 10
1.669983907096467
 20
-0.2725210374630049
 30
0.0
 10
1.663910405439562
 20
-0.2743864827148551
 30
0.0
 10
1.655909718026047
 20
-0.2762519279667306
 30
0.0
 10
1.647908101100913
 20
-0.2781173732185683
 30
0.0
 10
1.637978511420619
 20
-0.2799828184704438
 30
0.0
 10
1.628511046014738
 20
-0.2818473817150991
 30
0.0
 10
1.619044021612454
 20
-0.2837128269669493
 30
0.0
 10
1.61003912052787
 20
-0.2855782722188249
 30
0.0
 10
1.603665343876526
 20
-0.2874437174706878
 30
0.0
 10
1.600009864989361
 20
-0.2885135922179466
 30
0.0
 10
1.597220517183712
 20
-0.2895830259616458
 30
0.0
 10
1.595465322833231
 20
-0.2906529007089299
 30
0.0
 10
1.594159511156931
 20
-0.2914484712135214
 30
0.0
 10
1.593427004167955
 20
-0.2922444827216976
 30
0.0
 10
1.593337480436022
 20
-0.2930395658119096
 30
0.0
 10
1.593233403585069
 20
-0.2939538126971683
 30
0.0
 10
1.593979140682222
 20
-0.2948680131716452
 30
0.0
 10
1.595477670934188
 20
-0.2957822136461598
 30
0.0
 10
1.600085276605922
 20
-0.2985914066140745
 30
0.0
 10
1.604678770162283
 20
-0.301433233848848
 30
0.0
 10
1.609203467156198
 20
-0.30435444173261
 30
0.0
 10
1.609203467156198
 20
-0.30435444173261
 30
0.0
 10
1.609203467156198
 20
-0.3023805095937556
 30
0.0
 10
1.609203467156198
 20
-0.3023805095937556
 30
0.0
 10
1.618770992140146
 20
-0.2895203569499674
 30
0.0
 10
1.642285304986949
 20
-0.2906956780586824
 30
0.0
 10
1.655351407461289
 20
-0.2815523503029327
 30
0.0
 10
1.660868362567877
 20
-0.27791142453475
 30
0.0
 10
1.666514972734477
 20
-0.2744226450105189
 30
0.0
 10
1.672177459030939
 20
-0.2709731148071973
 30
0.0
 10
1.672177459030939
 20
-0.2709731148071973
 30
0.0
 10
1.672665650022357
 20
-0.270655592211142
 30
0.0
 10
1.672665650022357
 20
-0.270655592211142
 30
0.0
  0
HATCH
  5
114
330
10D
100
AcDbEntity
  8
SDPW screw
440
 33554687
100
AcDbHatch
 10
0.0
 20
0.0
 30
0.0
210
0.0
220
0.0
230
1.0
  2
SOLID
 70
     1
 71
     1
 91
        1
 92
        1
 93
        1
 72
     4
 94
        3
 73
     0
 74
     0
 95
       38
 96
       34
 40
0.0
 40
0.0
 40
0.0
 40
0.0
 40
1.0
 40
1.0
 40
1.0
 40
2.0
 40
2.0
 40
2.0
 40
3.0
 40
3.0
 40
3.0
 40
4.0
 40
4.0
 40
4.0
 40
5.0
 40
5.0
 40
5.0
 40
6.0
 40
6.0
 40
6.0
 40
7.0
 40
7.0
 40
7.0
 40
8.0
 40
8.0
 40
8.0
 40
9.0
 40
9.0
 40
9.0
 40
10.0
 40
10.0
 40
10.0
 40
11.0
 40
11.0
 40
11.0
 40
11.0
 10
1.672665650022357
 20
-0.270655592211142
 10
1.669983907096467
 20
-0.2725210374630049
 10
1.663910405439562
 20
-0.2743864827148551
 10
1.655909718026047
 20
-0.2762519279667306
 10
1.647908101100913
 20
-0.2781173732185683
 10
1.637978511420619
 20
-0.2799828184704438
 10
1.628511046014738
 20
-0.2818473817150991
 10
1.619044021612454
 20
-0.2837128269669493
 10
1.61003912052787
 20
-0.2855782722188249
 10
1.603665343876526
 20
-0.2874437174706878
 10
1.600009864989361
 20
-0.2885135922179466
 10
1.597220517183712
 20
-0.2895830259616458
 10
1.595465322833231
 20
-0.2906529007089299
 10
1.594159511156931
 20
-0.2914484712135214
 10
1.593427004167955
 20
-0.2922444827216976
 10
1.593337480436022
 20
-0.2930395658119096
 10
1.593233403585069
 20
-0.2939538126971683
 10
1.593979140682222
 20
-0.2948680131716452
 10
1.595477670934188
 20
-0.2957822136461598
 10
1.600085276605922
 20
-0.2985914066140745
 10
1.604678770162283
 20
-0.301433233848848
 10
1.609203467156198
 20
-0.30435444173261
 10
1.609203467156198
 20
-0.30435444173261
 10
1.609203467156198
 20
-0.3023805095937556
 10
1.609203467156198
 20
-0.3023805095937556
 10
1.618770992140146
 20
-0.2895203569499674
 10
1.642285304986949
 20
-0.2906956780586824
 10
1.655351407461289
 20
-0.2815523503029327
 10
1.660868362567877
 20
-0.27791142453475
 10
1.666514972734477
 20
-0.2744226450105189
 10
1.672177459030939
 20
-0.2709731148071973
 10
1.672177459030939
 20
-0.2709731148071973
 10
1.672665650022357
 20
-0.270655592211142
 10
1.672665650022357
 20
-0.270655592211142
 97
        0
 97
        1
330
113
 75
     2
 76
     0
 98
        1
 10
0.0
 20
0.0
450
        1
451
        0
460
-90.0
461
0.0
452
        0
462
0.0
453
        2
463
0.0
 63
   250
421
  3157551
463
1.0
 63
     9
421
 12369600
470
LINEAR
  0
ENDBLK
  5
110
330
10D
100
AcDbEntity
  8
0
100
AcDbBlockEnd
  0
BLOCK
  5
117
330
115
100
AcDbEntity
  8
0
100
AcDbBlockBegin
  2
Block_6
 70
     0
 10
0.0
 20
0.0
 30
0.0
  3
Block_6
  1

  0
SPLINE
  5
119
330
115
100
AcDbEntity
  8
SDPW screw
 62
   250
420
  2301728
370
     5
100
AcDbSpline
210
0.0
220
0.0
230
1.0
 70
     8
 71
     3
 72
    35
 73
    31
 74
     0
 42
0.0000000001
 43
0.0000000001
 40
0.0
 40
0.0
 40
0.0
 40
0.0
 40
1.0
 40
1.0
 40
1.0
 40
2.0
 40
2.0
 40
2.0
 40
3.0
 40
3.0
 40
3.0
 40
4.0
 40
4.0
 40
4.0
 40
5.0
 40
5.0
 40
5.0
 40
6.0
 40
6.0
 40
6.0
 40
7.0
 40
7.0
 40
7.0
 40
8.0
 40
8.0
 40
8.0
 40
9.0
 40
9.0
 40
9.0
 40
10.0
 40
10.0
 40
10.0
 40
10.0
 10
1.672665650022357
 20
-0.2210647352788505
 30
0.0
 10
1.669983907096467
 20
-0.2229301805307134
 30
0.0
 10
1.663910405439562
 20
-0.2247956257825636
 30
0.0
 10
1.655909718026047
 20
-0.2266610710344518
 30
0.0
 10
1.647908101100913
 20
-0.2285265162862768
 30
0.0
 10
1.637978511420619
 20
-0.2303919615381523
 30
0.0
 10
1.628511046014738
 20
-0.2322565648740414
 30
0.0
 10
1.619044021612454
 20
-0.2341220101259043
 30
0.0
 10
1.61003912052787
 20
-0.2359874553777798
 30
0.0
 10
1.603665343876526
 20
-0.2378529006296427
 30
0.0
 10
1.600009864989361
 20
-0.2389227352856677
 30
0.0
 10
1.597220517183712
 20
-0.2399922091205882
 30
0.0
 10
1.595465322833231
 20
-0.2410620437766384
 30
0.0
 10
1.601139275223406
 20
-0.2376036935012027
 30
0.0
 10
1.606798233491013
 20
-0.2341016838688322
 30
0.0
 10
1.612321362648041
 20
-0.2304479665971257
 30
0.0
 10
1.62541652371399
 20
-0.2213174303448871
 30
0.0
 10
1.648754434524486
 20
-0.2225390504237465
 30
0.0
 10
1.658419469545732
 20
-0.209659540121
 30
0.0
 10
1.658419469545732
 20
-0.209659540121
 30
0.0
 10
1.658419469545732
 20
-0.2076666047358786
 30
0.0
 10
1.658419469545732
 20
-0.2076666047358786
 30
0.0
 10
1.66293799248913
 20
-0.2105803501021657
 30
0.0
 10
1.667523106976988
 20
-0.2134163613239934
 30
0.0
 10
1.672123215587437
 20
-0.216222996783775
 30
0.0
 10
1.674768796217626
 20
-0.2178370699804064
 30
0.0
 10
1.674986210995232
 20
-0.2194511431770378
 30
0.0
 10
1.672665650022357
 20
-0.2210647352788505
 30
0.0
 10
1.672665650022357
 20
-0.2210647352788505
 30
0.0
 10
1.672177459030939
 20
-0.2213822578749058
 30
0.0
 10
1.672177459030939
 20
-0.2213822578749058
 30
0.0
  0
HATCH
  5
11A
330
115
100
AcDbEntity
  8
SDPW screw
440
 33554687
100
AcDbHatch
 10
0.0
 20
0.0
 30
0.0
210
0.0
220
0.0
230
1.0
  2
SOLID
 70
     1
 71
     1
 91
        1
 92
        1
 93
        2
 72
     4
 94
        3
 73
     0
 74
     0
 95
       35
 96
       31
 40
0.0
 40
0.0
 40
0.0
 40
0.0
 40
1.0
 40
1.0
 40
1.0
 40
2.0
 40
2.0
 40
2.0
 40
3.0
 40
3.0
 40
3.0
 40
4.0
 40
4.0
 40
4.0
 40
5.0
 40
5.0
 40
5.0
 40
6.0
 40
6.0
 40
6.0
 40
7.0
 40
7.0
 40
7.0
 40
8.0
 40
8.0
 40
8.0
 40
9.0
 40
9.0
 40
9.0
 40
10.0
 40
10.0
 40
10.0
 40
10.0
 10
1.672665650022357
 20
-0.2210647352788505
 10
1.669983907096467
 20
-0.2229301805307134
 10
1.663910405439562
 20
-0.2247956257825636
 10
1.655909718026047
 20
-0.2266610710344518
 10
1.647908101100913
 20
-0.2285265162862768
 10
1.637978511420619
 20
-0.2303919615381523
 10
1.628511046014738
 20
-0.2322565648740414
 10
1.619044021612454
 20
-0.2341220101259043
 10
1.61003912052787
 20
-0.2359874553777798
 10
1.603665343876526
 20
-0.2378529006296427
 10
1.600009864989361
 20
-0.2389227352856677
 10
1.597220517183712
 20
-0.2399922091205882
 10
1.595465322833231
 20
-0.2410620437766384
 10
1.601139275223406
 20
-0.2376036935012027
 10
1.606798233491013
 20
-0.2341016838688322
 10
1.612321362648041
 20
-0.2304479665971257
 10
1.62541652371399
 20
-0.2213174303448871
 10
1.648754434524486
 20
-0.2225390504237465
 10
1.658419469545732
 20
-0.209659540121
 10
1.658419469545732
 20
-0.209659540121
 10
1.658419469545732
 20
-0.2076666047358786
 10
1.658419469545732
 20
-0.2076666047358786
 10
1.66293799248913
 20
-0.2105803501021657
 10
1.667523106976988
 20
-0.2134163613239934
 10
1.672123215587437
 20
-0.216222996783775
 10
1.674768796217626
 20
-0.2178370699804064
 10
1.674986210995232
 20
-0.2194511431770378
 10
1.672665650022357
 20
-0.2210647352788505
 10
1.672665650022357
 20
-0.2210647352788505
 10
1.672177459030939
 20
-0.2213822578749058
 10
1.672177459030939
 20
-0.2213822578749058
 97
        0
 72
     1
 10
1.672177459030939
 20
-0.2213822578749058
 11
1.672665650022357
 21
-0.2210647352788505
 97
        0
 75
     2
 76
     0
 98
        1
 10
0.0
 20
0.0
450
        1
451
        0
460
90.0
461
0.0
452
        0
462
0.0
453
        2
463
0.0
 63
   250
421
  3157551
463
1.0
 63
     9
421
 12369600
470
LINEAR
  0
SPLINE
  5
11B
330
115
100
AcDbEntity
  8
SDPW screw
 62
   250
420
  2301728
370
     5
100
AcDbSpline
210
0.0
220
0.0
230
1.0
 70
     9
 71
     3
 72
    38
 73
    34
 74
     0
 42
0.0000000001
 43
0.0000000001
 40
0.0
 40
0.0
 40
0.0
 40
0.0
 40
1.0
 40
1.0
 40
1.0
 40
2.0
 40
2.0
 40
2.0
 40
3.0
 40
3.0
 40
3.0
 40
4.0
 40
4.0
 40
4.0
 40
5.0
 40
5.0
 40
5.0
 40
6.0
 40
6.0
 40
6.0
 40
7.0
 40
7.0
 40
7.0
 40
8.0
 40
8.0
 40
8.0
 40
9.0
 40
9.0
 40
9.0
 40
10.0
 40
10.0
 40
10.0
 40
11.0
 40
11.0
 40
11.0
 40
11.0
 10
1.672665650022357
 20
-0.2210647352788505
 30
0.0
 10
1.669983907096467
 20
-0.2229301805307134
 30
0.0
 10
1.663910405439562
 20
-0.2247956257825636
 30
0.0
 10
1.655909718026047
 20
-0.2266610710344518
 30
0.0
 10
1.647908101100913
 20
-0.2285265162862768
 30
0.0
 10
1.637978511420619
 20
-0.2303919615381523
 30
0.0
 10
1.628511046014738
 20
-0.2322565648740414
 30
0.0
 10
1.619044021612454
 20
-0.2341220101259043
 30
0.0
 10
1.61003912052787
 20
-0.2359874553777798
 30
0.0
 10
1.603665343876526
 20
-0.2378529006296427
 30
0.0
 10
1.600009864989361
 20
-0.2389227352856677
 30
0.0
 10
1.597220517183712
 20
-0.2399922091205882
 30
0.0
 10
1.595465322833231
 20
-0.2410620437766384
 30
0.0
 10
1.594159511156931
 20
-0.2418576543724763
 30
0.0
 10
1.593427004167955
 20
-0.2426536257894061
 30
0.0
 10
1.593337480436022
 20
-0.2434487076268523
 30
0.0
 10
1.593233403585069
 20
-0.2443629557648768
 30
0.0
 10
1.593979140682222
 20
-0.2452771562393536
 30
0.0
 10
1.595477670934188
 20
-0.2461913567138683
 30
0.0
 10
1.600085276605922
 20
-0.2490005843138381
 30
0.0
 10
1.604678770162283
 20
-0.2518424170077904
 30
0.0
 10
1.609203467156198
 20
-0.254763624891565
 30
0.0
 10
1.609203467156198
 20
-0.254763624891565
 30
0.0
 10
1.609203467156198
 20
-0.2527896927527106
 30
0.0
 10
1.609203467156198
 20
-0.2527896927527106
 30
0.0
 10
1.618770992140146
 20
-0.2399294987649101
 30
0.0
 10
1.642285304986949
 20
-0.2411048612176374
 30
0.0
 10
1.655351407461289
 20
-0.2319615334618877
 30
0.0
 10
1.660868362567877
 20
-0.228320607693705
 30
0.0
 10
1.666514972734477
 20
-0.2248318281694613
 30
0.0
 10
1.672177459030939
 20
-0.2213822578749058
 30
0.0
 10
1.672177459030939
 20
-0.2213822578749058
 30
0.0
 10
1.672665650022357
 20
-0.2210647352788505
 30
0.0
 10
1.672665650022357
 20
-0.2210647352788505
 30
0.0
  0
HATCH
  5
11C
330
115
100
AcDbEntity
  8
SDPW screw
440
 33554687
100
AcDbHatch
 10
0.0
 20
0.0
 30
0.0
210
0.0
220
0.0
230
1.0
  2
SOLID
 70
     1
 71
     1
 91
        1
 92
        1
 93
        1
 72
     4
 94
        3
 73
     0
 74
     0
 95
       38
 96
       34
 40
0.0
 40
0.0
 40
0.0
 40
0.0
 40
1.0
 40
1.0
 40
1.0
 40
2.0
 40
2.0
 40
2.0
 40
3.0
 40
3.0
 40
3.0
 40
4.0
 40
4.0
 40
4.0
 40
5.0
 40
5.0
 40
5.0
 40
6.0
 40
6.0
 40
6.0
 40
7.0
 40
7.0
 40
7.0
 40
8.0
 40
8.0
 40
8.0
 40
9.0
 40
9.0
 40
9.0
 40
10.0
 40
10.0
 40
10.0
 40
11.0
 40
11.0
 40
11.0
 40
11.0
 10
1.672665650022357
 20
-0.2210647352788505
 10
1.669983907096467
 20
-0.2229301805307134
 10
1.663910405439562
 20
-0.2247956257825636
 10
1.655909718026047
 20
-0.2266610710344518
 10
1.647908101100913
 20
-0.2285265162862768
 10
1.637978511420619
 20
-0.2303919615381523
 10
1.628511046014738
 20
-0.2322565648740414
 10
1.619044021612454
 20
-0.2341220101259043
 10
1.61003912052787
 20
-0.2359874553777798
 10
1.603665343876526
 20
-0.2378529006296427
 10
1.600009864989361
 20
-0.2389227352856677
 10
1.597220517183712
 20
-0.2399922091205882
 10
1.595465322833231
 20
-0.2410620437766384
 10
1.594159511156931
 20
-0.2418576543724763
 10
1.593427004167955
 20
-0.2426536257894061
 10
1.593337480436022
 20
-0.2434487076268523
 10
1.593233403585069
 20
-0.2443629557648768
 10
1.593979140682222
 20
-0.2452771562393536
 10
1.595477670934188
 20
-0.2461913567138683
 10
1.600085276605922
 20
-0.2490005843138381
 10
1.604678770162283
 20
-0.2518424170077904
 10
1.609203467156198
 20
-0.254763624891565
 10
1.609203467156198
 20
-0.254763624891565
 10
1.609203467156198
 20
-0.2527896927527106
 10
1.609203467156198
 20
-0.2527896927527106
 10
1.618770992140146
 20
-0.2399294987649101
 10
1.642285304986949
 20
-0.2411048612176374
 10
1.655351407461289
 20
-0.2319615334618877
 10
1.660868362567877
 20
-0.228320607693705
 10
1.666514972734477
 20
-0.2248318281694613
 10
1.672177459030939
 20
-0.2213822578749058
 10
1.672177459030939
 20
-0.2213822578749058
 10
1.672665650022357
 20
-0.2210647352788505
 10
1.672665650022357
 20
-0.2210647352788505
 97
        0
 97
        1
330
11B
 75
     2
 76
     0
 98
        1
 10
0.0
 20
0.0
450
        1
451
        0
460
-90.0
461
0.0
452
        0
462
0.0
453
        2
463
0.0
 63
   250
421
  3157551
463
1.0
 63
     9
421
 12369600
470
LINEAR
  0
ENDBLK
  5
118
330
115
100
AcDbEntity
  8
0
100
AcDbBlockEnd
  0
BLOCK
  5
11F
330
11D
100
AcDbEntity
  8
0
100
AcDbBlockBegin
  2
Block_7
 70
     0
 10
0.0
 20
0.0
 30
0.0
  3
Block_7
  1

  0
SPLINE
  5
121
330
11D
100
AcDbEntity
  8
SDPW screw
 62
   250
420
  2301728
370
     5
100
AcDbSpline
210
0.0
220
0.0
230
1.0
 70
     8
 71
     3
 72
    35
 73
    31
 74
     0
 42
0.0000000001
 43
0.0000000001
 40
0.0
 40
0.0
 40
0.0
 40
0.0
 40
1.0
 40
1.0
 40
1.0
 40
2.0
 40
2.0
 40
2.0
 40
3.0
 40
3.0
 40
3.0
 40
4.0
 40
4.0
 40
4.0
 40
5.0
 40
5.0
 40
5.0
 40
6.0
 40
6.0
 40
6.0
 40
7.0
 40
7.0
 40
7.0
 40
8.0
 40
8.0
 40
8.0
 40
9.0
 40
9.0
 40
9.0
 40
10.0
 40
10.0
 40
10.0
 40
10.0
 10
1.672665650022357
 20
-0.1714738801529292
 30
0.0
 10
1.669983907096467
 20
-0.173339325404792
 30
0.0
 10
1.663910405439562
 20
-0.1752047706566423
 30
0.0
 10
1.655909718026047
 20
-0.1770702159085178
 30
0.0
 10
1.647908101100913
 20
-0.1789356611603554
 30
0.0
 10
1.637978511420619
 20
-0.1808011064122183
 30
0.0
 10
1.628511046014738
 20
-0.1826657498393666
 30
0.0
 10
1.619044021612454
 20
-0.1845311950912042
 30
0.0
 10
1.61003912052787
 20
-0.1863966403430797
 30
0.0
 10
1.603665343876526
 20
-0.1882620855949426
 30
0.0
 10
1.600009864989361
 20
-0.1893318801597338
 30
0.0
 10
1.597220517183712
 20
-0.1904013940859007
 30
0.0
 10
1.595465322833231
 20
-0.1914711886507171
 30
0.0
 10
1.601139275223406
 20
-0.1880128383752688
 30
0.0
 10
1.606798233491013
 20
-0.1845108287428856
 30
0.0
 10
1.612321362648041
 20
-0.1808571558114585
 30
0.0
 10
1.62541652371399
 20
-0.1717265752189658
 30
0.0
 10
1.648754434524486
 20
-0.172948235389059
 30
0.0
 10
1.658419469545732
 20
-0.1600687250862999
 30
0.0
 10
1.658419469545732
 20
-0.1600687250862999
 30
0.0
 10
1.658419469545732
 20
-0.158075749609932
 30
0.0
 10
1.658419469545732
 20
-0.158075749609932
 30
0.0
 10
1.66293799248913
 20
-0.1609895295200658
 30
0.0
 10
1.667523106976988
 20
-0.1638255049452937
 30
0.0
 10
1.672123215587437
 20
-0.1666321817490749
 30
0.0
 10
1.674768796217626
 20
-0.1682462549457063
 30
0.0
 10
1.674986210995232
 20
-0.1698603281423503
 30
0.0
 10
1.672665650022357
 20
-0.1714738801529292
 30
0.0
 10
1.672665650022357
 20
-0.1714738801529292
 30
0.0
 10
1.672177459030939
 20
-0.1717914027489845
 30
0.0
 10
1.672177459030939
 20
-0.1717914027489845
 30
0.0
  0
HATCH
  5
122
330
11D
100
AcDbEntity
  8
SDPW screw
440
 33554687
100
AcDbHatch
 10
0.0
 20
0.0
 30
0.0
210
0.0
220
0.0
230
1.0
  2
SOLID
 70
     1
 71
     1
 91
        1
 92
        1
 93
        2
 72
     4
 94
        3
 73
     0
 74
     0
 95
       35
 96
       31
 40
0.0
 40
0.0
 40
0.0
 40
0.0
 40
1.0
 40
1.0
 40
1.0
 40
2.0
 40
2.0
 40
2.0
 40
3.0
 40
3.0
 40
3.0
 40
4.0
 40
4.0
 40
4.0
 40
5.0
 40
5.0
 40
5.0
 40
6.0
 40
6.0
 40
6.0
 40
7.0
 40
7.0
 40
7.0
 40
8.0
 40
8.0
 40
8.0
 40
9.0
 40
9.0
 40
9.0
 40
10.0
 40
10.0
 40
10.0
 40
10.0
 10
1.672665650022357
 20
-0.1714738801529292
 10
1.669983907096467
 20
-0.173339325404792
 10
1.663910405439562
 20
-0.1752047706566423
 10
1.655909718026047
 20
-0.1770702159085178
 10
1.647908101100913
 20
-0.1789356611603554
 10
1.637978511420619
 20
-0.1808011064122183
 10
1.628511046014738
 20
-0.1826657498393666
 10
1.619044021612454
 20
-0.1845311950912042
 10
1.61003912052787
 20
-0.1863966403430797
 10
1.603665343876526
 20
-0.1882620855949426
 10
1.600009864989361
 20
-0.1893318801597338
 10
1.597220517183712
 20
-0.1904013940859007
 10
1.595465322833231
 20
-0.1914711886507171
 10
1.601139275223406
 20
-0.1880128383752688
 10
1.606798233491013
 20
-0.1845108287428856
 10
1.612321362648041
 20
-0.1808571558114585
 10
1.62541652371399
 20
-0.1717265752189658
 10
1.648754434524486
 20
-0.172948235389059
 10
1.658419469545732
 20
-0.1600687250862999
 10
1.658419469545732
 20
-0.1600687250862999
 10
1.658419469545732
 20
-0.158075749609932
 10
1.658419469545732
 20
-0.158075749609932
 10
1.66293799248913
 20
-0.1609895295200658
 10
1.667523106976988
 20
-0.1638255049452937
 10
1.672123215587437
 20
-0.1666321817490749
 10
1.674768796217626
 20
-0.1682462549457063
 10
1.674986210995232
 20
-0.1698603281423503
 10
1.672665650022357
 20
-0.1714738801529292
 10
1.672665650022357
 20
-0.1714738801529292
 10
1.672177459030939
 20
-0.1717914027489845
 10
1.672177459030939
 20
-0.1717914027489845
 97
        0
 72
     1
 10
1.672177459030939
 20
-0.1717914027489845
 11
1.672665650022357
 21
-0.1714738801529292
 97
        0
 75
     2
 76
     0
 98
        1
 10
0.0
 20
0.0
450
        1
451
        0
460
90.0
461
0.0
452
        0
462
0.0
453
        2
463
0.0
 63
   250
421
  3157551
463
1.0
 63
     9
421
 12369600
470
LINEAR
  0
SPLINE
  5
123
330
11D
100
AcDbEntity
  8
SDPW screw
 62
   250
420
  2301728
370
     5
100
AcDbSpline
210
0.0
220
0.0
230
1.0
 70
     9
 71
     3
 72
    38
 73
    34
 74
     0
 42
0.0000000001
 43
0.0000000001
 40
0.0
 40
0.0
 40
0.0
 40
0.0
 40
1.0
 40
1.0
 40
1.0
 40
2.0
 40
2.0
 40
2.0
 40
3.0
 40
3.0
 40
3.0
 40
4.0
 40
4.0
 40
4.0
 40
5.0
 40
5.0
 40
5.0
 40
6.0
 40
6.0
 40
6.0
 40
7.0
 40
7.0
 40
7.0
 40
8.0
 40
8.0
 40
8.0
 40
9.0
 40
9.0
 40
9.0
 40
10.0
 40
10.0
 40
10.0
 40
11.0
 40
11.0
 40
11.0
 40
11.0
 10
1.672665650022357
 20
-0.1714738801529292
 30
0.0
 10
1.669983907096467
 20
-0.173339325404792
 30
0.0
 10
1.663910405439562
 20
-0.1752047706566423
 30
0.0
 10
1.655909718026047
 20
-0.1770702159085178
 30
0.0
 10
1.647908101100913
 20
-0.1789356611603554
 30
0.0
 10
1.637978511420619
 20
-0.1808011064122183
 30
0.0
 10
1.628511046014738
 20
-0.1826657498393666
 30
0.0
 10
1.619044021612454
 20
-0.1845311950912042
 30
0.0
 10
1.61003912052787
 20
-0.1863966403430797
 30
0.0
 10
1.603665343876526
 20
-0.1882620855949426
 30
0.0
 10
1.600009864989361
 20
-0.1893318801597338
 30
0.0
 10
1.597220517183712
 20
-0.1904013940859007
 30
0.0
 10
1.595465322833231
 20
-0.1914711886507171
 30
0.0
 10
1.594159511156931
 20
-0.1922668393377762
 30
0.0
 10
1.593427004167955
 20
-0.1930627706634848
 30
0.0
 10
1.593337480436022
 20
-0.1938578512481526
 30
0.0
 10
1.593233403585069
 20
-0.1947721006389555
 30
0.0
 10
1.593979140682222
 20
-0.1956863011134323
 30
0.0
 10
1.595477670934188
 20
-0.1966005015879344
 30
0.0
 10
1.600085276605922
 20
-0.1994097638199719
 30
0.0
 10
1.604678770162283
 20
-0.2022516019731029
 30
0.0
 10
1.609203467156198
 20
-0.2051728098568775
 30
0.0
 10
1.609203467156198
 20
-0.2051728098568775
 30
0.0
 10
1.609203467156198
 20
-0.2031988777180231
 30
0.0
 10
1.609203467156198
 20
-0.2031988777180231
 30
0.0
 10
1.618770992140146
 20
-0.190338642386223
 30
0.0
 10
1.642285304986949
 20
-0.1915140461829499
 30
0.0
 10
1.655351407461289
 20
-0.1823707184271875
 30
0.0
 10
1.660868362567877
 20
-0.1787297926590175
 30
0.0
 10
1.666514972734477
 20
-0.1752410131347738
 30
0.0
 10
1.672177459030939
 20
-0.1717914027489845
 30
0.0
 10
1.672177459030939
 20
-0.1717914027489845
 30
0.0
 10
1.672665650022357
 20
-0.1714738801529292
 30
0.0
 10
1.672665650022357
 20
-0.1714738801529292
 30
0.0
  0
HATCH
  5
124
330
11D
100
AcDbEntity
  8
SDPW screw
440
 33554687
100
AcDbHatch
 10
0.0
 20
0.0
 30
0.0
210
0.0
220
0.0
230
1.0
  2
SOLID
 70
     1
 71
     1
 91
        1
 92
        1
 93
        1
 72
     4
 94
        3
 73
     0
 74
     0
 95
       38
 96
       34
 40
0.0
 40
0.0
 40
0.0
 40
0.0
 40
1.0
 40
1.0
 40
1.0
 40
2.0
 40
2.0
 40
2.0
 40
3.0
 40
3.0
 40
3.0
 40
4.0
 40
4.0
 40
4.0
 40
5.0
 40
5.0
 40
5.0
 40
6.0
 40
6.0
 40
6.0
 40
7.0
 40
7.0
 40
7.0
 40
8.0
 40
8.0
 40
8.0
 40
9.0
 40
9.0
 40
9.0
 40
10.0
 40
10.0
 40
10.0
 40
11.0
 40
11.0
 40
11.0
 40
11.0
 10
1.672665650022357
 20
-0.1714738801529292
 10
1.669983907096467
 20
-0.173339325404792
 10
1.663910405439562
 20
-0.1752047706566423
 10
1.655909718026047
 20
-0.1770702159085178
 10
1.647908101100913
 20
-0.1789356611603554
 10
1.637978511420619
 20
-0.1808011064122183
 10
1.628511046014738
 20
-0.1826657498393666
 10
1.619044021612454
 20
-0.1845311950912042
 10
1.61003912052787
 20
-0.1863966403430797
 10
1.603665343876526
 20
-0.1882620855949426
 10
1.600009864989361
 20
-0.1893318801597338
 10
1.597220517183712
 20
-0.1904013940859007
 10
1.595465322833231
 20
-0.1914711886507171
 10
1.594159511156931
 20
-0.1922668393377762
 10
1.593427004167955
 20
-0.1930627706634848
 10
1.593337480436022
 20
-0.1938578512481526
 10
1.593233403585069
 20
-0.1947721006389555
 10
1.593979140682222
 20
-0.1956863011134323
 10
1.595477670934188
 20
-0.1966005015879344
 10
1.600085276605922
 20
-0.1994097638199719
 10
1.604678770162283
 20
-0.2022516019731029
 10
1.609203467156198
 20
-0.2051728098568775
 10
1.609203467156198
 20
-0.2051728098568775
 10
1.609203467156198
 20
-0.2031988777180231
 10
1.609203467156198
 20
-0.2031988777180231
 10
1.618770992140146
 20
-0.190338642386223
 10
1.642285304986949
 20
-0.1915140461829499
 10
1.655351407461289
 20
-0.1823707184271875
 10
1.660868362567877
 20
-0.1787297926590175
 10
1.666514972734477
 20
-0.1752410131347738
 10
1.672177459030939
 20
-0.1717914027489845
 10
1.672177459030939
 20
-0.1717914027489845
 10
1.672665650022357
 20
-0.1714738801529292
 10
1.672665650022357
 20
-0.1714738801529292
 97
        0
 97
        1
330
123
 75
     2
 76
     0
 98
        1
 10
0.0
 20
0.0
450
        1
451
        0
460
-90.0
461
0.0
452
        0
462
0.0
453
        2
463
0.0
 63
   250
421
  3157551
463
1.0
 63
     9
421
 12369600
470
LINEAR
  0
ENDBLK
  5
120
330
11D
100
AcDbEntity
  8
0
100
AcDbBlockEnd
  0
BLOCK
  5
127
330
125
100
AcDbEntity
  8
0
100
AcDbBlockBegin
  2
Block_8
 70
     0
 10
0.0
 20
0.0
 30
0.0
  3
Block_8
  1

  0
SPLINE
  5
129
330
125
100
AcDbEntity
  8
SDPW screw
 62
   250
420
  2301728
370
     5
100
AcDbSpline
210
0.0
220
0.0
230
1.0
 70
     8
 71
     3
 72
    35
 73
    31
 74
     0
 42
0.0000000001
 43
0.0000000001
 40
0.0
 40
0.0
 40
0.0
 40
0.0
 40
1.0
 40
1.0
 40
1.0
 40
2.0
 40
2.0
 40
2.0
 40
3.0
 40
3.0
 40
3.0
 40
4.0
 40
4.0
 40
4.0
 40
5.0
 40
5.0
 40
5.0
 40
6.0
 40
6.0
 40
6.0
 40
7.0
 40
7.0
 40
7.0
 40
8.0
 40
8.0
 40
8.0
 40
9.0
 40
9.0
 40
9.0
 40
10.0
 40
10.0
 40
10.0
 40
10.0
 10
1.672665650022357
 20
-0.1218830250269952
 30
0.0
 10
1.669983907096467
 20
-0.1237484702788581
 30
0.0
 10
1.663910405439562
 20
-0.125613915530721
 30
0.0
 10
1.655909718026047
 20
-0.1274793607825712
 30
0.0
 10
1.647908101100913
 20
-0.1293448060344215
 30
0.0
 10
1.637978511420619
 20
-0.131210251286297
 30
0.0
 10
1.628511046014738
 20
-0.1330749348046791
 30
0.0
 10
1.619044021612454
 20
-0.1349403800565167
 30
0.0
 10
1.61003912052787
 20
-0.1368058253083796
 30
0.0
 10
1.603665343876526
 20
-0.1386712705602551
 30
0.0
 10
1.600009864989361
 20
-0.1397410250337998
 30
0.0
 10
1.597220517183712
 20
-0.1408105790512258
 30
0.0
 10
1.595465322833231
 20
-0.1418803335247831
 30
0.0
 10
1.601139275223406
 20
-0.1384219832493474
 30
0.0
 10
1.606798233491013
 20
-0.1349199736169642
 30
0.0
 10
1.612321362648041
 20
-0.1312663450257787
 30
0.0
 10
1.62541652371399
 20
-0.1221357200930318
 30
0.0
 10
1.648754434524486
 20
-0.1233574203543715
 30
0.0
 10
1.658419469545732
 20
-0.1104779100516124
 30
0.0
 10
1.658419469545732
 20
-0.1104779100516124
 30
0.0
 10
1.658419469545732
 20
-0.1084848944840107
 30
0.0
 10
1.658419469545732
 20
-0.1084848944840107
 30
0.0
 10
1.66293799248913
 20
-0.1113987089379659
 30
0.0
 10
1.667523106976988
 20
-0.1142346485665939
 30
0.0
 10
1.672123215587437
 20
-0.1170413667143874
 30
0.0
 10
1.674768796217626
 20
-0.1186554399110314
 30
0.0
 10
1.674986210995232
 20
-0.1202695131076628
 30
0.0
 10
1.672665650022357
 20
-0.1218830250269952
 30
0.0
 10
1.672665650022357
 20
-0.1218830250269952
 30
0.0
 10
1.672177459030939
 20
-0.1222005476230505
 30
0.0
 10
1.672177459030939
 20
-0.1222005476230505
 30
0.0
  0
HATCH
  5
12A
330
125
100
AcDbEntity
  8
SDPW screw
440
 33554687
100
AcDbHatch
 10
0.0
 20
0.0
 30
0.0
210
0.0
220
0.0
230
1.0
  2
SOLID
 70
     1
 71
     1
 91
        1
 92
        1
 93
        2
 72
     4
 94
        3
 73
     0
 74
     0
 95
       35
 96
       31
 40
0.0
 40
0.0
 40
0.0
 40
0.0
 40
1.0
 40
1.0
 40
1.0
 40
2.0
 40
2.0
 40
2.0
 40
3.0
 40
3.0
 40
3.0
 40
4.0
 40
4.0
 40
4.0
 40
5.0
 40
5.0
 40
5.0
 40
6.0
 40
6.0
 40
6.0
 40
7.0
 40
7.0
 40
7.0
 40
8.0
 40
8.0
 40
8.0
 40
9.0
 40
9.0
 40
9.0
 40
10.0
 40
10.0
 40
10.0
 40
10.0
 10
1.672665650022357
 20
-0.1218830250269952
 10
1.669983907096467
 20
-0.1237484702788581
 10
1.663910405439562
 20
-0.125613915530721
 10
1.655909718026047
 20
-0.1274793607825712
 10
1.647908101100913
 20
-0.1293448060344215
 10
1.637978511420619
 20
-0.131210251286297
 10
1.628511046014738
 20
-0.1330749348046791
 10
1.619044021612454
 20
-0.1349403800565167
 10
1.61003912052787
 20
-0.1368058253083796
 10
1.603665343876526
 20
-0.1386712705602551
 10
1.600009864989361
 20
-0.1397410250337998
 10
1.597220517183712
 20
-0.1408105790512258
 10
1.595465322833231
 20
-0.1418803335247831
 10
1.601139275223406
 20
-0.1384219832493474
 10
1.606798233491013
 20
-0.1349199736169642
 10
1.612321362648041
 20
-0.1312663450257787
 10
1.62541652371399
 20
-0.1221357200930318
 10
1.648754434524486
 20
-0.1233574203543715
 10
1.658419469545732
 20
-0.1104779100516124
 10
1.658419469545732
 20
-0.1104779100516124
 10
1.658419469545732
 20
-0.1084848944840107
 10
1.658419469545732
 20
-0.1084848944840107
 10
1.66293799248913
 20
-0.1113987089379659
 10
1.667523106976988
 20
-0.1142346485665939
 10
1.672123215587437
 20
-0.1170413667143874
 10
1.674768796217626
 20
-0.1186554399110314
 10
1.674986210995232
 20
-0.1202695131076628
 10
1.672665650022357
 20
-0.1218830250269952
 10
1.672665650022357
 20
-0.1218830250269952
 10
1.672177459030939
 20
-0.1222005476230505
 10
1.672177459030939
 20
-0.1222005476230505
 97
        0
 72
     1
 10
1.672177459030939
 20
-0.1222005476230505
 11
1.672665650022357
 21
-0.1218830250269952
 97
        0
 75
     2
 76
     0
 98
        1
 10
0.0
 20
0.0
450
        1
451
        0
460
90.0
461
0.0
452
        0
462
0.0
453
        2
463
0.0
 63
   250
421
  3157551
463
1.0
 63
     9
421
 12369600
470
LINEAR
  0
SPLINE
  5
12B
330
125
100
AcDbEntity
  8
SDPW screw
 62
   250
420
  2301728
370
     5
100
AcDbSpline
210
0.0
220
0.0
230
1.0
 70
     9
 71
     3
 72
    38
 73
    34
 74
     0
 42
0.0000000001
 43
0.0000000001
 40
0.0
 40
0.0
 40
0.0
 40
0.0
 40
1.0
 40
1.0
 40
1.0
 40
2.0
 40
2.0
 40
2.0
 40
3.0
 40
3.0
 40
3.0
 40
4.0
 40
4.0
 40
4.0
 40
5.0
 40
5.0
 40
5.0
 40
6.0
 40
6.0
 40
6.0
 40
7.0
 40
7.0
 40
7.0
 40
8.0
 40
8.0
 40
8.0
 40
9.0
 40
9.0
 40
9.0
 40
10.0
 40
10.0
 40
10.0
 40
11.0
 40
11.0
 40
11.0
 40
11.0
 10
1.672665650022357
 20
-0.1218830250269952
 30
0.0
 10
1.669983907096467
 20
-0.1237484702788581
 30
0.0
 10
1.663910405439562
 20
-0.125613915530721
 30
0.0
 10
1.655909718026047
 20
-0.1274793607825712
 30
0.0
 10
1.647908101100913
 20
-0.1293448060344215
 30
0.0
 10
1.637978511420619
 20
-0.131210251286297
 30
0.0
 10
1.628511046014738
 20
-0.1330749348046791
 30
0.0
 10
1.619044021612454
 20
-0.1349403800565167
 30
0.0
 10
1.61003912052787
 20
-0.1368058253083796
 30
0.0
 10
1.603665343876526
 20
-0.1386712705602551
 30
0.0
 10
1.600009864989361
 20
-0.1397410250337998
 30
0.0
 10
1.597220517183712
 20
-0.1408105790512258
 30
0.0
 10
1.595465322833231
 20
-0.1418803335247831
 30
0.0
 10
1.594159511156931
 20
-0.1426760243030887
 30
0.0
 10
1.593427004167955
 20
-0.1434719155375508
 30
0.0
 10
1.593337480436022
 20
-0.1442669948694528
 30
0.0
 10
1.593233403585069
 20
-0.1451812455130342
 30
0.0
 10
1.593979140682222
 20
-0.146095445987511
 30
0.0
 10
1.595477670934188
 20
-0.147009646462013
 30
0.0
 10
1.600085276605922
 20
-0.1498189433261056
 30
0.0
 10
1.604678770162283
 20
-0.1526607869384154
 30
0.0
 10
1.609203467156198
 20
-0.1555819948221774
 30
0.0
 10
1.609203467156198
 20
-0.1555819948221774
 30
0.0
 10
1.609203467156198
 20
-0.1536080626833104
 30
0.0
 10
1.609203467156198
 20
-0.1536080626833104
 30
0.0
 10
1.618770992140146
 20
-0.1407477860075232
 30
0.0
 10
1.642285304986949
 20
-0.1419232311482498
 30
0.0
 10
1.655351407461289
 20
-0.1327799033925001
 30
0.0
 10
1.660868362567877
 20
-0.1291389776243174
 30
0.0
 10
1.666514972734477
 20
-0.1256501981000863
 30
0.0
 10
1.672177459030939
 20
-0.1222005476230505
 30
0.0
 10
1.672177459030939
 20
-0.1222005476230505
 30
0.0
 10
1.672665650022357
 20
-0.1218830250269952
 30
0.0
 10
1.672665650022357
 20
-0.1218830250269952
 30
0.0
  0
HATCH
  5
12C
330
125
100
AcDbEntity
  8
SDPW screw
440
 33554687
100
AcDbHatch
 10
0.0
 20
0.0
 30
0.0
210
0.0
220
0.0
230
1.0
  2
SOLID
 70
     1
 71
     1
 91
        1
 92
        1
 93
        1
 72
     4
 94
        3
 73
     0
 74
     0
 95
       38
 96
       34
 40
0.0
 40
0.0
 40
0.0
 40
0.0
 40
1.0
 40
1.0
 40
1.0
 40
2.0
 40
2.0
 40
2.0
 40
3.0
 40
3.0
 40
3.0
 40
4.0
 40
4.0
 40
4.0
 40
5.0
 40
5.0
 40
5.0
 40
6.0
 40
6.0
 40
6.0
 40
7.0
 40
7.0
 40
7.0
 40
8.0
 40
8.0
 40
8.0
 40
9.0
 40
9.0
 40
9.0
 40
10.0
 40
10.0
 40
10.0
 40
11.0
 40
11.0
 40
11.0
 40
11.0
 10
1.672665650022357
 20
-0.1218830250269952
 10
1.669983907096467
 20
-0.1237484702788581
 10
1.663910405439562
 20
-0.125613915530721
 10
1.655909718026047
 20
-0.1274793607825712
 10
1.647908101100913
 20
-0.1293448060344215
 10
1.637978511420619
 20
-0.131210251286297
 10
1.628511046014738
 20
-0.1330749348046791
 10
1.619044021612454
 20
-0.1349403800565167
 10
1.61003912052787
 20
-0.1368058253083796
 10
1.603665343876526
 20
-0.1386712705602551
 10
1.600009864989361
 20
-0.1397410250337998
 10
1.597220517183712
 20
-0.1408105790512258
 10
1.595465322833231
 20
-0.1418803335247831
 10
1.594159511156931
 20
-0.1426760243030887
 10
1.593427004167955
 20
-0.1434719155375508
 10
1.593337480436022
 20
-0.1442669948694528
 10
1.593233403585069
 20
-0.1451812455130342
 10
1.593979140682222
 20
-0.146095445987511
 10
1.595477670934188
 20
-0.147009646462013
 10
1.600085276605922
 20
-0.1498189433261056
 10
1.604678770162283
 20
-0.1526607869384154
 10
1.609203467156198
 20
-0.1555819948221774
 10
1.609203467156198
 20
-0.1555819948221774
 10
1.609203467156198
 20
-0.1536080626833104
 10
1.609203467156198
 20
-0.1536080626833104
 10
1.618770992140146
 20
-0.1407477860075232
 10
1.642285304986949
 20
-0.1419232311482498
 10
1.655351407461289
 20
-0.1327799033925001
 10
1.660868362567877
 20
-0.1291389776243174
 10
1.666514972734477
 20
-0.1256501981000863
 10
1.672177459030939
 20
-0.1222005476230505
 10
1.672177459030939
 20
-0.1222005476230505
 10
1.672665650022357
 20
-0.1218830250269952
 10
1.672665650022357
 20
-0.1218830250269952
 97
        0
 97
        1
330
12B
 75
     2
 76
     0
 98
        1
 10
0.0
 20
0.0
450
        1
451
        0
460
-90.0
461
0.0
452
        0
462
0.0
453
        2
463
0.0
 63
   250
421
  3157551
463
1.0
 63
     9
421
 12369600
470
LINEAR
  0
ENDBLK
  5
128
330
125
100
AcDbEntity
  8
0
100
AcDbBlockEnd
  0
BLOCK
  5
12F
330
12D
100
AcDbEntity
  8
0
100
AcDbBlockBegin
  2
Block_9
 70
     0
 10
0.0
 20
0.0
 30
0.0
  3
Block_9
  1

  0
SPLINE
  5
131
330
12D
100
AcDbEntity
  8
SDPW screw
 62
   250
420
  2301728
370
     5
100
AcDbSpline
210
0.0
220
0.0
230
1.0
 70
     8
 71
     3
 72
    35
 73
    31
 74
     0
 42
0.0000000001
 43
0.0000000001
 40
0.0
 40
0.0
 40
0.0
 40
0.0
 40
1.0
 40
1.0
 40
1.0
 40
2.0
 40
2.0
 40
2.0
 40
3.0
 40
3.0
 40
3.0
 40
4.0
 40
4.0
 40
4.0
 40
5.0
 40
5.0
 40
5.0
 40
6.0
 40
6.0
 40
6.0
 40
7.0
 40
7.0
 40
7.0
 40
8.0
 40
8.0
 40
8.0
 40
9.0
 40
9.0
 40
9.0
 40
10.0
 40
10.0
 40
10.0
 40
10.0
 10
1.672665650022357
 20
-0.0722921699010613
 30
0.0
 10
1.669983907096467
 20
-0.0741576151529241
 30
0.0
 10
1.663910405439562
 20
-0.0760230604047744
 30
0.0
 10
1.655909718026047
 20
-0.0778885056566499
 30
0.0
 10
1.647908101100913
 20
-0.0797539509085002
 30
0.0
 10
1.637978511420619
 20
-0.0816193961603631
 30
0.0
 10
1.628511046014738
 20
-0.0834841197699664
 30
0.0
 10
1.619044021612454
 20
-0.0853495650218166
 30
0.0
 10
1.61003912052787
 20
-0.0872150102736921
 30
0.0
 10
1.603665343876526
 20
-0.0890804555255677
 30
0.0
 10
1.600009864989361
 20
-0.0901501699078785
 30
0.0
 10
1.597220517183712
 20
-0.0912197640165257
 30
0.0
 10
1.595465322833231
 20
-0.0922894783988618
 30
0.0
 10
1.601139275223406
 20
-0.0888311281234261
 30
0.0
 10
1.606798233491013
 20
-0.0853291184910177
 30
0.0
 10
1.612321362648041
 20
-0.0816755342401116
 30
0.0
 10
1.62541652371399
 20
-0.0725448649671105
 30
0.0
 10
1.648754434524486
 20
-0.0737666053196841
 30
0.0
 10
1.658419469545732
 20
-0.0608870950169249
 30
0.0
 10
1.658419469545732
 20
-0.0608870950169249
 30
0.0
 10
1.658419469545732
 20
-0.0588940393580894
 30
0.0
 10
1.658419469545732
 20
-0.0588940393580894
 30
0.0
 10
1.66293799248913
 20
-0.0618078883558408
 30
0.0
 10
1.667523106976988
 20
-0.0646437921879068
 30
0.0
 10
1.672123215587437
 20
-0.0674505516796873
 30
0.0
 10
1.674768796217626
 20
-0.0690646248763187
 30
0.0
 10
1.674986210995232
 20
-0.0706786980729627
 30
0.0
 10
1.672665650022357
 20
-0.0722921699010613
 30
0.0
 10
1.672665650022357
 20
-0.0722921699010613
 30
0.0
 10
1.672177459030939
 20
-0.0726096924971292
 30
0.0
 10
1.672177459030939
 20
-0.0726096924971292
 30
0.0
  0
HATCH
  5
132
330
12D
100
AcDbEntity
  8
SDPW screw
440
 33554687
100
AcDbHatch
 10
0.0
 20
0.0
 30
0.0
210
0.0
220
0.0
230
1.0
  2
SOLID
 70
     1
 71
     1
 91
        1
 92
        1
 93
        2
 72
     4
 94
        3
 73
     0
 74
     0
 95
       35
 96
       31
 40
0.0
 40
0.0
 40
0.0
 40
0.0
 40
1.0
 40
1.0
 40
1.0
 40
2.0
 40
2.0
 40
2.0
 40
3.0
 40
3.0
 40
3.0
 40
4.0
 40
4.0
 40
4.0
 40
5.0
 40
5.0
 40
5.0
 40
6.0
 40
6.0
 40
6.0
 40
7.0
 40
7.0
 40
7.0
 40
8.0
 40
8.0
 40
8.0
 40
9.0
 40
9.0
 40
9.0
 40
10.0
 40
10.0
 40
10.0
 40
10.0
 10
1.672665650022357
 20
-0.0722921699010613
 10
1.669983907096467
 20
-0.0741576151529241
 10
1.663910405439562
 20
-0.0760230604047744
 10
1.655909718026047
 20
-0.0778885056566499
 10
1.647908101100913
 20
-0.0797539509085002
 10
1.637978511420619
 20
-0.0816193961603631
 10
1.628511046014738
 20
-0.0834841197699664
 10
1.619044021612454
 20
-0.0853495650218166
 10
1.61003912052787
 20
-0.0872150102736921
 10
1.603665343876526
 20
-0.0890804555255677
 10
1.600009864989361
 20
-0.0901501699078785
 10
1.597220517183712
 20
-0.0912197640165257
 10
1.595465322833231
 20
-0.0922894783988618
 10
1.601139275223406
 20
-0.0888311281234261
 10
1.606798233491013
 20
-0.0853291184910177
 10
1.612321362648041
 20
-0.0816755342401116
 10
1.62541652371399
 20
-0.0725448649671105
 10
1.648754434524486
 20
-0.0737666053196841
 10
1.658419469545732
 20
-0.0608870950169249
 10
1.658419469545732
 20
-0.0608870950169249
 10
1.658419469545732
 20
-0.0588940393580894
 10
1.658419469545732
 20
-0.0588940393580894
 10
1.66293799248913
 20
-0.0618078883558408
 10
1.667523106976988
 20
-0.0646437921879068
 10
1.672123215587437
 20
-0.0674505516796873
 10
1.674768796217626
 20
-0.0690646248763187
 10
1.674986210995232
 20
-0.0706786980729627
 10
1.672665650022357
 20
-0.0722921699010613
 10
1.672665650022357
 20
-0.0722921699010613
 10
1.672177459030939
 20
-0.0726096924971292
 10
1.672177459030939
 20
-0.0726096924971292
 97
        0
 72
     1
 10
1.672177459030939
 20
-0.0726096924971292
 11
1.672665650022357
 21
-0.0722921699010613
 97
        0
 75
     2
 76
     0
 98
        1
 10
0.0
 20
0.0
450
        1
451
        0
460
90.0
461
0.0
452
        0
462
0.0
453
        2
463
0.0
 63
   250
421
  3157551
463
1.0
 63
     9
421
 12369600
470
LINEAR
  0
SPLINE
  5
133
330
12D
100
AcDbEntity
  8
SDPW screw
 62
   250
420
  2301728
370
     5
100
AcDbSpline
210
0.0
220
0.0
230
1.0
 70
     9
 71
     3
 72
    38
 73
    34
 74
     0
 42
0.0000000001
 43
0.0000000001
 40
0.0
 40
0.0
 40
0.0
 40
0.0
 40
1.0
 40
1.0
 40
1.0
 40
2.0
 40
2.0
 40
2.0
 40
3.0
 40
3.0
 40
3.0
 40
4.0
 40
4.0
 40
4.0
 40
5.0
 40
5.0
 40
5.0
 40
6.0
 40
6.0
 40
6.0
 40
7.0
 40
7.0
 40
7.0
 40
8.0
 40
8.0
 40
8.0
 40
9.0
 40
9.0
 40
9.0
 40
10.0
 40
10.0
 40
10.0
 40
11.0
 40
11.0
 40
11.0
 40
11.0
 10
1.672665650022357
 20
-0.0722921699010613
 30
0.0
 10
1.669983907096467
 20
-0.0741576151529241
 30
0.0
 10
1.663910405439562
 20
-0.0760230604047744
 30
0.0
 10
1.655909718026047
 20
-0.0778885056566499
 30
0.0
 10
1.647908101100913
 20
-0.0797539509085002
 30
0.0
 10
1.637978511420619
 20
-0.0816193961603631
 30
0.0
 10
1.628511046014738
 20
-0.0834841197699664
 30
0.0
 10
1.619044021612454
 20
-0.0853495650218166
 30
0.0
 10
1.61003912052787
 20
-0.0872150102736921
 30
0.0
 10
1.603665343876526
 20
-0.0890804555255677
 30
0.0
 10
1.600009864989361
 20
-0.0901501699078785
 30
0.0
 10
1.597220517183712
 20
-0.0912197640165257
 30
0.0
 10
1.595465322833231
 20
-0.0922894783988618
 30
0.0
 10
1.594159511156931
 20
-0.0930852092683886
 30
0.0
 10
1.593427004167955
 20
-0.0938810604116169
 30
0.0
 10
1.593337480436022
 20
-0.0946761384907404
 30
0.0
 10
1.593233403585069
 20
-0.0955903903871003
 30
0.0
 10
1.593979140682222
 20
-0.0965045908615644
 30
0.0
 10
1.595477670934188
 20
-0.0974187913360791
 30
0.0
 10
1.600085276605922
 20
-0.1002281228322267
 30
0.0
 10
1.604678770162283
 20
-0.1030699719037152
 30
0.0
 10
1.609203467156198
 20
-0.1059911797874899
 30
0.0
 10
1.609203467156198
 20
-0.1059911797874899
 30
0.0
 10
1.609203467156198
 20
-0.1040172476486229
 30
0.0
 10
1.609203467156198
 20
-0.1040172476486229
 30
0.0
 10
1.618770992140146
 20
-0.0911569296288235
 30
0.0
 10
1.642285304986949
 20
-0.0923324161135497
 30
0.0
 10
1.655351407461289
 20
-0.0831890883578
 30
0.0
 10
1.660868362567877
 20
-0.0795481625896299
 30
0.0
 10
1.666514972734477
 20
-0.0760593830653862
 30
0.0
 10
1.672177459030939
 20
-0.0726096924971292
 30
0.0
 10
1.672177459030939
 20
-0.0726096924971292
 30
0.0
 10
1.672665650022357
 20
-0.0722921699010613
 30
0.0
 10
1.672665650022357
 20
-0.0722921699010613
 30
0.0
  0
HATCH
  5
134
330
12D
100
AcDbEntity
  8
SDPW screw
440
 33554687
100
AcDbHatch
 10
0.0
 20
0.0
 30
0.0
210
0.0
220
0.0
230
1.0
  2
SOLID
 70
     1
 71
     1
 91
        1
 92
        1
 93
        1
 72
     4
 94
        3
 73
     0
 74
     0
 95
       38
 96
       34
 40
0.0
 40
0.0
 40
0.0
 40
0.0
 40
1.0
 40
1.0
 40
1.0
 40
2.0
 40
2.0
 40
2.0
 40
3.0
 40
3.0
 40
3.0
 40
4.0
 40
4.0
 40
4.0
 40
5.0
 40
5.0
 40
5.0
 40
6.0
 40
6.0
 40
6.0
 40
7.0
 40
7.0
 40
7.0
 40
8.0
 40
8.0
 40
8.0
 40
9.0
 40
9.0
 40
9.0
 40
10.0
 40
10.0
 40
10.0
 40
11.0
 40
11.0
 40
11.0
 40
11.0
 10
1.672665650022357
 20
-0.0722921699010613
 10
1.669983907096467
 20
-0.0741576151529241
 10
1.663910405439562
 20
-0.0760230604047744
 10
1.655909718026047
 20
-0.0778885056566499
 10
1.647908101100913
 20
-0.0797539509085002
 10
1.637978511420619
 20
-0.0816193961603631
 10
1.628511046014738
 20
-0.0834841197699664
 10
1.619044021612454
 20
-0.0853495650218166
 10
1.61003912052787
 20
-0.0872150102736921
 10
1.603665343876526
 20
-0.0890804555255677
 10
1.600009864989361
 20
-0.0901501699078785
 10
1.597220517183712
 20
-0.0912197640165257
 10
1.595465322833231
 20
-0.0922894783988618
 10
1.594159511156931
 20
-0.0930852092683886
 10
1.593427004167955
 20
-0.0938810604116169
 10
1.593337480436022
 20
-0.0946761384907404
 10
1.593233403585069
 20
-0.0955903903871003
 10
1.593979140682222
 20
-0.0965045908615644
 10
1.595477670934188
 20
-0.0974187913360791
 10
1.600085276605922
 20
-0.1002281228322267
 10
1.604678770162283
 20
-0.1030699719037152
 10
1.609203467156198
 20
-0.1059911797874899
 10
1.609203467156198
 20
-0.1059911797874899
 10
1.609203467156198
 20
-0.1040172476486229
 10
1.609203467156198
 20
-0.1040172476486229
 10
1.618770992140146
 20
-0.0911569296288235
 10
1.642285304986949
 20
-0.0923324161135497
 10
1.655351407461289
 20
-0.0831890883578
 10
1.660868362567877
 20
-0.0795481625896299
 10
1.666514972734477
 20
-0.0760593830653862
 10
1.672177459030939
 20
-0.0726096924971292
 10
1.672177459030939
 20
-0.0726096924971292
 10
1.672665650022357
 20
-0.0722921699010613
 10
1.672665650022357
 20
-0.0722921699010613
 97
        0
 97
        1
330
133
 75
     2
 76
     0
 98
        1
 10
0.0
 20
0.0
450
        1
451
        0
460
-90.0
461
0.0
452
        0
462
0.0
453
        2
463
0.0
 63
   250
421
  3157551
463
1.0
 63
     9
421
 12369600
470
LINEAR
  0
ENDBLK
  5
130
330
12D
100
AcDbEntity
  8
0
100
AcDbBlockEnd
  0
BLOCK
  5
137
330
135
100
AcDbEntity
  8
0
100
AcDbBlockBegin
  2
Block_10
 70
     0
 10
0.0
 20
0.0
 30
0.0
  3
Block_10
  1

  0
SPLINE
  5
139
330
135
100
AcDbEntity
  8
SDPW screw
 62
   250
420
  2301728
370
     5
100
AcDbSpline
210
0.0
220
0.0
230
1.0
 70
     8
 71
     3
 72
    35
 73
    31
 74
     0
 42
0.0000000001
 43
0.0000000001
 40
0.0
 40
0.0
 40
0.0
 40
0.0
 40
1.0
 40
1.0
 40
1.0
 40
2.0
 40
2.0
 40
2.0
 40
3.0
 40
3.0
 40
3.0
 40
4.0
 40
4.0
 40
4.0
 40
5.0
 40
5.0
 40
5.0
 40
6.0
 40
6.0
 40
6.0
 40
7.0
 40
7.0
 40
7.0
 40
8.0
 40
8.0
 40
8.0
 40
9.0
 40
9.0
 40
9.0
 40
10.0
 40
10.0
 40
10.0
 40
10.0
 10
1.672665650022357
 20
-0.0227013147751273
 30
0.0
 10
1.669983907096467
 20
-0.0245667600270028
 30
0.0
 10
1.663910405439562
 20
-0.0264322052788531
 30
0.0
 10
1.655909718026047
 20
-0.0282976505307033
 30
0.0
 10
1.647908101100913
 20
-0.0301630957825789
 30
0.0
 10
1.637978511420619
 20
-0.0320285410344291
 30
0.0
 10
1.628511046014738
 20
-0.0338933047352788
 30
0.0
 10
1.619044021612454
 20
-0.0357587499871291
 30
0.0
 10
1.61003912052787
 20
-0.037624195238992
 30
0.0
 10
1.603665343876526
 20
-0.0394896404908675
 30
0.0
 10
1.600009864989361
 20
-0.0405593147819445
 30
0.0
 10
1.597220517183712
 20
-0.0416289489818256
 30
0.0
 10
1.595465322833231
 20
-0.0426986232729279
 30
0.0
 10
1.601139275223406
 20
-0.0392402729974795
 30
0.0
 10
1.606798233491013
 20
-0.0357382633650963
 30
0.0
 10
1.612321362648041
 20
-0.0320847234544443
 30
0.0
 10
1.62541652371399
 20
-0.0229540098411639
 30
0.0
 10
1.648754434524486
 20
-0.0241757902849839
 30
0.0
 10
1.658419469545732
 20
-0.0112962799822122
 30
0.0
 10
1.658419469545732
 20
-0.0112962799822122
 30
0.0
 10
1.658419469545732
 20
-0.0093031842321428
 30
0.0
 10
1.658419469545732
 20
-0.0093031842321428
 30
0.0
 10
1.66293799248913
 20
-0.0122170677737283
 30
0.0
 10
1.667523106976988
 20
-0.0150529358091944
 30
0.0
 10
1.672123215587437
 20
-0.0178597366449998
 30
0.0
 10
1.674768796217626
 20
-0.0194738098416312
 30
0.0
 10
1.674986210995232
 20
-0.0210878830382626
 30
0.0
 10
1.672665650022357
 20
-0.0227013147751273
 30
0.0
 10
1.672665650022357
 20
-0.0227013147751273
 30
0.0
 10
1.672177459030939
 20
-0.0230188373711826
 30
0.0
 10
1.672177459030939
 20
-0.0230188373711826
 30
0.0
  0
HATCH
  5
13A
330
135
100
AcDbEntity
  8
SDPW screw
440
 33554687
100
AcDbHatch
 10
0.0
 20
0.0
 30
0.0
210
0.0
220
0.0
230
1.0
  2
SOLID
 70
     1
 71
     1
 91
        1
 92
        1
 93
        2
 72
     4
 94
        3
 73
     0
 74
     0
 95
       35
 96
       31
 40
0.0
 40
0.0
 40
0.0
 40
0.0
 40
1.0
 40
1.0
 40
1.0
 40
2.0
 40
2.0
 40
2.0
 40
3.0
 40
3.0
 40
3.0
 40
4.0
 40
4.0
 40
4.0
 40
5.0
 40
5.0
 40
5.0
 40
6.0
 40
6.0
 40
6.0
 40
7.0
 40
7.0
 40
7.0
 40
8.0
 40
8.0
 40
8.0
 40
9.0
 40
9.0
 40
9.0
 40
10.0
 40
10.0
 40
10.0
 40
10.0
 10
1.672665650022357
 20
-0.0227013147751273
 10
1.669983907096467
 20
-0.0245667600270028
 10
1.663910405439562
 20
-0.0264322052788531
 10
1.655909718026047
 20
-0.0282976505307033
 10
1.647908101100913
 20
-0.0301630957825789
 10
1.637978511420619
 20
-0.0320285410344291
 10
1.628511046014738
 20
-0.0338933047352788
 10
1.619044021612454
 20
-0.0357587499871291
 10
1.61003912052787
 20
-0.037624195238992
 10
1.603665343876526
 20
-0.0394896404908675
 10
1.600009864989361
 20
-0.0405593147819445
 10
1.597220517183712
 20
-0.0416289489818256
 10
1.595465322833231
 20
-0.0426986232729279
 10
1.601139275223406
 20
-0.0392402729974795
 10
1.606798233491013
 20
-0.0357382633650963
 10
1.612321362648041
 20
-0.0320847234544443
 10
1.62541652371399
 20
-0.0229540098411639
 10
1.648754434524486
 20
-0.0241757902849839
 10
1.658419469545732
 20
-0.0112962799822122
 10
1.658419469545732
 20
-0.0112962799822122
 10
1.658419469545732
 20
-0.0093031842321428
 10
1.658419469545732
 20
-0.0093031842321428
 10
1.66293799248913
 20
-0.0122170677737283
 10
1.667523106976988
 20
-0.0150529358091944
 10
1.672123215587437
 20
-0.0178597366449998
 10
1.674768796217626
 20
-0.0194738098416312
 10
1.674986210995232
 20
-0.0210878830382626
 10
1.672665650022357
 20
-0.0227013147751273
 10
1.672665650022357
 20
-0.0227013147751273
 10
1.672177459030939
 20
-0.0230188373711826
 10
1.672177459030939
 20
-0.0230188373711826
 97
        0
 72
     1
 10
1.672177459030939
 20
-0.0230188373711826
 11
1.672665650022357
 21
-0.0227013147751273
 97
        0
 75
     2
 76
     0
 98
        1
 10
0.0
 20
0.0
450
        1
451
        0
460
90.0
461
0.0
452
        0
462
0.0
453
        2
463
0.0
 63
   250
421
  3157551
463
1.0
 63
     9
421
 12369600
470
LINEAR
  0
SPLINE
  5
13B
330
135
100
AcDbEntity
  8
SDPW screw
 62
   250
420
  2301728
370
     5
100
AcDbSpline
210
0.0
220
0.0
230
1.0
 70
     9
 71
     3
 72
    38
 73
    34
 74
     0
 42
0.0000000001
 43
0.0000000001
 40
0.0
 40
0.0
 40
0.0
 40
0.0
 40
1.0
 40
1.0
 40
1.0
 40
2.0
 40
2.0
 40
2.0
 40
3.0
 40
3.0
 40
3.0
 40
4.0
 40
4.0
 40
4.0
 40
5.0
 40
5.0
 40
5.0
 40
6.0
 40
6.0
 40
6.0
 40
7.0
 40
7.0
 40
7.0
 40
8.0
 40
8.0
 40
8.0
 40
9.0
 40
9.0
 40
9.0
 40
10.0
 40
10.0
 40
10.0
 40
11.0
 40
11.0
 40
11.0
 40
11.0
 10
1.672665650022357
 20
-0.0227013147751273
 30
0.0
 10
1.669983907096467
 20
-0.0245667600270028
 30
0.0
 10
1.663910405439562
 20
-0.0264322052788531
 30
0.0
 10
1.655909718026047
 20
-0.0282976505307033
 30
0.0
 10
1.647908101100913
 20
-0.0301630957825789
 30
0.0
 10
1.637978511420619
 20
-0.0320285410344291
 30
0.0
 10
1.628511046014738
 20
-0.0338933047352788
 30
0.0
 10
1.619044021612454
 20
-0.0357587499871291
 30
0.0
 10
1.61003912052787
 20
-0.037624195238992
 30
0.0
 10
1.603665343876526
 20
-0.0394896404908675
 30
0.0
 10
1.600009864989361
 20
-0.0405593147819445
 30
0.0
 10
1.597220517183712
 20
-0.0416289489818256
 30
0.0
 10
1.595465322833231
 20
-0.0426986232729279
 30
0.0
 10
1.594159511156931
 20
-0.0434943942337011
 30
0.0
 10
1.593427004167955
 20
-0.0442902052856829
 30
0.0
 10
1.593337480436022
 20
-0.0450852821120407
 30
0.0
 10
1.593233403585069
 20
-0.0459995352611663
 30
0.0
 10
1.593979140682222
 20
-0.0469137357356431
 30
0.0
 10
1.595477670934188
 20
-0.0478279362101451
 30
0.0
 10
1.600085276605922
 20
-0.0506373023383604
 30
0.0
 10
1.604678770162283
 20
-0.0534791568690152
 30
0.0
 10
1.609203467156198
 20
-0.0564003647527898
 30
0.0
 10
1.609203467156198
 20
-0.0564003647527898
 30
0.0
 10
1.609203467156198
 20
-0.0544264326139354
 30
0.0
 10
1.609203467156198
 20
-0.0544264326139354
 30
0.0
 10
1.618770992140146
 20
-0.0415660732501237
 30
0.0
 10
1.642285304986949
 20
-0.0427416010788622
 30
0.0
 10
1.655351407461289
 20
-0.0335982733230998
 30
0.0
 10
1.660868362567877
 20
-0.0299573475549298
 30
0.0
 10
1.666514972734477
 20
-0.0264685680306987
 30
0.0
 10
1.672177459030939
 20
-0.0230188373711826
 30
0.0
 10
1.672177459030939
 20
-0.0230188373711826
 30
0.0
 10
1.672665650022357
 20
-0.0227013147751273
 30
0.0
 10
1.672665650022357
 20
-0.0227013147751273
 30
0.0
  0
HATCH
  5
13C
330
135
100
AcDbEntity
  8
SDPW screw
440
 33554687
100
AcDbHatch
 10
0.0
 20
0.0
 30
0.0
210
0.0
220
0.0
230
1.0
  2
SOLID
 70
     1
 71
     1
 91
        1
 92
        1
 93
        1
 72
     4
 94
        3
 73
     0
 74
     0
 95
       38
 96
       34
 40
0.0
 40
0.0
 40
0.0
 40
0.0
 40
1.0
 40
1.0
 40
1.0
 40
2.0
 40
2.0
 40
2.0
 40
3.0
 40
3.0
 40
3.0
 40
4.0
 40
4.0
 40
4.0
 40
5.0
 40
5.0
 40
5.0
 40
6.0
 40
6.0
 40
6.0
 40
7.0
 40
7.0
 40
7.0
 40
8.0
 40
8.0
 40
8.0
 40
9.0
 40
9.0
 40
9.0
 40
10.0
 40
10.0
 40
10.0
 40
11.0
 40
11.0
 40
11.0
 40
11.0
 10
1.672665650022357
 20
-0.0227013147751273
 10
1.669983907096467
 20
-0.0245667600270028
 10
1.663910405439562
 20
-0.0264322052788531
 10
1.655909718026047
 20
-0.0282976505307033
 10
1.647908101100913
 20
-0.0301630957825789
 10
1.637978511420619
 20
-0.0320285410344291
 10
1.628511046014738
 20
-0.0338933047352788
 10
1.619044021612454
 20
-0.0357587499871291
 10
1.61003912052787
 20
-0.037624195238992
 10
1.603665343876526
 20
-0.0394896404908675
 10
1.600009864989361
 20
-0.0405593147819445
 10
1.597220517183712
 20
-0.0416289489818256
 10
1.595465322833231
 20
-0.0426986232729279
 10
1.594159511156931
 20
-0.0434943942337011
 10
1.593427004167955
 20
-0.0442902052856829
 10
1.593337480436022
 20
-0.0450852821120407
 10
1.593233403585069
 20
-0.0459995352611663
 10
1.593979140682222
 20
-0.0469137357356431
 10
1.595477670934188
 20
-0.0478279362101451
 10
1.600085276605922
 20
-0.0506373023383604
 10
1.604678770162283
 20
-0.0534791568690152
 10
1.609203467156198
 20
-0.0564003647527898
 10
1.609203467156198
 20
-0.0564003647527898
 10
1.609203467156198
 20
-0.0544264326139354
 10
1.609203467156198
 20
-0.0544264326139354
 10
1.618770992140146
 20
-0.0415660732501237
 10
1.642285304986949
 20
-0.0427416010788622
 10
1.655351407461289
 20
-0.0335982733230998
 10
1.660868362567877
 20
-0.0299573475549298
 10
1.666514972734477
 20
-0.0264685680306987
 10
1.672177459030939
 20
-0.0230188373711826
 10
1.672177459030939
 20
-0.0230188373711826
 10
1.672665650022357
 20
-0.0227013147751273
 10
1.672665650022357
 20
-0.0227013147751273
 97
        0
 97
        1
330
13B
 75
     2
 76
     0
 98
        1
 10
0.0
 20
0.0
450
        1
451
        0
460
-90.0
461
0.0
452
        0
462
0.0
453
        2
463
0.0
 63
   250
421
  3157551
463
1.0
 63
     9
421
 12369600
470
LINEAR
  0
ENDBLK
  5
138
330
135
100
AcDbEntity
  8
0
100
AcDbBlockEnd
  0
BLOCK
  5
13F
330
13D
100
AcDbEntity
  8
0
100
AcDbBlockBegin
  2
Block_11
 70
     0
 10
0.0
 20
0.0
 30
0.0
  3
Block_11
  1

  0
SPLINE
  5
141
330
13D
100
AcDbEntity
  8
SDPW screw
 62
   250
420
  2301728
370
     5
100
AcDbSpline
210
0.0
220
0.0
230
1.0
 70
     8
 71
     3
 72
    35
 73
    31
 74
     0
 42
0.0000000001
 43
0.0000000001
 40
0.0
 40
0.0
 40
0.0
 40
0.0
 40
1.0
 40
1.0
 40
1.0
 40
2.0
 40
2.0
 40
2.0
 40
3.0
 40
3.0
 40
3.0
 40
4.0
 40
4.0
 40
4.0
 40
5.0
 40
5.0
 40
5.0
 40
6.0
 40
6.0
 40
6.0
 40
7.0
 40
7.0
 40
7.0
 40
8.0
 40
8.0
 40
8.0
 40
9.0
 40
9.0
 40
9.0
 40
10.0
 40
10.0
 40
10.0
 40
10.0
 10
1.672665650022357
 20
0.0268895403507941
 30
0.0
 10
1.669983907096467
 20
0.0250240950989312
 30
0.0
 10
1.663910405439562
 20
0.0231586498470809
 30
0.0
 10
1.655909718026047
 20
0.021293204595218
 30
0.0
 10
1.647908101100913
 20
0.0194277593433678
 30
0.0
 10
1.637978511420619
 20
0.0175623140914922
 30
0.0
 10
1.628511046014738
 20
0.0156975102994213
 30
0.0
 10
1.619044021612454
 20
0.0138320650475584
 30
0.0
 10
1.61003912052787
 20
0.0119666197956955
 30
0.0
 10
1.603665343876526
 20
0.0101011745438326
 30
0.0
 10
1.600009864989361
 20
0.0090315403439894
 30
0.0
 10
1.597220517183712
 20
0.0079618660528619
 30
0.0
 10
1.595465322833231
 20
0.0068922318530187
 30
0.0
 10
1.601139275223406
 20
0.0103505821284418
 30
0.0
 10
1.606798233491013
 20
0.0138525917608377
 30
0.0
 10
1.612321362648041
 20
0.0175060873312355
 30
0.0
 10
1.62541652371399
 20
0.0266368452847574
 30
0.0
 10
1.648754434524486
 20
0.0254150247497162
 30
0.0
 10
1.658419469545732
 20
0.0382945350524753
 30
0.0
 10
1.658419469545732
 20
0.0382945350524753
 30
0.0
 10
1.658419469545732
 20
0.0402876708937912
 30
0.0
 10
1.658419469545732
 20
0.0402876708937912
 30
0.0
 10
1.66293799248913
 20
0.0373737528083843
 30
0.0
 10
1.667523106976988
 20
0.034537920569518
 30
0.0
 10
1.672123215587437
 20
0.0317310783897129
 30
0.0
 10
1.674768796217626
 20
0.0301170051930816
 30
0.0
 10
1.674986210995232
 20
0.0285029319964249
 30
0.0
 10
1.672665650022357
 20
0.0268895403507941
 30
0.0
 10
1.672665650022357
 20
0.0268895403507941
 30
0.0
 10
1.672177459030939
 20
0.0265720177547387
 30
0.0
 10
1.672177459030939
 20
0.0265720177547387
 30
0.0
  0
HATCH
  5
142
330
13D
100
AcDbEntity
  8
SDPW screw
440
 33554687
100
AcDbHatch
 10
0.0
 20
0.0
 30
0.0
210
0.0
220
0.0
230
1.0
  2
SOLID
 70
     1
 71
     1
 91
        1
 92
        1
 93
        2
 72
     4
 94
        3
 73
     0
 74
     0
 95
       35
 96
       31
 40
0.0
 40
0.0
 40
0.0
 40
0.0
 40
1.0
 40
1.0
 40
1.0
 40
2.0
 40
2.0
 40
2.0
 40
3.0
 40
3.0
 40
3.0
 40
4.0
 40
4.0
 40
4.0
 40
5.0
 40
5.0
 40
5.0
 40
6.0
 40
6.0
 40
6.0
 40
7.0
 40
7.0
 40
7.0
 40
8.0
 40
8.0
 40
8.0
 40
9.0
 40
9.0
 40
9.0
 40
10.0
 40
10.0
 40
10.0
 40
10.0
 10
1.672665650022357
 20
0.0268895403507941
 10
1.669983907096467
 20
0.0250240950989312
 10
1.663910405439562
 20
0.0231586498470809
 10
1.655909718026047
 20
0.021293204595218
 10
1.647908101100913
 20
0.0194277593433678
 10
1.637978511420619
 20
0.0175623140914922
 10
1.628511046014738
 20
0.0156975102994213
 10
1.619044021612454
 20
0.0138320650475584
 10
1.61003912052787
 20
0.0119666197956955
 10
1.603665343876526
 20
0.0101011745438326
 10
1.600009864989361
 20
0.0090315403439894
 10
1.597220517183712
 20
0.0079618660528619
 10
1.595465322833231
 20
0.0068922318530187
 10
1.601139275223406
 20
0.0103505821284418
 10
1.606798233491013
 20
0.0138525917608377
 10
1.612321362648041
 20
0.0175060873312355
 10
1.62541652371399
 20
0.0266368452847574
 10
1.648754434524486
 20
0.0254150247497162
 10
1.658419469545732
 20
0.0382945350524753
 10
1.658419469545732
 20
0.0382945350524753
 10
1.658419469545732
 20
0.0402876708937912
 10
1.658419469545732
 20
0.0402876708937912
 10
1.66293799248913
 20
0.0373737528083843
 10
1.667523106976988
 20
0.034537920569518
 10
1.672123215587437
 20
0.0317310783897129
 10
1.674768796217626
 20
0.0301170051930816
 10
1.674986210995232
 20
0.0285029319964249
 10
1.672665650022357
 20
0.0268895403507941
 10
1.672665650022357
 20
0.0268895403507941
 10
1.672177459030939
 20
0.0265720177547387
 10
1.672177459030939
 20
0.0265720177547387
 97
        0
 72
     1
 10
1.672177459030939
 20
0.0265720177547387
 11
1.672665650022357
 21
0.0268895403507941
 97
        0
 75
     2
 76
     0
 98
        1
 10
0.0
 20
0.0
450
        1
451
        0
460
90.0
461
0.0
452
        0
462
0.0
453
        2
463
0.0
 63
   250
421
  3157551
463
1.0
 63
     9
421
 12369600
470
LINEAR
  0
SPLINE
  5
143
330
13D
100
AcDbEntity
  8
SDPW screw
 62
   250
420
  2301728
370
     5
100
AcDbSpline
210
0.0
220
0.0
230
1.0
 70
     9
 71
     3
 72
    38
 73
    34
 74
     0
 42
0.0000000001
 43
0.0000000001
 40
0.0
 40
0.0
 40
0.0
 40
0.0
 40
1.0
 40
1.0
 40
1.0
 40
2.0
 40
2.0
 40
2.0
 40
3.0
 40
3.0
 40
3.0
 40
4.0
 40
4.0
 40
4.0
 40
5.0
 40
5.0
 40
5.0
 40
6.0
 40
6.0
 40
6.0
 40
7.0
 40
7.0
 40
7.0
 40
8.0
 40
8.0
 40
8.0
 40
9.0
 40
9.0
 40
9.0
 40
10.0
 40
10.0
 40
10.0
 40
11.0
 40
11.0
 40
11.0
 40
11.0
 10
1.672665650022357
 20
0.0268895403507941
 30
0.0
 10
1.669983907096467
 20
0.0250240950989312
 30
0.0
 10
1.663910405439562
 20
0.0231586498470809
 30
0.0
 10
1.655909718026047
 20
0.021293204595218
 30
0.0
 10
1.647908101100913
 20
0.0194277593433678
 30
0.0
 10
1.637978511420619
 20
0.0175623140914922
 30
0.0
 10
1.628511046014738
 20
0.0156975102994213
 30
0.0
 10
1.619044021612454
 20
0.0138320650475584
 30
0.0
 10
1.61003912052787
 20
0.0119666197956955
 30
0.0
 10
1.603665343876526
 20
0.0101011745438326
 30
0.0
 10
1.600009864989361
 20
0.0090315403439894
 30
0.0
 10
1.597220517183712
 20
0.0079618660528619
 30
0.0
 10
1.595465322833231
 20
0.0068922318530187
 30
0.0
 10
1.594159511156931
 20
0.0060964208010116
 30
0.0
 10
1.593427004167955
 20
0.005300649840251
 30
0.0
 10
1.593337480436022
 20
0.0045055742666591
 30
0.0
 10
1.593233403585069
 20
0.0035913198647551
 30
0.0
 10
1.593979140682222
 20
0.0026771193902909
 30
0.0
 10
1.595477670934188
 20
0.0017629189157762
 30
0.0
 10
1.600085276605922
 20
-0.0010464818444815
 30
0.0
 10
1.604678770162283
 20
-0.0038883418343277
 30
0.0
 10
1.609203467156198
 20
-0.0068095497180896
 30
0.0
 10
1.609203467156198
 20
-0.0068095497180896
 30
0.0
 10
1.609203467156198
 20
-0.0048356175792479
 30
0.0
 10
1.609203467156198
 20
-0.0048356175792479
 30
0.0
 10
1.618770992140146
 20
0.0080247831285887
 30
0.0
 10
1.642285304986949
 20
0.0068492139558253
 30
0.0
 10
1.655351407461289
 20
0.0159925417115877
 30
0.0
 10
1.660868362567877
 20
0.0196334674797577
 30
0.0
 10
1.666514972734477
 20
0.0231222470039888
 30
0.0
 10
1.672177459030939
 20
0.0265720177547387
 30
0.0
 10
1.672177459030939
 20
0.0265720177547387
 30
0.0
 10
1.672665650022357
 20
0.0268895403507941
 30
0.0
 10
1.672665650022357
 20
0.0268895403507941
 30
0.0
  0
HATCH
  5
144
330
13D
100
AcDbEntity
  8
SDPW screw
440
 33554687
100
AcDbHatch
 10
0.0
 20
0.0
 30
0.0
210
0.0
220
0.0
230
1.0
  2
SOLID
 70
     1
 71
     1
 91
        1
 92
        1
 93
        1
 72
     4
 94
        3
 73
     0
 74
     0
 95
       38
 96
       34
 40
0.0
 40
0.0
 40
0.0
 40
0.0
 40
1.0
 40
1.0
 40
1.0
 40
2.0
 40
2.0
 40
2.0
 40
3.0
 40
3.0
 40
3.0
 40
4.0
 40
4.0
 40
4.0
 40
5.0
 40
5.0
 40
5.0
 40
6.0
 40
6.0
 40
6.0
 40
7.0
 40
7.0
 40
7.0
 40
8.0
 40
8.0
 40
8.0
 40
9.0
 40
9.0
 40
9.0
 40
10.0
 40
10.0
 40
10.0
 40
11.0
 40
11.0
 40
11.0
 40
11.0
 10
1.672665650022357
 20
0.0268895403507941
 10
1.669983907096467
 20
0.0250240950989312
 10
1.663910405439562
 20
0.0231586498470809
 10
1.655909718026047
 20
0.021293204595218
 10
1.647908101100913
 20
0.0194277593433678
 10
1.637978511420619
 20
0.0175623140914922
 10
1.628511046014738
 20
0.0156975102994213
 10
1.619044021612454
 20
0.0138320650475584
 10
1.61003912052787
 20
0.0119666197956955
 10
1.603665343876526
 20
0.0101011745438326
 10
1.600009864989361
 20
0.0090315403439894
 10
1.597220517183712
 20
0.0079618660528619
 10
1.595465322833231
 20
0.0068922318530187
 10
1.594159511156931
 20
0.0060964208010116
 10
1.593427004167955
 20
0.005300649840251
 10
1.593337480436022
 20
0.0045055742666591
 10
1.593233403585069
 20
0.0035913198647551
 10
1.593979140682222
 20
0.0026771193902909
 10
1.595477670934188
 20
0.0017629189157762
 10
1.600085276605922
 20
-0.0010464818444815
 10
1.604678770162283
 20
-0.0038883418343277
 10
1.609203467156198
 20
-0.0068095497180896
 10
1.609203467156198
 20
-0.0068095497180896
 10
1.609203467156198
 20
-0.0048356175792479
 10
1.609203467156198
 20
-0.0048356175792479
 10
1.618770992140146
 20
0.0080247831285887
 10
1.642285304986949
 20
0.0068492139558253
 10
1.655351407461289
 20
0.0159925417115877
 10
1.660868362567877
 20
0.0196334674797577
 10
1.666514972734477
 20
0.0231222470039888
 10
1.672177459030939
 20
0.0265720177547387
 10
1.672177459030939
 20
0.0265720177547387
 10
1.672665650022357
 20
0.0268895403507941
 10
1.672665650022357
 20
0.0268895403507941
 97
        0
 97
        1
330
143
 75
     2
 76
     0
 98
        1
 10
0.0
 20
0.0
450
        1
451
        0
460
-90.0
461
0.0
452
        0
462
0.0
453
        2
463
0.0
 63
   250
421
  3157551
463
1.0
 63
     9
421
 12369600
470
LINEAR
  0
ENDBLK
  5
140
330
13D
100
AcDbEntity
  8
0
100
AcDbBlockEnd
  0
BLOCK
  5
147
330
145
100
AcDbEntity
  8
0
100
AcDbBlockBegin
  2
Block_12
 70
     0
 10
0.0
 20
0.0
 30
0.0
  3
Block_12
  1

  0
SPLINE
  5
149
330
145
100
AcDbEntity
  8
SDPW screw
 62
   250
420
  2301728
370
     5
100
AcDbSpline
210
0.0
220
0.0
230
1.0
 70
     8
 71
     3
 72
    35
 73
    31
 74
     0
 42
0.0000000001
 43
0.0000000001
 40
0.0
 40
0.0
 40
0.0
 40
0.0
 40
1.0
 40
1.0
 40
1.0
 40
2.0
 40
2.0
 40
2.0
 40
3.0
 40
3.0
 40
3.0
 40
4.0
 40
4.0
 40
4.0
 40
5.0
 40
5.0
 40
5.0
 40
6.0
 40
6.0
 40
6.0
 40
7.0
 40
7.0
 40
7.0
 40
8.0
 40
8.0
 40
8.0
 40
9.0
 40
9.0
 40
9.0
 40
10.0
 40
10.0
 40
10.0
 40
10.0
 10
1.672665650022357
 20
0.076480395476728
 30
0.0
 10
1.669983907096467
 20
0.0746149502248651
 30
0.0
 10
1.663910405439562
 20
0.0727495049730149
 30
0.0
 10
1.655909718026047
 20
0.070884059721152
 30
0.0
 10
1.647908101100913
 20
0.0690186144692891
 30
0.0
 10
1.637978511420619
 20
0.0671531692174262
 30
0.0
 10
1.628511046014738
 20
0.0652883253341214
 30
0.0
 10
1.619044021612454
 20
0.0634228800822585
 30
0.0
 10
1.61003912052787
 20
0.0615574348303956
 30
0.0
 10
1.603665343876526
 20
0.0596919895785201
 30
0.0
 10
1.600009864989361
 20
0.0586223954699108
 30
0.0
 10
1.597220517183712
 20
0.0575526810875494
 30
0.0
 10
1.595465322833231
 20
0.0564830869789401
 30
0.0
 10
1.601139275223406
 20
0.0599414372543758
 30
0.0
 10
1.606798233491013
 20
0.0634434468867716
 30
0.0
 10
1.612321362648041
 20
0.0670968981169153
 30
0.0
 10
1.62541652371399
 20
0.0762277004106914
 30
0.0
 10
1.648754434524486
 20
0.0750058397844037
 30
0.0
 10
1.658419469545732
 20
0.0878853500871628
 30
0.0
 10
1.658419469545732
 20
0.0878853500871628
 30
0.0
 10
1.658419469545732
 20
0.0898785260197252
 30
0.0
 10
1.658419469545732
 20
0.0898785260197252
 30
0.0
 10
1.66293799248913
 20
0.0869645733904842
 30
0.0
 10
1.667523106976988
 20
0.0841287769482051
 30
0.0
 10
1.672123215587437
 20
0.0813218934244004
 30
0.0
 10
1.674768796217626
 20
0.0797078202277564
 30
0.0
 10
1.674986210995232
 20
0.078093747031125
 30
0.0
 10
1.672665650022357
 20
0.076480395476728
 30
0.0
 10
1.672665650022357
 20
0.076480395476728
 30
0.0
 10
1.672177459030939
 20
0.0761628728806727
 30
0.0
 10
1.672177459030939
 20
0.0761628728806727
 30
0.0
  0
HATCH
  5
14A
330
145
100
AcDbEntity
  8
SDPW screw
440
 33554687
100
AcDbHatch
 10
0.0
 20
0.0
 30
0.0
210
0.0
220
0.0
230
1.0
  2
SOLID
 70
     1
 71
     1
 91
        1
 92
        1
 93
        2
 72
     4
 94
        3
 73
     0
 74
     0
 95
       35
 96
       31
 40
0.0
 40
0.0
 40
0.0
 40
0.0
 40
1.0
 40
1.0
 40
1.0
 40
2.0
 40
2.0
 40
2.0
 40
3.0
 40
3.0
 40
3.0
 40
4.0
 40
4.0
 40
4.0
 40
5.0
 40
5.0
 40
5.0
 40
6.0
 40
6.0
 40
6.0
 40
7.0
 40
7.0
 40
7.0
 40
8.0
 40
8.0
 40
8.0
 40
9.0
 40
9.0
 40
9.0
 40
10.0
 40
10.0
 40
10.0
 40
10.0
 10
1.672665650022357
 20
0.076480395476728
 10
1.669983907096467
 20
0.0746149502248651
 10
1.663910405439562
 20
0.0727495049730149
 10
1.655909718026047
 20
0.070884059721152
 10
1.647908101100913
 20
0.0690186144692891
 10
1.637978511420619
 20
0.0671531692174262
 10
1.628511046014738
 20
0.0652883253341214
 10
1.619044021612454
 20
0.0634228800822585
 10
1.61003912052787
 20
0.0615574348303956
 10
1.603665343876526
 20
0.0596919895785201
 10
1.600009864989361
 20
0.0586223954699108
 10
1.597220517183712
 20
0.0575526810875494
 10
1.595465322833231
 20
0.0564830869789401
 10
1.601139275223406
 20
0.0599414372543758
 10
1.606798233491013
 20
0.0634434468867716
 10
1.612321362648041
 20
0.0670968981169153
 10
1.62541652371399
 20
0.0762277004106914
 10
1.648754434524486
 20
0.0750058397844037
 10
1.658419469545732
 20
0.0878853500871628
 10
1.658419469545732
 20
0.0878853500871628
 10
1.658419469545732
 20
0.0898785260197252
 10
1.658419469545732
 20
0.0898785260197252
 10
1.66293799248913
 20
0.0869645733904842
 10
1.667523106976988
 20
0.0841287769482051
 10
1.672123215587437
 20
0.0813218934244004
 10
1.674768796217626
 20
0.0797078202277564
 10
1.674986210995232
 20
0.078093747031125
 10
1.672665650022357
 20
0.076480395476728
 10
1.672665650022357
 20
0.076480395476728
 10
1.672177459030939
 20
0.0761628728806727
 10
1.672177459030939
 20
0.0761628728806727
 97
        0
 72
     1
 10
1.672177459030939
 20
0.0761628728806727
 11
1.672665650022357
 21
0.076480395476728
 97
        0
 75
     2
 76
     0
 98
        1
 10
0.0
 20
0.0
450
        1
451
        0
460
90.0
461
0.0
452
        0
462
0.0
453
        2
463
0.0
 63
   250
421
  3157551
463
1.0
 63
     9
421
 12369600
470
LINEAR
  0
SPLINE
  5
14B
330
145
100
AcDbEntity
  8
SDPW screw
 62
   250
420
  2301728
370
     5
100
AcDbSpline
210
0.0
220
0.0
230
1.0
 70
     9
 71
     3
 72
    38
 73
    34
 74
     0
 42
0.0000000001
 43
0.0000000001
 40
0.0
 40
0.0
 40
0.0
 40
0.0
 40
1.0
 40
1.0
 40
1.0
 40
2.0
 40
2.0
 40
2.0
 40
3.0
 40
3.0
 40
3.0
 40
4.0
 40
4.0
 40
4.0
 40
5.0
 40
5.0
 40
5.0
 40
6.0
 40
6.0
 40
6.0
 40
7.0
 40
7.0
 40
7.0
 40
8.0
 40
8.0
 40
8.0
 40
9.0
 40
9.0
 40
9.0
 40
10.0
 40
10.0
 40
10.0
 40
11.0
 40
11.0
 40
11.0
 40
11.0
 10
1.672665650022357
 20
0.076480395476728
 30
0.0
 10
1.669983907096467
 20
0.0746149502248651
 30
0.0
 10
1.663910405439562
 20
0.0727495049730149
 30
0.0
 10
1.655909718026047
 20
0.070884059721152
 30
0.0
 10
1.647908101100913
 20
0.0690186144692891
 30
0.0
 10
1.637978511420619
 20
0.0671531692174262
 30
0.0
 10
1.628511046014738
 20
0.0652883253341214
 30
0.0
 10
1.619044021612454
 20
0.0634228800822585
 30
0.0
 10
1.61003912052787
 20
0.0615574348303956
 30
0.0
 10
1.603665343876526
 20
0.0596919895785201
 30
0.0
 10
1.600009864989361
 20
0.0586223954699108
 30
0.0
 10
1.597220517183712
 20
0.0575526810875494
 30
0.0
 10
1.595465322833231
 20
0.0564830869789401
 30
0.0
 10
1.594159511156931
 20
0.0556872358356991
 30
0.0
 10
1.593427004167955
 20
0.054891504966185
 30
0.0
 10
1.593337480436022
 20
0.0540964306453589
 30
0.0
 10
1.593233403585069
 20
0.0531821749907017
 30
0.0
 10
1.593979140682222
 20
0.0522679745162249
 30
0.0
 10
1.595477670934188
 20
0.0513537740417102
 30
0.0
 10
1.600085276605922
 20
0.0485443386493848
 30
0.0
 10
1.604678770162283
 20
0.0457024732003851
 30
0.0
 10
1.609203467156198
 20
0.0427812653166105
 30
0.0
 10
1.609203467156198
 20
0.0427812653166105
 30
0.0
 10
1.609203467156198
 20
0.0447551974554522
 30
0.0
 10
1.609203467156198
 20
0.0447551974554522
 30
0.0
 10
1.618770992140146
 20
0.0576156395072884
 30
0.0
 10
1.642285304986949
 20
0.0564400289905128
 30
0.0
 10
1.655351407461289
 20
0.0655833567462878
 30
0.0
 10
1.660868362567877
 20
0.0692242825144578
 30
0.0
 10
1.666514972734477
 20
0.0727130620387015
 30
0.0
 10
1.672177459030939
 20
0.0761628728806727
 30
0.0
 10
1.672177459030939
 20
0.0761628728806727
 30
0.0
 10
1.672665650022357
 20
0.076480395476728
 30
0.0
 10
1.672665650022357
 20
0.076480395476728
 30
0.0
  0
HATCH
  5
14C
330
145
100
AcDbEntity
  8
SDPW screw
440
 33554687
100
AcDbHatch
 10
0.0
 20
0.0
 30
0.0
210
0.0
220
0.0
230
1.0
  2
SOLID
 70
     1
 71
     1
 91
        1
 92
        1
 93
        1
 72
     4
 94
        3
 73
     0
 74
     0
 95
       38
 96
       34
 40
0.0
 40
0.0
 40
0.0
 40
0.0
 40
1.0
 40
1.0
 40
1.0
 40
2.0
 40
2.0
 40
2.0
 40
3.0
 40
3.0
 40
3.0
 40
4.0
 40
4.0
 40
4.0
 40
5.0
 40
5.0
 40
5.0
 40
6.0
 40
6.0
 40
6.0
 40
7.0
 40
7.0
 40
7.0
 40
8.0
 40
8.0
 40
8.0
 40
9.0
 40
9.0
 40
9.0
 40
10.0
 40
10.0
 40
10.0
 40
11.0
 40
11.0
 40
11.0
 40
11.0
 10
1.672665650022357
 20
0.076480395476728
 10
1.669983907096467
 20
0.0746149502248651
 10
1.663910405439562
 20
0.0727495049730149
 10
1.655909718026047
 20
0.070884059721152
 10
1.647908101100913
 20
0.0690186144692891
 10
1.637978511420619
 20
0.0671531692174262
 10
1.628511046014738
 20
0.0652883253341214
 10
1.619044021612454
 20
0.0634228800822585
 10
1.61003912052787
 20
0.0615574348303956
 10
1.603665343876526
 20
0.0596919895785201
 10
1.600009864989361
 20
0.0586223954699108
 10
1.597220517183712
 20
0.0575526810875494
 10
1.595465322833231
 20
0.0564830869789401
 10
1.594159511156931
 20
0.0556872358356991
 10
1.593427004167955
 20
0.054891504966185
 10
1.593337480436022
 20
0.0540964306453589
 10
1.593233403585069
 20
0.0531821749907017
 10
1.593979140682222
 20
0.0522679745162249
 10
1.595477670934188
 20
0.0513537740417102
 10
1.600085276605922
 20
0.0485443386493848
 10
1.604678770162283
 20
0.0457024732003851
 10
1.609203467156198
 20
0.0427812653166105
 10
1.609203467156198
 20
0.0427812653166105
 10
1.609203467156198
 20
0.0447551974554522
 10
1.609203467156198
 20
0.0447551974554522
 10
1.618770992140146
 20
0.0576156395072884
 10
1.642285304986949
 20
0.0564400289905128
 10
1.655351407461289
 20
0.0655833567462878
 10
1.660868362567877
 20
0.0692242825144578
 10
1.666514972734477
 20
0.0727130620387015
 10
1.672177459030939
 20
0.0761628728806727
 10
1.672177459030939
 20
0.0761628728806727
 10
1.672665650022357
 20
0.076480395476728
 10
1.672665650022357
 20
0.076480395476728
 97
        0
 97
        1
330
14B
 75
     2
 76
     0
 98
        1
 10
0.0
 20
0.0
450
        1
451
        0
460
-90.0
461
0.0
452
        0
462
0.0
453
        2
463
0.0
 63
   250
421
  3157551
463
1.0
 63
     9
421
 12369600
470
LINEAR
  0
ENDBLK
  5
148
330
145
100
AcDbEntity
  8
0
100
AcDbBlockEnd
  0
BLOCK
  5
14F
330
14D
100
AcDbEntity
  8
0
100
AcDbBlockBegin
  2
Block_13
 70
     0
 10
0.0
 20
0.0
 30
0.0
  3
Block_13
  1

  0
SPLINE
  5
151
330
14D
100
AcDbEntity
  8
SDPW screw
 62
   250
420
  2301728
370
     5
100
AcDbSpline
210
0.0
220
0.0
230
1.0
 70
     8
 71
     3
 72
    35
 73
    31
 74
     0
 42
0.0000000001
 43
0.0000000001
 40
0.0
 40
0.0
 40
0.0
 40
0.0
 40
1.0
 40
1.0
 40
1.0
 40
2.0
 40
2.0
 40
2.0
 40
3.0
 40
3.0
 40
3.0
 40
4.0
 40
4.0
 40
4.0
 40
5.0
 40
5.0
 40
5.0
 40
6.0
 40
6.0
 40
6.0
 40
7.0
 40
7.0
 40
7.0
 40
8.0
 40
8.0
 40
8.0
 40
9.0
 40
9.0
 40
9.0
 40
10.0
 40
10.0
 40
10.0
 40
10.0
 10
1.672665650022357
 20
0.126071250602662
 30
0.0
 10
1.669983907096467
 20
0.1242058053507991
 30
0.0
 10
1.663910405439562
 20
0.1223403600989614
 30
0.0
 10
1.655909718026047
 20
0.1204749148470859
 30
0.0
 10
1.647908101100913
 20
0.118609469595223
 30
0.0
 10
1.637978511420619
 20
0.1167440243433601
 30
0.0
 10
1.628511046014738
 20
0.1148791403688089
 30
0.0
 10
1.619044021612454
 20
0.113013695116946
 30
0.0
 10
1.61003912052787
 20
0.1111482498650957
 30
0.0
 10
1.603665343876526
 20
0.1092828046132202
 30
0.0
 10
1.600009864989361
 20
0.1082132505958321
 30
0.0
 10
1.597220517183712
 20
0.1071434961222495
 30
0.0
 10
1.595465322833231
 20
0.1060739421048614
 30
0.0
 10
1.601139275223406
 20
0.1095322923803097
 30
0.0
 10
1.606798233491013
 20
0.1130343020127182
 30
0.0
 10
1.612321362648041
 20
0.1166877089025951
 30
0.0
 10
1.62541652371399
 20
0.1258185555366253
 30
0.0
 10
1.648754434524486
 20
0.1245966548190912
 30
0.0
 10
1.658419469545732
 20
0.1374761651218629
 30
0.0
 10
1.658419469545732
 20
0.1374761651218629
 30
0.0
 10
1.658419469545732
 20
0.1394693811456717
 30
0.0
 10
1.658419469545732
 20
0.1394693811456717
 30
0.0
 10
1.66293799248913
 20
0.1365553939726093
 30
0.0
 10
1.667523106976988
 20
0.1337196333269175
 30
0.0
 10
1.672123215587437
 20
0.1309127084591005
 30
0.0
 10
1.674768796217626
 20
0.1292986352624565
 30
0.0
 10
1.674986210995232
 20
0.1276845620658251
 30
0.0
 10
1.672665650022357
 20
0.126071250602662
 30
0.0
 10
1.672665650022357
 20
0.126071250602662
 30
0.0
 10
1.672177459030939
 20
0.1257537280066066
 30
0.0
 10
1.672177459030939
 20
0.1257537280066066
 30
0.0
  0
HATCH
  5
152
330
14D
100
AcDbEntity
  8
SDPW screw
440
 33554687
100
AcDbHatch
 10
0.0
 20
0.0
 30
0.0
210
0.0
220
0.0
230
1.0
  2
SOLID
 70
     1
 71
     1
 91
        1
 92
        1
 93
        2
 72
     4
 94
        3
 73
     0
 74
     0
 95
       35
 96
       31
 40
0.0
 40
0.0
 40
0.0
 40
0.0
 40
1.0
 40
1.0
 40
1.0
 40
2.0
 40
2.0
 40
2.0
 40
3.0
 40
3.0
 40
3.0
 40
4.0
 40
4.0
 40
4.0
 40
5.0
 40
5.0
 40
5.0
 40
6.0
 40
6.0
 40
6.0
 40
7.0
 40
7.0
 40
7.0
 40
8.0
 40
8.0
 40
8.0
 40
9.0
 40
9.0
 40
9.0
 40
10.0
 40
10.0
 40
10.0
 40
10.0
 10
1.672665650022357
 20
0.126071250602662
 10
1.669983907096467
 20
0.1242058053507991
 10
1.663910405439562
 20
0.1223403600989614
 10
1.655909718026047
 20
0.1204749148470859
 10
1.647908101100913
 20
0.118609469595223
 10
1.637978511420619
 20
0.1167440243433601
 10
1.628511046014738
 20
0.1148791403688089
 10
1.619044021612454
 20
0.113013695116946
 10
1.61003912052787
 20
0.1111482498650957
 10
1.603665343876526
 20
0.1092828046132202
 10
1.600009864989361
 20
0.1082132505958321
 10
1.597220517183712
 20
0.1071434961222495
 10
1.595465322833231
 20
0.1060739421048614
 10
1.601139275223406
 20
0.1095322923803097
 10
1.606798233491013
 20
0.1130343020127182
 10
1.612321362648041
 20
0.1166877089025951
 10
1.62541652371399
 20
0.1258185555366253
 10
1.648754434524486
 20
0.1245966548190912
 10
1.658419469545732
 20
0.1374761651218629
 10
1.658419469545732
 20
0.1374761651218629
 10
1.658419469545732
 20
0.1394693811456717
 10
1.658419469545732
 20
0.1394693811456717
 10
1.66293799248913
 20
0.1365553939726093
 10
1.667523106976988
 20
0.1337196333269175
 10
1.672123215587437
 20
0.1309127084591005
 10
1.674768796217626
 20
0.1292986352624565
 10
1.674986210995232
 20
0.1276845620658251
 10
1.672665650022357
 20
0.126071250602662
 10
1.672665650022357
 20
0.126071250602662
 10
1.672177459030939
 20
0.1257537280066066
 10
1.672177459030939
 20
0.1257537280066066
 97
        0
 72
     1
 10
1.672177459030939
 20
0.1257537280066066
 11
1.672665650022357
 21
0.126071250602662
 97
        0
 75
     2
 76
     0
 98
        1
 10
0.0
 20
0.0
450
        1
451
        0
460
90.0
461
0.0
452
        0
462
0.0
453
        2
463
0.0
 63
   250
421
  3157551
463
1.0
 63
     9
421
 12369600
470
LINEAR
  0
SPLINE
  5
153
330
14D
100
AcDbEntity
  8
SDPW screw
 62
   250
420
  2301728
370
     5
100
AcDbSpline
210
0.0
220
0.0
230
1.0
 70
     9
 71
     3
 72
    38
 73
    34
 74
     0
 42
0.0000000001
 43
0.0000000001
 40
0.0
 40
0.0
 40
0.0
 40
0.0
 40
1.0
 40
1.0
 40
1.0
 40
2.0
 40
2.0
 40
2.0
 40
3.0
 40
3.0
 40
3.0
 40
4.0
 40
4.0
 40
4.0
 40
5.0
 40
5.0
 40
5.0
 40
6.0
 40
6.0
 40
6.0
 40
7.0
 40
7.0
 40
7.0
 40
8.0
 40
8.0
 40
8.0
 40
9.0
 40
9.0
 40
9.0
 40
10.0
 40
10.0
 40
10.0
 40
11.0
 40
11.0
 40
11.0
 40
11.0
 10
1.672665650022357
 20
0.126071250602662
 30
0.0
 10
1.669983907096467
 20
0.1242058053507991
 30
0.0
 10
1.663910405439562
 20
0.1223403600989614
 30
0.0
 10
1.655909718026047
 20
0.1204749148470859
 30
0.0
 10
1.647908101100913
 20
0.118609469595223
 30
0.0
 10
1.637978511420619
 20
0.1167440243433601
 30
0.0
 10
1.628511046014738
 20
0.1148791403688089
 30
0.0
 10
1.619044021612454
 20
0.113013695116946
 30
0.0
 10
1.61003912052787
 20
0.1111482498650957
 30
0.0
 10
1.603665343876526
 20
0.1092828046132202
 30
0.0
 10
1.600009864989361
 20
0.1082132505958321
 30
0.0
 10
1.597220517183712
 20
0.1071434961222495
 30
0.0
 10
1.595465322833231
 20
0.1060739421048614
 30
0.0
 10
1.594159511156931
 20
0.1052780508703992
 30
0.0
 10
1.593427004167955
 20
0.1044823600921063
 30
0.0
 10
1.593337480436022
 20
0.1036872870240712
 30
0.0
 10
1.593233403585069
 20
0.102773030116623
 30
0.0
 10
1.593979140682222
 20
0.1018588296421462
 30
0.0
 10
1.595477670934188
 20
0.1009446291676441
 30
0.0
 10
1.600085276605922
 20
0.0981351591432637
 30
0.0
 10
1.604678770162283
 20
0.0952932882350726
 30
0.0
 10
1.609203467156198
 20
0.092372080351298
 30
0.0
 10
1.609203467156198
 20
0.092372080351298
 30
0.0
 10
1.609203467156198
 20
0.0943460124901524
 30
0.0
 10
1.609203467156198
 20
0.0943460124901524
 30
0.0
 10
1.618770992140146
 20
0.1072064958859882
 30
0.0
 10
1.642285304986949
 20
0.1060308440252129
 30
0.0
 10
1.655351407461289
 20
0.1151741717809879
 30
0.0
 10
1.660868362567877
 20
0.1188150975491453
 30
0.0
 10
1.666514972734477
 20
0.122303877073389
 30
0.0
 10
1.672177459030939
 20
0.1257537280066066
 30
0.0
 10
1.672177459030939
 20
0.1257537280066066
 30
0.0
 10
1.672665650022357
 20
0.126071250602662
 30
0.0
 10
1.672665650022357
 20
0.126071250602662
 30
0.0
  0
HATCH
  5
154
330
14D
100
AcDbEntity
  8
SDPW screw
440
 33554687
100
AcDbHatch
 10
0.0
 20
0.0
 30
0.0
210
0.0
220
0.0
230
1.0
  2
SOLID
 70
     1
 71
     1
 91
        1
 92
        1
 93
        1
 72
     4
 94
        3
 73
     0
 74
     0
 95
       38
 96
       34
 40
0.0
 40
0.0
 40
0.0
 40
0.0
 40
1.0
 40
1.0
 40
1.0
 40
2.0
 40
2.0
 40
2.0
 40
3.0
 40
3.0
 40
3.0
 40
4.0
 40
4.0
 40
4.0
 40
5.0
 40
5.0
 40
5.0
 40
6.0
 40
6.0
 40
6.0
 40
7.0
 40
7.0
 40
7.0
 40
8.0
 40
8.0
 40
8.0
 40
9.0
 40
9.0
 40
9.0
 40
10.0
 40
10.0
 40
10.0
 40
11.0
 40
11.0
 40
11.0
 40
11.0
 10
1.672665650022357
 20
0.126071250602662
 10
1.669983907096467
 20
0.1242058053507991
 10
1.663910405439562
 20
0.1223403600989614
 10
1.655909718026047
 20
0.1204749148470859
 10
1.647908101100913
 20
0.118609469595223
 10
1.637978511420619
 20
0.1167440243433601
 10
1.628511046014738
 20
0.1148791403688089
 10
1.619044021612454
 20
0.113013695116946
 10
1.61003912052787
 20
0.1111482498650957
 10
1.603665343876526
 20
0.1092828046132202
 10
1.600009864989361
 20
0.1082132505958321
 10
1.597220517183712
 20
0.1071434961222495
 10
1.595465322833231
 20
0.1060739421048614
 10
1.594159511156931
 20
0.1052780508703992
 10
1.593427004167955
 20
0.1044823600921063
 10
1.593337480436022
 20
0.1036872870240712
 10
1.593233403585069
 20
0.102773030116623
 10
1.593979140682222
 20
0.1018588296421462
 10
1.595477670934188
 20
0.1009446291676441
 10
1.600085276605922
 20
0.0981351591432637
 10
1.604678770162283
 20
0.0952932882350726
 10
1.609203467156198
 20
0.092372080351298
 10
1.609203467156198
 20
0.092372080351298
 10
1.609203467156198
 20
0.0943460124901524
 10
1.609203467156198
 20
0.0943460124901524
 10
1.618770992140146
 20
0.1072064958859882
 10
1.642285304986949
 20
0.1060308440252129
 10
1.655351407461289
 20
0.1151741717809879
 10
1.660868362567877
 20
0.1188150975491453
 10
1.666514972734477
 20
0.122303877073389
 10
1.672177459030939
 20
0.1257537280066066
 10
1.672177459030939
 20
0.1257537280066066
 10
1.672665650022357
 20
0.126071250602662
 10
1.672665650022357
 20
0.126071250602662
 97
        0
 97
        1
330
153
 75
     2
 76
     0
 98
        1
 10
0.0
 20
0.0
450
        1
451
        0
460
-90.0
461
0.0
452
        0
462
0.0
453
        2
463
0.0
 63
   250
421
  3157551
463
1.0
 63
     9
421
 12369600
470
LINEAR
  0
ENDBLK
  5
150
330
14D
100
AcDbEntity
  8
0
100
AcDbBlockEnd
  0
BLOCK
  5
157
330
155
100
AcDbEntity
  8
0
100
AcDbBlockBegin
  2
Block_14
 70
     0
 10
0.0
 20
0.0
 30
0.0
  3
Block_14
  1

  0
SPLINE
  5
159
330
155
100
AcDbEntity
  8
SDPW screw
 62
   250
420
  2301728
370
     5
100
AcDbSpline
210
0.0
220
0.0
230
1.0
 70
     8
 71
     3
 72
    35
 73
    31
 74
     0
 42
0.0000000001
 43
0.0000000001
 40
0.0
 40
0.0
 40
0.0
 40
0.0
 40
1.0
 40
1.0
 40
1.0
 40
2.0
 40
2.0
 40
2.0
 40
3.0
 40
3.0
 40
3.0
 40
4.0
 40
4.0
 40
4.0
 40
5.0
 40
5.0
 40
5.0
 40
6.0
 40
6.0
 40
6.0
 40
7.0
 40
7.0
 40
7.0
 40
8.0
 40
8.0
 40
8.0
 40
9.0
 40
9.0
 40
9.0
 40
10.0
 40
10.0
 40
10.0
 40
10.0
 10
1.672665650022357
 20
0.1756621057285959
 30
0.0
 10
1.669983907096467
 20
0.173796660476733
 30
0.0
 10
1.663910405439562
 20
0.1719312152248828
 30
0.0
 10
1.655909718026047
 20
0.1700657699730199
 30
0.0
 10
1.647908101100913
 20
0.168200324721157
 30
0.0
 10
1.637978511420619
 20
0.1663348794692941
 30
0.0
 10
1.628511046014738
 20
0.1644699554034964
 30
0.0
 10
1.619044021612454
 20
0.1626045101516461
 30
0.0
 10
1.61003912052787
 20
0.1607390648997959
 30
0.0
 10
1.603665343876526
 20
0.1588736196479203
 30
0.0
 10
1.600009864989361
 20
0.1578041057217661
 30
0.0
 10
1.597220517183712
 20
0.1567343111569496
 30
0.0
 10
1.595465322833231
 20
0.1556647972307954
 30
0.0
 10
1.601139275223406
 20
0.159123147506231
 30
0.0
 10
1.606798233491013
 20
0.1626251571386269
 30
0.0
 10
1.612321362648041
 20
0.1662785196882623
 30
0.0
 10
1.62541652371399
 20
0.1754094106625593
 30
0.0
 10
1.648754434524486
 20
0.1741874698538039
 30
0.0
 10
1.658419469545732
 20
0.1870669801565504
 30
0.0
 10
1.658419469545732
 20
0.1870669801565504
 30
0.0
 10
1.658419469545732
 20
0.1890602362715931
 30
0.0
 10
1.658419469545732
 20
0.1890602362715931
 30
0.0
 10
1.66293799248913
 20
0.1861462145547092
 30
0.0
 10
1.667523106976988
 20
0.1833104897056046
 30
0.0
 10
1.672123215587437
 20
0.180503523493788
 30
0.0
 10
1.674768796217626
 20
0.178889450297144
 30
0.0
 10
1.674986210995232
 20
0.1772753771005253
 30
0.0
 10
1.672665650022357
 20
0.1756621057285959
 30
0.0
 10
1.672665650022357
 20
0.1756621057285959
 30
0.0
 10
1.672177459030939
 20
0.175344583132528
 30
0.0
 10
1.672177459030939
 20
0.175344583132528
 30
0.0
  0
HATCH
  5
15A
330
155
100
AcDbEntity
  8
SDPW screw
440
 33554687
100
AcDbHatch
 10
0.0
 20
0.0
 30
0.0
210
0.0
220
0.0
230
1.0
  2
SOLID
 70
     1
 71
     1
 91
        1
 92
        1
 93
        2
 72
     4
 94
        3
 73
     0
 74
     0
 95
       35
 96
       31
 40
0.0
 40
0.0
 40
0.0
 40
0.0
 40
1.0
 40
1.0
 40
1.0
 40
2.0
 40
2.0
 40
2.0
 40
3.0
 40
3.0
 40
3.0
 40
4.0
 40
4.0
 40
4.0
 40
5.0
 40
5.0
 40
5.0
 40
6.0
 40
6.0
 40
6.0
 40
7.0
 40
7.0
 40
7.0
 40
8.0
 40
8.0
 40
8.0
 40
9.0
 40
9.0
 40
9.0
 40
10.0
 40
10.0
 40
10.0
 40
10.0
 10
1.672665650022357
 20
0.1756621057285959
 10
1.669983907096467
 20
0.173796660476733
 10
1.663910405439562
 20
0.1719312152248828
 10
1.655909718026047
 20
0.1700657699730199
 10
1.647908101100913
 20
0.168200324721157
 10
1.637978511420619
 20
0.1663348794692941
 10
1.628511046014738
 20
0.1644699554034964
 10
1.619044021612454
 20
0.1626045101516461
 10
1.61003912052787
 20
0.1607390648997959
 10
1.603665343876526
 20
0.1588736196479203
 10
1.600009864989361
 20
0.1578041057217661
 10
1.597220517183712
 20
0.1567343111569496
 10
1.595465322833231
 20
0.1556647972307954
 10
1.601139275223406
 20
0.159123147506231
 10
1.606798233491013
 20
0.1626251571386269
 10
1.612321362648041
 20
0.1662785196882623
 10
1.62541652371399
 20
0.1754094106625593
 10
1.648754434524486
 20
0.1741874698538039
 10
1.658419469545732
 20
0.1870669801565504
 10
1.658419469545732
 20
0.1870669801565504
 10
1.658419469545732
 20
0.1890602362715931
 10
1.658419469545732
 20
0.1890602362715931
 10
1.66293799248913
 20
0.1861462145547092
 10
1.667523106976988
 20
0.1833104897056046
 10
1.672123215587437
 20
0.180503523493788
 10
1.674768796217626
 20
0.178889450297144
 10
1.674986210995232
 20
0.1772753771005253
 10
1.672665650022357
 20
0.1756621057285959
 10
1.672665650022357
 20
0.1756621057285959
 10
1.672177459030939
 20
0.175344583132528
 10
1.672177459030939
 20
0.175344583132528
 97
        0
 72
     1
 10
1.672177459030939
 20
0.175344583132528
 11
1.672665650022357
 21
0.1756621057285959
 97
        0
 75
     2
 76
     0
 98
        1
 10
0.0
 20
0.0
450
        1
451
        0
460
90.0
461
0.0
452
        0
462
0.0
453
        2
463
0.0
 63
   250
421
  3157551
463
1.0
 63
     9
421
 12369600
470
LINEAR
  0
SPLINE
  5
15B
330
155
100
AcDbEntity
  8
SDPW screw
 62
   250
420
  2301728
370
     5
100
AcDbSpline
210
0.0
220
0.0
230
1.0
 70
     9
 71
     3
 72
    38
 73
    34
 74
     0
 42
0.0000000001
 43
0.0000000001
 40
0.0
 40
0.0
 40
0.0
 40
0.0
 40
1.0
 40
1.0
 40
1.0
 40
2.0
 40
2.0
 40
2.0
 40
3.0
 40
3.0
 40
3.0
 40
4.0
 40
4.0
 40
4.0
 40
5.0
 40
5.0
 40
5.0
 40
6.0
 40
6.0
 40
6.0
 40
7.0
 40
7.0
 40
7.0
 40
8.0
 40
8.0
 40
8.0
 40
9.0
 40
9.0
 40
9.0
 40
10.0
 40
10.0
 40
10.0
 40
11.0
 40
11.0
 40
11.0
 40
11.0
 10
1.672665650022357
 20
0.1756621057285959
 30
0.0
 10
1.669983907096467
 20
0.173796660476733
 30
0.0
 10
1.663910405439562
 20
0.1719312152248828
 30
0.0
 10
1.655909718026047
 20
0.1700657699730199
 30
0.0
 10
1.647908101100913
 20
0.168200324721157
 30
0.0
 10
1.637978511420619
 20
0.1663348794692941
 30
0.0
 10
1.628511046014738
 20
0.1644699554034964
 30
0.0
 10
1.619044021612454
 20
0.1626045101516461
 30
0.0
 10
1.61003912052787
 20
0.1607390648997959
 30
0.0
 10
1.603665343876526
 20
0.1588736196479203
 30
0.0
 10
1.600009864989361
 20
0.1578041057217661
 30
0.0
 10
1.597220517183712
 20
0.1567343111569496
 30
0.0
 10
1.595465322833231
 20
0.1556647972307954
 30
0.0
 10
1.594159511156931
 20
0.1548688659050867
 30
0.0
 10
1.593427004167955
 20
0.1540732152180276
 30
0.0
 10
1.593337480436022
 20
0.153278143402771
 30
0.0
 10
1.593233403585069
 20
0.1523638852425569
 30
0.0
 10
1.593979140682222
 20
0.1514496847680802
 30
0.0
 10
1.595477670934188
 20
0.1505354842935781
 30
0.0
 10
1.600085276605922
 20
0.14772597963713
 30
0.0
 10
1.604678770162283
 20
0.1448841032697727
 30
0.0
 10
1.609203467156198
 20
0.1419628953859981
 30
0.0
 10
1.609203467156198
 20
0.1419628953859981
 30
0.0
 10
1.609203467156198
 20
0.1439368275248398
 30
0.0
 10
1.609203467156198
 20
0.1439368275248398
 30
0.0
 10
1.618770992140146
 20
0.1567973522646879
 30
0.0
 10
1.642285304986949
 20
0.155621659059913
 30
0.0
 10
1.655351407461289
 20
0.1647649868156754
 30
0.0
 10
1.660868362567877
 20
0.1684059125838454
 30
0.0
 10
1.666514972734477
 20
0.1718946921080765
 30
0.0
 10
1.672177459030939
 20
0.175344583132528
 30
0.0
 10
1.672177459030939
 20
0.175344583132528
 30
0.0
 10
1.672665650022357
 20
0.1756621057285959
 30
0.0
 10
1.672665650022357
 20
0.1756621057285959
 30
0.0
  0
HATCH
  5
15C
330
155
100
AcDbEntity
  8
SDPW screw
440
 33554687
100
AcDbHatch
 10
0.0
 20
0.0
 30
0.0
210
0.0
220
0.0
230
1.0
  2
SOLID
 70
     1
 71
     1
 91
        1
 92
        1
 93
        1
 72
     4
 94
        3
 73
     0
 74
     0
 95
       38
 96
       34
 40
0.0
 40
0.0
 40
0.0
 40
0.0
 40
1.0
 40
1.0
 40
1.0
 40
2.0
 40
2.0
 40
2.0
 40
3.0
 40
3.0
 40
3.0
 40
4.0
 40
4.0
 40
4.0
 40
5.0
 40
5.0
 40
5.0
 40
6.0
 40
6.0
 40
6.0
 40
7.0
 40
7.0
 40
7.0
 40
8.0
 40
8.0
 40
8.0
 40
9.0
 40
9.0
 40
9.0
 40
10.0
 40
10.0
 40
10.0
 40
11.0
 40
11.0
 40
11.0
 40
11.0
 10
1.672665650022357
 20
0.1756621057285959
 10
1.669983907096467
 20
0.173796660476733
 10
1.663910405439562
 20
0.1719312152248828
 10
1.655909718026047
 20
0.1700657699730199
 10
1.647908101100913
 20
0.168200324721157
 10
1.637978511420619
 20
0.1663348794692941
 10
1.628511046014738
 20
0.1644699554034964
 10
1.619044021612454
 20
0.1626045101516461
 10
1.61003912052787
 20
0.1607390648997959
 10
1.603665343876526
 20
0.1588736196479203
 10
1.600009864989361
 20
0.1578041057217661
 10
1.597220517183712
 20
0.1567343111569496
 10
1.595465322833231
 20
0.1556647972307954
 10
1.594159511156931
 20
0.1548688659050867
 10
1.593427004167955
 20
0.1540732152180276
 10
1.593337480436022
 20
0.153278143402771
 10
1.593233403585069
 20
0.1523638852425569
 10
1.593979140682222
 20
0.1514496847680802
 10
1.595477670934188
 20
0.1505354842935781
 10
1.600085276605922
 20
0.14772597963713
 10
1.604678770162283
 20
0.1448841032697727
 10
1.609203467156198
 20
0.1419628953859981
 10
1.609203467156198
 20
0.1419628953859981
 10
1.609203467156198
 20
0.1439368275248398
 10
1.609203467156198
 20
0.1439368275248398
 10
1.618770992140146
 20
0.1567973522646879
 10
1.642285304986949
 20
0.155621659059913
 10
1.655351407461289
 20
0.1647649868156754
 10
1.660868362567877
 20
0.1684059125838454
 10
1.666514972734477
 20
0.1718946921080765
 10
1.672177459030939
 20
0.175344583132528
 10
1.672177459030939
 20
0.175344583132528
 10
1.672665650022357
 20
0.1756621057285959
 10
1.672665650022357
 20
0.1756621057285959
 97
        0
 97
        1
330
15B
 75
     2
 76
     0
 98
        1
 10
0.0
 20
0.0
450
        1
451
        0
460
-90.0
461
0.0
452
        0
462
0.0
453
        2
463
0.0
 63
   250
421
  3157551
463
1.0
 63
     9
421
 12369600
470
LINEAR
  0
ENDBLK
  5
158
330
155
100
AcDbEntity
  8
0
100
AcDbBlockEnd
  0
BLOCK
  5
15F
330
15D
100
AcDbEntity
  8
0
100
AcDbBlockBegin
  2
Block_15
 70
     0
 10
0.0
 20
0.0
 30
0.0
  3
Block_15
  1

  0
SPLINE
  5
161
330
15D
100
AcDbEntity
  8
SDPW screw
 62
   250
420
  2301728
370
     5
100
AcDbSpline
210
0.0
220
0.0
230
1.0
 70
     8
 71
     3
 72
    35
 73
    31
 74
     0
 42
0.0000000001
 43
0.0000000001
 40
0.0
 40
0.0
 40
0.0
 40
0.0
 40
1.0
 40
1.0
 40
1.0
 40
2.0
 40
2.0
 40
2.0
 40
3.0
 40
3.0
 40
3.0
 40
4.0
 40
4.0
 40
4.0
 40
5.0
 40
5.0
 40
5.0
 40
6.0
 40
6.0
 40
6.0
 40
7.0
 40
7.0
 40
7.0
 40
8.0
 40
8.0
 40
8.0
 40
9.0
 40
9.0
 40
9.0
 40
10.0
 40
10.0
 40
10.0
 40
10.0
 10
1.672665650022357
 20
0.2252529608545172
 30
0.0
 10
1.669983907096467
 20
0.223387515602667
 30
0.0
 10
1.663910405439562
 20
0.2215220703508167
 30
0.0
 10
1.655909718026047
 20
0.2196566250989538
 30
0.0
 10
1.647908101100913
 20
0.2177911798470783
 30
0.0
 10
1.637978511420619
 20
0.2159257345952281
 30
0.0
 10
1.628511046014738
 20
0.2140607704381965
 30
0.0
 10
1.619044021612454
 20
0.2121953251863336
 30
0.0
 10
1.61003912052787
 20
0.2103298799344833
 30
0.0
 10
1.603665343876526
 20
0.2084644346826078
 30
0.0
 10
1.600009864989361
 20
0.2073949608477
 30
0.0
 10
1.597220517183712
 20
0.2063251261916371
 30
0.0
 10
1.595465322833231
 20
0.2052556523567167
 30
0.0
 10
1.601139275223406
 20
0.208714002632165
 30
0.0
 10
1.606798233491013
 20
0.2122160122645608
 30
0.0
 10
1.612321362648041
 20
0.2158693304739422
 30
0.0
 10
1.62541652371399
 20
0.2250002657884806
 30
0.0
 10
1.648754434524486
 20
0.2237782848884914
 30
0.0
 10
1.658419469545732
 20
0.2366577951912632
 30
0.0
 10
1.658419469545732
 20
0.2366577951912632
 30
0.0
 10
1.658419469545732
 20
0.238651091397527
 30
0.0
 10
1.658419469545732
 20
0.238651091397527
 30
0.0
 10
1.66293799248913
 20
0.2357370351368218
 30
0.0
 10
1.667523106976988
 20
0.232901346084317
 30
0.0
 10
1.672123215587437
 20
0.2300943385284881
 30
0.0
 10
1.674768796217626
 20
0.2284802653318441
 30
0.0
 10
1.674986210995232
 20
0.2268661921352128
 30
0.0
 10
1.672665650022357
 20
0.2252529608545172
 30
0.0
 10
1.672665650022357
 20
0.2252529608545172
 30
0.0
 10
1.672177459030939
 20
0.2249354382584619
 30
0.0
 10
1.672177459030939
 20
0.2249354382584619
 30
0.0
  0
HATCH
  5
162
330
15D
100
AcDbEntity
  8
SDPW screw
440
 33554687
100
AcDbHatch
 10
0.0
 20
0.0
 30
0.0
210
0.0
220
0.0
230
1.0
  2
SOLID
 70
     1
 71
     1
 91
        1
 92
        1
 93
        2
 72
     4
 94
        3
 73
     0
 74
     0
 95
       35
 96
       31
 40
0.0
 40
0.0
 40
0.0
 40
0.0
 40
1.0
 40
1.0
 40
1.0
 40
2.0
 40
2.0
 40
2.0
 40
3.0
 40
3.0
 40
3.0
 40
4.0
 40
4.0
 40
4.0
 40
5.0
 40
5.0
 40
5.0
 40
6.0
 40
6.0
 40
6.0
 40
7.0
 40
7.0
 40
7.0
 40
8.0
 40
8.0
 40
8.0
 40
9.0
 40
9.0
 40
9.0
 40
10.0
 40
10.0
 40
10.0
 40
10.0
 10
1.672665650022357
 20
0.2252529608545172
 10
1.669983907096467
 20
0.223387515602667
 10
1.663910405439562
 20
0.2215220703508167
 10
1.655909718026047
 20
0.2196566250989538
 10
1.647908101100913
 20
0.2177911798470783
 10
1.637978511420619
 20
0.2159257345952281
 10
1.628511046014738
 20
0.2140607704381965
 10
1.619044021612454
 20
0.2121953251863336
 10
1.61003912052787
 20
0.2103298799344833
 10
1.603665343876526
 20
0.2084644346826078
 10
1.600009864989361
 20
0.2073949608477
 10
1.597220517183712
 20
0.2063251261916371
 10
1.595465322833231
 20
0.2052556523567167
 10
1.601139275223406
 20
0.208714002632165
 10
1.606798233491013
 20
0.2122160122645608
 10
1.612321362648041
 20
0.2158693304739422
 10
1.62541652371399
 20
0.2250002657884806
 10
1.648754434524486
 20
0.2237782848884914
 10
1.658419469545732
 20
0.2366577951912632
 10
1.658419469545732
 20
0.2366577951912632
 10
1.658419469545732
 20
0.238651091397527
 10
1.658419469545732
 20
0.238651091397527
 10
1.66293799248913
 20
0.2357370351368218
 10
1.667523106976988
 20
0.232901346084317
 10
1.672123215587437
 20
0.2300943385284881
 10
1.674768796217626
 20
0.2284802653318441
 10
1.674986210995232
 20
0.2268661921352128
 10
1.672665650022357
 20
0.2252529608545172
 10
1.672665650022357
 20
0.2252529608545172
 10
1.672177459030939
 20
0.2249354382584619
 10
1.672177459030939
 20
0.2249354382584619
 97
        0
 72
     1
 10
1.672177459030939
 20
0.2249354382584619
 11
1.672665650022357
 21
0.2252529608545172
 97
        0
 75
     2
 76
     0
 98
        1
 10
0.0
 20
0.0
450
        1
451
        0
460
90.0
461
0.0
452
        0
462
0.0
453
        2
463
0.0
 63
   250
421
  3157551
463
1.0
 63
     9
421
 12369600
470
LINEAR
  0
SPLINE
  5
163
330
15D
100
AcDbEntity
  8
SDPW screw
 62
   250
420
  2301728
370
     5
100
AcDbSpline
210
0.0
220
0.0
230
1.0
 70
     9
 71
     3
 72
    38
 73
    34
 74
     0
 42
0.0000000001
 43
0.0000000001
 40
0.0
 40
0.0
 40
0.0
 40
0.0
 40
1.0
 40
1.0
 40
1.0
 40
2.0
 40
2.0
 40
2.0
 40
3.0
 40
3.0
 40
3.0
 40
4.0
 40
4.0
 40
4.0
 40
5.0
 40
5.0
 40
5.0
 40
6.0
 40
6.0
 40
6.0
 40
7.0
 40
7.0
 40
7.0
 40
8.0
 40
8.0
 40
8.0
 40
9.0
 40
9.0
 40
9.0
 40
10.0
 40
10.0
 40
10.0
 40
11.0
 40
11.0
 40
11.0
 40
11.0
 10
1.672665650022357
 20
0.2252529608545172
 30
0.0
 10
1.669983907096467
 20
0.223387515602667
 30
0.0
 10
1.663910405439562
 20
0.2215220703508167
 30
0.0
 10
1.655909718026047
 20
0.2196566250989538
 30
0.0
 10
1.647908101100913
 20
0.2177911798470783
 30
0.0
 10
1.637978511420619
 20
0.2159257345952281
 30
0.0
 10
1.628511046014738
 20
0.2140607704381965
 30
0.0
 10
1.619044021612454
 20
0.2121953251863336
 30
0.0
 10
1.61003912052787
 20
0.2103298799344833
 30
0.0
 10
1.603665343876526
 20
0.2084644346826078
 30
0.0
 10
1.600009864989361
 20
0.2073949608477
 30
0.0
 10
1.597220517183712
 20
0.2063251261916371
 30
0.0
 10
1.595465322833231
 20
0.2052556523567167
 30
0.0
 10
1.594159511156931
 20
0.2044596809397869
 30
0.0
 10
1.593427004167955
 20
0.2036640703439742
 30
0.0
 10
1.593337480436022
 20
0.2028689997814707
 30
0.0
 10
1.593233403585069
 20
0.2019547403684909
 30
0.0
 10
1.593979140682222
 20
0.2010405398940141
 30
0.0
 10
1.595477670934188
 20
0.2001263394194994
 30
0.0
 10
1.600085276605922
 20
0.1973168001310089
 30
0.0
 10
1.604678770162283
 20
0.1944749183044728
 30
0.0
 10
1.609203467156198
 20
0.1915537104206982
 30
0.0
 10
1.609203467156198
 20
0.1915537104206982
 30
0.0
 10
1.609203467156198
 20
0.1935276425595273
 30
0.0
 10
1.609203467156198
 20
0.1935276425595273
 30
0.0
 10
1.618770992140146
 20
0.2063882086433876
 30
0.0
 10
1.642285304986949
 20
0.2052124740946005
 30
0.0
 10
1.655351407461289
 20
0.2143558018503882
 30
0.0
 10
1.660868362567877
 20
0.2179967276185329
 30
0.0
 10
1.666514972734477
 20
0.2214855071427766
 30
0.0
 10
1.672177459030939
 20
0.2249354382584619
 30
0.0
 10
1.672177459030939
 20
0.2249354382584619
 30
0.0
 10
1.672665650022357
 20
0.2252529608545172
 30
0.0
 10
1.672665650022357
 20
0.2252529608545172
 30
0.0
  0
HATCH
  5
164
330
15D
100
AcDbEntity
  8
SDPW screw
440
 33554687
100
AcDbHatch
 10
0.0
 20
0.0
 30
0.0
210
0.0
220
0.0
230
1.0
  2
SOLID
 70
     1
 71
     1
 91
        1
 92
        1
 93
        1
 72
     4
 94
        3
 73
     0
 74
     0
 95
       38
 96
       34
 40
0.0
 40
0.0
 40
0.0
 40
0.0
 40
1.0
 40
1.0
 40
1.0
 40
2.0
 40
2.0
 40
2.0
 40
3.0
 40
3.0
 40
3.0
 40
4.0
 40
4.0
 40
4.0
 40
5.0
 40
5.0
 40
5.0
 40
6.0
 40
6.0
 40
6.0
 40
7.0
 40
7.0
 40
7.0
 40
8.0
 40
8.0
 40
8.0
 40
9.0
 40
9.0
 40
9.0
 40
10.0
 40
10.0
 40
10.0
 40
11.0
 40
11.0
 40
11.0
 40
11.0
 10
1.672665650022357
 20
0.2252529608545172
 10
1.669983907096467
 20
0.223387515602667
 10
1.663910405439562
 20
0.2215220703508167
 10
1.655909718026047
 20
0.2196566250989538
 10
1.647908101100913
 20
0.2177911798470783
 10
1.637978511420619
 20
0.2159257345952281
 10
1.628511046014738
 20
0.2140607704381965
 10
1.619044021612454
 20
0.2121953251863336
 10
1.61003912052787
 20
0.2103298799344833
 10
1.603665343876526
 20
0.2084644346826078
 10
1.600009864989361
 20
0.2073949608477
 10
1.597220517183712
 20
0.2063251261916371
 10
1.595465322833231
 20
0.2052556523567167
 10
1.594159511156931
 20
0.2044596809397869
 10
1.593427004167955
 20
0.2036640703439742
 10
1.593337480436022
 20
0.2028689997814707
 10
1.593233403585069
 20
0.2019547403684909
 10
1.593979140682222
 20
0.2010405398940141
 10
1.595477670934188
 20
0.2001263394194994
 10
1.600085276605922
 20
0.1973168001310089
 10
1.604678770162283
 20
0.1944749183044728
 10
1.609203467156198
 20
0.1915537104206982
 10
1.609203467156198
 20
0.1915537104206982
 10
1.609203467156198
 20
0.1935276425595273
 10
1.609203467156198
 20
0.1935276425595273
 10
1.618770992140146
 20
0.2063882086433876
 10
1.642285304986949
 20
0.2052124740946005
 10
1.655351407461289
 20
0.2143558018503882
 10
1.660868362567877
 20
0.2179967276185329
 10
1.666514972734477
 20
0.2214855071427766
 10
1.672177459030939
 20
0.2249354382584619
 10
1.672177459030939
 20
0.2249354382584619
 10
1.672665650022357
 20
0.2252529608545172
 10
1.672665650022357
 20
0.2252529608545172
 97
        0
 97
        1
330
163
 75
     2
 76
     0
 98
        1
 10
0.0
 20
0.0
450
        1
451
        0
460
-90.0
461
0.0
452
        0
462
0.0
453
        2
463
0.0
 63
   250
421
  3157551
463
1.0
 63
     9
421
 12369600
470
LINEAR
  0
ENDBLK
  5
160
330
15D
100
AcDbEntity
  8
0
100
AcDbBlockEnd
  0
BLOCK
  5
167
330
165
100
AcDbEntity
  8
0
100
AcDbBlockBegin
  2
Block_16
 70
     0
 10
0.0
 20
0.0
 30
0.0
  3
Block_16
  1

  0
SPLINE
  5
169
330
165
100
AcDbEntity
  8
SDPW screw
 62
   250
420
  2301728
370
     5
100
AcDbSpline
210
0.0
220
0.0
230
1.0
 70
     8
 71
     3
 72
    35
 73
    31
 74
     0
 42
0.0000000001
 43
0.0000000001
 40
0.0
 40
0.0
 40
0.0
 40
0.0
 40
1.0
 40
1.0
 40
1.0
 40
2.0
 40
2.0
 40
2.0
 40
3.0
 40
3.0
 40
3.0
 40
4.0
 40
4.0
 40
4.0
 40
5.0
 40
5.0
 40
5.0
 40
6.0
 40
6.0
 40
6.0
 40
7.0
 40
7.0
 40
7.0
 40
8.0
 40
8.0
 40
8.0
 40
9.0
 40
9.0
 40
9.0
 40
10.0
 40
10.0
 40
10.0
 40
10.0
 10
1.672665650022357
 20
0.2748438177868087
 30
0.0
 10
1.669983907096467
 20
0.2729783725349458
 30
0.0
 10
1.663910405439562
 20
0.2711129272830956
 30
0.0
 10
1.655909718026047
 20
0.2692474820312327
 30
0.0
 10
1.647908101100913
 20
0.2673820367793572
 30
0.0
 10
1.637978511420619
 20
0.2655165915275069
 30
0.0
 10
1.628511046014738
 20
0.2636515872792415
 30
0.0
 10
1.619044021612454
 20
0.2617861420273786
 30
0.0
 10
1.61003912052787
 20
0.2599206967755284
 30
0.0
 10
1.603665343876526
 20
0.2580552515236528
 30
0.0
 10
1.600009864989361
 20
0.2569858177799789
 30
0.0
 10
1.597220517183712
 20
0.2559159430326821
 30
0.0
 10
1.595465322833231
 20
0.2548465092890082
 30
0.0
 10
1.601139275223406
 20
0.2583048595644439
 30
0.0
 10
1.606798233491013
 20
0.2618068691968523
 30
0.0
 10
1.612321362648041
 20
0.2654601430659669
 30
0.0
 10
1.62541652371399
 20
0.2745911227207721
 30
0.0
 10
1.648754434524486
 20
0.2733691017295365
 30
0.0
 10
1.658419469545732
 20
0.2862486120322956
 30
0.0
 10
1.658419469545732
 20
0.2862486120322956
 30
0.0
 10
1.658419469545732
 20
0.2882419483298059
 30
0.0
 10
1.658419469545732
 20
0.2882419483298059
 30
0.0
 10
1.66293799248913
 20
0.2853278575252792
 30
0.0
 10
1.667523106976988
 20
0.2824922042693616
 30
0.0
 10
1.672123215587437
 20
0.2796851553695332
 30
0.0
 10
1.674768796217626
 20
0.2780710821728892
 30
0.0
 10
1.674986210995232
 20
0.2764570089762578
 30
0.0
 10
1.672665650022357
 20
0.2748438177868087
 30
0.0
 10
1.672665650022357
 20
0.2748438177868087
 30
0.0
 10
1.672177459030939
 20
0.2745262951907408
 30
0.0
 10
1.672177459030939
 20
0.2745262951907408
 30
0.0
  0
HATCH
  5
16A
330
165
100
AcDbEntity
  8
SDPW screw
440
 33554687
100
AcDbHatch
 10
0.0
 20
0.0
 30
0.0
210
0.0
220
0.0
230
1.0
  2
SOLID
 70
     1
 71
     1
 91
        1
 92
        1
 93
        2
 72
     4
 94
        3
 73
     0
 74
     0
 95
       35
 96
       31
 40
0.0
 40
0.0
 40
0.0
 40
0.0
 40
1.0
 40
1.0
 40
1.0
 40
2.0
 40
2.0
 40
2.0
 40
3.0
 40
3.0
 40
3.0
 40
4.0
 40
4.0
 40
4.0
 40
5.0
 40
5.0
 40
5.0
 40
6.0
 40
6.0
 40
6.0
 40
7.0
 40
7.0
 40
7.0
 40
8.0
 40
8.0
 40
8.0
 40
9.0
 40
9.0
 40
9.0
 40
10.0
 40
10.0
 40
10.0
 40
10.0
 10
1.672665650022357
 20
0.2748438177868087
 10
1.669983907096467
 20
0.2729783725349458
 10
1.663910405439562
 20
0.2711129272830956
 10
1.655909718026047
 20
0.2692474820312327
 10
1.647908101100913
 20
0.2673820367793572
 10
1.637978511420619
 20
0.2655165915275069
 10
1.628511046014738
 20
0.2636515872792415
 10
1.619044021612454
 20
0.2617861420273786
 10
1.61003912052787
 20
0.2599206967755284
 10
1.603665343876526
 20
0.2580552515236528
 10
1.600009864989361
 20
0.2569858177799789
 10
1.597220517183712
 20
0.2559159430326821
 10
1.595465322833231
 20
0.2548465092890082
 10
1.601139275223406
 20
0.2583048595644439
 10
1.606798233491013
 20
0.2618068691968523
 10
1.612321362648041
 20
0.2654601430659669
 10
1.62541652371399
 20
0.2745911227207721
 10
1.648754434524486
 20
0.2733691017295365
 10
1.658419469545732
 20
0.2862486120322956
 10
1.658419469545732
 20
0.2862486120322956
 10
1.658419469545732
 20
0.2882419483298059
 10
1.658419469545732
 20
0.2882419483298059
 10
1.66293799248913
 20
0.2853278575252792
 10
1.667523106976988
 20
0.2824922042693616
 10
1.672123215587437
 20
0.2796851553695332
 10
1.674768796217626
 20
0.2780710821728892
 10
1.674986210995232
 20
0.2764570089762578
 10
1.672665650022357
 20
0.2748438177868087
 10
1.672665650022357
 20
0.2748438177868087
 10
1.672177459030939
 20
0.2745262951907408
 10
1.672177459030939
 20
0.2745262951907408
 97
        0
 72
     1
 10
1.672177459030939
 20
0.2745262951907408
 11
1.672665650022357
 21
0.2748438177868087
 97
        0
 75
     2
 76
     0
 98
        1
 10
0.0
 20
0.0
450
        1
451
        0
460
90.0
461
0.0
452
        0
462
0.0
453
        2
463
0.0
 63
   250
421
  3157551
463
1.0
 63
     9
421
 12369600
470
LINEAR
  0
SPLINE
  5
16B
330
165
100
AcDbEntity
  8
SDPW screw
 62
   250
420
  2301728
370
     5
100
AcDbSpline
210
0.0
220
0.0
230
1.0
 70
     9
 71
     3
 72
    38
 73
    34
 74
     0
 42
0.0000000001
 43
0.0000000001
 40
0.0
 40
0.0
 40
0.0
 40
0.0
 40
1.0
 40
1.0
 40
1.0
 40
2.0
 40
2.0
 40
2.0
 40
3.0
 40
3.0
 40
3.0
 40
4.0
 40
4.0
 40
4.0
 40
5.0
 40
5.0
 40
5.0
 40
6.0
 40
6.0
 40
6.0
 40
7.0
 40
7.0
 40
7.0
 40
8.0
 40
8.0
 40
8.0
 40
9.0
 40
9.0
 40
9.0
 40
10.0
 40
10.0
 40
10.0
 40
11.0
 40
11.0
 40
11.0
 40
11.0
 10
1.672665650022357
 20
0.2748438177868087
 30
0.0
 10
1.669983907096467
 20
0.2729783725349458
 30
0.0
 10
1.663910405439562
 20
0.2711129272830956
 30
0.0
 10
1.655909718026047
 20
0.2692474820312327
 30
0.0
 10
1.647908101100913
 20
0.2673820367793572
 30
0.0
 10
1.637978511420619
 20
0.2655165915275069
 30
0.0
 10
1.628511046014738
 20
0.2636515872792415
 30
0.0
 10
1.619044021612454
 20
0.2617861420273786
 30
0.0
 10
1.61003912052787
 20
0.2599206967755284
 30
0.0
 10
1.603665343876526
 20
0.2580552515236528
 30
0.0
 10
1.600009864989361
 20
0.2569858177799789
 30
0.0
 10
1.597220517183712
 20
0.2559159430326821
 30
0.0
 10
1.595465322833231
 20
0.2548465092890082
 30
0.0
 10
1.594159511156931
 20
0.2540504977808319
 30
0.0
 10
1.593427004167955
 20
0.2532549272762531
 30
0.0
 10
1.593337480436022
 20
0.252459857966528
 30
0.0
 10
1.593233403585069
 20
0.2515455973007698
 30
0.0
 10
1.593979140682222
 20
0.250631396826293
 30
0.0
 10
1.595477670934188
 20
0.2497171963517909
 30
0.0
 10
1.600085276605922
 20
0.2469076224312327
 30
0.0
 10
1.604678770162283
 20
0.2440657351455179
 30
0.0
 10
1.609203467156198
 20
0.2411445272617306
 30
0.0
 10
1.609203467156198
 20
0.2411445272617306
 30
0.0
 10
1.609203467156198
 20
0.2431184594005723
 30
0.0
 10
1.609203467156198
 20
0.2431184594005723
 30
0.0
 10
1.618770992140146
 20
0.2559790668284323
 30
0.0
 10
1.642285304986949
 20
0.2548032909356455
 30
0.0
 10
1.655351407461289
 20
0.2639466186914205
 30
0.0
 10
1.660868362567877
 20
0.2675875444595779
 30
0.0
 10
1.666514972734477
 20
0.2710763239838216
 30
0.0
 10
1.672177459030939
 20
0.2745262951907408
 30
0.0
 10
1.672177459030939
 20
0.2745262951907408
 30
0.0
 10
1.672665650022357
 20
0.2748438177868087
 30
0.0
 10
1.672665650022357
 20
0.2748438177868087
 30
0.0
  0
HATCH
  5
16C
330
165
100
AcDbEntity
  8
SDPW screw
440
 33554687
100
AcDbHatch
 10
0.0
 20
0.0
 30
0.0
210
0.0
220
0.0
230
1.0
  2
SOLID
 70
     1
 71
     1
 91
        1
 92
        1
 93
        1
 72
     4
 94
        3
 73
     0
 74
     0
 95
       38
 96
       34
 40
0.0
 40
0.0
 40
0.0
 40
0.0
 40
1.0
 40
1.0
 40
1.0
 40
2.0
 40
2.0
 40
2.0
 40
3.0
 40
3.0
 40
3.0
 40
4.0
 40
4.0
 40
4.0
 40
5.0
 40
5.0
 40
5.0
 40
6.0
 40
6.0
 40
6.0
 40
7.0
 40
7.0
 40
7.0
 40
8.0
 40
8.0
 40
8.0
 40
9.0
 40
9.0
 40
9.0
 40
10.0
 40
10.0
 40
10.0
 40
11.0
 40
11.0
 40
11.0
 40
11.0
 10
1.672665650022357
 20
0.2748438177868087
 10
1.669983907096467
 20
0.2729783725349458
 10
1.663910405439562
 20
0.2711129272830956
 10
1.655909718026047
 20
0.2692474820312327
 10
1.647908101100913
 20
0.2673820367793572
 10
1.637978511420619
 20
0.2655165915275069
 10
1.628511046014738
 20
0.2636515872792415
 10
1.619044021612454
 20
0.2617861420273786
 10
1.61003912052787
 20
0.2599206967755284
 10
1.603665343876526
 20
0.2580552515236528
 10
1.600009864989361
 20
0.2569858177799789
 10
1.597220517183712
 20
0.2559159430326821
 10
1.595465322833231
 20
0.2548465092890082
 10
1.594159511156931
 20
0.2540504977808319
 10
1.593427004167955
 20
0.2532549272762531
 10
1.593337480436022
 20
0.252459857966528
 10
1.593233403585069
 20
0.2515455973007698
 10
1.593979140682222
 20
0.250631396826293
 10
1.595477670934188
 20
0.2497171963517909
 10
1.600085276605922
 20
0.2469076224312327
 10
1.604678770162283
 20
0.2440657351455179
 10
1.609203467156198
 20
0.2411445272617306
 10
1.609203467156198
 20
0.2411445272617306
 10
1.609203467156198
 20
0.2431184594005723
 10
1.609203467156198
 20
0.2431184594005723
 10
1.618770992140146
 20
0.2559790668284323
 10
1.642285304986949
 20
0.2548032909356455
 10
1.655351407461289
 20
0.2639466186914205
 10
1.660868362567877
 20
0.2675875444595779
 10
1.666514972734477
 20
0.2710763239838216
 10
1.672177459030939
 20
0.2745262951907408
 10
1.672177459030939
 20
0.2745262951907408
 10
1.672665650022357
 20
0.2748438177868087
 10
1.672665650022357
 20
0.2748438177868087
 97
        0
 97
        1
330
16B
 75
     2
 76
     0
 98
        1
 10
0.0
 20
0.0
450
        1
451
        0
460
-90.0
461
0.0
452
        0
462
0.0
453
        2
463
0.0
 63
   250
421
  3157551
463
1.0
 63
     9
421
 12369600
470
LINEAR
  0
ENDBLK
  5
168
330
165
100
AcDbEntity
  8
0
100
AcDbBlockEnd
  0
BLOCK
  5
17A
330
178
100
AcDbEntity
  8
0
100
AcDbBlockBegin
  2
Block_17
 70
     0
 10
0.0
 20
0.0
 30
0.0
  3
Block_17
  1

  0
SPLINE
  5
17C
330
178
100
AcDbEntity
  8
SDPW screw
 62
   250
420
  2301728
370
     9
100
AcDbSpline
210
0.0
220
0.0
230
1.0
 70
     9
 71
     3
 72
    77
 73
    73
 74
     0
 42
0.0000000001
 43
0.0000000001
 40
0.0
 40
0.0
 40
0.0
 40
0.0
 40
1.0
 40
1.0
 40
1.0
 40
2.0
 40
2.0
 40
2.0
 40
3.0
 40
3.0
 40
3.0
 40
4.0
 40
4.0
 40
4.0
 40
5.0
 40
5.0
 40
5.0
 40
6.0
 40
6.0
 40
6.0
 40
7.0
 40
7.0
 40
7.0
 40
8.0
 40
8.0
 40
8.0
 40
9.0
 40
9.0
 40
9.0
 40
10.0
 40
10.0
 40
10.0
 40
11.0
 40
11.0
 40
11.0
 40
12.0
 40
12.0
 40
12.0
 40
13.0
 40
13.0
 40
13.0
 40
14.0
 40
14.0
 40
14.0
 40
15.0
 40
15.0
 40
15.0
 40
16.0
 40
16.0
 40
16.0
 40
17.0
 40
17.0
 40
17.0
 40
18.0
 40
18.0
 40
18.0
 40
19.0
 40
19.0
 40
19.0
 40
20.0
 40
20.0
 40
20.0
 40
21.0
 40
21.0
 40
21.0
 40
22.0
 40
22.0
 40
22.0
 40
23.0
 40
23.0
 40
23.0
 40
24.0
 40
24.0
 40
24.0
 40
24.0
 10
1.644726307590568
 20
-0.6327812929473567
 30
0.0
 10
1.644478904567803
 20
-0.6471156741451473
 30
0.0
 10
1.623148001166555
 20
-0.6471262582316891
 30
0.0
 10
1.622896629111311
 20
-0.6327812929473567
 30
0.0
 10
1.622896629111311
 20
-0.6327812929473567
 30
0.0
 10
1.617891238187288
 20
-0.3460186983791623
 30
0.0
 10
1.617891238187288
 20
-0.3460186983791623
 30
0.0
 10
1.617891238187288
 20
-0.3460186983791623
 30
0.0
 10
1.57337236520142
 20
-0.3460186983791623
 30
0.0
 10
1.57337236520142
 20
-0.3460186983791623
 30
0.0
 10
1.57337236520142
 20
-0.3460186983791623
 30
0.0
 10
1.573303519249924
 20
-0.3722143125542566
 30
0.0
 10
1.573303519249924
 20
-0.3722143125542566
 30
0.0
 10
1.57118013627779
 20
-0.3749291307505776
 30
0.0
 10
1.569998246614634
 20
-0.3782604719875861
 30
0.0
 10
1.569935183099055
 20
-0.3817064741620773
 30
0.0
 10
1.569935183099055
 20
-0.3817064741620773
 30
0.0
 10
1.552446303110173
 20
-1.339467520807223
 30
0.0
 10
1.552446303110173
 20
-1.339467520807223
 30
0.0
 10
1.552446303110173
 20
-1.339467520807223
 30
0.0
 10
1.550637747323409
 20
-1.50112444851268
 30
0.0
 10
1.550637747323409
 20
-1.50112444851268
 30
0.0
 10
1.550573801800611
 20
-1.509846176821484
 30
0.0
 10
1.543485109843509
 20
-1.516883271356669
 30
0.0
 10
1.534762499527561
 20
-1.516883271356669
 30
0.0
 10
1.534762499527561
 20
-1.516883271356669
 30
0.0
 10
1.508588494529097
 20
-1.516883271356669
 30
0.0
 10
1.508588494529097
 20
-1.516883271356669
 30
0.0
 10
1.504204036681837
 20
-1.516883271356669
 30
0.0
 10
1.500650429627562
 20
-1.520437760418139
 30
0.0
 10
1.500650429627562
 20
-1.524821336258229
 30
0.0
 10
1.500650429627562
 20
-1.524821336258229
 30
0.0
 10
1.500650429627562
 20
-1.54982624069804
 30
0.0
 10
1.500650429627562
 20
-1.54982624069804
 30
0.0
 10
1.500650429627562
 20
-1.54982624069804
 30
0.0
 10
1.511987309317798
 20
-1.557764305599599
 30
0.0
 10
1.511987309317798
 20
-1.557764305599599
 30
0.0
 10
1.511987309317798
 20
-1.557764305599599
 30
0.0
 10
1.755635627384107
 20
-1.557764305599599
 30
0.0
 10
1.755635627384107
 20
-1.557764305599599
 30
0.0
 10
1.755635627384107
 20
-1.557764305599599
 30
0.0
 10
1.766972507074342
 20
-1.54982624069804
 30
0.0
 10
1.766972507074342
 20
-1.54982624069804
 30
0.0
 10
1.766972507074342
 20
-1.54982624069804
 30
0.0
 10
1.766972507074342
 20
-1.524821336258229
 30
0.0
 10
1.766972507074342
 20
-1.524821336258229
 30
0.0
 10
1.766972507074342
 20
-1.520437760418139
 30
0.0
 10
1.763418459016469
 20
-1.516883271356669
 30
0.0
 10
1.759034442172807
 20
-1.516883271356669
 30
0.0
 10
1.759034442172807
 20
-1.516883271356669
 30
0.0
 10
1.732860878177967
 20
-1.516883271356669
 30
0.0
 10
1.732860878177967
 20
-1.516883271356669
 30
0.0
 10
1.724138267861993
 20
-1.516883271356669
 30
0.0
 10
1.717048648139982
 20
-1.509846176821484
 30
0.0
 10
1.716984748374923
 20
-1.501123566505435
 30
0.0
 10
1.716984748374923
 20
-1.501123566505435
 30
0.0
 10
1.715176633591757
 20
-1.339467520807223
 30
0.0
 10
1.715176633591757
 20
-1.339467520807223
 30
0.0
 10
1.715176633591757
 20
-1.339467520807223
 30
0.0
 10
1.697687753602849
 20
-0.3817064741620773
 30
0.0
 10
1.697687753602849
 20
-0.3817064741620773
 30
0.0
 10
1.697625131090843
 20
-0.3782604719875861
 30
0.0
 10
1.696442359420517
 20
-0.3749291307505776
 30
0.0
 10
1.694319321731048
 20
-0.3722143125542566
 30
0.0
 10
1.694319321731048
 20
-0.3722143125542566
 30
0.0
 10
1.694250571500459
 20
-0.3460186983791623
 30
0.0
 10
1.694250571500459
 20
-0.3460186983791623
 30
0.0
 10
1.694250571500459
 20
-0.3460186983791623
 30
0.0
 10
1.649732139518214
 20
-0.3460186983791623
 30
0.0
 10
1.649732139518214
 20
-0.3460186983791623
 30
0.0
 10
1.649732139518214
 20
-0.3460186983791623
 30
0.0
 10
1.644726307590568
 20
-0.6327812929473567
 30
0.0
 10
1.644726307590568
 20
-0.6327812929473567
 30
0.0
  0
HATCH
  5
17D
330
178
100
AcDbEntity
  8
SDPW screw
440
 33554687
100
AcDbHatch
 10
0.0
 20
0.0
 30
0.0
210
0.0
220
0.0
230
1.0
  2
SOLID
 70
     1
 71
     1
 91
        1
 92
        1
 93
        1
 72
     4
 94
        3
 73
     0
 74
     0
 95
       77
 96
       73
 40
0.0
 40
0.0
 40
0.0
 40
0.0
 40
1.0
 40
1.0
 40
1.0
 40
2.0
 40
2.0
 40
2.0
 40
3.0
 40
3.0
 40
3.0
 40
4.0
 40
4.0
 40
4.0
 40
5.0
 40
5.0
 40
5.0
 40
6.0
 40
6.0
 40
6.0
 40
7.0
 40
7.0
 40
7.0
 40
8.0
 40
8.0
 40
8.0
 40
9.0
 40
9.0
 40
9.0
 40
10.0
 40
10.0
 40
10.0
 40
11.0
 40
11.0
 40
11.0
 40
12.0
 40
12.0
 40
12.0
 40
13.0
 40
13.0
 40
13.0
 40
14.0
 40
14.0
 40
14.0
 40
15.0
 40
15.0
 40
15.0
 40
16.0
 40
16.0
 40
16.0
 40
17.0
 40
17.0
 40
17.0
 40
18.0
 40
18.0
 40
18.0
 40
19.0
 40
19.0
 40
19.0
 40
20.0
 40
20.0
 40
20.0
 40
21.0
 40
21.0
 40
21.0
 40
22.0
 40
22.0
 40
22.0
 40
23.0
 40
23.0
 40
23.0
 40
24.0
 40
24.0
 40
24.0
 40
24.0
 10
1.644726307590568
 20
-0.6327812929473567
 10
1.644478904567803
 20
-0.6471156741451473
 10
1.623148001166555
 20
-0.6471262582316891
 10
1.622896629111311
 20
-0.6327812929473567
 10
1.622896629111311
 20
-0.6327812929473567
 10
1.617891238187288
 20
-0.3460186983791623
 10
1.617891238187288
 20
-0.3460186983791623
 10
1.617891238187288
 20
-0.3460186983791623
 10
1.57337236520142
 20
-0.3460186983791623
 10
1.57337236520142
 20
-0.3460186983791623
 10
1.57337236520142
 20
-0.3460186983791623
 10
1.573303519249924
 20
-0.3722143125542566
 10
1.573303519249924
 20
-0.3722143125542566
 10
1.57118013627779
 20
-0.3749291307505776
 10
1.569998246614634
 20
-0.3782604719875861
 10
1.569935183099055
 20
-0.3817064741620773
 10
1.569935183099055
 20
-0.3817064741620773
 10
1.552446303110173
 20
-1.339467520807223
 10
1.552446303110173
 20
-1.339467520807223
 10
1.552446303110173
 20
-1.339467520807223
 10
1.550637747323409
 20
-1.50112444851268
 10
1.550637747323409
 20
-1.50112444851268
 10
1.550573801800611
 20
-1.509846176821484
 10
1.543485109843509
 20
-1.516883271356669
 10
1.534762499527561
 20
-1.516883271356669
 10
1.534762499527561
 20
-1.516883271356669
 10
1.508588494529097
 20
-1.516883271356669
 10
1.508588494529097
 20
-1.516883271356669
 10
1.504204036681837
 20
-1.516883271356669
 10
1.500650429627562
 20
-1.520437760418139
 10
1.500650429627562
 20
-1.524821336258229
 10
1.500650429627562
 20
-1.524821336258229
 10
1.500650429627562
 20
-1.54982624069804
 10
1.500650429627562
 20
-1.54982624069804
 10
1.500650429627562
 20
-1.54982624069804
 10
1.511987309317798
 20
-1.557764305599599
 10
1.511987309317798
 20
-1.557764305599599
 10
1.511987309317798
 20
-1.557764305599599
 10
1.755635627384107
 20
-1.557764305599599
 10
1.755635627384107
 20
-1.557764305599599
 10
1.755635627384107
 20
-1.557764305599599
 10
1.766972507074342
 20
-1.54982624069804
 10
1.766972507074342
 20
-1.54982624069804
 10
1.766972507074342
 20
-1.54982624069804
 10
1.766972507074342
 20
-1.524821336258229
 10
1.766972507074342
 20
-1.524821336258229
 10
1.766972507074342
 20
-1.520437760418139
 10
1.763418459016469
 20
-1.516883271356669
 10
1.759034442172807
 20
-1.516883271356669
 10
1.759034442172807
 20
-1.516883271356669
 10
1.732860878177967
 20
-1.516883271356669
 10
1.732860878177967
 20
-1.516883271356669
 10
1.724138267861993
 20
-1.516883271356669
 10
1.717048648139982
 20
-1.509846176821484
 10
1.716984748374923
 20
-1.501123566505435
 10
1.716984748374923
 20
-1.501123566505435
 10
1.715176633591757
 20
-1.339467520807223
 10
1.715176633591757
 20
-1.339467520807223
 10
1.715176633591757
 20
-1.339467520807223
 10
1.697687753602849
 20
-0.3817064741620773
 10
1.697687753602849
 20
-0.3817064741620773
 10
1.697625131090843
 20
-0.3782604719875861
 10
1.696442359420517
 20
-0.3749291307505776
 10
1.694319321731048
 20
-0.3722143125542566
 10
1.694319321731048
 20
-0.3722143125542566
 10
1.694250571500459
 20
-0.3460186983791623
 10
1.694250571500459
 20
-0.3460186983791623
 10
1.694250571500459
 20
-0.3460186983791623
 10
1.649732139518214
 20
-0.3460186983791623
 10
1.649732139518214
 20
-0.3460186983791623
 10
1.649732139518214
 20
-0.3460186983791623
 10
1.644726307590568
 20
-0.6327812929473567
 10
1.644726307590568
 20
-0.6327812929473567
 97
        0
 97
        1
330
17C
 75
     2
 76
     0
 98
        1
 10
0.0
 20
0.0
450
        1
451
        0
460
-90.0
461
0.0
452
        0
462
0.0
453
        2
463
0.0
 63
    20
421
 15816491
463
1.0
 63
    20
421
 15816234
470
LINEAR
  0
SPLINE
  5
17E
330
178
100
AcDbEntity
  8
SDPW screw
 62
   250
420
  2301728
370
     9
100
AcDbSpline
210
0.0
220
0.0
230
1.0
 70
     9
 71
     3
 72
    29
 73
    25
 74
     0
 42
0.0000000001
 43
0.0000000001
 40
0.0
 40
0.0
 40
0.0
 40
0.0
 40
1.0
 40
1.0
 40
1.0
 40
2.0
 40
2.0
 40
2.0
 40
3.0
 40
3.0
 40
3.0
 40
4.0
 40
4.0
 40
4.0
 40
5.0
 40
5.0
 40
5.0
 40
6.0
 40
6.0
 40
6.0
 40
7.0
 40
7.0
 40
7.0
 40
8.0
 40
8.0
 40
8.0
 40
8.0
 10
1.508588494529097
 20
-1.516883271356669
 30
0.0
 10
1.504204036681837
 20
-1.516883271356669
 30
0.0
 10
1.500650429627562
 20
-1.520437760418139
 30
0.0
 10
1.500650429627562
 20
-1.524821336258229
 30
0.0
 10
1.500650429627562
 20
-1.524821336258229
 30
0.0
 10
1.500650429627562
 20
-1.54982624069804
 30
0.0
 10
1.500650429627562
 20
-1.54982624069804
 30
0.0
 10
1.500650429627562
 20
-1.54982624069804
 30
0.0
 10
1.511987309317798
 20
-1.557764305599599
 30
0.0
 10
1.511987309317798
 20
-1.557764305599599
 30
0.0
 10
1.511987309317798
 20
-1.557764305599599
 30
0.0
 10
1.755635627384107
 20
-1.557764305599599
 30
0.0
 10
1.755635627384107
 20
-1.557764305599599
 30
0.0
 10
1.755635627384107
 20
-1.557764305599599
 30
0.0
 10
1.766972507074342
 20
-1.54982624069804
 30
0.0
 10
1.766972507074342
 20
-1.54982624069804
 30
0.0
 10
1.766972507074342
 20
-1.54982624069804
 30
0.0
 10
1.766972507074342
 20
-1.524821336258229
 30
0.0
 10
1.766972507074342
 20
-1.524821336258229
 30
0.0
 10
1.766972507074342
 20
-1.520437760418139
 30
0.0
 10
1.763418459016469
 20
-1.516883271356669
 30
0.0
 10
1.759034442172807
 20
-1.516883271356669
 30
0.0
 10
1.759034442172807
 20
-1.516883271356669
 30
0.0
 10
1.508588494529097
 20
-1.516883271356669
 30
0.0
 10
1.508588494529097
 20
-1.516883271356669
 30
0.0
  0
HATCH
  5
17F
330
178
100
AcDbEntity
  8
SDPW screw
440
 33554687
100
AcDbHatch
 10
0.0
 20
0.0
 30
0.0
210
0.0
220
0.0
230
1.0
  2
SOLID
 70
     1
 71
     1
 91
        1
 92
        1
 93
        1
 72
     4
 94
        3
 73
     0
 74
     0
 95
       29
 96
       25
 40
0.0
 40
0.0
 40
0.0
 40
0.0
 40
1.0
 40
1.0
 40
1.0
 40
2.0
 40
2.0
 40
2.0
 40
3.0
 40
3.0
 40
3.0
 40
4.0
 40
4.0
 40
4.0
 40
5.0
 40
5.0
 40
5.0
 40
6.0
 40
6.0
 40
6.0
 40
7.0
 40
7.0
 40
7.0
 40
8.0
 40
8.0
 40
8.0
 40
8.0
 10
1.508588494529097
 20
-1.516883271356669
 10
1.504204036681837
 20
-1.516883271356669
 10
1.500650429627562
 20
-1.520437760418139
 10
1.500650429627562
 20
-1.524821336258229
 10
1.500650429627562
 20
-1.524821336258229
 10
1.500650429627562
 20
-1.54982624069804
 10
1.500650429627562
 20
-1.54982624069804
 10
1.500650429627562
 20
-1.54982624069804
 10
1.511987309317798
 20
-1.557764305599599
 10
1.511987309317798
 20
-1.557764305599599
 10
1.511987309317798
 20
-1.557764305599599
 10
1.755635627384107
 20
-1.557764305599599
 10
1.755635627384107
 20
-1.557764305599599
 10
1.755635627384107
 20
-1.557764305599599
 10
1.766972507074342
 20
-1.54982624069804
 10
1.766972507074342
 20
-1.54982624069804
 10
1.766972507074342
 20
-1.54982624069804
 10
1.766972507074342
 20
-1.524821336258229
 10
1.766972507074342
 20
-1.524821336258229
 10
1.766972507074342
 20
-1.520437760418139
 10
1.763418459016469
 20
-1.516883271356669
 10
1.759034442172807
 20
-1.516883271356669
 10
1.759034442172807
 20
-1.516883271356669
 10
1.508588494529097
 20
-1.516883271356669
 10
1.508588494529097
 20
-1.516883271356669
 97
        0
 97
        1
330
17E
 75
     2
 76
     0
 98
        1
 10
0.0
 20
0.0
450
        1
451
        0
460
-90.0
461
0.0
452
        0
462
0.0
453
        2
463
0.0
 63
    20
421
 15816491
463
1.0
 63
    20
421
 15816234
470
LINEAR
  0
LINE
  5
180
330
178
100
AcDbEntity
  8
SDPW screw
 62
   250
420
  2301728
370
     5
100
AcDbLine
 10
1.766972507074342
 20
-1.54982624069804
 30
0.0
 11
1.500650429627562
 21
-1.54982624069804
 31
0.0
  0
LINE
  5
181
330
178
100
AcDbEntity
  8
SDPW screw
 62
   250
420
  2301728
370
     5
100
AcDbLine
 10
1.766972507074342
 20
-1.524821336258229
 30
0.0
 11
1.500650429627562
 21
-1.524821336258229
 31
0.0
  0
LINE
  5
182
330
178
100
AcDbEntity
  8
SDPW screw
 62
   250
420
  2301728
370
     5
100
AcDbLine
 10
1.697702306721844
 20
-0.3825095417279524
 30
0.0
 11
1.697687753602849
 21
-0.3817064741620773
 31
0.0
  0
SPLINE
  5
183
330
178
100
AcDbEntity
  8
SDPW screw
 62
   250
420
  2301728
370
     5
100
AcDbSpline
210
0.0
220
0.0
230
1.0
 70
     8
 71
     3
 72
     8
 73
     4
 74
     0
 42
0.0000000001
 43
0.0000000001
 40
0.0
 40
0.0
 40
0.0
 40
0.0
 40
1.0
 40
1.0
 40
1.0
 40
1.0
 10
1.672662562997124
 20
-0.3825095417279524
 30
0.0
 10
1.668104790732816
 20
-0.3814489280563672
 30
0.0
 10
1.6633803191056
 20
-0.3814489280563672
 30
0.0
 10
1.658850771072037
 20
-0.3825095417279524
 30
0.0
  0
LINE
  5
184
330
178
100
AcDbEntity
  8
SDPW screw
 62
   250
420
  2301728
370
     5
100
AcDbLine
 10
1.664695391857624
 20
-1.339467520807223
 30
0.0
 11
1.6842922690815
 21
-1.339467520807223
 31
0.0
  0
SPLINE
  5
185
330
178
100
AcDbEntity
  8
SDPW screw
 62
   250
420
  2301728
370
     5
100
AcDbSpline
210
0.0
220
0.0
230
1.0
 70
     8
 71
     3
 72
     8
 73
     4
 74
     0
 42
0.0000000001
 43
0.0000000001
 40
0.0
 40
0.0
 40
0.0
 40
0.0
 40
1.0
 40
1.0
 40
1.0
 40
1.0
 10
1.60877172462627
 20
-0.3825095417279524
 30
0.0
 10
1.604232915516983
 20
-0.3814489280563672
 30
0.0
 10
1.599508443889741
 20
-0.3814489280563672
 30
0.0
 10
1.594959932701183
 20
-0.3825095417279524
 30
0.0
  0
LINE
  5
186
330
178
100
AcDbEntity
  8
SDPW screw
 62
   250
420
  2301728
370
     5
100
AcDbLine
 10
1.583330226616832
 20
-1.339467520807223
 30
0.0
 11
1.602927103840682
 21
-1.339467520807223
 31
0.0
  0
SPLINE
  5
187
330
178
100
AcDbEntity
  8
SDPW screw
 62
   250
420
  2301728
370
     5
100
AcDbSpline
210
0.0
220
0.0
230
1.0
 70
     8
 71
     3
 72
    14
 73
    10
 74
     0
 42
0.0000000001
 43
0.0000000001
 40
0.0
 40
0.0
 40
0.0
 40
0.0
 40
1.0
 40
1.0
 40
1.0
 40
2.0
 40
2.0
 40
2.0
 40
3.0
 40
3.0
 40
3.0
 40
3.0
 10
1.610693177336037
 20
-0.3722143125542566
 30
0.0
 10
1.611055241296273
 20
-0.5591341318088957
 30
0.0
 10
1.611420833285314
 20
-0.7460535100599498
 30
0.0
 10
1.611790835310456
 20
-0.9329733293145888
 30
0.0
 10
1.612165688375272
 20
-1.122333221519271
 30
0.0
 10
1.612544951476113
 20
-1.31169223171667
 30
0.0
 10
1.612927694217786
 20
-1.501052123921327
 30
0.0
 10
1.613145598386987
 20
-1.506747244484636
 30
0.0
 10
1.614009965454063
 20
-1.515892336254763
 30
0.0
 10
1.620684555025415
 20
-1.516883271356669
 30
0.0
  0
SPLINE
  5
188
330
178
100
AcDbEntity
  8
SDPW screw
 62
   250
420
  2301728
370
     5
100
AcDbSpline
210
0.0
220
0.0
230
1.0
 70
     8
 71
     3
 72
    11
 73
     7
 74
     0
 42
0.0000000001
 43
0.0000000001
 40
0.0
 40
0.0
 40
0.0
 40
0.0
 40
1.0
 40
1.0
 40
1.0
 40
2.0
 40
2.0
 40
2.0
 40
2.0
 10
1.656929318362269
 20
-0.3722156355650743
 30
0.0
 10
1.656201662412942
 20
-0.7484944650171503
 30
0.0
 10
1.655455925315815
 20
-1.124773294469289
 30
0.0
 10
1.654695146763186
 20
-1.501052123921327
 30
0.0
 10
1.654482189354565
 20
-1.506734439629781
 30
0.0
 10
1.653609884222608
 20
-1.51585661496281
 30
0.0
 10
1.646974984975738
 20
-1.516883271356669
 30
0.0
  0
SPLINE
  5
189
330
178
100
AcDbEntity
  8
SDPW screw
 62
   250
420
  2301728
370
     5
100
AcDbSpline
210
0.0
220
0.0
230
1.0
 70
     8
 71
     3
 72
     8
 73
     4
 74
     0
 42
0.0000000001
 43
0.0000000001
 40
0.0
 40
0.0
 40
0.0
 40
0.0
 40
1.0
 40
1.0
 40
1.0
 40
1.0
 10
1.694319321731048
 20
-0.3722143125542566
 30
0.0
 10
1.694101071278181
 20
-0.372216517572282
 30
0.0
 10
1.693970093207301
 20
-0.3722143125542566
 30
0.0
 10
1.693796337786655
 20
-0.3722138715506465
 30
0.0
  0
SPLINE
  5
18A
330
178
100
AcDbEntity
  8
SDPW screw
 62
   250
420
  2301728
370
     5
100
AcDbSpline
210
0.0
220
0.0
230
1.0
 70
     9
 71
     3
 72
    38
 73
    34
 74
     0
 42
0.0000000001
 43
0.0000000001
 40
0.0
 40
0.0
 40
0.0
 40
0.0
 40
1.0
 40
1.0
 40
1.0
 40
2.0
 40
2.0
 40
2.0
 40
3.0
 40
3.0
 40
3.0
 40
4.0
 40
4.0
 40
4.0
 40
5.0
 40
5.0
 40
5.0
 40
6.0
 40
6.0
 40
6.0
 40
7.0
 40
7.0
 40
7.0
 40
8.0
 40
8.0
 40
8.0
 40
9.0
 40
9.0
 40
9.0
 40
10.0
 40
10.0
 40
10.0
 40
11.0
 40
11.0
 40
11.0
 40
11.0
 10
1.707372192782764
 20
-1.516883271356669
 30
0.0
 10
1.695456716361933
 20
-1.516883271356669
 30
0.0
 10
1.685772671637828
 20
-1.509846176821484
 30
0.0
 10
1.68568539947172
 20
-1.501123566505435
 30
0.0
 10
1.68568539947172
 20
-1.501123566505435
 30
0.0
 10
1.6842922690815
 20
-1.339467520807223
 30
0.0
 10
1.6842922690815
 20
-1.339467520807223
 30
0.0
 10
1.6842922690815
 20
-1.339467520807223
 30
0.0
 10
1.672662562997124
 20
-0.3825095417279524
 30
0.0
 10
1.672662562997124
 20
-0.3825095417279524
 30
0.0
 10
1.672640071813248
 20
-0.3806282203462893
 30
0.0
 10
1.671976802390342
 20
-0.3751077372108714
 30
0.0
 10
1.67067848777535
 20
-0.3722143125542566
 30
0.0
 10
1.67067848777535
 20
-0.3722143125542566
 30
0.0
 10
1.656929318362269
 20
-0.3722156355650743
 30
0.0
 10
1.656929318362269
 20
-0.3722156355650743
 30
0.0
 10
1.658241745092633
 20
-0.3752929587252285
 30
0.0
 10
1.658831760688624
 20
-0.3790159111640605
 30
0.0
 10
1.658850771072037
 20
-0.3825095417279524
 30
0.0
 10
1.658850771072037
 20
-0.3825095417279524
 30
0.0
 10
1.664695391857624
 20
-1.339467520807223
 30
0.0
 10
1.664695391857624
 20
-1.339467520807223
 30
0.0
 10
1.664695391857624
 20
-1.339467520807223
 30
0.0
 10
1.665110376250544
 20
-1.501115628440629
 30
0.0
 10
1.665110376250544
 20
-1.501115628440629
 30
0.0
 10
1.665110376250544
 20
-1.501115628440629
 30
0.0
 10
1.665110376250544
 20
-1.501123566505435
 30
0.0
 10
1.665110376250544
 20
-1.501123566505435
 30
0.0
 10
1.665087444063045
 20
-1.509846176821484
 30
0.0
 10
1.662492578847427
 20
-1.516883271356669
 30
0.0
 10
1.659300153746218
 20
-1.516883271356669
 30
0.0
 10
1.659300153746218
 20
-1.516883271356669
 30
0.0
 10
1.707372192782764
 20
-1.516883271356669
 30
0.0
 10
1.707372192782764
 20
-1.516883271356669
 30
0.0
  0
HATCH
  5
18B
330
178
100
AcDbEntity
  8
SDPW screw
440
 33554687
100
AcDbHatch
 10
0.0
 20
0.0
 30
0.0
210
0.0
220
0.0
230
1.0
  2
SOLID
 70
     1
 71
     1
 91
        1
 92
        1
 93
        1
 72
     4
 94
        3
 73
     0
 74
     0
 95
       38
 96
       34
 40
0.0
 40
0.0
 40
0.0
 40
0.0
 40
1.0
 40
1.0
 40
1.0
 40
2.0
 40
2.0
 40
2.0
 40
3.0
 40
3.0
 40
3.0
 40
4.0
 40
4.0
 40
4.0
 40
5.0
 40
5.0
 40
5.0
 40
6.0
 40
6.0
 40
6.0
 40
7.0
 40
7.0
 40
7.0
 40
8.0
 40
8.0
 40
8.0
 40
9.0
 40
9.0
 40
9.0
 40
10.0
 40
10.0
 40
10.0
 40
11.0
 40
11.0
 40
11.0
 40
11.0
 10
1.707372192782764
 20
-1.516883271356669
 10
1.695456716361933
 20
-1.516883271356669
 10
1.685772671637828
 20
-1.509846176821484
 10
1.68568539947172
 20
-1.501123566505435
 10
1.68568539947172
 20
-1.501123566505435
 10
1.6842922690815
 20
-1.339467520807223
 10
1.6842922690815
 20
-1.339467520807223
 10
1.6842922690815
 20
-1.339467520807223
 10
1.672662562997124
 20
-0.3825095417279524
 10
1.672662562997124
 20
-0.3825095417279524
 10
1.672640071813248
 20
-0.3806282203462893
 10
1.671976802390342
 20
-0.3751077372108714
 10
1.67067848777535
 20
-0.3722143125542566
 10
1.67067848777535
 20
-0.3722143125542566
 10
1.656929318362269
 20
-0.3722156355650743
 10
1.656929318362269
 20
-0.3722156355650743
 10
1.658241745092633
 20
-0.3752929587252285
 10
1.658831760688624
 20
-0.3790159111640605
 10
1.658850771072037
 20
-0.3825095417279524
 10
1.658850771072037
 20
-0.3825095417279524
 10
1.664695391857624
 20
-1.339467520807223
 10
1.664695391857624
 20
-1.339467520807223
 10
1.664695391857624
 20
-1.339467520807223
 10
1.665110376250544
 20
-1.501115628440629
 10
1.665110376250544
 20
-1.501115628440629
 10
1.665110376250544
 20
-1.501115628440629
 10
1.665110376250544
 20
-1.501123566505435
 10
1.665110376250544
 20
-1.501123566505435
 10
1.665087444063045
 20
-1.509846176821484
 10
1.662492578847427
 20
-1.516883271356669
 10
1.659300153746218
 20
-1.516883271356669
 10
1.659300153746218
 20
-1.516883271356669
 10
1.707372192782764
 20
-1.516883271356669
 10
1.707372192782764
 20
-1.516883271356669
 97
        0
 97
        1
330
18A
 75
     2
 76
     0
 98
        1
 10
0.0
 20
0.0
450
        1
451
        0
460
-90.0
461
0.0
452
        0
462
0.0
453
        2
463
0.0
 63
    20
421
 15816491
463
1.0
 63
    20
421
 15816234
470
LINEAR
  0
SPLINE
  5
18C
330
178
100
AcDbEntity
  8
SDPW screw
 62
   250
420
  2301728
370
     5
100
AcDbSpline
210
0.0
220
0.0
230
1.0
 70
     9
 71
     3
 72
    38
 73
    34
 74
     0
 42
0.0000000001
 43
0.0000000001
 40
0.0
 40
0.0
 40
0.0
 40
0.0
 40
1.0
 40
1.0
 40
1.0
 40
2.0
 40
2.0
 40
2.0
 40
3.0
 40
3.0
 40
3.0
 40
4.0
 40
4.0
 40
4.0
 40
5.0
 40
5.0
 40
5.0
 40
6.0
 40
6.0
 40
6.0
 40
7.0
 40
7.0
 40
7.0
 40
8.0
 40
8.0
 40
8.0
 40
9.0
 40
9.0
 40
9.0
 40
10.0
 40
10.0
 40
10.0
 40
11.0
 40
11.0
 40
11.0
 40
11.0
 10
1.560250743919166
 20
-1.516883271356669
 30
0.0
 10
1.572165729918626
 20
-1.516883271356669
 30
0.0
 10
1.581849777512666
 20
-1.509846176821484
 30
0.0
 10
1.581937096226586
 20
-1.501123566505435
 30
0.0
 10
1.581937537230184
 20
-1.501123566505435
 30
0.0
 10
1.583330226616832
 20
-1.339467520807223
 30
0.0
 10
1.583330226616832
 20
-1.339467520807223
 30
0.0
 10
1.583330226616832
 20
-1.339467520807223
 30
0.0
 10
1.594959932701183
 20
-0.3825095417279524
 30
0.0
 10
1.594959932701183
 20
-0.3825095417279524
 30
0.0
 10
1.594959932701183
 20
-0.3781634511943568
 30
0.0
 10
1.596329248896684
 20
-0.3736352261716243
 30
0.0
 10
1.596944448926554
 20
-0.3722156355650743
 30
0.0
 10
1.599051564154276
 20
-0.3722169585758795
 30
0.0
 10
1.608240756285037
 20
-0.3722138715506465
 30
0.0
 10
1.610693177336037
 20
-0.3722143125542566
 30
0.0
 10
1.609381632612843
 20
-0.3752925177216437
 30
0.0
 10
1.608791569788485
 20
-0.3790159111640605
 30
0.0
 10
1.60877172462627
 20
-0.3825095417279524
 30
0.0
 10
1.60877172462627
 20
-0.3825095417279524
 30
0.0
 10
1.602927103840682
 20
-1.339467520807223
 30
0.0
 10
1.602927103840682
 20
-1.339467520807223
 30
0.0
 10
1.602927103840682
 20
-1.339467520807223
 30
0.0
 10
1.602511678444165
 20
-1.501115628440629
 30
0.0
 10
1.602511678444165
 20
-1.501115628440629
 30
0.0
 10
1.602511678444165
 20
-1.501115628440629
 30
0.0
 10
1.602511678444165
 20
-1.501123566505435
 30
0.0
 10
1.602511678444165
 20
-1.501123566505435
 30
0.0
 10
1.602535492638884
 20
-1.509846176821484
 30
0.0
 10
1.605129916850854
 20
-1.516883271356669
 30
0.0
 10
1.608323223959309
 20
-1.516883271356669
 30
0.0
 10
1.608323223959309
 20
-1.516883271356669
 30
0.0
 10
1.560250743919166
 20
-1.516883271356669
 30
0.0
 10
1.560250743919166
 20
-1.516883271356669
 30
0.0
  0
HATCH
  5
18D
330
178
100
AcDbEntity
  8
SDPW screw
440
 33554687
100
AcDbHatch
 10
0.0
 20
0.0
 30
0.0
210
0.0
220
0.0
230
1.0
  2
SOLID
 70
     1
 71
     1
 91
        1
 92
        1
 93
        1
 72
     4
 94
        3
 73
     0
 74
     0
 95
       38
 96
       34
 40
0.0
 40
0.0
 40
0.0
 40
0.0
 40
1.0
 40
1.0
 40
1.0
 40
2.0
 40
2.0
 40
2.0
 40
3.0
 40
3.0
 40
3.0
 40
4.0
 40
4.0
 40
4.0
 40
5.0
 40
5.0
 40
5.0
 40
6.0
 40
6.0
 40
6.0
 40
7.0
 40
7.0
 40
7.0
 40
8.0
 40
8.0
 40
8.0
 40
9.0
 40
9.0
 40
9.0
 40
10.0
 40
10.0
 40
10.0
 40
11.0
 40
11.0
 40
11.0
 40
11.0
 10
1.560250743919166
 20
-1.516883271356669
 10
1.572165729918626
 20
-1.516883271356669
 10
1.581849777512666
 20
-1.509846176821484
 10
1.581937096226586
 20
-1.501123566505435
 10
1.581937537230184
 20
-1.501123566505435
 10
1.583330226616832
 20
-1.339467520807223
 10
1.583330226616832
 20
-1.339467520807223
 10
1.583330226616832
 20
-1.339467520807223
 10
1.594959932701183
 20
-0.3825095417279524
 10
1.594959932701183
 20
-0.3825095417279524
 10
1.594959932701183
 20
-0.3781634511943568
 10
1.596329248896684
 20
-0.3736352261716243
 10
1.596944448926554
 20
-0.3722156355650743
 10
1.599051564154276
 20
-0.3722169585758795
 10
1.608240756285037
 20
-0.3722138715506465
 10
1.610693177336037
 20
-0.3722143125542566
 10
1.609381632612843
 20
-0.3752925177216437
 10
1.608791569788485
 20
-0.3790159111640605
 10
1.60877172462627
 20
-0.3825095417279524
 10
1.60877172462627
 20
-0.3825095417279524
 10
1.602927103840682
 20
-1.339467520807223
 10
1.602927103840682
 20
-1.339467520807223
 10
1.602927103840682
 20
-1.339467520807223
 10
1.602511678444165
 20
-1.501115628440629
 10
1.602511678444165
 20
-1.501115628440629
 10
1.602511678444165
 20
-1.501115628440629
 10
1.602511678444165
 20
-1.501123566505435
 10
1.602511678444165
 20
-1.501123566505435
 10
1.602535492638884
 20
-1.509846176821484
 10
1.605129916850854
 20
-1.516883271356669
 10
1.608323223959309
 20
-1.516883271356669
 10
1.608323223959309
 20
-1.516883271356669
 10
1.560250743919166
 20
-1.516883271356669
 10
1.560250743919166
 20
-1.516883271356669
 97
        0
 97
        1
330
18C
 75
     2
 76
     0
 98
        1
 10
0.0
 20
0.0
450
        1
451
        0
460
-90.0
461
0.0
452
        0
462
0.0
453
        2
463
0.0
 63
    20
421
 15816491
463
1.0
 63
    20
421
 15816234
470
LINEAR
  0
LINE
  5
18E
330
178
100
AcDbEntity
  8
SDPW screw
 62
   250
420
  2301728
370
     5
100
AcDbLine
 10
1.732860878177967
 20
-1.516883271356669
 30
0.0
 11
1.534762499527561
 21
-1.516883271356669
 31
0.0
  0
SPLINE
  5
18F
330
178
100
AcDbEntity
  8
SDPW screw
 62
   250
420
  2301728
370
     5
100
AcDbSpline
210
0.0
220
0.0
230
1.0
 70
     9
 71
     3
 72
    32
 73
    28
 74
     0
 42
0.0000000001
 43
0.0000000001
 40
0.0
 40
0.0
 40
0.0
 40
0.0
 40
1.0
 40
1.0
 40
1.0
 40
2.0
 40
2.0
 40
2.0
 40
3.0
 40
3.0
 40
3.0
 40
4.0
 40
4.0
 40
4.0
 40
5.0
 40
5.0
 40
5.0
 40
6.0
 40
6.0
 40
6.0
 40
7.0
 40
7.0
 40
7.0
 40
8.0
 40
8.0
 40
8.0
 40
9.0
 40
9.0
 40
9.0
 40
9.0
 10
1.732860878177967
 20
-1.516883271356669
 30
0.0
 10
1.724138267861993
 20
-1.516883271356669
 30
0.0
 10
1.717048648139982
 20
-1.509846176821484
 30
0.0
 10
1.716984748374923
 20
-1.501123566505435
 30
0.0
 10
1.716984748374923
 20
-1.501123566505435
 30
0.0
 10
1.715176633591757
 20
-1.339467520807223
 30
0.0
 10
1.715176633591757
 20
-1.339467520807223
 30
0.0
 10
1.715176633591757
 20
-1.339467520807223
 30
0.0
 10
1.697687753602849
 20
-0.3817064741620773
 30
0.0
 10
1.697687753602849
 20
-0.3817064741620773
 30
0.0
 10
1.697625131090843
 20
-0.3782604719875861
 30
0.0
 10
1.696442359420517
 20
-0.3749291307505776
 30
0.0
 10
1.694319321731048
 20
-0.3722143125542566
 30
0.0
 10
1.694319321731048
 20
-0.3722143125542566
 30
0.0
 10
1.693796337786655
 20
-0.3722143125542566
 30
0.0
 10
1.693796337786655
 20
-0.3722143125542566
 30
0.0
 10
1.694203384114669
 20
-0.5591341318088957
 30
0.0
 10
1.694602051374178
 20
-0.7460535100599498
 30
0.0
 10
1.694992339565159
 20
-0.9329724473073939
 30
0.0
 10
1.695387037792215
 20
-1.122332339512025
 30
0.0
 10
1.695774238957937
 20
-1.31169223171667
 30
0.0
 10
1.696153061055206
 20
-1.501052123921327
 30
0.0
 10
1.696110283705441
 20
-1.508033652002268
 30
0.0
 10
1.700593526360408
 20
-1.516509741302696
 30
0.0
 10
1.708089264645498
 20
-1.516883271356669
 30
0.0
 10
1.708089264645498
 20
-1.516883271356669
 30
0.0
 10
1.732860878177967
 20
-1.516883271356669
 30
0.0
 10
1.732860878177967
 20
-1.516883271356669
 30
0.0
  0
HATCH
  5
190
330
178
100
AcDbEntity
  8
SDPW screw
440
 33554687
100
AcDbHatch
 10
0.0
 20
0.0
 30
0.0
210
0.0
220
0.0
230
1.0
  2
SOLID
 70
     1
 71
     1
 91
        1
 92
        1
 93
        1
 72
     4
 94
        3
 73
     0
 74
     0
 95
       32
 96
       28
 40
0.0
 40
0.0
 40
0.0
 40
0.0
 40
1.0
 40
1.0
 40
1.0
 40
2.0
 40
2.0
 40
2.0
 40
3.0
 40
3.0
 40
3.0
 40
4.0
 40
4.0
 40
4.0
 40
5.0
 40
5.0
 40
5.0
 40
6.0
 40
6.0
 40
6.0
 40
7.0
 40
7.0
 40
7.0
 40
8.0
 40
8.0
 40
8.0
 40
9.0
 40
9.0
 40
9.0
 40
9.0
 10
1.732860878177967
 20
-1.516883271356669
 10
1.724138267861993
 20
-1.516883271356669
 10
1.717048648139982
 20
-1.509846176821484
 10
1.716984748374923
 20
-1.501123566505435
 10
1.716984748374923
 20
-1.501123566505435
 10
1.715176633591757
 20
-1.339467520807223
 10
1.715176633591757
 20
-1.339467520807223
 10
1.715176633591757
 20
-1.339467520807223
 10
1.697687753602849
 20
-0.3817064741620773
 10
1.697687753602849
 20
-0.3817064741620773
 10
1.697625131090843
 20
-0.3782604719875861
 10
1.696442359420517
 20
-0.3749291307505776
 10
1.694319321731048
 20
-0.3722143125542566
 10
1.694319321731048
 20
-0.3722143125542566
 10
1.693796337786655
 20
-0.3722143125542566
 10
1.693796337786655
 20
-0.3722143125542566
 10
1.694203384114669
 20
-0.5591341318088957
 10
1.694602051374178
 20
-0.7460535100599498
 10
1.694992339565159
 20
-0.9329724473073939
 10
1.695387037792215
 20
-1.122332339512025
 10
1.695774238957937
 20
-1.31169223171667
 10
1.696153061055206
 20
-1.501052123921327
 10
1.696110283705441
 20
-1.508033652002268
 10
1.700593526360408
 20
-1.516509741302696
 10
1.708089264645498
 20
-1.516883271356669
 10
1.708089264645498
 20
-1.516883271356669
 10
1.732860878177967
 20
-1.516883271356669
 10
1.732860878177967
 20
-1.516883271356669
 97
        0
 97
        1
330
18F
 75
     2
 76
     0
 98
        1
 10
0.0
 20
0.0
450
        1
451
        0
460
-90.0
461
0.0
452
        0
462
0.0
453
        2
463
0.0
 63
    20
421
 15816491
463
1.0
 63
    20
421
 15816234
470
LINEAR
  0
SPLINE
  5
191
330
178
100
AcDbEntity
  8
SDPW screw
 62
   250
420
  2301728
370
     5
100
AcDbSpline
210
0.0
220
0.0
230
1.0
 70
     9
 71
     3
 72
    35
 73
    31
 74
     0
 42
0.0000000001
 43
0.0000000001
 40
0.0
 40
0.0
 40
0.0
 40
0.0
 40
1.0
 40
1.0
 40
1.0
 40
2.0
 40
2.0
 40
2.0
 40
3.0
 40
3.0
 40
3.0
 40
4.0
 40
4.0
 40
4.0
 40
5.0
 40
5.0
 40
5.0
 40
6.0
 40
6.0
 40
6.0
 40
7.0
 40
7.0
 40
7.0
 40
8.0
 40
8.0
 40
8.0
 40
9.0
 40
9.0
 40
9.0
 40
10.0
 40
10.0
 40
10.0
 40
10.0
 10
1.534762499527561
 20
-1.516883271356669
 30
0.0
 10
1.543485109843509
 20
-1.516883271356669
 30
0.0
 10
1.550573801800611
 20
-1.509846176821484
 30
0.0
 10
1.550637747323409
 20
-1.50112444851268
 30
0.0
 10
1.550637747323409
 20
-1.50112444851268
 30
0.0
 10
1.552446303110173
 20
-1.339467520807223
 30
0.0
 10
1.552446303110173
 20
-1.339467520807223
 30
0.0
 10
1.552446303110173
 20
-1.339467520807223
 30
0.0
 10
1.569935183099055
 20
-0.3817064741620773
 30
0.0
 10
1.569935183099055
 20
-0.3817064741620773
 30
0.0
 10
1.569998246614634
 20
-0.3782604719875861
 30
0.0
 10
1.57118013627779
 20
-0.3749291307505776
 30
0.0
 10
1.573303519249924
 20
-0.3722143125542566
 30
0.0
 10
1.573303519249924
 20
-0.3722143125542566
 30
0.0
 10
1.573434546709828
 20
-0.3722156355650743
 30
0.0
 10
1.573434546709828
 20
-0.3722156355650743
 30
0.0
 10
1.573521865423723
 20
-0.3722156355650743
 30
0.0
 10
1.573652402491006
 20
-0.3722143125542566
 30
0.0
 10
1.573827039918847
 20
-0.3722143125542566
 30
0.0
 10
1.573419111583613
 20
-0.5591341318088957
 30
0.0
 10
1.573020444324103
 20
-0.7460535100599498
 30
0.0
 10
1.572631038140318
 20
-0.9329724473073939
 30
0.0
 10
1.572235016902469
 20
-1.122332339512025
 30
0.0
 10
1.571848207314537
 20
-1.31169223171667
 30
0.0
 10
1.571469875646698
 20
-1.501052123921327
 30
0.0
 10
1.571505596938727
 20
-1.508054379171779
 30
0.0
 10
1.567021472276564
 20
-1.516540611555051
 30
0.0
 10
1.55948560266342
 20
-1.516883271356669
 30
0.0
 10
1.55948560266342
 20
-1.516883271356669
 30
0.0
 10
1.534762499527561
 20
-1.516883271356669
 30
0.0
 10
1.534762499527561
 20
-1.516883271356669
 30
0.0
  0
HATCH
  5
192
330
178
100
AcDbEntity
  8
SDPW screw
440
 33554687
100
AcDbHatch
 10
0.0
 20
0.0
 30
0.0
210
0.0
220
0.0
230
1.0
  2
SOLID
 70
     1
 71
     1
 91
        1
 92
        1
 93
        1
 72
     4
 94
        3
 73
     0
 74
     0
 95
       35
 96
       31
 40
0.0
 40
0.0
 40
0.0
 40
0.0
 40
1.0
 40
1.0
 40
1.0
 40
2.0
 40
2.0
 40
2.0
 40
3.0
 40
3.0
 40
3.0
 40
4.0
 40
4.0
 40
4.0
 40
5.0
 40
5.0
 40
5.0
 40
6.0
 40
6.0
 40
6.0
 40
7.0
 40
7.0
 40
7.0
 40
8.0
 40
8.0
 40
8.0
 40
9.0
 40
9.0
 40
9.0
 40
10.0
 40
10.0
 40
10.0
 40
10.0
 10
1.534762499527561
 20
-1.516883271356669
 10
1.543485109843509
 20
-1.516883271356669
 10
1.550573801800611
 20
-1.509846176821484
 10
1.550637747323409
 20
-1.50112444851268
 10
1.550637747323409
 20
-1.50112444851268
 10
1.552446303110173
 20
-1.339467520807223
 10
1.552446303110173
 20
-1.339467520807223
 10
1.552446303110173
 20
-1.339467520807223
 10
1.569935183099055
 20
-0.3817064741620773
 10
1.569935183099055
 20
-0.3817064741620773
 10
1.569998246614634
 20
-0.3782604719875861
 10
1.57118013627779
 20
-0.3749291307505776
 10
1.573303519249924
 20
-0.3722143125542566
 10
1.573303519249924
 20
-0.3722143125542566
 10
1.573434546709828
 20
-0.3722156355650743
 10
1.573434546709828
 20
-0.3722156355650743
 10
1.573521865423723
 20
-0.3722156355650743
 10
1.573652402491006
 20
-0.3722143125542566
 10
1.573827039918847
 20
-0.3722143125542566
 10
1.573419111583613
 20
-0.5591341318088957
 10
1.573020444324103
 20
-0.7460535100599498
 10
1.572631038140318
 20
-0.9329724473073939
 10
1.572235016902469
 20
-1.122332339512025
 10
1.571848207314537
 20
-1.31169223171667
 10
1.571469875646698
 20
-1.501052123921327
 10
1.571505596938727
 20
-1.508054379171779
 10
1.567021472276564
 20
-1.516540611555051
 10
1.55948560266342
 20
-1.516883271356669
 10
1.55948560266342
 20
-1.516883271356669
 10
1.534762499527561
 20
-1.516883271356669
 10
1.534762499527561
 20
-1.516883271356669
 97
        0
 97
        1
330
191
 75
     2
 76
     0
 98
        1
 10
0.0
 20
0.0
450
        1
451
        0
460
-90.0
461
0.0
452
        0
462
0.0
453
        2
463
0.0
 63
    20
421
 15816491
463
1.0
 63
    20
421
 15816234
470
LINEAR
  0
ENDBLK
  5
17B
330
178
100
AcDbEntity
  8
0
100
AcDbBlockEnd
  0
BLOCK
  5
199
330
197
100
AcDbEntity
  8
0
100
AcDbBlockBegin
  2
Block_18
 70
     0
 10
0.0
 20
0.0
 30
0.0
  3
Block_18
  1

  0
LWPOLYLINE
  5
19B
330
197
100
AcDbEntity
  8
Callout
100
AcDbPolyline
 90
        3
 70
     1
 43
0.0
 10
2.042384929793292
 20
-1.554038800269255
 10
2.080453800004634
 20
-1.410573317414041
 10
1.997726850791397
 20
-1.411505589294746
  0
HATCH
  5
19C
330
197
100
AcDbEntity
  8
Callout
 62
   250
420
  2301728
440
 33554687
100
AcDbHatch
 10
0.0
 20
0.0
 30
0.0
210
0.0
220
0.0
230
1.0
  2
SOLID
 70
     1
 71
     1
 91
        1
 92
        1
 93
        3
 72
     1
 10
2.042384929793292
 20
-1.554038800269255
 11
2.080453800004634
 21
-1.410573317414041
 72
     1
 10
2.080453800004634
 20
-1.410573317414041
 11
1.997726850791397
 21
-1.411505589294746
 72
     1
 10
1.997726850791397
 20
-1.411505589294746
 11
2.042384929793292
 21
-1.554038800269255
 97
        1
330
19B
 75
     2
 76
     1
 98
        1
 10
0.0
 20
0.0
450
        0
451
        0
460
0.0
461
0.0
452
        0
462
0.0
453
        0
470

  0
LINE
  5
19D
330
197
100
AcDbEntity
  8
Callout
 62
   250
420
  2301728
370
    25
100
AcDbLine
 10
2.038454930381931
 20
-1.47787506499051
 30
0.0
 11
2.03909649999193
 21
-1.283598619357462
 31
0.0
  0
ENDBLK
  5
19A
330
197
100
AcDbEntity
  8
0
100
AcDbBlockEnd
  0
BLOCK
  5
1A0
330
19E
100
AcDbEntity
  8
0
100
AcDbBlockBegin
  2
Block_19
 70
     0
 10
0.0
 20
0.0
 30
0.0
  3
Block_19
  1

  0
LWPOLYLINE
  5
1A2
330
19E
100
AcDbEntity
  8
Callout
100
AcDbPolyline
 90
        3
 70
     1
 43
0.0
 10
2.034688112051601
 20
-1.094669232327027
 10
1.997093220656552
 20
-1.260182639869564
 10
2.07981664010731
 20
-1.258793228029692
  0
HATCH
  5
1A3
330
19E
100
AcDbEntity
  8
Callout
 62
   250
420
  2301728
440
 33554687
100
AcDbHatch
 10
0.0
 20
0.0
 30
0.0
210
0.0
220
0.0
230
1.0
  2
SOLID
 70
     1
 71
     1
 91
        1
 92
        1
 93
        3
 72
     1
 10
2.034688112051601
 20
-1.094669232327027
 11
1.997093220656552
 21
-1.260182639869564
 72
     1
 10
1.997093220656552
 20
-1.260182639869564
 11
2.07981664010731
 21
-1.258793228029692
 72
     1
 10
2.07981664010731
 20
-1.258793228029692
 11
2.034688112051601
 21
-1.094669232327027
 97
        1
330
1A2
 75
     2
 76
     1
 98
        1
 10
0.0
 20
0.0
450
        0
451
        0
460
0.0
461
0.0
452
        0
462
0.0
453
        0
470

  0
LINE
  5
1A4
330
19E
100
AcDbEntity
  8
Callout
 62
   250
420
  2301728
370
    25
100
AcDbLine
 10
2.038869608283119
 20
-1.182440045546059
 30
0.0
 11
2.038869608283119
 21
-1.376922134185153
 31
0.0
  0
ENDBLK
  5
1A1
330
19E
100
AcDbEntity
  8
0
100
AcDbBlockEnd
  0
BLOCK
  5
1A8
330
1A6
100
AcDbEntity
  8
0
100
AcDbBlockBegin
  2
Block_20
 70
     0
 10
0.0
 20
0.0
 30
0.0
  3
Block_20
  1

  0
LWPOLYLINE
  5
1AA
330
1A6
100
AcDbEntity
  8
Callout
100
AcDbPolyline
 90
        3
 70
     1
 43
0.0
 10
2.198869961752203
 20
-0.0925037021356098
 10
2.160801091540861
 20
-0.2359691849908232
 10
2.243528040754098
 20
-0.2350369131101186
  0
HATCH
  5
1AB
330
1A6
100
AcDbEntity
  8
Callout
 62
   250
420
  2301728
440
 33554687
100
AcDbHatch
 10
0.0
 20
0.0
 30
0.0
210
0.0
220
0.0
230
1.0
  2
SOLID
 70
     1
 71
     1
 91
        1
 92
        1
 93
        3
 72
     1
 10
2.198869961752203
 20
-0.0925037021356098
 11
2.160801091540861
 21
-0.2359691849908232
 72
     1
 10
2.160801091540861
 20
-0.2359691849908232
 11
2.243528040754098
 21
-0.2350369131101186
 72
     1
 10
2.243528040754098
 20
-0.2350369131101186
 11
2.198869961752203
 21
-0.0925037021356098
 97
        1
330
1AA
 75
     2
 76
     1
 98
        1
 10
0.0
 20
0.0
450
        0
451
        0
460
0.0
461
0.0
452
        0
462
0.0
453
        0
470

  0
LINE
  5
1AC
330
1A6
100
AcDbEntity
  8
Callout
 62
   250
420
  2301728
370
    25
100
AcDbLine
 10
2.202799961163564
 20
-0.1686674374143548
 30
0.0
 11
2.202158391553565
 21
-0.3629438830474024
 31
0.0
  0
ENDBLK
  5
1A9
330
1A6
100
AcDbEntity
  8
0
100
AcDbBlockEnd
  0
BLOCK
  5
1AF
330
1AD
100
AcDbEntity
  8
0
100
AcDbBlockBegin
  2
Block_21
 70
     0
 10
0.0
 20
0.0
 30
0.0
  3
Block_21
  1

  0
LWPOLYLINE
  5
1B1
330
1AD
100
AcDbEntity
  8
Callout
100
AcDbPolyline
 90
        3
 70
     1
 43
0.0
 10
2.206566779493894
 20
-0.5145040631133245
 10
2.244161670888944
 20
-0.3709039990338346
 10
2.161438251438185
 20
-0.3721094580489155
  0
HATCH
  5
1B2
330
1AD
100
AcDbEntity
  8
Callout
 62
   250
420
  2301728
440
 33554687
100
AcDbHatch
 10
0.0
 20
0.0
 30
0.0
210
0.0
220
0.0
230
1.0
  2
SOLID
 70
     1
 71
     1
 91
        1
 92
        1
 93
        3
 72
     1
 10
2.206566779493894
 20
-0.5145040631133245
 11
2.244161670888944
 21
-0.3709039990338346
 72
     1
 10
2.244161670888944
 20
-0.3709039990338346
 11
2.161438251438185
 21
-0.3721094580489155
 72
     1
 10
2.161438251438185
 20
-0.3721094580489155
 11
2.206566779493894
 21
-0.5145040631133245
 97
        1
330
1B1
 75
     2
 76
     1
 98
        1
 10
0.0
 20
0.0
450
        0
451
        0
460
0.0
461
0.0
452
        0
462
0.0
453
        0
470

  0
LINE
  5
1B3
330
1AD
100
AcDbEntity
  8
Callout
 62
   250
420
  2301728
370
    25
100
AcDbLine
 10
2.202385283262376
 20
-0.4383537705799401
 30
0.0
 11
2.202385283262376
 21
-0.2696203682197114
 31
0.0
  0
ENDBLK
  5
1B0
330
1AD
100
AcDbEntity
  8
0
100
AcDbBlockEnd
  0
ENDSEC
  0
SECTION
  2
ENTITIES
  0
LWPOLYLINE
  5
79
330
70
100
AcDbEntity
  8
fill layer
100
AcDbPolyline
 90
       10
 70
     0
 43
0.0
 10
1.833462761739635
 20
-0.512026239451542
 10
3.373399004279412
 20
-0.512026239451542
 10
3.373399004279412
 20
-0.7152391689161151
 10
3.443730303278445
 20
-0.7606326888127467
 10
3.292521385715669
 20
-0.7956152194076114
 10
3.373399004279412
 20
-0.8371326749143134
 10
3.373399004279412
 20
-0.8948470682573644
 10
3.373399004279412
 20
-0.9918186430663302
 10
3.373399004279412
 20
-1.092741335694528
 10
1.833462761739635
 20
-1.092741335694528
  0
HATCH
  5
7A
330
70
100
AcDbEntity
  8
fill layer
 62
    33
420
 15180890
440
 33554687
100
AcDbHatch
 10
0.0
 20
0.0
 30
0.0
210
0.0
220
0.0
230
1.0
  2
SOLID
 70
     1
 71
     1
 91
        1
 92
        3
 72
     0
 73
     1
 93
       10
 10
1.833462761739635
 20
-0.512026239451542
 10
3.373399004279412
 20
-0.512026239451542
 10
3.373399004279412
 20
-0.7152391689161151
 10
3.443730303278445
 20
-0.7606326888127467
 10
3.292521385715669
 20
-0.7956152194076114
 10
3.373399004279412
 20
-0.8371326749143134
 10
3.373399004279412
 20
-0.8948470682573644
 10
3.373399004279412
 20
-0.9918186430663302
 10
3.373399004279412
 20
-1.092741335694528
 10
1.833462761739635
 20
-1.092741335694528
 97
        0
 75
     2
 76
     1
 98
        1
 10
0.0
 20
0.0
450
        0
451
        0
460
0.0
461
0.0
452
        0
462
0.0
453
        0
470

  0
LWPOLYLINE
  5
7B
330
70
100
AcDbEntity
  8
fill layer
100
AcDbPolyline
 90
       11
 70
     0
 43
0.0
 10
1.833462846887944
 20
-1.095877793142474
 10
-0.1414454221581233
 20
-1.095877793142474
 10
-0.1414454221581233
 20
-1.245545699478333
 10
-0.1414454221581233
 20
-1.110553158798805
 10
-0.1414454221581233
 20
-0.8220135781000282
 10
-0.2073406337583997
 20
-0.7761408087503316
 10
-0.0755405668857318
 20
-0.7316195082125382
 10
-0.1414454221581233
 20
-0.6864016966618717
 10
-0.1414454221581233
 20
-0.5120266028888333
 10
1.39498634883508
 20
-0.5120266028888333
 10
1.833462846887944
 20
-0.5120266028888333
  0
HATCH
  5
7C
330
70
100
AcDbEntity
  8
fill layer
 62
    33
420
 15180890
440
 33554687
100
AcDbHatch
 10
0.0
 20
0.0
 30
0.0
210
0.0
220
0.0
230
1.0
  2
SOLID
 70
     1
 71
     1
 91
        1
 92
        3
 72
     0
 73
     1
 93
       11
 10
1.833462846887944
 20
-1.095877793142474
 10
-0.1414454221581233
 20
-1.095877793142474
 10
-0.1414454221581233
 20
-1.245545699478333
 10
-0.1414454221581233
 20
-1.110553158798805
 10
-0.1414454221581233
 20
-0.8220135781000282
 10
-0.2073406337583997
 20
-0.7761408087503316
 10
-0.0755405668857318
 20
-0.7316195082125382
 10
-0.1414454221581233
 20
-0.6864016966618717
 10
-0.1414454221581233
 20
-0.5120266028888333
 10
1.39498634883508
 20
-0.5120266028888333
 10
1.833462846887944
 20
-0.5120266028888333
 97
        0
 75
     2
 76
     1
 98
        1
 10
0.0
 20
0.0
450
        0
451
        0
460
0.0
461
0.0
452
        0
462
0.0
453
        0
470

  0
LINE
  5
7D
330
70
100
AcDbEntity
  8
fill layer
100
AcDbLine
 10
1.615980621767473
 20
-0.8602832528026231
 30
0.0
 11
1.615980621767473
 21
-1.205780343438138
 31
0.0
  0
LINE
  5
7E
330
70
100
AcDbEntity
  8
fill layer
100
AcDbLine
 10
1.833501355890929
 20
-1.205780343438138
 30
0.0
 11
1.394986283150577
 21
-1.205780343438138
 31
0.0
  0
LINE
  5
7F
330
70
100
AcDbEntity
  8
fill layer
100
AcDbLine
 10
-0.1414454878426265
 20
-0.8602832528026231
 30
0.0
 11
3.373399023743205
 21
-0.8741721416915121
 31
0.0
  0
LINE
  5
80
330
70
100
AcDbEntity
  8
fill layer
100
AcDbLine
 10
1.394986283150577
 20
-0.5120263676855832
 30
0.0
 11
1.44780730213261
 21
-0.5134049763977373
 31
0.0
  0
LWPOLYLINE
  5
81
330
70
100
AcDbEntity
  8
fill layer
100
AcDbPolyline
 90
        4
 70
     1
 43
0.0
 10
1.977598566308238
 20
-0.0811272805469798
 10
1.29211469534045
 20
-0.0811272805469798
 10
1.29211469534045
 20
1.353557191876524
 10
1.977598566308238
 20
1.353557191876524
  0
HATCH
  5
82
330
70
100
AcDbEntity
  8
fill layer
 62
    33
420
 15180890
440
 33554687
100
AcDbHatch
 10
0.0
 20
0.0
 30
0.0
210
0.0
220
0.0
230
1.0
  2
SOLID
 70
     1
 71
     1
 91
        1
 92
        1
 93
        4
 72
     1
 10
1.977598566308238
 20
-0.0811272805469798
 11
1.29211469534045
 21
-0.0811272805469798
 72
     1
 10
1.29211469534045
 20
-0.0811272805469798
 11
1.29211469534045
 21
1.353557191876524
 72
     1
 10
1.29211469534045
 20
1.353557191876524
 11
1.977598566308238
 21
1.353557191876524
 72
     1
 10
1.977598566308238
 20
1.353557191876524
 11
1.977598566308238
 21
-0.0811272805469798
 97
        1
330
81
 75
     2
 76
     1
 98
        1
 10
0.0
 20
0.0
450
        0
451
        0
460
0.0
461
0.0
452
        0
462
0.0
453
        0
470

  0
LWPOLYLINE
  5
84
330
70
100
AcDbEntity
  8
Wood
 62
   250
420
  2301728
370
    40
100
AcDbPolyline
 90
       10
 70
     0
 43
0.0
 10
1.83346275393938
 20
-0.5120261880606955
 10
3.373398996479156
 20
-0.5120261880606955
 10
3.373398996479156
 20
-0.7152390618477208
 10
3.443730295478189
 20
-0.7606325651947828
 10
3.292521377915413
 20
-0.7956150774131175
 10
3.373398996479156
 20
-0.8371325184063682
 10
3.373398996479156
 20
-0.8948468157684601
 10
3.373398996479156
 20
-0.9918183396376889
 10
3.373398996479156
 20
-1.092740979250594
 10
1.83346275393938
 20
-1.092740979250594
  0
LWPOLYLINE
  5
85
330
70
100
AcDbEntity
  8
Wood
 62
   250
420
  2301728
370
    60
100
AcDbPolyline
 90
        4
 70
     1
 43
0.0
 10
1.977598566308238
 20
-0.0811272805469798
 10
1.977598566308238
 20
1.353557191876524
 10
1.29211469534045
 20
1.353557191876524
 10
1.29211469534045
 20
-0.0811272805469798
  0
LWPOLYLINE
  5
86
330
70
100
AcDbEntity
  8
Wood
 62
   250
420
  2301728
370
    50
100
AcDbPolyline
 90
        7
 70
     0
 43
0.0
 10
-0.1414454296550376
 20
-1.131563690958564
 10
-0.1414454296550376
 20
-0.8328952727295774
 10
-0.207340641255314
 20
-0.7854121945734454
 10
-0.0755405743826461
 20
-0.7393280269285217
 10
-0.1414454296550376
 20
-0.6925228980830854
 10
-0.1414454296550376
 20
-0.5120265748071108
 10
1.822580703348876
 20
-0.5120265748071108
  0
LWPOLYLINE
  5
87
330
70
100
AcDbEntity
  8
Wood
 62
   250
420
  2301728
370
    40
100
AcDbPolyline
 90
        1
 70
     0
 43
0.0
 10
-0.1414454878426265
 20
-1.075387652742026
  0
LINE
  5
88
330
70
100
AcDbEntity
  8
Wood
 62
   250
420
  2301728
370
    40
100
AcDbLine
 10
1.394986263686796
 20
-1.092741335694528
 30
0.0
 11
-0.1414455073064068
 21
-1.092741335694528
 31
0.0
  0
LINE
  5
89
330
70
100
AcDbEntity
  8
Wood
 62
   250
420
  2301728
370
    40
100
AcDbLine
 10
1.833501336427136
 20
-1.092741335694528
 30
0.0
 11
1.394986263686796
 21
-1.092741335694528
 31
0.0
  0
INSERT
  5
8B
330
70
100
AcDbEntity
  8
Wood
100
AcDbBlockReference
  2
Block_0
 10
0.0
 20
0.0
 30
0.0
  0
LINE
  5
EA
330
70
100
AcDbEntity
  8
Wood
 62
   250
420
  2301728
370
    40
100
AcDbLine
 10
3.373399023743205
 20
-0.5120263676855832
 30
0.0
 11
3.373399023743205
 21
-0.4440253963928424
 31
0.0
  0
LINE
  5
EB
330
70
100
AcDbEntity
  8
Wood
 62
   250
420
  2301728
370
    40
100
AcDbLine
 10
3.373399023743205
 20
-1.094669232327027
 30
0.0
 11
3.373399023743205
 21
-1.168458781362005
 31
0.0
  0
LINE
  5
EC
330
70
100
AcDbEntity
  8
Wood
 62
   250
420
  2301728
370
    40
100
AcDbLine
 10
-0.1414454878426265
 20
-0.5120263676855832
 30
0.0
 11
-0.1414454878426265
 21
-0.4390681003584152
 31
0.0
  0
LWPOLYLINE
  5
ED
330
70
100
AcDbEntity
  8
Wood
 62
   250
420
  2301728
370
    40
100
AcDbPolyline
 90
        1
 70
     0
 43
0.0
 10
-0.1414454878426265
 20
-1.279569892473116
  0
LWPOLYLINE
  5
EE
330
70
100
AcDbEntity
  8
Wood
 62
   250
420
  2301728
370
    40
100
AcDbPolyline
 90
        1
 70
     0
 43
0.0
 10
-0.1414454878426265
 20
-1.205780343438138
  0
LWPOLYLINE
  5
F0
330
70
100
AcDbEntity
  8
SDPW screw
 62
   250
420
  2301728
370
    50
100
AcDbPolyline
 90
        1
 70
     0
 43
0.0
 10
1.833501355890929
 20
-0.5107577921152143
  0
LWPOLYLINE
  5
F1
330
70
100
AcDbEntity
  8
SDPW screw
 62
   250
420
  2301728
370
    50
100
AcDbPolyline
 90
        1
 70
     0
 43
0.0
 10
1.394986283150577
 20
-0.5107577921152143
  0
INSERT
  5
F3
330
70
100
AcDbEntity
  8
SDPW screw
100
AcDbBlockReference
  2
Block_1
 10
0.0
 20
0.0
 30
0.0
  0
MTEXT
  5
194
330
70
100
AcDbEntity
  8
Callout
100
AcDbMText
 10
-0.118132750193278
 20
0.8657938109503851
 30
0.0
 40
0.2
 41
0.0
 46
0.0
 71
     7
 72
     1
  1
\C250;\c2105123;\FHelvetica Neue LT Std 57 Condensed|b0|i0|c1;\H0.118000;\W1.000000;Minimum screw 
 73
     1
 44
1.0
  0
MTEXT
  5
195
330
70
100
AcDbEntity
  8
Callout
100
AcDbMText
 10
-0.2656275961134169
 20
0.6991271442837185
 30
0.0
 40
0.2
 41
0.0
 46
0.0
 71
     7
 72
     1
  1
\C250;\c2105123;\FHelvetica Neue LT Std 57 Condensed|b0|i0|c1;\H0.118000;\W1.000000;embedment 13mm
 73
     1
 44
1.0
  0
MTEXT
  5
196
330
70
100
AcDbEntity
  8
Callout
100
AcDbMText
 10
2.350768460167778
 20
-0.3442454867892795
 30
0.0
 40
0.2
 41
0.0
 46
0.0
 71
     7
 72
     1
  1
\C250;\c2105123;\FHelvetica Neue LT Std 57 Condensed|b0|i0|c1;\H0.118000;\W1.000000;10mm - 35mm Gap
 73
     1
 44
1.0
  0
INSERT
  5
198
330
70
100
AcDbEntity
  8
Callout
100
AcDbBlockReference
  2
Block_18
 10
0.0
 20
0.0
 30
0.0
  0
INSERT
  5
19F
330
70
100
AcDbEntity
  8
Callout
100
AcDbBlockReference
  2
Block_19
 10
0.0
 20
0.0
 30
0.0
  0
LINE
  5
1A5
330
70
100
AcDbEntity
  8
Callout
 62
   250
420
  2301728
370
    25
100
AcDbLine
 10
2.161990920379366
 20
-1.553660585617004
 30
0.0
 11
1.833462781203428
 21
-1.553092970103509
 31
0.0
  0
INSERT
  5
1A7
330
70
100
AcDbEntity
  8
Callout
100
AcDbBlockReference
  2
Block_20
 10
0.0
 20
0.0
 30
0.0
  0
INSERT
  5
1AE
330
70
100
AcDbEntity
  8
Callout
100
AcDbBlockReference
  2
Block_21
 10
0.0
 20
0.0
 30
0.0
  0
LINE
  5
1B4
330
70
100
AcDbEntity
  8
Callout
 62
   250
420
  2301728
370
    25
100
AcDbLine
 10
2.009819526721685
 20
-0.0928819167878601
 30
0.0
 11
2.278685176000029
 21
-0.0933464502451721
 31
0.0
  0
MTEXT
  5
1B5
330
70
100
AcDbEntity
  8
Callout
100
AcDbMText
 10
0.8106066915724012
 20
-2.497244722313351
 30
0.0
 40
0.2
 41
0.0
 46
0.0
 71
     7
 72
     1
  1
\C250;\c2105123;\FHelvetica Neue LT Std 55 Roman|b0|i0|c1;\H0.118000;\W1.000000;SIMPSON Strong-Tie\H0.068794;®\H0.118000; ^C
 73
     1
 44
1.0
  0
MTEXT
  5
1B6
330
70
100
AcDbEntity
  8
Callout
100
AcDbMText
 10
-0.0116724967956543
 20
-2.697236584292517
 30
0.0
 40
0.2
 41
0.0
 46
0.0
 71
     7
 72
     1
  1
\C250;\c2105123;\FHelvetica Neue LT Std 55 Roman|b0|i0|c1;\H0.118000;\W1.000000;SDPW Wall Plate-to-Truss/Joist Installation - 
 73
     1
 44
1.0
  0
MTEXT
  5
1B7
330
70
100
AcDbEntity
  8
Callout
100
AcDbMText
 10
1.121140003204345
 20
-2.897242009639739
 30
0.0
 40
0.2
 41
0.0
 46
0.0
 71
     7
 72
     1
  1
\C250;\c2105123;\FHelvetica Neue LT Std 55 Roman|b0|i0|c1;\H0.118000;\W1.000000;Cross Section 
 73
     1
 44
1.0
  0
MTEXT
  5
1B8
330
70
100
AcDbEntity
  8
Callout
100
AcDbMText
 10
2.430643717447916
 20
1.114137437608506
 30
0.0
 40
0.2
 41
0.0
 46
0.0
 71
     7
 72
     1
  1
\C250;\c2105123;\FHelvetica Neue LT Std 57 Condensed|b0|i0|c1;\H0.118000;\W1.000000;Truss/Rafter/Joist
 73
     1
 44
1.0
  0
MTEXT
  5
1B9
330
70
100
AcDbEntity
  8
Callout
100
AcDbMText
 10
-0.2380101945665147
 20
-0.0495469040340848
 30
0.0
 40
0.2
 41
0.0
 46
0.0
 71
     7
 72
     1
  1
\C250;\c2105123;\FHelvetica Neue LT Std 57 Condensed|b0|i0|c1;\H0.118000;\W1.000000;45mm Top Plate
 73
     1
 44
1.0
  0
MTEXT
  5
1BA
330
70
100
AcDbEntity
  8
Callout
100
AcDbMText
 10
2.269070095486111
 20
-1.312085893419053
 30
0.0
 40
0.2
 41
0.0
 46
0.0
 71
     7
 72
     1
  1
\C250;\c2105123;\FHelvetica Neue LT Std 57 Condensed|b0|i0|c1;\H0.118000;\W1.000000;19mm offset
 73
     1
 44
1.0
  0
MTEXT
  5
1BB
330
70
100
AcDbEntity
  8
Callout
100
AcDbMText
 10
2.269070095486111
 20
-1.47875256008572
 30
0.0
 40
0.2
 41
0.0
 46
0.0
 71
     7
 72
     1
  1
\C250;\c2105123;\FHelvetica Neue LT Std 57 Condensed|b0|i0|c1;\H0.118000;\W1.000000;(Can be installed with no offset)
 73
     1
 44
1.0
  0
LINE
  5
1BC
330
70
100
AcDbEntity
  8
Callout
 62
   250
420
  2301728
370
    18
100
AcDbLine
 10
2.350767130510525
 20
1.158393364206138
 30
0.0
 11
1.973214710248208
 21
0.8138121598317916
 31
0.0
  0
LINE
  5
1BD
330
70
100
AcDbEntity
  8
Callout
 62
   250
420
  2301728
370
    18
100
AcDbLine
 10
0.8130611065647725
 20
-0.126792114695301
 30
0.0
 11
0.974014336917561
 21
-0.5260506598741964
 31
0.0
  0
LINE
  5
1BE
330
70
100
AcDbEntity
  8
Callout
 62
   250
420
  2301728
370
    18
100
AcDbLine
 10
0.9712259455234541
 20
0.8572280547050468
 30
0.0
 11
1.598113369080465
 21
0.2909663548024102
 31
0.0
  0
MTEXT
  5
1BF
330
70
100
AcDbEntity
  8
Callout
100
AcDbMText
 10
0.1361122131347656
 20
-1.482307434082031
 30
0.0
 40
0.2
 41
0.0
 46
0.0
 71
     7
 72
     1
  1
\C250;\c2105123;\FHelvetica Neue LT Std 57 Condensed|b0|i0|c1;\H0.118000;\W1.000000;SDPW14500^C
 73
     1
 44
1.0
  0
MTEXT
  5
1C0
330
70
100
AcDbEntity
  8
Callout
100
AcDbMText
 10
0.3620236714680989
 20
-1.642029656304253
 30
0.0
 40
0.2
 41
0.0
 46
0.0
 71
     7
 72
     1
  1
\C250;\c2105123;\FHelvetica Neue LT Std 57 Condensed|b0|i0|c1;\H0.118000;\W1.000000;(Red)
 73
     1
 44
1.0
  0
LINE
  5
1C1
330
70
100
AcDbEntity
  8
Callout
 62
   250
420
  2301728
370
    18
100
AcDbLine
 10
0.9573370566345651
 20
-1.410573317414041
 30
0.0
 11
1.544584447641328
 21
-1.19310035842294
 31
0.0
  0
ENDSEC
  0
SECTION
  2
OBJECTS
  0
DICTIONARY
  5
C
330
0
100
AcDbDictionary
281
     1
  3
ACAD_COLOR
350
63
  3
ACAD_DETAILVIEWSTYLE
350
6A
  3
ACAD_GROUP
350
D
  3
ACAD_LAYOUT
350
62
  3
ACAD_MATERIAL
350
10
  3
ACAD_MLEADERSTYLE
350
66
  3
ACAD_MLINESTYLE
350
5F
  3
ACAD_PLOTSETTINGS
350
61
  3
ACAD_PLOTSTYLENAME
350
E
  3
ACAD_SCALELIST
350
42
  3
ACAD_SECTIONVIEWSTYLE
350
68
  3
ACAD_TABLESTYLE
350
64
  3
ACAD_VISUALSTYLE
350
29
  3
ACDB_RECOMPOSE_DATA
350
1CB
  3
AcDbVariableDictionary
350
1C2
  0
DICTIONARY
  5
63
102
{ACAD_REACTORS
330
C
102
}
330
C
100
AcDbDictionary
281
     1
  0
DICTIONARY
  5
6A
102
{ACAD_REACTORS
330
C
102
}
330
C
100
AcDbDictionary
281
     1
  3
Imperial24
350
6B
  0
DICTIONARY
  5
D
102
{ACAD_REACTORS
330
C
102
}
330
C
100
AcDbDictionary
281
     1
  0
DICTIONARY
  5
62
102
{ACAD_REACTORS
330
C
102
}
330
C
100
AcDbDictionary
281
     1
  3
Layout1
350
6F
  3
Layout2
350
77
  3
Model
350
73
  0
DICTIONARY
  5
10
102
{ACAD_REACTORS
330
C
102
}
330
C
100
AcDbDictionary
281
     1
  3
ByBlock
350
19
  3
ByLayer
350
11
  3
Global
350
21
  0
DICTIONARY
  5
66
102
{ACAD_REACTORS
330
C
102
}
330
C
100
AcDbDictionary
281
     1
  3
Standard
350
67
  0
DICTIONARY
  5
5F
102
{ACAD_REACTORS
330
C
102
}
330
C
100
AcDbDictionary
281
     1
  3
Standard
350
60
  0
DICTIONARY
  5
61
102
{ACAD_REACTORS
330
C
102
}
330
C
100
AcDbDictionary
281
     1
  0
ACDBDICTIONARYWDFLT
  5
E
102
{ACAD_REACTORS
330
C
102
}
330
C
100
AcDbDictionary
281
     1
  3
Normal
350
F
100
AcDbDictionaryWithDefault
340
F
  0
DICTIONARY
  5
42
102
{ACAD_REACTORS
330
C
102
}
330
C
100
AcDbDictionary
281
     1
  3
A0
350
43
  3
A1
350
44
  3
A2
350
45
  3
A3
350
46
  3
A4
350
47
  3
A5
350
48
  3
A6
350
49
  3
A7
350
4A
  3
A8
350
4B
  3
A9
350
4C
  3
B0
350
4D
  3
B1
350
4E
  3
B2
350
4F
  3
B3
350
50
  3
B4
350
51
  3
B5
350
52
  3
B6
350
53
  0
DICTIONARY
  5
68
102
{ACAD_REACTORS
330
C
102
}
330
C
100
AcDbDictionary
281
     1
  3
Imperial24
350
69
  0
DICTIONARY
  5
64
102
{ACAD_REACTORS
330
C
102
}
330
C
100
AcDbDictionary
281
     1
  3
Standard
350
65
  0
DICTIONARY
  5
29
102
{ACAD_REACTORS
330
C
102
}
330
C
100
AcDbDictionary
281
     1
  3
2dWireframe
350
2F
  3
Basic
350
2E
  3
Brighten
350
35
  3
ColorChange
350
39
  3
Conceptual
350
32
  3
Dim
350
34
  3
EdgeColorOff
350
41
  3
Facepattern
350
38
  3
Flat
350
2A
  3
FlatWithEdges
350
2B
  3
Gouraud
350
2C
  3
GouraudWithEdges
350
2D
  3
Hidden
350
31
  3
JitterOff
350
3F
  3
Linepattern
350
37
  3
OverhangOff
350
40
  3
Realistic
350
33
  3
Shaded
350
3E
  3
Shaded with edges
350
3D
  3
Shades of Gray
350
3A
  3
Sketchy
350
3B
  3
Thicken
350
36
  3
Wireframe
350
30
  3
X-Ray
350
3C
  0
XRECORD
  5
1CB
102
{ACAD_REACTORS
330
C
102
}
330
C
100
AcDbXrecord
280
     1
 90
        1
330
65
  0
DICTIONARY
  5
1C2
102
{ACAD_REACTORS
330
C
102
}
330
C
100
AcDbDictionary
281
     1
  3
CANNOSCALE
350
1C7
  3
CMLEADERSTYLE
350
1C4
  3
CTABLESTYLE
350
1C3
  3
CVIEWDETAILSTYLE
350
1C5
  3
CVIEWSECTIONSTYLE
350
1C6
  0
ACDBDETAILVIEWSTYLE
  5
6B
102
{ACAD_XDICTIONARY
360
200
102
}
102
{ACAD_REACTORS
330
6A
102
}
330
6A
100
AcDbModelDocViewStyle
 70
     0
  3
Imperial24
290
     0
100
AcDbDetailViewStyle
 70
     0
 71
     0
 90
        3
 71
     1
340
55
 62
   256
 40
0.24
340
0
 62
   256
 40
0.24
300

 40
0.36
280
     3
 71
     2
340
5D
 90
       25
 62
   256
 71
     3
340
55
 62
   256
 40
0.24
 90
        1
 40
0.75
 90
        1
300
%<\AcVar ViewType \f "%tc1">% %<\AcVar ViewDetailId>%\PSCALE %<\AcVar ViewScale \f "%sn">%
 71
     4
340
5D
 90
       25
 62
   256
340
5D
 90
       25
 62
   256
280
     0
  0
LAYOUT
  5
6F
102
{ACAD_REACTORS
330
62
102
}
330
62
100
AcDbPlotSettings
  1

  2

  4

  6

 40
0.0
 41
0.0
 42
0.0
 43
0.0
 44
0.0
 45
0.0
 46
0.0
 47
0.0
 48
0.0
 49
0.0
140
0.0
141
0.0
142
1.0
143
1.0
 70
   688
 72
     0
 73
     0
 74
     5
  7

 75
    16
147
1.0
 76
     0
 77
     2
 78
   300
148
0.0
149
0.0
100
AcDbLayout
  1
Layout1
 70
     1
 71
     1
 10
0.0
 20
0.0
 11
12.0
 21
9.0
 12
0.0
 22
0.0
 32
0.0
 14
0.0
 24
0.0
 34
0.0
 15
0.0
 25
0.0
 35
0.0
146
0.0
 13
0.0
 23
0.0
 33
0.0
 16
1.0
 26
0.0
 36
0.0
 17
0.0
 27
1.0
 37
0.0
 76
     0
330
6C
  0
LAYOUT
  5
77
102
{ACAD_REACTORS
330
62
102
}
330
62
100
AcDbPlotSettings
  1

  2

  4

  6

 40
0.0
 41
0.0
 42
0.0
 43
0.0
 44
0.0
 45
0.0
 46
0.0
 47
0.0
 48
0.0
 49
0.0
140
0.0
141
0.0
142
1.0
143
1.0
 70
   688
 72
     0
 73
     0
 74
     5
  7

 75
    16
147
1.0
 76
     0
 77
     2
 78
   300
148
0.0
149
0.0
100
AcDbLayout
  1
Layout2
 70
     1
 71
     2
 10
0.0
 20
0.0
 11
12.0
 21
9.0
 12
0.0
 22
0.0
 32
0.0
 14
0.0
 24
0.0
 34
0.0
 15
0.0
 25
0.0
 35
0.0
146
0.0
 13
0.0
 23
0.0
 33
0.0
 16
1.0
 26
0.0
 36
0.0
 17
0.0
 27
1.0
 37
0.0
 76
     0
330
74
  0
LAYOUT
  5
73
102
{ACAD_REACTORS
330
62
102
}
330
62
100
AcDbPlotSettings
  1

  2

  4

  6

 40
0.0
 41
0.0
 42
0.0
 43
0.0
 44
0.0
 45
0.0
 46
0.0
 47
0.0
 48
0.0
 49
0.0
140
0.0
141
0.0
142
1.0
143
1.0
 70
  1712
 72
     0
 73
     0
 74
     0
  7

 75
     0
147
1.0
 76
     0
 77
     2
 78
   300
148
0.0
149
0.0
100
AcDbLayout
  1
Model
 70
     1
 71
     0
 10
0.0
 20
0.0
 11
12.0
 21
9.0
 12
0.0
 22
0.0
 32
0.0
 14
0.0
 24
0.0
 34
0.0
 15
0.0
 25
0.0
 35
0.0
146
0.0
 13
0.0
 23
0.0
 33
0.0
 16
1.0
 26
0.0
 36
0.0
 17
0.0
 27
1.0
 37
0.0
 76
     0
330
70
  0
MATERIAL
  5
19
102
{ACAD_XDICTIONARY
360
1A
102
}
102
{ACAD_REACTORS
330
10
102
}
330
10
100
AcDbMaterial
  1
ByBlock
 72
     0
 43
0.0208333333333333
 43
0.0
 43
0.0
 43
0.0
 43
0.0
 43
0.0208333333333333
 43
0.0
 43
0.0
 43
0.0
 43
0.0
 43
1.0
 43
0.0
 43
0.0
 43
0.0
 43
0.0
 43
1.0
 77
     0
 47
0.0208333333333333
 47
0.0
 47
0.0
 47
0.0
 47
0.0
 47
0.0208333333333333
 47
0.0
 47
0.0
 47
0.0
 47
0.0
 47
1.0
 47
0.0
 47
0.0
 47
0.0
 47
0.0
 47
1.0
171
     0
 49
0.0208333333333333
 49
0.0
 49
0.0
 49
0.0
 49
0.0
 49
0.0208333333333333
 49
0.0
 49
0.0
 49
0.0
 49
0.0
 49
1.0
 49
0.0
 49
0.0
 49
0.0
 49
0.0
 49
1.0
175
     0
142
0.0208333333333333
142
0.0
142
0.0
142
0.0
142
0.0
142
0.0208333333333333
142
0.0
142
0.0
142
0.0
142
0.0
142
1.0
142
0.0
142
0.0
142
0.0
142
0.0
142
1.0
179
     0
144
0.0208333333333333
144
0.0
144
0.0
144
0.0
144
0.0
144
0.0208333333333333
144
0.0
144
0.0
144
0.0
144
0.0
144
1.0
144
0.0
144
0.0
144
0.0
144
0.0
144
1.0
147
0.0208333333333333
147
0.0
147
0.0
147
0.0
147
0.0
147
0.0208333333333333
147
0.0
147
0.0
147
0.0
147
0.0
147
1.0
147
0.0
147
0.0
147
0.0
147
0.0
147
1.0
  0
MATERIAL
  5
11
102
{ACAD_XDICTIONARY
360
12
102
}
102
{ACAD_REACTORS
330
10
102
}
330
10
100
AcDbMaterial
  1
ByLayer
 72
     0
 43
0.0208333333333333
 43
0.0
 43
0.0
 43
0.0
 43
0.0
 43
0.0208333333333333
 43
0.0
 43
0.0
 43
0.0
 43
0.0
 43
1.0
 43
0.0
 43
0.0
 43
0.0
 43
0.0
 43
1.0
 77
     0
 47
0.0208333333333333
 47
0.0
 47
0.0
 47
0.0
 47
0.0
 47
0.0208333333333333
 47
0.0
 47
0.0
 47
0.0
 47
0.0
 47
1.0
 47
0.0
 47
0.0
 47
0.0
 47
0.0
 47
1.0
171
     0
 49
0.0208333333333333
 49
0.0
 49
0.0
 49
0.0
 49
0.0
 49
0.0208333333333333
 49
0.0
 49
0.0
 49
0.0
 49
0.0
 49
1.0
 49
0.0
 49
0.0
 49
0.0
 49
0.0
 49
1.0
175
     0
142
0.0208333333333333
142
0.0
142
0.0
142
0.0
142
0.0
142
0.0208333333333333
142
0.0
142
0.0
142
0.0
142
0.0
142
1.0
142
0.0
142
0.0
142
0.0
142
0.0
142
1.0
179
     0
144
0.0208333333333333
144
0.0
144
0.0
144
0.0
144
0.0
144
0.0208333333333333
144
0.0
144
0.0
144
0.0
144
0.0
144
1.0
144
0.0
144
0.0
144
0.0
144
0.0
144
1.0
147
0.0208333333333333
147
0.0
147
0.0
147
0.0
147
0.0
147
0.0208333333333333
147
0.0
147
0.0
147
0.0
147
0.0
147
1.0
147
0.0
147
0.0
147
0.0
147
0.0
147
1.0
  0
MATERIAL
  5
21
102
{ACAD_XDICTIONARY
360
22
102
}
102
{ACAD_REACTORS
330
10
102
}
330
10
100
AcDbMaterial
  1
Global
 72
     0
 43
0.0208333333333333
 43
0.0
 43
0.0
 43
0.0
 43
0.0
 43
0.0208333333333333
 43
0.0
 43
0.0
 43
0.0
 43
0.0
 43
1.0
 43
0.0
 43
0.0
 43
0.0
 43
0.0
 43
1.0
 77
     0
 47
0.0208333333333333
 47
0.0
 47
0.0
 47
0.0
 47
0.0
 47
0.0208333333333333
 47
0.0
 47
0.0
 47
0.0
 47
0.0
 47
1.0
 47
0.0
 47
0.0
 47
0.0
 47
0.0
 47
1.0
171
     0
 49
0.0208333333333333
 49
0.0
 49
0.0
 49
0.0
 49
0.0
 49
0.0208333333333333
 49
0.0
 49
0.0
 49
0.0
 49
0.0
 49
1.0
 49
0.0
 49
0.0
 49
0.0
 49
0.0
 49
1.0
175
     0
142
0.0208333333333333
142
0.0
142
0.0
142
0.0
142
0.0
142
0.0208333333333333
142
0.0
142
0.0
142
0.0
142
0.0
142
1.0
142
0.0
142
0.0
142
0.0
142
0.0
142
1.0
179
     0
144
0.0208333333333333
144
0.0
144
0.0
144
0.0
144
0.0
144
0.0208333333333333
144
0.0
144
0.0
144
0.0
144
0.0
144
1.0
144
0.0
144
0.0
144
0.0
144
0.0
144
1.0
147
0.0208333333333333
147
0.0
147
0.0
147
0.0
147
0.0
147
0.0208333333333333
147
0.0
147
0.0
147
0.0
147
0.0
147
1.0
147
0.0
147
0.0
147
0.0
147
0.0
147
1.0
  0
MLEADERSTYLE
  5
67
102
{ACAD_XDICTIONARY
360
1FC
102
}
102
{ACAD_REACTORS
330
66
102
}
330
66
100
AcDbMLeaderStyle
179
     2
170
     2
171
     1
172
     0
 90
        2
 40
0.0
 41
0.0
173
     1
 91
-1056964608
340
5B
 92
       -2
290
     1
 42
0.09
291
     1
 43
0.36
  3
Standard
 44
0.18
300

342
55
174
     1
178
     6
175
     1
176
     0
 93
-1056964608
 45
0.18
292
     0
297
     0
 46
0.18
 94
-1056964608
 47
1.0
 49
1.0
140
1.0
293
     1
141
0.0
294
     1
177
     0
142
1.0
295
     0
296
     0
143
0.125
271
     0
272
     9
273
     9
  0
MLINESTYLE
  5
60
102
{ACAD_REACTORS
330
5F
102
}
330
5F
100
AcDbMlineStyle
  2
STANDARD
 70
     0
  3

 62
   256
 51
90.0
 52
90.0
 71
     2
 49
0.5
 62
   256
  6
BYLAYER
 49
-0.5
 62
   256
  6
BYLAYER
  0
ACDBPLACEHOLDER
  5
F
102
{ACAD_REACTORS
330
E
102
}
330
E
  0
SCALE
  5
43
102
{ACAD_REACTORS
330
42
102
}
330
42
100
AcDbScale
 70
     0
300
1:1
140
1.0
141
1.0
290
     1
  0
SCALE
  5
44
102
{ACAD_REACTORS
330
42
102
}
330
42
100
AcDbScale
 70
     0
300
1/128" = 1'-0"
140
0.0078125
141
12.0
290
     0
  0
SCALE
  5
45
102
{ACAD_REACTORS
330
42
102
}
330
42
100
AcDbScale
 70
     0
300
1/64" = 1'-0"
140
0.015625
141
12.0
290
     0
  0
SCALE
  5
46
102
{ACAD_REACTORS
330
42
102
}
330
42
100
AcDbScale
 70
     0
300
1/32" = 1'-0"
140
0.03125
141
12.0
290
     0
  0
SCALE
  5
47
102
{ACAD_REACTORS
330
42
102
}
330
42
100
AcDbScale
 70
     0
300
1/16" = 1'-0"
140
0.0625
141
12.0
290
     0
  0
SCALE
  5
48
102
{ACAD_REACTORS
330
42
102
}
330
42
100
AcDbScale
 70
     0
300
3/32" = 1'-0"
140
0.09375
141
12.0
290
     0
  0
SCALE
  5
49
102
{ACAD_REACTORS
330
42
102
}
330
42
100
AcDbScale
 70
     0
300
1/8" = 1'-0"
140
0.125
141
12.0
290
     0
  0
SCALE
  5
4A
102
{ACAD_REACTORS
330
42
102
}
330
42
100
AcDbScale
 70
     0
300
3/16" = 1'-0"
140
0.1875
141
12.0
290
     0
  0
SCALE
  5
4B
102
{ACAD_REACTORS
330
42
102
}
330
42
100
AcDbScale
 70
     0
300
1/4" = 1'-0"
140
0.25
141
12.0
290
     0
  0
SCALE
  5
4C
102
{ACAD_REACTORS
330
42
102
}
330
42
100
AcDbScale
 70
     0
300
3/8" = 1'-0"
140
0.375
141
12.0
290
     0
  0
SCALE
  5
4D
102
{ACAD_REACTORS
330
42
102
}
330
42
100
AcDbScale
 70
     0
300
1/2" = 1'-0"
140
0.5
141
12.0
290
     0
  0
SCALE
  5
4E
102
{ACAD_REACTORS
330
42
102
}
330
42
100
AcDbScale
 70
     0
300
3/4" = 1'-0"
140
0.75
141
12.0
290
     0
  0
SCALE
  5
4F
102
{ACAD_REACTORS
330
42
102
}
330
42
100
AcDbScale
 70
     0
300
1" = 1'-0"
140
1.0
141
12.0
290
     0
  0
SCALE
  5
50
102
{ACAD_REACTORS
330
42
102
}
330
42
100
AcDbScale
 70
     0
300
1-1/2" = 1'-0"
140
1.5
141
12.0
290
     0
  0
SCALE
  5
51
102
{ACAD_REACTORS
330
42
102
}
330
42
100
AcDbScale
 70
     0
300
3" = 1'-0"
140
3.0
141
12.0
290
     0
  0
SCALE
  5
52
102
{ACAD_REACTORS
330
42
102
}
330
42
100
AcDbScale
 70
     0
300
6" = 1'-0"
140
6.0
141
12.0
290
     0
  0
SCALE
  5
53
102
{ACAD_REACTORS
330
42
102
}
330
42
100
AcDbScale
 70
     0
300
1'-0" = 1'-0"
140
12.0
141
12.0
290
     0
  0
ACDBSECTIONVIEWSTYLE
  5
69
102
{ACAD_XDICTIONARY
360
1FE
102
}
102
{ACAD_REACTORS
330
68
102
}
330
68
100
AcDbModelDocViewStyle
 70
     0
  3
Imperial24
290
     0
100
AcDbSectionViewStyle
 70
     0
 71
     0
 90
       78
 71
     1
340
55
 62
   256
 40
0.24
340
0
340
0
 62
   256
 40
0.24
300
I, O, Q, S, X, Z
 40
0.48
 90
        3
 40
0.18
 90
        1
 71
     2
340
5D
 90
       25
 62
   256
340
5D
 90
       50
 62
   256
 40
0.24
 40
0.0
 40
0.24
 71
     3
340
55
 62
   256
 40
0.24
 90
        1
 40
0.75
 90
        1
300
%<\AcVar ViewType \f "%tc1">% %<\AcVar ViewSectionStartId>%-%<\AcVar ViewSectionEndId>%\PSCALE %<\AcVar ViewScale \f "%sn">%
 71
     4
 62
   256
 62
   257
300
ANSI31
 40
1.0
 90
        0
290
     0
290
     0
 90
        6
 40
0.0
 40
1.570796326794896
 40
0.2617993877991494
 40
1.308996938995747
 40
-0.2617993877991494
 40
1.832595714594046
  0
TABLESTYLE
  5
65
102
{ACAD_XDICTIONARY
360
1C8
102
}
102
{ACAD_REACTORS
330
64
102
}
330
64
100
AcDbTableStyle
280
     0
  3
Standard
 70
     0
 71
     0
 40
0.06
 41
0.06
280
     0
281
     0
  7
Standard
140
0.18
170
     2
 62
     0
 63
     7
283
     0
 90
      512
 91
        0
  1

274
    -2
284
     1
 64
     0
275
    -2
285
     1
 65
     0
276
    -2
286
     1
 66
     0
277
    -2
287
     1
 67
     0
278
    -2
288
     1
 68
     0
279
    -2
289
     1
 69
     0
  7
Standard
140
0.25
170
     5
 62
     0
 63
     7
283
     0
 90
      512
 91
        0
  1

274
    -2
284
     1
 64
     0
275
    -2
285
     1
 65
     0
276
    -2
286
     1
 66
     0
277
    -2
287
     1
 67
     0
278
    -2
288
     1
 68
     0
279
    -2
289
     1
 69
     0
  7
Standard
140
0.18
170
     5
 62
     0
 63
     7
283
     0
 90
      512
 91
        0
  1

274
    -2
284
     1
 64
     0
275
    -2
285
     1
 65
     0
276
    -2
286
     1
 66
     0
277
    -2
287
     1
 67
     0
278
    -2
288
     1
 68
     0
279
    -2
289
     1
 69
     0
  0
VISUALSTYLE
  5
2F
102
{ACAD_XDICTIONARY
360
1D6
102
}
102
{ACAD_REACTORS
330
29
102
}
330
29
100
AcDbVisualStyle
  2
2dWireframe
 70
     4
177
     2
291
     0
 71
     0
176
     1
 72
     2
176
     1
 73
     0
176
     1
 90
        0
176
     1
 40
0.6
176
     1
 41
30.0
176
     1
 63
     7
421
 16777215
176
     1
 74
     1
176
     1
 91
        4
176
     1
 64
     7
176
     1
 65
   257
176
     1
 75
     1
176
     1
175
     1
176
     1
 42
1.0
176
     1
 92
        0
176
     1
 66
   257
176
     1
 43
1.0
176
     1
 76
     1
176
     1
 77
     6
176
     1
 78
     2
176
     1
 67
     7
176
     1
 79
     5
176
     1
170
     0
176
     1
171
     0
176
     1
290
     0
176
     1
 93
        1
176
     1
 44
0.0
176
     1
173
     0
176
     1
1001
ACAD
1000
AcDbSavedByObjectVersion
1070
     0
  0
VISUALSTYLE
  5
2E
102
{ACAD_XDICTIONARY
360
1D4
102
}
102
{ACAD_REACTORS
330
29
102
}
330
29
100
AcDbVisualStyle
  2
Basic
 70
     7
177
     2
291
     1
 71
     1
176
     1
 72
     0
176
     1
 73
     1
176
     1
 90
        0
176
     1
 40
0.6
176
     1
 41
30.0
176
     1
 63
     7
421
 16777215
176
     1
 74
     0
176
     1
 91
        4
176
     1
 64
     7
176
     1
 65
   257
176
     1
 75
     1
176
     1
175
     1
176
     1
 42
1.0
176
     1
 92
        8
176
     1
 66
     7
176
     1
 43
1.0
176
     1
 76
     1
176
     1
 77
     6
176
     1
 78
     2
176
     1
 67
     7
176
     1
 79
     5
176
     1
170
     0
176
     1
171
     0
176
     1
290
     0
176
     1
 93
        1
176
     1
 44
0.0
176
     1
173
     0
176
     1
1001
ACAD
1000
AcDbSavedByObjectVersion
1070
     0
  0
VISUALSTYLE
  5
35
102
{ACAD_XDICTIONARY
360
1E2
102
}
102
{ACAD_REACTORS
330
29
102
}
330
29
100
AcDbVisualStyle
  2
Brighten
 70
    12
177
     2
291
     1
 71
     2
176
     1
 72
     2
176
     1
 73
     0
176
     1
 90
        0
176
     1
 40
0.6
176
     1
 41
30.0
176
     1
 63
     7
421
 16777215
176
     1
 74
     1
176
     1
 91
        4
176
     1
 64
     7
176
     1
 65
   257
176
     1
 75
     1
176
     1
175
     1
176
     1
 42
1.0
176
     1
 92
        8
176
     1
 66
     7
176
     1
 43
1.0
176
     1
 76
     1
176
     1
 77
     6
176
     1
 78
     2
176
     1
 67
     7
176
     1
 79
     5
176
     1
170
     0
176
     1
171
     0
176
     1
290
     0
176
     1
 93
        1
176
     1
 44
50.0
176
     1
173
     0
176
     1
1001
ACAD
1000
AcDbSavedByObjectVersion
1070
     0
  0
VISUALSTYLE
  5
39
102
{ACAD_XDICTIONARY
360
1EA
102
}
102
{ACAD_REACTORS
330
29
102
}
330
29
100
AcDbVisualStyle
  2
ColorChange
 70
    16
177
     2
291
     1
 71
     2
176
     1
 72
     2
176
     1
 73
     3
176
     1
 90
        0
176
     1
 40
0.6
176
     1
 41
30.0
176
     1
 63
     8
421
  8421504
176
     1
 74
     1
176
     1
 91
        4
176
     1
 64
     7
176
     1
 65
   257
176
     1
 75
     1
176
     1
175
     1
176
     1
 42
1.0
176
     1
 92
        8
176
     1
 66
     8
424
  8421504
176
     1
 43
1.0
176
     1
 76
     1
176
     1
 77
     6
176
     1
 78
     2
176
     1
 67
     7
176
     1
 79
     5
176
     1
170
     0
176
     1
171
     0
176
     1
290
     0
176
     1
 93
        1
176
     1
 44
0.0
176
     1
173
     0
176
     1
1001
ACAD
1000
AcDbSavedByObjectVersion
1070
     0
  0
VISUALSTYLE
  5
32
102
{ACAD_XDICTIONARY
360
1DC
102
}
102
{ACAD_REACTORS
330
29
102
}
330
29
100
AcDbVisualStyle
  2
Conceptual
 70
     9
177
     2
291
     0
 71
     3
176
     1
 72
     2
176
     1
 73
     0
176
     1
 90
        0
176
     1
 40
0.6
176
     1
 41
30.0
176
     1
 63
     7
421
 16777215
176
     1
 74
     2
176
     1
 91
        2
176
     1
 64
     7
176
     1
 65
   257
176
     1
 75
     1
176
     1
175
     1
176
     1
 42
179.0
176
     1
 92
        8
176
     1
 66
     7
176
     1
 43
1.0
176
     1
 76
     1
176
     1
 77
     6
176
     1
 78
     2
176
     1
 67
     7
176
     1
 79
     3
176
     1
170
     0
176
     1
171
     0
176
     1
290
     0
176
     1
 93
        1
176
     1
 44
0.0
176
     1
173
     0
176
     1
1001
ACAD
1000
AcDbSavedByObjectVersion
1070
     0
  0
VISUALSTYLE
  5
34
102
{ACAD_XDICTIONARY
360
1E0
102
}
102
{ACAD_REACTORS
330
29
102
}
330
29
100
AcDbVisualStyle
  2
Dim
 70
    11
177
     2
291
     1
 71
     2
176
     1
 72
     2
176
     1
 73
     0
176
     1
 90
        0
176
     1
 40
0.6
176
     1
 41
30.0
176
     1
 63
     7
421
 16777215
176
     1
 74
     1
176
     1
 91
        4
176
     1
 64
     7
176
     1
 65
   257
176
     1
 75
     1
176
     1
175
     1
176
     1
 42
1.0
176
     1
 92
        8
176
     1
 66
     7
176
     1
 43
1.0
176
     1
 76
     1
176
     1
 77
     6
176
     1
 78
     2
176
     1
 67
     7
176
     1
 79
     5
176
     1
170
     0
176
     1
171
     0
176
     1
290
     0
176
     1
 93
        1
176
     1
 44
-50.0
176
     1
173
     0
176
     1
1001
ACAD
1000
AcDbSavedByObjectVersion
1070
     0
  0
VISUALSTYLE
  5
41
102
{ACAD_XDICTIONARY
360
1FA
102
}
102
{ACAD_REACTORS
330
29
102
}
330
29
100
AcDbVisualStyle
  2
EdgeColorOff
 70
    22
177
     2
291
     1
 71
     2
176
     0
 72
     2
176
     0
 73
     0
176
     0
 90
        0
176
     0
 40
0.6
176
     0
 41
30.0
176
     0
 63
     7
421
 16777215
176
     0
 74
     1
176
     0
 91
        4
176
     0
 64
     7
176
     0
 65
   257
176
     0
 75
     1
176
     0
175
     1
176
     0
 42
1.0
176
     0
 92
        8
176
     2
 66
     7
176
     0
 43
1.0
176
     0
 76
     1
176
     0
 77
     6
176
     0
 78
     2
176
     0
 67
     7
176
     0
 79
     5
176
     0
170
     0
176
     0
171
     0
176
     0
290
     0
176
     0
 93
        1
176
     0
 44
0.0
176
     0
173
     0
176
     0
1001
ACAD
1000
AcDbSavedByObjectVersion
1070
     0
  0
VISUALSTYLE
  5
38
102
{ACAD_XDICTIONARY
360
1E8
102
}
102
{ACAD_REACTORS
330
29
102
}
330
29
100
AcDbVisualStyle
  2
Facepattern
 70
    15
177
     2
291
     1
 71
     2
176
     1
 72
     2
176
     1
 73
     0
176
     1
 90
        0
176
     1
 40
0.6
176
     1
 41
30.0
176
     1
 63
     7
421
 16777215
176
     1
 74
     1
176
     1
 91
        4
176
     1
 64
     7
176
     1
 65
   257
176
     1
 75
     1
176
     1
175
     1
176
     1
 42
1.0
176
     1
 92
        8
176
     1
 66
     7
176
     1
 43
1.0
176
     1
 76
     1
176
     1
 77
     6
176
     1
 78
     2
176
     1
 67
     7
176
     1
 79
     5
176
     1
170
     0
176
     1
171
     0
176
     1
290
     0
176
     1
 93
        1
176
     1
 44
0.0
176
     1
173
     0
176
     1
1001
ACAD
1000
AcDbSavedByObjectVersion
1070
     0
  0
VISUALSTYLE
  5
2A
102
{ACAD_XDICTIONARY
360
1CC
102
}
102
{ACAD_REACTORS
330
29
102
}
330
29
100
AcDbVisualStyle
  2
Flat
 70
     0
177
     2
291
     1
 71
     2
176
     1
 72
     1
176
     1
 73
     1
176
     1
 90
        2
176
     1
 40
0.6
176
     1
 41
30.0
176
     1
 63
     7
421
 16777215
176
     1
 74
     0
176
     1
 91
        0
176
     1
 64
     7
176
     1
 65
   257
176
     1
 75
     1
176
     1
175
     1
176
     1
 42
1.0
176
     1
 92
        8
176
     1
 66
     7
176
     1
 43
1.0
176
     1
 76
     1
176
     1
 77
     6
176
     1
 78
     2
176
     1
 67
     7
176
     1
 79
     5
176
     1
170
     0
176
     1
171
     0
176
     1
290
     0
176
     1
 93
       13
176
     1
 44
0.0
176
     1
173
     0
176
     1
1001
ACAD
1000
AcDbSavedByObjectVersion
1070
     0
  0
VISUALSTYLE
  5
2B
102
{ACAD_XDICTIONARY
360
1CE
102
}
102
{ACAD_REACTORS
330
29
102
}
330
29
100
AcDbVisualStyle
  2
FlatWithEdges
 70
     1
177
     2
291
     1
 71
     2
176
     1
 72
     1
176
     1
 73
     1
176
     1
 90
        2
176
     1
 40
0.6
176
     1
 41
30.0
176
     1
 63
     7
421
 16777215
176
     1
 74
     1
176
     1
 91
        0
176
     1
 64
     7
176
     1
 65
   257
176
     1
 75
     1
176
     1
175
     1
176
     1
 42
1.0
176
     1
 92
        0
176
     1
 66
   257
176
     1
 43
1.0
176
     1
 76
     1
176
     1
 77
     6
176
     1
 78
     2
176
     1
 67
     7
176
     1
 79
     5
176
     1
170
     0
176
     1
171
     0
176
     1
290
     0
176
     1
 93
       13
176
     1
 44
0.0
176
     1
173
     0
176
     1
1001
ACAD
1000
AcDbSavedByObjectVersion
1070
     0
  0
VISUALSTYLE
  5
2C
102
{ACAD_XDICTIONARY
360
1D0
102
}
102
{ACAD_REACTORS
330
29
102
}
330
29
100
AcDbVisualStyle
  2
Gouraud
 70
     2
177
     2
291
     1
 71
     2
176
     1
 72
     2
176
     1
 73
     1
176
     1
 90
        2
176
     1
 40
0.6
176
     1
 41
30.0
176
     1
 63
     7
421
 16777215
176
     1
 74
     0
176
     1
 91
        0
176
     1
 64
     7
176
     1
 65
   257
176
     1
 75
     1
176
     1
175
     1
176
     1
 42
1.0
176
     1
 92
        0
176
     1
 66
     7
176
     1
 43
1.0
176
     1
 76
     1
176
     1
 77
     6
176
     1
 78
     2
176
     1
 67
     7
176
     1
 79
     5
176
     1
170
     0
176
     1
171
     0
176
     1
290
     0
176
     1
 93
       13
176
     1
 44
0.0
176
     1
173
     0
176
     1
1001
ACAD
1000
AcDbSavedByObjectVersion
1070
     0
  0
VISUALSTYLE
  5
2D
102
{ACAD_XDICTIONARY
360
1D2
102
}
102
{ACAD_REACTORS
330
29
102
}
330
29
100
AcDbVisualStyle
  2
GouraudWithEdges
 70
     3
177
     2
291
     1
 71
     2
176
     1
 72
     2
176
     1
 73
     1
176
     1
 90
        2
176
     1
 40
0.6
176
     1
 41
30.0
176
     1
 63
     7
421
 16777215
176
     1
 74
     1
176
     1
 91
        0
176
     1
 64
     7
176
     1
 65
   257
176
     1
 75
     1
176
     1
175
     1
176
     1
 42
1.0
176
     1
 92
        0
176
     1
 66
   257
176
     1
 43
1.0
176
     1
 76
     1
176
     1
 77
     6
176
     1
 78
     2
176
     1
 67
     7
176
     1
 79
     5
176
     1
170
     0
176
     1
171
     0
176
     1
290
     0
176
     1
 93
       13
176
     1
 44
0.0
176
     1
173
     0
176
     1
1001
ACAD
1000
AcDbSavedByObjectVersion
1070
     0
  0
VISUALSTYLE
  5
31
102
{ACAD_XDICTIONARY
360
1DA
102
}
102
{ACAD_REACTORS
330
29
102
}
330
29
100
AcDbVisualStyle
  2
Hidden
 70
     6
177
     2
291
     0
 71
     1
176
     1
 72
     2
176
     1
 73
     2
176
     1
 90
        0
176
     1
 40
0.6
176
     1
 41
30.0
176
     1
 63
     7
421
 16777215
176
     1
 74
     2
176
     1
 91
        2
176
     1
 64
     7
176
     1
 65
   257
176
     1
 75
     2
176
     1
175
     1
176
     1
 42
40.0
176
     1
 92
        0
176
     1
 66
   257
176
     1
 43
1.0
176
     1
 76
     1
176
     1
 77
     6
176
     1
 78
     2
176
     1
 67
     7
176
     1
 79
     3
176
     1
170
     0
176
     1
171
     0
176
     1
290
     0
176
     1
 93
        1
176
     1
 44
0.0
176
     1
173
     0
176
     1
1001
ACAD
1000
AcDbSavedByObjectVersion
1070
     0
  0
VISUALSTYLE
  5
3F
102
{ACAD_XDICTIONARY
360
1F6
102
}
102
{ACAD_REACTORS
330
29
102
}
330
29
100
AcDbVisualStyle
  2
JitterOff
 70
    20
177
     2
291
     1
 71
     2
176
     0
 72
     2
176
     0
 73
     0
176
     0
 90
        0
176
     0
 40
0.6
176
     0
 41
30.0
176
     0
 63
     7
421
 16777215
176
     0
 74
     1
176
     0
 91
        4
176
     0
 64
     7
176
     0
 65
   257
176
     0
 75
     1
176
     0
175
     1
176
     0
 42
1.0
176
     0
 92
       10
176
     2
 66
     7
176
     0
 43
1.0
176
     0
 76
     1
176
     0
 77
     6
176
     0
 78
     2
176
     0
 67
     7
176
     0
 79
     5
176
     0
170
     0
176
     0
171
     0
176
     0
290
     0
176
     0
 93
        1
176
     0
 44
0.0
176
     0
173
     0
176
     0
1001
ACAD
1000
AcDbSavedByObjectVersion
1070
     0
  0
VISUALSTYLE
  5
37
102
{ACAD_XDICTIONARY
360
1E6
102
}
102
{ACAD_REACTORS
330
29
102
}
330
29
100
AcDbVisualStyle
  2
Linepattern
 70
    14
177
     2
291
     1
 71
     2
176
     1
 72
     2
176
     1
 73
     0
176
     1
 90
        0
176
     1
 40
0.6
176
     1
 41
30.0
176
     1
 63
     7
421
 16777215
176
     1
 74
     1
176
     1
 91
        4
176
     1
 64
     7
176
     1
 65
   257
176
     1
 75
     7
176
     1
175
     7
176
     1
 42
1.0
176
     1
 92
        8
176
     1
 66
     7
176
     1
 43
1.0
176
     1
 76
     1
176
     1
 77
     6
176
     1
 78
     2
176
     1
 67
     7
176
     1
 79
     5
176
     1
170
     0
176
     1
171
     0
176
     1
290
     0
176
     1
 93
        1
176
     1
 44
0.0
176
     1
173
     0
176
     1
1001
ACAD
1000
AcDbSavedByObjectVersion
1070
     0
  0
VISUALSTYLE
  5
40
102
{ACAD_XDICTIONARY
360
1F8
102
}
102
{ACAD_REACTORS
330
29
102
}
330
29
100
AcDbVisualStyle
  2
OverhangOff
 70
    21
177
     2
291
     1
 71
     2
176
     0
 72
     2
176
     0
 73
     0
176
     0
 90
        0
176
     0
 40
0.6
176
     0
 41
30.0
176
     0
 63
     7
421
 16777215
176
     0
 74
     1
176
     0
 91
        4
176
     0
 64
     7
176
     0
 65
   257
176
     0
 75
     1
176
     0
175
     1
176
     0
 42
1.0
176
     0
 92
        9
176
     2
 66
     7
176
     0
 43
1.0
176
     0
 76
     1
176
     0
 77
     6
176
     0
 78
     2
176
     0
 67
     7
176
     0
 79
     5
176
     0
170
     0
176
     0
171
     0
176
     0
290
     0
176
     0
 93
        1
176
     0
 44
0.0
176
     0
173
     0
176
     0
1001
ACAD
1000
AcDbSavedByObjectVersion
1070
     0
  0
VISUALSTYLE
  5
33
102
{ACAD_XDICTIONARY
360
1DE
102
}
102
{ACAD_REACTORS
330
29
102
}
330
29
100
AcDbVisualStyle
  2
Realistic
 70
     8
177
     2
291
     0
 71
     2
176
     1
 72
     3
176
     1
 73
     0
176
     1
 90
        2
176
     1
 40
0.6
176
     1
 41
30.0
176
     1
 63
     7
421
 16777215
176
     1
 74
     0
176
     1
 91
        0
176
     1
 64
     7
176
     1
 65
   257
176
     1
 75
     1
176
     1
175
     1
176
     1
 42
1.0
176
     1
 92
        8
176
     1
 66
   257
176
     1
 43
1.0
176
     1
 76
     1
176
     1
 77
     6
176
     1
 78
     2
176
     1
 67
     7
176
     1
 79
     3
176
     1
170
     0
176
     1
171
     0
176
     1
290
     0
176
     1
 93
       13
176
     1
 44
0.0
176
     1
173
     0
176
     1
1001
ACAD
1000
AcDbSavedByObjectVersion
1070
     0
  0
VISUALSTYLE
  5
3E
102
{ACAD_XDICTIONARY
360
1F4
102
}
102
{ACAD_REACTORS
330
29
102
}
330
29
100
AcDbVisualStyle
  2
Shaded
 70
    27
177
     2
291
     0
 71
     2
176
     1
 72
     2
176
     1
 73
     1
176
     1
 90
        2
176
     1
 40
0.6
176
     1
 41
30.0
176
     1
 63
     7
421
 16777215
176
     1
 74
     0
176
     1
 91
        4
176
     1
 64
     7
176
     1
 65
   257
176
     1
 75
     1
176
     1
175
     1
176
     1
 42
1.0
176
     1
 92
        8
176
     1
 66
   257
176
     1
 43
1.0
176
     1
 76
     1
176
     1
 77
     6
176
     1
 78
     2
176
     1
 67
     8
425
  7895160
176
     1
 79
     3
176
     1
170
     0
176
     1
171
     0
176
     1
290
     0
176
     1
 93
        5
176
     1
 44
0.0
176
     1
173
     0
176
     1
1001
ACAD
1000
AcDbSavedByObjectVersion
1070
     0
  0
VISUALSTYLE
  5
3D
102
{ACAD_XDICTIONARY
360
1F2
102
}
102
{ACAD_REACTORS
330
29
102
}
330
29
100
AcDbVisualStyle
  2
Shaded with edges
 70
    26
177
     2
291
     0
 71
     2
176
     1
 72
     2
176
     1
 73
     1
176
     1
 90
        2
176
     1
 40
0.6
176
     1
 41
30.0
176
     1
 63
     7
421
 16777215
176
     1
 74
     1
176
     1
 91
        2
176
     1
 64
     7
176
     1
 65
   257
176
     1
 75
     2
176
     1
175
     1
176
     1
 42
1.0
176
     1
 92
        8
176
     1
 66
   257
176
     1
 43
1.0
176
     1
 76
     1
176
     1
 77
     6
176
     1
 78
     2
176
     1
 67
     7
176
     1
 79
     3
176
     1
170
     0
176
     1
171
     0
176
     1
290
     0
176
     1
 93
        5
176
     1
 44
0.0
176
     1
173
     0
176
     1
1001
ACAD
1000
AcDbSavedByObjectVersion
1070
     0
  0
VISUALSTYLE
  5
3A
102
{ACAD_XDICTIONARY
360
1EC
102
}
102
{ACAD_REACTORS
330
29
102
}
330
29
100
AcDbVisualStyle
  2
Shades of Gray
 70
    23
177
     2
291
     0
 71
     2
176
     1
 72
     2
176
     1
 73
     3
176
     1
 90
        0
176
     1
 40
0.6
176
     1
 41
30.0
176
     1
 63
     7
421
 16777215
176
     1
 74
     2
176
     1
 91
        2
176
     1
 64
     7
176
     1
 65
     7
176
     1
 75
     1
176
     1
175
     1
176
     1
 42
40.0
176
     1
 92
        8
176
     1
 66
     7
176
     1
 43
1.0
176
     1
 76
     1
176
     1
 77
     6
176
     1
 78
     2
176
     1
 67
     7
176
     1
 79
     3
176
     1
170
     0
176
     1
171
     0
176
     1
290
     0
176
     1
 93
        1
176
     1
 44
0.0
176
     1
173
     0
176
     1
1001
ACAD
1000
AcDbSavedByObjectVersion
1070
     0
  0
VISUALSTYLE
  5
3B
102
{ACAD_XDICTIONARY
360
1EE
102
}
102
{ACAD_REACTORS
330
29
102
}
330
29
100
AcDbVisualStyle
  2
Sketchy
 70
    24
177
     2
291
     0
 71
     1
176
     1
 72
     2
176
     1
 73
     2
176
     1
 90
        0
176
     1
 40
0.6
176
     1
 41
30.0
176
     1
 63
     7
421
 16777215
176
     1
 74
     2
176
     1
 91
        2
176
     1
 64
     7
176
     1
 65
     7
176
     1
 75
     1
176
     1
175
     1
176
     1
 42
40.0
176
     1
 92
       11
176
     1
 66
     7
176
     1
 43
1.0
176
     1
 76
     1
176
     1
 77
     6
176
     1
 78
     2
176
     1
 67
     7
176
     1
 79
     6
176
     1
170
     0
176
     1
171
     0
176
     1
290
     0
176
     1
 93
        1
176
     1
 44
0.0
176
     1
173
     0
176
     1
1001
ACAD
1000
AcDbSavedByObjectVersion
1070
     0
  0
VISUALSTYLE
  5
36
102
{ACAD_XDICTIONARY
360
1E4
102
}
102
{ACAD_REACTORS
330
29
102
}
330
29
100
AcDbVisualStyle
  2
Thicken
 70
    13
177
     2
291
     1
 71
     2
176
     1
 72
     2
176
     1
 73
     0
176
     1
 90
        0
176
     1
 40
0.6
176
     1
 41
30.0
176
     1
 63
     7
421
 16777215
176
     1
 74
     1
176
     1
 91
        4
176
     1
 64
     7
176
     1
 65
   257
176
     1
 75
     1
176
     1
175
     1
176
     1
 42
1.0
176
     1
 92
       12
176
     1
 66
     7
176
     1
 43
1.0
176
     1
 76
     1
176
     1
 77
     6
176
     1
 78
     2
176
     1
 67
     7
176
     1
 79
     5
176
     1
170
     0
176
     1
171
     0
176
     1
290
     0
176
     1
 93
        1
176
     1
 44
0.0
176
     1
173
     0
176
     1
1001
ACAD
1000
AcDbSavedByObjectVersion
1070
     0
  0
VISUALSTYLE
  5
30
102
{ACAD_XDICTIONARY
360
1D8
102
}
102
{ACAD_REACTORS
330
29
102
}
330
29
100
AcDbVisualStyle
  2
Wireframe
 70
     5
177
     2
291
     0
 71
     0
176
     1
 72
     2
176
     1
 73
     0
176
     1
 90
        0
176
     1
 40
0.6
176
     1
 41
30.0
176
     1
 63
     7
421
 16777215
176
     1
 74
     1
176
     1
 91
        4
176
     1
 64
     7
176
     1
 65
   257
176
     1
 75
     1
176
     1
175
     1
176
     1
 42
1.0
176
     1
 92
        0
176
     1
 66
   257
176
     1
 43
1.0
176
     1
 76
     1
176
     1
 77
     6
176
     1
 78
     2
176
     1
 67
     7
176
     1
 79
     3
176
     1
170
     0
176
     1
171
     0
176
     1
290
     0
176
     1
 93
        1
176
     1
 44
0.0
176
     1
173
     0
176
     1
1001
ACAD
1000
AcDbSavedByObjectVersion
1070
     0
  0
VISUALSTYLE
  5
3C
102
{ACAD_XDICTIONARY
360
1F0
102
}
102
{ACAD_REACTORS
330
29
102
}
330
29
100
AcDbVisualStyle
  2
X-Ray
 70
    25
177
     2
291
     0
 71
     2
176
     1
 72
     2
176
     1
 73
     1
176
     1
 90
        1
176
     1
 40
0.5
176
     1
 41
30.0
176
     1
 63
     7
421
 16777215
176
     1
 74
     1
176
     1
 91
        0
176
     1
 64
     7
176
     1
 65
   257
176
     1
 75
     1
176
     1
175
     1
176
     1
 42
1.0
176
     1
 92
        8
176
     1
 66
     7
176
     1
 43
1.0
176
     1
 76
     1
176
     1
 77
     6
176
     1
 78
     2
176
     1
 67
     7
176
     1
 79
     3
176
     1
170
     0
176
     1
171
     0
176
     1
290
     0
176
     1
 93
       13
176
     1
 44
0.0
176
     1
173
     0
176
     1
1001
ACAD
1000
AcDbSavedByObjectVersion
1070
     0
  0
DICTIONARYVAR
  5
1C7
102
{ACAD_REACTORS
330
1C2
102
}
330
1C2
100
DictionaryVariables
280
     0
  1
1:1
  0
DICTIONARYVAR
  5
1C4
102
{ACAD_REACTORS
330
1C2
102
}
330
1C2
100
DictionaryVariables
280
     0
  1
STANDARD
  0
DICTIONARYVAR
  5
1C3
102
{ACAD_REACTORS
330
1C2
102
}
330
1C2
100
DictionaryVariables
280
     0
  1
STANDARD
  0
DICTIONARYVAR
  5
1C5
102
{ACAD_REACTORS
330
1C2
102
}
330
1C2
100
DictionaryVariables
280
     0
  1
Imperial24
  0
DICTIONARYVAR
  5
1C6
102
{ACAD_REACTORS
330
1C2
102
}
330
1C2
100
DictionaryVariables
280
     0
  1
Imperial24
  0
DICTIONARY
  5
200
330
6B
100
AcDbDictionary
280
     1
281
     1
  3
ACAD_XREC_ROUNDTRIP
360
201
  0
DICTIONARY
  5
1A
330
19
100
AcDbDictionary
280
     1
281
     1
  3
BUMPTILE
360
1C
  3
DIFFUSETILE
360
1B
  3
OPACITYTILE
360
1F
  3
REFLECTIONTILE
360
1E
  3
REFRACTIONTILE
360
20
  3
SPECULARTILE
360
1D
  0
DICTIONARY
  5
12
330
11
100
AcDbDictionary
280
     1
281
     1
  3
BUMPTILE
360
14
  3
DIFFUSETILE
360
13
  3
OPACITYTILE
360
17
  3
REFLECTIONTILE
360
16
  3
REFRACTIONTILE
360
18
  3
SPECULARTILE
360
15
  0
DICTIONARY
  5
22
330
21
100
AcDbDictionary
280
     1
281
     1
  3
BUMPTILE
360
24
  3
DIFFUSETILE
360
23
  3
OPACITYTILE
360
27
  3
REFLECTIONTILE
360
26
  3
REFRACTIONTILE
360
28
  3
SPECULARTILE
360
25
  0
DICTIONARY
  5
1FC
330
67
100
AcDbDictionary
280
     1
281
     1
  3
ACAD_XREC_ROUNDTRIP
360
1FD
  0
DICTIONARY
  5
1FE
330
69
100
AcDbDictionary
280
     1
281
     1
  3
ACAD_XREC_ROUNDTRIP
360
1FF
  0
DICTIONARY
  5
1C8
330
65
100
AcDbDictionary
280
     1
281
     1
  3
ACAD_ROUNDTRIP_2008_TABLESTYLE_CELLSTYLEMAP
360
1C9
  0
DICTIONARY
  5
1D6
330
2F
100
AcDbDictionary
280
     1
281
     1
  3
ACAD_XREC_ROUNDTRIP
360
1D7
  0
DICTIONARY
  5
1D4
330
2E
100
AcDbDictionary
280
     1
281
     1
  3
ACAD_XREC_ROUNDTRIP
360
1D5
  0
DICTIONARY
  5
1E2
330
35
100
AcDbDictionary
280
     1
281
     1
  3
ACAD_XREC_ROUNDTRIP
360
1E3
  0
DICTIONARY
  5
1EA
330
39
100
AcDbDictionary
280
     1
281
     1
  3
ACAD_XREC_ROUNDTRIP
360
1EB
  0
DICTIONARY
  5
1DC
330
32
100
AcDbDictionary
280
     1
281
     1
  3
ACAD_XREC_ROUNDTRIP
360
1DD
  0
DICTIONARY
  5
1E0
330
34
100
AcDbDictionary
280
     1
281
     1
  3
ACAD_XREC_ROUNDTRIP
360
1E1
  0
DICTIONARY
  5
1FA
330
41
100
AcDbDictionary
280
     1
281
     1
  3
ACAD_XREC_ROUNDTRIP
360
1FB
  0
DICTIONARY
  5
1E8
330
38
100
AcDbDictionary
280
     1
281
     1
  3
ACAD_XREC_ROUNDTRIP
360
1E9
  0
DICTIONARY
  5
1CC
330
2A
100
AcDbDictionary
280
     1
281
     1
  3
ACAD_XREC_ROUNDTRIP
360
1CD
  0
DICTIONARY
  5
1CE
330
2B
100
AcDbDictionary
280
     1
281
     1
  3
ACAD_XREC_ROUNDTRIP
360
1CF
  0
DICTIONARY
  5
1D0
330
2C
100
AcDbDictionary
280
     1
281
     1
  3
ACAD_XREC_ROUNDTRIP
360
1D1
  0
DICTIONARY
  5
1D2
330
2D
100
AcDbDictionary
280
     1
281
     1
  3
ACAD_XREC_ROUNDTRIP
360
1D3
  0
DICTIONARY
  5
1DA
330
31
100
AcDbDictionary
280
     1
281
     1
  3
ACAD_XREC_ROUNDTRIP
360
1DB
  0
DICTIONARY
  5
1F6
330
3F
100
AcDbDictionary
280
     1
281
     1
  3
ACAD_XREC_ROUNDTRIP
360
1F7
  0
DICTIONARY
  5
1E6
330
37
100
AcDbDictionary
280
     1
281
     1
  3
ACAD_XREC_ROUNDTRIP
360
1E7
  0
DICTIONARY
  5
1F8
330
40
100
AcDbDictionary
280
     1
281
     1
  3
ACAD_XREC_ROUNDTRIP
360
1F9
  0
DICTIONARY
  5
1DE
330
33
100
AcDbDictionary
280
     1
281
     1
  3
ACAD_XREC_ROUNDTRIP
360
1DF
  0
DICTIONARY
  5
1F4
330
3E
100
AcDbDictionary
280
     1
281
     1
  3
ACAD_XREC_ROUNDTRIP
360
1F5
  0
DICTIONARY
  5
1F2
330
3D
100
AcDbDictionary
280
     1
281
     1
  3
ACAD_XREC_ROUNDTRIP
360
1F3
  0
DICTIONARY
  5
1EC
330
3A
100
AcDbDictionary
280
     1
281
     1
  3
ACAD_XREC_ROUNDTRIP
360
1ED
  0
DICTIONARY
  5
1EE
330
3B
100
AcDbDictionary
280
     1
281
     1
  3
ACAD_XREC_ROUNDTRIP
360
1EF
  0
DICTIONARY
  5
1E4
330
36
100
AcDbDictionary
280
     1
281
     1
  3
ACAD_XREC_ROUNDTRIP
360
1E5
  0
DICTIONARY
  5
1D8
330
30
100
AcDbDictionary
280
     1
281
     1
  3
ACAD_XREC_ROUNDTRIP
360
1D9
  0
DICTIONARY
  5
1F0
330
3C
100
AcDbDictionary
280
     1
281
     1
  3
ACAD_XREC_ROUNDTRIP
360
1F1
  0
XRECORD
  5
201
102
{ACAD_REACTORS
330
200
102
}
330
200
100
AcDbXrecord
280
     1
102
DISPLAYNAME
  1
Imperial24
102
FLAGS
 90
        0
  0
XRECORD
  5
1C
102
{ACAD_REACTORS
330
1A
102
}
330
1A
100
AcDbXrecord
280
     1
270
     1
271
     1
  0
XRECORD
  5
1B
102
{ACAD_REACTORS
330
1A
102
}
330
1A
100
AcDbXrecord
280
     1
270
     1
271
     1
  0
XRECORD
  5
1F
102
{ACAD_REACTORS
330
1A
102
}
330
1A
100
AcDbXrecord
280
     1
270
     1
271
     1
  0
XRECORD
  5
1E
102
{ACAD_REACTORS
330
1A
102
}
330
1A
100
AcDbXrecord
280
     1
270
     1
271
     1
  0
XRECORD
  5
20
102
{ACAD_REACTORS
330
1A
102
}
330
1A
100
AcDbXrecord
280
     1
270
     1
271
     1
  0
XRECORD
  5
1D
102
{ACAD_REACTORS
330
1A
102
}
330
1A
100
AcDbXrecord
280
     1
270
     1
271
     1
  0
XRECORD
  5
14
102
{ACAD_REACTORS
330
12
102
}
330
12
100
AcDbXrecord
280
     1
270
     1
271
     1
  0
XRECORD
  5
13
102
{ACAD_REACTORS
330
12
102
}
330
12
100
AcDbXrecord
280
     1
270
     1
271
     1
  0
XRECORD
  5
17
102
{ACAD_REACTORS
330
12
102
}
330
12
100
AcDbXrecord
280
     1
270
     1
271
     1
  0
XRECORD
  5
16
102
{ACAD_REACTORS
330
12
102
}
330
12
100
AcDbXrecord
280
     1
270
     1
271
     1
  0
XRECORD
  5
18
102
{ACAD_REACTORS
330
12
102
}
330
12
100
AcDbXrecord
280
     1
270
     1
271
     1
  0
XRECORD
  5
15
102
{ACAD_REACTORS
330
12
102
}
330
12
100
AcDbXrecord
280
     1
270
     1
271
     1
  0
XRECORD
  5
24
102
{ACAD_REACTORS
330
22
102
}
330
22
100
AcDbXrecord
280
     1
270
     1
271
     1
  0
XRECORD
  5
23
102
{ACAD_REACTORS
330
22
102
}
330
22
100
AcDbXrecord
280
     1
270
     1
271
     1
  0
XRECORD
  5
27
102
{ACAD_REACTORS
330
22
102
}
330
22
100
AcDbXrecord
280
     1
270
     1
271
     1
  0
XRECORD
  5
26
102
{ACAD_REACTORS
330
22
102
}
330
22
100
AcDbXrecord
280
     1
270
     1
271
     1
  0
XRECORD
  5
28
102
{ACAD_REACTORS
330
22
102
}
330
22
100
AcDbXrecord
280
     1
270
     1
271
     1
  0
XRECORD
  5
25
102
{ACAD_REACTORS
330
22
102
}
330
22
100
AcDbXrecord
280
     1
270
     1
271
     1
  0
XRECORD
  5
1FD
102
{ACAD_REACTORS
330
1FC
102
}
330
1FC
100
AcDbXrecord
280
     1
102
ACAD_ROUNDTRIP_2012_MLEADER_STYLE
298
     1
  0
XRECORD
  5
1FF
102
{ACAD_REACTORS
330
1FE
102
}
330
1FE
100
AcDbXrecord
280
     1
102
DISPLAYNAME
  1
Imperial24
102
FLAGS
 90
        0
  0
CELLSTYLEMAP
  5
1C9
102
{ACAD_REACTORS
330
1C8
102
}
330
1C8
100
AcDbCellStyleMap
 90
        3
300
CELLSTYLE
  1
TABLEFORMAT_BEGIN
 90
        5
170
     1
 91
        0
 92
    32768
 62
   257
 93
        1
300
CONTENTFORMAT
  1
CONTENTFORMAT_BEGIN
 90
        0
 91
        0
 92
      512
 93
        0
300

 40
0.0
140
1.0
 94
        5
 62
     0
340
55
144
0.25
309
CONTENTFORMAT_END
171
     0
 94
        0
309
TABLEFORMAT_END
  1
CELLSTYLE_BEGIN
 90
        1
 91
        1
300
_TITLE
309
CELLSTYLE_END
300
CELLSTYLE
  1
TABLEFORMAT_BEGIN
 90
        5
170
     1
 91
        0
 92
        0
 62
   257
 93
        1
300
CONTENTFORMAT
  1
CONTENTFORMAT_BEGIN
 90
        0
 91
        0
 92
      512
 93
        0
300

 40
0.0
140
1.0
 94
        5
 62
     0
340
55
144
0.18
309
CONTENTFORMAT_END
171
     0
 94
        0
309
TABLEFORMAT_END
  1
CELLSTYLE_BEGIN
 90
        2
 91
        1
300
_HEADER
309
CELLSTYLE_END
300
CELLSTYLE
  1
TABLEFORMAT_BEGIN
 90
        5
170
     1
 91
        0
 92
        0
 62
   257
 93
        1
300
CONTENTFORMAT
  1
CONTENTFORMAT_BEGIN
 90
        0
 91
        0
 92
      512
 93
        0
300

 40
0.0
140
1.0
 94
        2
 62
     0
340
55
144
0.18
309
CONTENTFORMAT_END
171
     0
 94
        0
309
TABLEFORMAT_END
  1
CELLSTYLE_BEGIN
 90
        3
 91
        2
300
_DATA
309
CELLSTYLE_END
  0
XRECORD
  5
1D7
102
{ACAD_REACTORS
330
1D6
102
}
330
1D6
100
AcDbXrecord
280
     1
102
RTVSPost2010Prop28
280
     1
102
RTVSPost2010PropOp28
 70
     1
102
RTVSPost2010Prop29
280
     1
102
RTVSPost2010PropOp29
 70
     1
102
RTVSPost2010Prop30
280
     0
102
RTVSPost2010PropOp30
 70
     1
102
RTVSPost2010Prop31
280
     0
102
RTVSPost2010PropOp31
 70
     1
102
RTVSPost2010Prop32
280
     0
102
RTVSPost2010PropOp32
 70
     1
102
RTVSPost2010Prop33
280
     0
102
RTVSPost2010PropOp33
 70
     1
102
RTVSPost2010Prop34
280
     0
102
RTVSPost2010PropOp34
 70
     1
102
RTVSPost2010Prop35
280
     0
102
RTVSPost2010PropOp35
 70
     1
102
RTVSPost2010Prop36
280
     0
102
RTVSPost2010PropOp36
 70
     1
102
RTVSPost2010Prop37
 90
       50
102
RTVSPost2010PropOp37
 70
     1
102
RTVSPost2010Prop38
140
0.0
102
RTVSPost2010PropOp38
 70
     1
102
RTVSPost2010Prop39
140
1.0
102
RTVSPost2010PropOp39
 70
     1
102
RTVSPost2010Prop40
 90
        0
102
RTVSPost2010PropOp40
 70
     1
102
RTVSPost2010Prop41ColorIndex
 90
       18
102
RTVSPost2010Prop41ColorRGB
 90
        0
102
RTVSPost2010PropOp41
 70
     1
102
RTVSPost2010Prop42
 90
       50
102
RTVSPost2010PropOp42
 70
     1
102
RTVSPost2010Prop43
 90
        3
102
RTVSPost2010PropOp43
 70
     1
102
RTVSPost2010Prop44ColorIndex
 90
        5
102
RTVSPost2010Prop44ColorRGB
 90
      255
102
RTVSPost2010PropOp44
 70
     1
102
RTVSPost2010Prop45
280
     0
102
RTVSPost2010PropOp45
 70
     1
102
RTVSPost2010Prop46
 90
       50
102
RTVSPost2010PropOp46
 70
     1
102
RTVSPost2010Prop47
 90
       50
102
RTVSPost2010PropOp47
 70
     1
102
RTVSPost2010Prop48
 90
       50
102
RTVSPost2010PropOp48
 70
     1
102
RTVSPost2010Prop49
280
     0
102
RTVSPost2010PropOp49
 70
     1
102
RTVSPost2010Prop50
 90
       50
102
RTVSPost2010PropOp50
 70
     1
102
RTVSPost2010Prop51ColorIndex
 90
      256
102
RTVSPost2010Prop51ColorRGB
 90
-16777216
102
RTVSPost2010PropOp51
 70
     0
102
RTVSPost2010Prop52
140
1.0
102
RTVSPost2010PropOp52
 70
     0
102
RTVSPost2010Prop53
 90
        2
102
RTVSPost2010PropOp53
 70
     1
102
RTVSPost2010Prop54
  1
strokes_ogs.tif
102
RTVSPost2010PropOp54
 70
     1
102
RTVSPost2010Prop55
280
     0
102
RTVSPost2010PropOp55
 70
     1
102
RTVSPost2010Prop56
140
1.0
102
RTVSPost2010PropOp56
 70
     1
102
RTVSPost2010Prop57
140
1.0
102
RTVSPost2010PropOp57
 70
     1
  0
XRECORD
  5
1D5
102
{ACAD_REACTORS
330
1D4
102
}
330
1D4
100
AcDbXrecord
280
     1
102
RTVSPost2010Prop28
280
     0
102
RTVSPost2010PropOp28
 70
     1
102
RTVSPost2010Prop29
280
     1
102
RTVSPost2010PropOp29
 70
     1
102
RTVSPost2010Prop30
280
     1
102
RTVSPost2010PropOp30
 70
     1
102
RTVSPost2010Prop31
280
     0
102
RTVSPost2010PropOp31
 70
     1
102
RTVSPost2010Prop32
280
     0
102
RTVSPost2010PropOp32
 70
     1
102
RTVSPost2010Prop33
280
     0
102
RTVSPost2010PropOp33
 70
     1
102
RTVSPost2010Prop34
280
     0
102
RTVSPost2010PropOp34
 70
     1
102
RTVSPost2010Prop35
280
     0
102
RTVSPost2010PropOp35
 70
     1
102
RTVSPost2010Prop36
280
     0
102
RTVSPost2010PropOp36
 70
     1
102
RTVSPost2010Prop37
 90
       50
102
RTVSPost2010PropOp37
 70
     1
102
RTVSPost2010Prop38
140
0.0
102
RTVSPost2010PropOp38
 70
     1
102
RTVSPost2010Prop39
140
1.0
102
RTVSPost2010PropOp39
 70
     1
102
RTVSPost2010Prop40
 90
        0
102
RTVSPost2010PropOp40
 70
     1
102
RTVSPost2010Prop41ColorIndex
 90
       18
102
RTVSPost2010Prop41ColorRGB
 90
        0
102
RTVSPost2010PropOp41
 70
     1
102
RTVSPost2010Prop42
 90
       50
102
RTVSPost2010PropOp42
 70
     1
102
RTVSPost2010Prop43
 90
        3
102
RTVSPost2010PropOp43
 70
     1
102
RTVSPost2010Prop44ColorIndex
 90
        5
102
RTVSPost2010Prop44ColorRGB
 90
      255
102
RTVSPost2010PropOp44
 70
     1
102
RTVSPost2010Prop45
280
     0
102
RTVSPost2010PropOp45
 70
     1
102
RTVSPost2010Prop46
 90
       50
102
RTVSPost2010PropOp46
 70
     1
102
RTVSPost2010Prop47
 90
       50
102
RTVSPost2010PropOp47
 70
     1
102
RTVSPost2010Prop48
 90
       50
102
RTVSPost2010PropOp48
 70
     1
102
RTVSPost2010Prop49
280
     0
102
RTVSPost2010PropOp49
 70
     1
102
RTVSPost2010Prop50
 90
       50
102
RTVSPost2010PropOp50
 70
     1
102
RTVSPost2010Prop51ColorIndex
 90
      256
102
RTVSPost2010Prop51ColorRGB
 90
-16777216
102
RTVSPost2010PropOp51
 70
     0
102
RTVSPost2010Prop52
140
1.0
102
RTVSPost2010PropOp52
 70
     0
102
RTVSPost2010Prop53
 90
        2
102
RTVSPost2010PropOp53
 70
     1
102
RTVSPost2010Prop54
  1
strokes_ogs.tif
102
RTVSPost2010PropOp54
 70
     1
102
RTVSPost2010Prop55
280
     0
102
RTVSPost2010PropOp55
 70
     1
102
RTVSPost2010Prop56
140
1.0
102
RTVSPost2010PropOp56
 70
     1
102
RTVSPost2010Prop57
140
1.0
102
RTVSPost2010PropOp57
 70
     1
  0
XRECORD
  5
1E3
102
{ACAD_REACTORS
330
1E2
102
}
330
1E2
100
AcDbXrecord
280
     1
102
RTVSPost2010Prop28
280
     0
102
RTVSPost2010PropOp28
 70
     1
102
RTVSPost2010Prop29
280
     1
102
RTVSPost2010PropOp29
 70
     1
102
RTVSPost2010Prop30
280
     1
102
RTVSPost2010PropOp30
 70
     1
102
RTVSPost2010Prop31
280
     0
102
RTVSPost2010PropOp31
 70
     1
102
RTVSPost2010Prop32
280
     0
102
RTVSPost2010PropOp32
 70
     1
102
RTVSPost2010Prop33
280
     0
102
RTVSPost2010PropOp33
 70
     1
102
RTVSPost2010Prop34
280
     0
102
RTVSPost2010PropOp34
 70
     1
102
RTVSPost2010Prop35
280
     0
102
RTVSPost2010PropOp35
 70
     1
102
RTVSPost2010Prop36
280
     0
102
RTVSPost2010PropOp36
 70
     1
102
RTVSPost2010Prop37
 90
       50
102
RTVSPost2010PropOp37
 70
     1
102
RTVSPost2010Prop38
140
0.0
102
RTVSPost2010PropOp38
 70
     1
102
RTVSPost2010Prop39
140
1.0
102
RTVSPost2010PropOp39
 70
     1
102
RTVSPost2010Prop40
 90
        0
102
RTVSPost2010PropOp40
 70
     1
102
RTVSPost2010Prop41ColorIndex
 90
       18
102
RTVSPost2010Prop41ColorRGB
 90
        0
102
RTVSPost2010PropOp41
 70
     1
102
RTVSPost2010Prop42
 90
       50
102
RTVSPost2010PropOp42
 70
     1
102
RTVSPost2010Prop43
 90
        3
102
RTVSPost2010PropOp43
 70
     1
102
RTVSPost2010Prop44ColorIndex
 90
        5
102
RTVSPost2010Prop44ColorRGB
 90
      255
102
RTVSPost2010PropOp44
 70
     1
102
RTVSPost2010Prop45
280
     0
102
RTVSPost2010PropOp45
 70
     1
102
RTVSPost2010Prop46
 90
       50
102
RTVSPost2010PropOp46
 70
     1
102
RTVSPost2010Prop47
 90
       50
102
RTVSPost2010PropOp47
 70
     1
102
RTVSPost2010Prop48
 90
       50
102
RTVSPost2010PropOp48
 70
     1
102
RTVSPost2010Prop49
280
     0
102
RTVSPost2010PropOp49
 70
     1
102
RTVSPost2010Prop50
 90
       50
102
RTVSPost2010PropOp50
 70
     1
102
RTVSPost2010Prop51ColorIndex
 90
      256
102
RTVSPost2010Prop51ColorRGB
 90
-16777216
102
RTVSPost2010PropOp51
 70
     0
102
RTVSPost2010Prop52
140
1.0
102
RTVSPost2010PropOp52
 70
     0
102
RTVSPost2010Prop53
 90
        2
102
RTVSPost2010PropOp53
 70
     1
102
RTVSPost2010Prop54
  1
strokes_ogs.tif
102
RTVSPost2010PropOp54
 70
     1
102
RTVSPost2010Prop55
280
     0
102
RTVSPost2010PropOp55
 70
     1
102
RTVSPost2010Prop56
140
1.0
102
RTVSPost2010PropOp56
 70
     1
102
RTVSPost2010Prop57
140
1.0
102
RTVSPost2010PropOp57
 70
     1
  0
XRECORD
  5
1EB
102
{ACAD_REACTORS
330
1EA
102
}
330
1EA
100
AcDbXrecord
280
     1
102
RTVSPost2010Prop28
280
     0
102
RTVSPost2010PropOp28
 70
     1
102
RTVSPost2010Prop29
280
     1
102
RTVSPost2010PropOp29
 70
     1
102
RTVSPost2010Prop30
280
     1
102
RTVSPost2010PropOp30
 70
     1
102
RTVSPost2010Prop31
280
     0
102
RTVSPost2010PropOp31
 70
     1
102
RTVSPost2010Prop32
280
     0
102
RTVSPost2010PropOp32
 70
     1
102
RTVSPost2010Prop33
280
     0
102
RTVSPost2010PropOp33
 70
     1
102
RTVSPost2010Prop34
280
     0
102
RTVSPost2010PropOp34
 70
     1
102
RTVSPost2010Prop35
280
     0
102
RTVSPost2010PropOp35
 70
     1
102
RTVSPost2010Prop36
280
     0
102
RTVSPost2010PropOp36
 70
     1
102
RTVSPost2010Prop37
 90
       50
102
RTVSPost2010PropOp37
 70
     1
102
RTVSPost2010Prop38
140
0.0
102
RTVSPost2010PropOp38
 70
     1
102
RTVSPost2010Prop39
140
1.0
102
RTVSPost2010PropOp39
 70
     1
102
RTVSPost2010Prop40
 90
        0
102
RTVSPost2010PropOp40
 70
     1
102
RTVSPost2010Prop41ColorIndex
 90
       18
102
RTVSPost2010Prop41ColorRGB
 90
        0
102
RTVSPost2010PropOp41
 70
     1
102
RTVSPost2010Prop42
 90
       50
102
RTVSPost2010PropOp42
 70
     1
102
RTVSPost2010Prop43
 90
        3
102
RTVSPost2010PropOp43
 70
     1
102
RTVSPost2010Prop44ColorIndex
 90
        5
102
RTVSPost2010Prop44ColorRGB
 90
      255
102
RTVSPost2010PropOp44
 70
     1
102
RTVSPost2010Prop45
280
     0
102
RTVSPost2010PropOp45
 70
     1
102
RTVSPost2010Prop46
 90
       50
102
RTVSPost2010PropOp46
 70
     1
102
RTVSPost2010Prop47
 90
       50
102
RTVSPost2010PropOp47
 70
     1
102
RTVSPost2010Prop48
 90
       50
102
RTVSPost2010PropOp48
 70
     1
102
RTVSPost2010Prop49
280
     0
102
RTVSPost2010PropOp49
 70
     1
102
RTVSPost2010Prop50
 90
       50
102
RTVSPost2010PropOp50
 70
     1
102
RTVSPost2010Prop51ColorIndex
 90
      256
102
RTVSPost2010Prop51ColorRGB
 90
-16777216
102
RTVSPost2010PropOp51
 70
     0
102
RTVSPost2010Prop52
140
1.0
102
RTVSPost2010PropOp52
 70
     0
102
RTVSPost2010Prop53
 90
        2
102
RTVSPost2010PropOp53
 70
     1
102
RTVSPost2010Prop54
  1
strokes_ogs.tif
102
RTVSPost2010PropOp54
 70
     1
102
RTVSPost2010Prop55
280
     0
102
RTVSPost2010PropOp55
 70
     1
102
RTVSPost2010Prop56
140
1.0
102
RTVSPost2010PropOp56
 70
     1
102
RTVSPost2010Prop57
140
1.0
102
RTVSPost2010PropOp57
 70
     1
  0
XRECORD
  5
1DD
102
{ACAD_REACTORS
330
1DC
102
}
330
1DC
100
AcDbXrecord
280
     1
102
RTVSPost2010Prop28
280
     0
102
RTVSPost2010PropOp28
 70
     1
102
RTVSPost2010Prop29
280
     1
102
RTVSPost2010PropOp29
 70
     1
102
RTVSPost2010Prop30
280
     1
102
RTVSPost2010PropOp30
 70
     1
102
RTVSPost2010Prop31
280
     0
102
RTVSPost2010PropOp31
 70
     1
102
RTVSPost2010Prop32
280
     0
102
RTVSPost2010PropOp32
 70
     1
102
RTVSPost2010Prop33
280
     0
102
RTVSPost2010PropOp33
 70
     1
102
RTVSPost2010Prop34
280
     0
102
RTVSPost2010PropOp34
 70
     1
102
RTVSPost2010Prop35
280
     0
102
RTVSPost2010PropOp35
 70
     1
102
RTVSPost2010Prop36
280
     0
102
RTVSPost2010PropOp36
 70
     1
102
RTVSPost2010Prop37
 90
       50
102
RTVSPost2010PropOp37
 70
     1
102
RTVSPost2010Prop38
140
0.0
102
RTVSPost2010PropOp38
 70
     1
102
RTVSPost2010Prop39
140
1.0
102
RTVSPost2010PropOp39
 70
     1
102
RTVSPost2010Prop40
 90
        0
102
RTVSPost2010PropOp40
 70
     1
102
RTVSPost2010Prop41ColorIndex
 90
       18
102
RTVSPost2010Prop41ColorRGB
 90
        0
102
RTVSPost2010PropOp41
 70
     1
102
RTVSPost2010Prop42
 90
       50
102
RTVSPost2010PropOp42
 70
     1
102
RTVSPost2010Prop43
 90
        3
102
RTVSPost2010PropOp43
 70
     1
102
RTVSPost2010Prop44ColorIndex
 90
        5
102
RTVSPost2010Prop44ColorRGB
 90
      255
102
RTVSPost2010PropOp44
 70
     1
102
RTVSPost2010Prop45
280
     0
102
RTVSPost2010PropOp45
 70
     1
102
RTVSPost2010Prop46
 90
       50
102
RTVSPost2010PropOp46
 70
     1
102
RTVSPost2010Prop47
 90
       50
102
RTVSPost2010PropOp47
 70
     1
102
RTVSPost2010Prop48
 90
       50
102
RTVSPost2010PropOp48
 70
     1
102
RTVSPost2010Prop49
280
     0
102
RTVSPost2010PropOp49
 70
     1
102
RTVSPost2010Prop50
 90
       50
102
RTVSPost2010PropOp50
 70
     1
102
RTVSPost2010Prop51ColorIndex
 90
      256
102
RTVSPost2010Prop51ColorRGB
 90
-16777216
102
RTVSPost2010PropOp51
 70
     0
102
RTVSPost2010Prop52
140
1.0
102
RTVSPost2010PropOp52
 70
     0
102
RTVSPost2010Prop53
 90
        2
102
RTVSPost2010PropOp53
 70
     1
102
RTVSPost2010Prop54
  1
strokes_ogs.tif
102
RTVSPost2010PropOp54
 70
     1
102
RTVSPost2010Prop55
280
     0
102
RTVSPost2010PropOp55
 70
     1
102
RTVSPost2010Prop56
140
1.0
102
RTVSPost2010PropOp56
 70
     1
102
RTVSPost2010Prop57
140
1.0
102
RTVSPost2010PropOp57
 70
     1
  0
XRECORD
  5
1E1
102
{ACAD_REACTORS
330
1E0
102
}
330
1E0
100
AcDbXrecord
280
     1
102
RTVSPost2010Prop28
280
     0
102
RTVSPost2010PropOp28
 70
     1
102
RTVSPost2010Prop29
280
     1
102
RTVSPost2010PropOp29
 70
     1
102
RTVSPost2010Prop30
280
     1
102
RTVSPost2010PropOp30
 70
     1
102
RTVSPost2010Prop31
280
     0
102
RTVSPost2010PropOp31
 70
     1
102
RTVSPost2010Prop32
280
     0
102
RTVSPost2010PropOp32
 70
     1
102
RTVSPost2010Prop33
280
     0
102
RTVSPost2010PropOp33
 70
     1
102
RTVSPost2010Prop34
280
     0
102
RTVSPost2010PropOp34
 70
     1
102
RTVSPost2010Prop35
280
     0
102
RTVSPost2010PropOp35
 70
     1
102
RTVSPost2010Prop36
280
     0
102
RTVSPost2010PropOp36
 70
     1
102
RTVSPost2010Prop37
 90
       50
102
RTVSPost2010PropOp37
 70
     1
102
RTVSPost2010Prop38
140
0.0
102
RTVSPost2010PropOp38
 70
     1
102
RTVSPost2010Prop39
140
1.0
102
RTVSPost2010PropOp39
 70
     1
102
RTVSPost2010Prop40
 90
        0
102
RTVSPost2010PropOp40
 70
     1
102
RTVSPost2010Prop41ColorIndex
 90
       18
102
RTVSPost2010Prop41ColorRGB
 90
        0
102
RTVSPost2010PropOp41
 70
     1
102
RTVSPost2010Prop42
 90
       50
102
RTVSPost2010PropOp42
 70
     1
102
RTVSPost2010Prop43
 90
        3
102
RTVSPost2010PropOp43
 70
     1
102
RTVSPost2010Prop44ColorIndex
 90
        5
102
RTVSPost2010Prop44ColorRGB
 90
      255
102
RTVSPost2010PropOp44
 70
     1
102
RTVSPost2010Prop45
280
     0
102
RTVSPost2010PropOp45
 70
     1
102
RTVSPost2010Prop46
 90
       50
102
RTVSPost2010PropOp46
 70
     1
102
RTVSPost2010Prop47
 90
       50
102
RTVSPost2010PropOp47
 70
     1
102
RTVSPost2010Prop48
 90
       50
102
RTVSPost2010PropOp48
 70
     1
102
RTVSPost2010Prop49
280
     0
102
RTVSPost2010PropOp49
 70
     1
102
RTVSPost2010Prop50
 90
       50
102
RTVSPost2010PropOp50
 70
     1
102
RTVSPost2010Prop51ColorIndex
 90
      256
102
RTVSPost2010Prop51ColorRGB
 90
-16777216
102
RTVSPost2010PropOp51
 70
     0
102
RTVSPost2010Prop52
140
1.0
102
RTVSPost2010PropOp52
 70
     0
102
RTVSPost2010Prop53
 90
        2
102
RTVSPost2010PropOp53
 70
     1
102
RTVSPost2010Prop54
  1
strokes_ogs.tif
102
RTVSPost2010PropOp54
 70
     1
102
RTVSPost2010Prop55
280
     0
102
RTVSPost2010PropOp55
 70
     1
102
RTVSPost2010Prop56
140
1.0
102
RTVSPost2010PropOp56
 70
     1
102
RTVSPost2010Prop57
140
1.0
102
RTVSPost2010PropOp57
 70
     1
  0
XRECORD
  5
1FB
102
{ACAD_REACTORS
330
1FA
102
}
330
1FA
100
AcDbXrecord
280
     1
102
RTVSPost2010Prop28
280
     0
102
RTVSPost2010PropOp28
 70
     0
102
RTVSPost2010Prop29
280
     1
102
RTVSPost2010PropOp29
 70
     0
102
RTVSPost2010Prop30
280
     1
102
RTVSPost2010PropOp30
 70
     0
102
RTVSPost2010Prop31
280
     0
102
RTVSPost2010PropOp31
 70
     0
102
RTVSPost2010Prop32
280
     0
102
RTVSPost2010PropOp32
 70
     0
102
RTVSPost2010Prop33
280
     0
102
RTVSPost2010PropOp33
 70
     0
102
RTVSPost2010Prop34
280
     0
102
RTVSPost2010PropOp34
 70
     0
102
RTVSPost2010Prop35
280
     0
102
RTVSPost2010PropOp35
 70
     0
102
RTVSPost2010Prop36
280
     0
102
RTVSPost2010PropOp36
 70
     0
102
RTVSPost2010Prop37
 90
       50
102
RTVSPost2010PropOp37
 70
     0
102
RTVSPost2010Prop38
140
0.0
102
RTVSPost2010PropOp38
 70
     0
102
RTVSPost2010Prop39
140
1.0
102
RTVSPost2010PropOp39
 70
     0
102
RTVSPost2010Prop40
 90
        0
102
RTVSPost2010PropOp40
 70
     0
102
RTVSPost2010Prop41ColorIndex
 90
       18
102
RTVSPost2010Prop41ColorRGB
 90
        0
102
RTVSPost2010PropOp41
 70
     0
102
RTVSPost2010Prop42
 90
       50
102
RTVSPost2010PropOp42
 70
     0
102
RTVSPost2010Prop43
 90
        3
102
RTVSPost2010PropOp43
 70
     0
102
RTVSPost2010Prop44ColorIndex
 90
        5
102
RTVSPost2010Prop44ColorRGB
 90
      255
102
RTVSPost2010PropOp44
 70
     0
102
RTVSPost2010Prop45
280
     0
102
RTVSPost2010PropOp45
 70
     0
102
RTVSPost2010Prop46
 90
       50
102
RTVSPost2010PropOp46
 70
     0
102
RTVSPost2010Prop47
 90
       50
102
RTVSPost2010PropOp47
 70
     0
102
RTVSPost2010Prop48
 90
       50
102
RTVSPost2010PropOp48
 70
     0
102
RTVSPost2010Prop49
280
     0
102
RTVSPost2010PropOp49
 70
     0
102
RTVSPost2010Prop50
 90
       50
102
RTVSPost2010PropOp50
 70
     0
102
RTVSPost2010Prop51ColorIndex
 90
      256
102
RTVSPost2010Prop51ColorRGB
 90
-16777216
102
RTVSPost2010PropOp51
 70
     0
102
RTVSPost2010Prop52
140
1.0
102
RTVSPost2010PropOp52
 70
     0
102
RTVSPost2010Prop53
 90
        2
102
RTVSPost2010PropOp53
 70
     0
102
RTVSPost2010Prop54
  1
strokes_ogs.tif
102
RTVSPost2010PropOp54
 70
     0
102
RTVSPost2010Prop55
280
     0
102
RTVSPost2010PropOp55
 70
     0
102
RTVSPost2010Prop56
140
1.0
102
RTVSPost2010PropOp56
 70
     0
102
RTVSPost2010Prop57
140
1.0
102
RTVSPost2010PropOp57
 70
     0
  0
XRECORD
  5
1E9
102
{ACAD_REACTORS
330
1E8
102
}
330
1E8
100
AcDbXrecord
280
     1
102
RTVSPost2010Prop28
280
     0
102
RTVSPost2010PropOp28
 70
     1
102
RTVSPost2010Prop29
280
     1
102
RTVSPost2010PropOp29
 70
     1
102
RTVSPost2010Prop30
280
     1
102
RTVSPost2010PropOp30
 70
     1
102
RTVSPost2010Prop31
280
     0
102
RTVSPost2010PropOp31
 70
     1
102
RTVSPost2010Prop32
280
     0
102
RTVSPost2010PropOp32
 70
     1
102
RTVSPost2010Prop33
280
     0
102
RTVSPost2010PropOp33
 70
     1
102
RTVSPost2010Prop34
280
     0
102
RTVSPost2010PropOp34
 70
     1
102
RTVSPost2010Prop35
280
     0
102
RTVSPost2010PropOp35
 70
     1
102
RTVSPost2010Prop36
280
     0
102
RTVSPost2010PropOp36
 70
     1
102
RTVSPost2010Prop37
 90
       50
102
RTVSPost2010PropOp37
 70
     1
102
RTVSPost2010Prop38
140
0.0
102
RTVSPost2010PropOp38
 70
     1
102
RTVSPost2010Prop39
140
1.0
102
RTVSPost2010PropOp39
 70
     1
102
RTVSPost2010Prop40
 90
        0
102
RTVSPost2010PropOp40
 70
     1
102
RTVSPost2010Prop41ColorIndex
 90
       18
102
RTVSPost2010Prop41ColorRGB
 90
        0
102
RTVSPost2010PropOp41
 70
     1
102
RTVSPost2010Prop42
 90
       50
102
RTVSPost2010PropOp42
 70
     1
102
RTVSPost2010Prop43
 90
        3
102
RTVSPost2010PropOp43
 70
     1
102
RTVSPost2010Prop44ColorIndex
 90
        5
102
RTVSPost2010Prop44ColorRGB
 90
      255
102
RTVSPost2010PropOp44
 70
     1
102
RTVSPost2010Prop45
280
     0
102
RTVSPost2010PropOp45
 70
     1
102
RTVSPost2010Prop46
 90
       50
102
RTVSPost2010PropOp46
 70
     1
102
RTVSPost2010Prop47
 90
       50
102
RTVSPost2010PropOp47
 70
     1
102
RTVSPost2010Prop48
 90
       50
102
RTVSPost2010PropOp48
 70
     1
102
RTVSPost2010Prop49
280
     0
102
RTVSPost2010PropOp49
 70
     1
102
RTVSPost2010Prop50
 90
       50
102
RTVSPost2010PropOp50
 70
     1
102
RTVSPost2010Prop51ColorIndex
 90
      256
102
RTVSPost2010Prop51ColorRGB
 90
-16777216
102
RTVSPost2010PropOp51
 70
     0
102
RTVSPost2010Prop52
140
1.0
102
RTVSPost2010PropOp52
 70
     0
102
RTVSPost2010Prop53
 90
        2
102
RTVSPost2010PropOp53
 70
     1
102
RTVSPost2010Prop54
  1
strokes_ogs.tif
102
RTVSPost2010PropOp54
 70
     1
102
RTVSPost2010Prop55
280
     0
102
RTVSPost2010PropOp55
 70
     1
102
RTVSPost2010Prop56
140
1.0
102
RTVSPost2010PropOp56
 70
     1
102
RTVSPost2010Prop57
140
1.0
102
RTVSPost2010PropOp57
 70
     1
  0
XRECORD
  5
1CD
102
{ACAD_REACTORS
330
1CC
102
}
330
1CC
100
AcDbXrecord
280
     1
102
RTVSPost2010Prop28
280
     0
102
RTVSPost2010PropOp28
 70
     1
102
RTVSPost2010Prop29
280
     1
102
RTVSPost2010PropOp29
 70
     1
102
RTVSPost2010Prop30
280
     1
102
RTVSPost2010PropOp30
 70
     1
102
RTVSPost2010Prop31
280
     0
102
RTVSPost2010PropOp31
 70
     1
102
RTVSPost2010Prop32
280
     0
102
RTVSPost2010PropOp32
 70
     1
102
RTVSPost2010Prop33
280
     0
102
RTVSPost2010PropOp33
 70
     1
102
RTVSPost2010Prop34
280
     0
102
RTVSPost2010PropOp34
 70
     1
102
RTVSPost2010Prop35
280
     0
102
RTVSPost2010PropOp35
 70
     1
102
RTVSPost2010Prop36
280
     0
102
RTVSPost2010PropOp36
 70
     1
102
RTVSPost2010Prop37
 90
       50
102
RTVSPost2010PropOp37
 70
     1
102
RTVSPost2010Prop38
140
0.0
102
RTVSPost2010PropOp38
 70
     1
102
RTVSPost2010Prop39
140
1.0
102
RTVSPost2010PropOp39
 70
     1
102
RTVSPost2010Prop40
 90
        0
102
RTVSPost2010PropOp40
 70
     1
102
RTVSPost2010Prop41ColorIndex
 90
       18
102
RTVSPost2010Prop41ColorRGB
 90
        0
102
RTVSPost2010PropOp41
 70
     1
102
RTVSPost2010Prop42
 90
       50
102
RTVSPost2010PropOp42
 70
     1
102
RTVSPost2010Prop43
 90
        3
102
RTVSPost2010PropOp43
 70
     1
102
RTVSPost2010Prop44ColorIndex
 90
        5
102
RTVSPost2010Prop44ColorRGB
 90
      255
102
RTVSPost2010PropOp44
 70
     1
102
RTVSPost2010Prop45
280
     0
102
RTVSPost2010PropOp45
 70
     1
102
RTVSPost2010Prop46
 90
       50
102
RTVSPost2010PropOp46
 70
     1
102
RTVSPost2010Prop47
 90
       50
102
RTVSPost2010PropOp47
 70
     1
102
RTVSPost2010Prop48
 90
       50
102
RTVSPost2010PropOp48
 70
     1
102
RTVSPost2010Prop49
280
     0
102
RTVSPost2010PropOp49
 70
     1
102
RTVSPost2010Prop50
 90
       50
102
RTVSPost2010PropOp50
 70
     1
102
RTVSPost2010Prop51ColorIndex
 90
      256
102
RTVSPost2010Prop51ColorRGB
 90
-16777216
102
RTVSPost2010PropOp51
 70
     0
102
RTVSPost2010Prop52
140
1.0
102
RTVSPost2010PropOp52
 70
     0
102
RTVSPost2010Prop53
 90
        2
102
RTVSPost2010PropOp53
 70
     1
102
RTVSPost2010Prop54
  1
strokes_ogs.tif
102
RTVSPost2010PropOp54
 70
     1
102
RTVSPost2010Prop55
280
     0
102
RTVSPost2010PropOp55
 70
     1
102
RTVSPost2010Prop56
140
1.0
102
RTVSPost2010PropOp56
 70
     1
102
RTVSPost2010Prop57
140
1.0
102
RTVSPost2010PropOp57
 70
     1
  0
XRECORD
  5
1CF
102
{ACAD_REACTORS
330
1CE
102
}
330
1CE
100
AcDbXrecord
280
     1
102
RTVSPost2010Prop28
280
     0
102
RTVSPost2010PropOp28
 70
     1
102
RTVSPost2010Prop29
280
     1
102
RTVSPost2010PropOp29
 70
     1
102
RTVSPost2010Prop30
280
     1
102
RTVSPost2010PropOp30
 70
     1
102
RTVSPost2010Prop31
280
     0
102
RTVSPost2010PropOp31
 70
     1
102
RTVSPost2010Prop32
280
     0
102
RTVSPost2010PropOp32
 70
     1
102
RTVSPost2010Prop33
280
     0
102
RTVSPost2010PropOp33
 70
     1
102
RTVSPost2010Prop34
280
     0
102
RTVSPost2010PropOp34
 70
     1
102
RTVSPost2010Prop35
280
     0
102
RTVSPost2010PropOp35
 70
     1
102
RTVSPost2010Prop36
280
     0
102
RTVSPost2010PropOp36
 70
     1
102
RTVSPost2010Prop37
 90
       50
102
RTVSPost2010PropOp37
 70
     1
102
RTVSPost2010Prop38
140
0.0
102
RTVSPost2010PropOp38
 70
     1
102
RTVSPost2010Prop39
140
1.0
102
RTVSPost2010PropOp39
 70
     1
102
RTVSPost2010Prop40
 90
        0
102
RTVSPost2010PropOp40
 70
     1
102
RTVSPost2010Prop41ColorIndex
 90
       18
102
RTVSPost2010Prop41ColorRGB
 90
        0
102
RTVSPost2010PropOp41
 70
     1
102
RTVSPost2010Prop42
 90
       50
102
RTVSPost2010PropOp42
 70
     1
102
RTVSPost2010Prop43
 90
        3
102
RTVSPost2010PropOp43
 70
     1
102
RTVSPost2010Prop44ColorIndex
 90
        5
102
RTVSPost2010Prop44ColorRGB
 90
      255
102
RTVSPost2010PropOp44
 70
     1
102
RTVSPost2010Prop45
280
     0
102
RTVSPost2010PropOp45
 70
     1
102
RTVSPost2010Prop46
 90
       50
102
RTVSPost2010PropOp46
 70
     1
102
RTVSPost2010Prop47
 90
       50
102
RTVSPost2010PropOp47
 70
     1
102
RTVSPost2010Prop48
 90
       50
102
RTVSPost2010PropOp48
 70
     1
102
RTVSPost2010Prop49
280
     0
102
RTVSPost2010PropOp49
 70
     1
102
RTVSPost2010Prop50
 90
       50
102
RTVSPost2010PropOp50
 70
     1
102
RTVSPost2010Prop51ColorIndex
 90
      256
102
RTVSPost2010Prop51ColorRGB
 90
-16777216
102
RTVSPost2010PropOp51
 70
     0
102
RTVSPost2010Prop52
140
1.0
102
RTVSPost2010PropOp52
 70
     0
102
RTVSPost2010Prop53
 90
        2
102
RTVSPost2010PropOp53
 70
     1
102
RTVSPost2010Prop54
  1
strokes_ogs.tif
102
RTVSPost2010PropOp54
 70
     1
102
RTVSPost2010Prop55
280
     0
102
RTVSPost2010PropOp55
 70
     1
102
RTVSPost2010Prop56
140
1.0
102
RTVSPost2010PropOp56
 70
     1
102
RTVSPost2010Prop57
140
1.0
102
RTVSPost2010PropOp57
 70
     1
  0
XRECORD
  5
1D1
102
{ACAD_REACTORS
330
1D0
102
}
330
1D0
100
AcDbXrecord
280
     1
102
RTVSPost2010Prop28
280
     0
102
RTVSPost2010PropOp28
 70
     1
102
RTVSPost2010Prop29
280
     1
102
RTVSPost2010PropOp29
 70
     1
102
RTVSPost2010Prop30
280
     1
102
RTVSPost2010PropOp30
 70
     1
102
RTVSPost2010Prop31
280
     0
102
RTVSPost2010PropOp31
 70
     1
102
RTVSPost2010Prop32
280
     0
102
RTVSPost2010PropOp32
 70
     1
102
RTVSPost2010Prop33
280
     0
102
RTVSPost2010PropOp33
 70
     1
102
RTVSPost2010Prop34
280
     0
102
RTVSPost2010PropOp34
 70
     1
102
RTVSPost2010Prop35
280
     0
102
RTVSPost2010PropOp35
 70
     1
102
RTVSPost2010Prop36
280
     0
102
RTVSPost2010PropOp36
 70
     1
102
RTVSPost2010Prop37
 90
       50
102
RTVSPost2010PropOp37
 70
     1
102
RTVSPost2010Prop38
140
0.0
102
RTVSPost2010PropOp38
 70
     1
102
RTVSPost2010Prop39
140
1.0
102
RTVSPost2010PropOp39
 70
     1
102
RTVSPost2010Prop40
 90
        0
102
RTVSPost2010PropOp40
 70
     1
102
RTVSPost2010Prop41ColorIndex
 90
       18
102
RTVSPost2010Prop41ColorRGB
 90
        0
102
RTVSPost2010PropOp41
 70
     1
102
RTVSPost2010Prop42
 90
       50
102
RTVSPost2010PropOp42
 70
     1
102
RTVSPost2010Prop43
 90
        3
102
RTVSPost2010PropOp43
 70
     1
102
RTVSPost2010Prop44ColorIndex
 90
        5
102
RTVSPost2010Prop44ColorRGB
 90
      255
102
RTVSPost2010PropOp44
 70
     1
102
RTVSPost2010Prop45
280
     0
102
RTVSPost2010PropOp45
 70
     1
102
RTVSPost2010Prop46
 90
       50
102
RTVSPost2010PropOp46
 70
     1
102
RTVSPost2010Prop47
 90
       50
102
RTVSPost2010PropOp47
 70
     1
102
RTVSPost2010Prop48
 90
       50
102
RTVSPost2010PropOp48
 70
     1
102
RTVSPost2010Prop49
280
     0
102
RTVSPost2010PropOp49
 70
     1
102
RTVSPost2010Prop50
 90
       50
102
RTVSPost2010PropOp50
 70
     1
102
RTVSPost2010Prop51ColorIndex
 90
      256
102
RTVSPost2010Prop51ColorRGB
 90
-16777216
102
RTVSPost2010PropOp51
 70
     0
102
RTVSPost2010Prop52
140
1.0
102
RTVSPost2010PropOp52
 70
     0
102
RTVSPost2010Prop53
 90
        2
102
RTVSPost2010PropOp53
 70
     1
102
RTVSPost2010Prop54
  1
strokes_ogs.tif
102
RTVSPost2010PropOp54
 70
     1
102
RTVSPost2010Prop55
280
     0
102
RTVSPost2010PropOp55
 70
     1
102
RTVSPost2010Prop56
140
1.0
102
RTVSPost2010PropOp56
 70
     1
102
RTVSPost2010Prop57
140
1.0
102
RTVSPost2010PropOp57
 70
     1
  0
XRECORD
  5
1D3
102
{ACAD_REACTORS
330
1D2
102
}
330
1D2
100
AcDbXrecord
280
     1
102
RTVSPost2010Prop28
280
     0
102
RTVSPost2010PropOp28
 70
     1
102
RTVSPost2010Prop29
280
     1
102
RTVSPost2010PropOp29
 70
     1
102
RTVSPost2010Prop30
280
     1
102
RTVSPost2010PropOp30
 70
     1
102
RTVSPost2010Prop31
280
     0
102
RTVSPost2010PropOp31
 70
     1
102
RTVSPost2010Prop32
280
     0
102
RTVSPost2010PropOp32
 70
     1
102
RTVSPost2010Prop33
280
     0
102
RTVSPost2010PropOp33
 70
     1
102
RTVSPost2010Prop34
280
     0
102
RTVSPost2010PropOp34
 70
     1
102
RTVSPost2010Prop35
280
     0
102
RTVSPost2010PropOp35
 70
     1
102
RTVSPost2010Prop36
280
     0
102
RTVSPost2010PropOp36
 70
     1
102
RTVSPost2010Prop37
 90
       50
102
RTVSPost2010PropOp37
 70
     1
102
RTVSPost2010Prop38
140
0.0
102
RTVSPost2010PropOp38
 70
     1
102
RTVSPost2010Prop39
140
1.0
102
RTVSPost2010PropOp39
 70
     1
102
RTVSPost2010Prop40
 90
        0
102
RTVSPost2010PropOp40
 70
     1
102
RTVSPost2010Prop41ColorIndex
 90
       18
102
RTVSPost2010Prop41ColorRGB
 90
        0
102
RTVSPost2010PropOp41
 70
     1
102
RTVSPost2010Prop42
 90
       50
102
RTVSPost2010PropOp42
 70
     1
102
RTVSPost2010Prop43
 90
        3
102
RTVSPost2010PropOp43
 70
     1
102
RTVSPost2010Prop44ColorIndex
 90
        5
102
RTVSPost2010Prop44ColorRGB
 90
      255
102
RTVSPost2010PropOp44
 70
     1
102
RTVSPost2010Prop45
280
     0
102
RTVSPost2010PropOp45
 70
     1
102
RTVSPost2010Prop46
 90
       50
102
RTVSPost2010PropOp46
 70
     1
102
RTVSPost2010Prop47
 90
       50
102
RTVSPost2010PropOp47
 70
     1
102
RTVSPost2010Prop48
 90
       50
102
RTVSPost2010PropOp48
 70
     1
102
RTVSPost2010Prop49
280
     0
102
RTVSPost2010PropOp49
 70
     1
102
RTVSPost2010Prop50
 90
       50
102
RTVSPost2010PropOp50
 70
     1
102
RTVSPost2010Prop51ColorIndex
 90
      256
102
RTVSPost2010Prop51ColorRGB
 90
-16777216
102
RTVSPost2010PropOp51
 70
     0
102
RTVSPost2010Prop52
140
1.0
102
RTVSPost2010PropOp52
 70
     0
102
RTVSPost2010Prop53
 90
        2
102
RTVSPost2010PropOp53
 70
     1
102
RTVSPost2010Prop54
  1
strokes_ogs.tif
102
RTVSPost2010PropOp54
 70
     1
102
RTVSPost2010Prop55
280
     0
102
RTVSPost2010PropOp55
 70
     1
102
RTVSPost2010Prop56
140
1.0
102
RTVSPost2010PropOp56
 70
     1
102
RTVSPost2010Prop57
140
1.0
102
RTVSPost2010PropOp57
 70
     1
  0
XRECORD
  5
1DB
102
{ACAD_REACTORS
330
1DA
102
}
330
1DA
100
AcDbXrecord
280
     1
102
RTVSPost2010Prop28
280
     0
102
RTVSPost2010PropOp28
 70
     1
102
RTVSPost2010Prop29
280
     1
102
RTVSPost2010PropOp29
 70
     1
102
RTVSPost2010Prop30
280
     1
102
RTVSPost2010PropOp30
 70
     1
102
RTVSPost2010Prop31
280
     0
102
RTVSPost2010PropOp31
 70
     1
102
RTVSPost2010Prop32
280
     0
102
RTVSPost2010PropOp32
 70
     1
102
RTVSPost2010Prop33
280
     0
102
RTVSPost2010PropOp33
 70
     1
102
RTVSPost2010Prop34
280
     0
102
RTVSPost2010PropOp34
 70
     1
102
RTVSPost2010Prop35
280
     0
102
RTVSPost2010PropOp35
 70
     1
102
RTVSPost2010Prop36
280
     0
102
RTVSPost2010PropOp36
 70
     1
102
RTVSPost2010Prop37
 90
       50
102
RTVSPost2010PropOp37
 70
     1
102
RTVSPost2010Prop38
140
0.0
102
RTVSPost2010PropOp38
 70
     1
102
RTVSPost2010Prop39
140
1.0
102
RTVSPost2010PropOp39
 70
     1
102
RTVSPost2010Prop40
 90
        0
102
RTVSPost2010PropOp40
 70
     1
102
RTVSPost2010Prop41ColorIndex
 90
       18
102
RTVSPost2010Prop41ColorRGB
 90
        0
102
RTVSPost2010PropOp41
 70
     1
102
RTVSPost2010Prop42
 90
       50
102
RTVSPost2010PropOp42
 70
     1
102
RTVSPost2010Prop43
 90
        3
102
RTVSPost2010PropOp43
 70
     1
102
RTVSPost2010Prop44ColorIndex
 90
        5
102
RTVSPost2010Prop44ColorRGB
 90
      255
102
RTVSPost2010PropOp44
 70
     1
102
RTVSPost2010Prop45
280
     0
102
RTVSPost2010PropOp45
 70
     1
102
RTVSPost2010Prop46
 90
       50
102
RTVSPost2010PropOp46
 70
     1
102
RTVSPost2010Prop47
 90
       50
102
RTVSPost2010PropOp47
 70
     1
102
RTVSPost2010Prop48
 90
       50
102
RTVSPost2010PropOp48
 70
     1
102
RTVSPost2010Prop49
280
     0
102
RTVSPost2010PropOp49
 70
     1
102
RTVSPost2010Prop50
 90
       50
102
RTVSPost2010PropOp50
 70
     1
102
RTVSPost2010Prop51ColorIndex
 90
      256
102
RTVSPost2010Prop51ColorRGB
 90
-16777216
102
RTVSPost2010PropOp51
 70
     0
102
RTVSPost2010Prop52
140
1.0
102
RTVSPost2010PropOp52
 70
     0
102
RTVSPost2010Prop53
 90
        2
102
RTVSPost2010PropOp53
 70
     1
102
RTVSPost2010Prop54
  1
strokes_ogs.tif
102
RTVSPost2010PropOp54
 70
     1
102
RTVSPost2010Prop55
280
     0
102
RTVSPost2010PropOp55
 70
     1
102
RTVSPost2010Prop56
140
1.0
102
RTVSPost2010PropOp56
 70
     1
102
RTVSPost2010Prop57
140
1.0
102
RTVSPost2010PropOp57
 70
     1
  0
XRECORD
  5
1F7
102
{ACAD_REACTORS
330
1F6
102
}
330
1F6
100
AcDbXrecord
280
     1
102
RTVSPost2010Prop28
280
     0
102
RTVSPost2010PropOp28
 70
     0
102
RTVSPost2010Prop29
280
     1
102
RTVSPost2010PropOp29
 70
     0
102
RTVSPost2010Prop30
280
     1
102
RTVSPost2010PropOp30
 70
     0
102
RTVSPost2010Prop31
280
     0
102
RTVSPost2010PropOp31
 70
     0
102
RTVSPost2010Prop32
280
     0
102
RTVSPost2010PropOp32
 70
     0
102
RTVSPost2010Prop33
280
     0
102
RTVSPost2010PropOp33
 70
     0
102
RTVSPost2010Prop34
280
     0
102
RTVSPost2010PropOp34
 70
     0
102
RTVSPost2010Prop35
280
     0
102
RTVSPost2010PropOp35
 70
     0
102
RTVSPost2010Prop36
280
     0
102
RTVSPost2010PropOp36
 70
     0
102
RTVSPost2010Prop37
 90
       50
102
RTVSPost2010PropOp37
 70
     0
102
RTVSPost2010Prop38
140
0.0
102
RTVSPost2010PropOp38
 70
     0
102
RTVSPost2010Prop39
140
1.0
102
RTVSPost2010PropOp39
 70
     0
102
RTVSPost2010Prop40
 90
        0
102
RTVSPost2010PropOp40
 70
     0
102
RTVSPost2010Prop41ColorIndex
 90
       18
102
RTVSPost2010Prop41ColorRGB
 90
        0
102
RTVSPost2010PropOp41
 70
     0
102
RTVSPost2010Prop42
 90
       50
102
RTVSPost2010PropOp42
 70
     0
102
RTVSPost2010Prop43
 90
        3
102
RTVSPost2010PropOp43
 70
     0
102
RTVSPost2010Prop44ColorIndex
 90
        5
102
RTVSPost2010Prop44ColorRGB
 90
      255
102
RTVSPost2010PropOp44
 70
     0
102
RTVSPost2010Prop45
280
     0
102
RTVSPost2010PropOp45
 70
     0
102
RTVSPost2010Prop46
 90
       50
102
RTVSPost2010PropOp46
 70
     0
102
RTVSPost2010Prop47
 90
       50
102
RTVSPost2010PropOp47
 70
     0
102
RTVSPost2010Prop48
 90
       50
102
RTVSPost2010PropOp48
 70
     0
102
RTVSPost2010Prop49
280
     0
102
RTVSPost2010PropOp49
 70
     0
102
RTVSPost2010Prop50
 90
       50
102
RTVSPost2010PropOp50
 70
     0
102
RTVSPost2010Prop51ColorIndex
 90
      256
102
RTVSPost2010Prop51ColorRGB
 90
-16777216
102
RTVSPost2010PropOp51
 70
     0
102
RTVSPost2010Prop52
140
1.0
102
RTVSPost2010PropOp52
 70
     0
102
RTVSPost2010Prop53
 90
        2
102
RTVSPost2010PropOp53
 70
     0
102
RTVSPost2010Prop54
  1
strokes_ogs.tif
102
RTVSPost2010PropOp54
 70
     0
102
RTVSPost2010Prop55
280
     0
102
RTVSPost2010PropOp55
 70
     0
102
RTVSPost2010Prop56
140
1.0
102
RTVSPost2010PropOp56
 70
     0
102
RTVSPost2010Prop57
140
1.0
102
RTVSPost2010PropOp57
 70
     0
  0
XRECORD
  5
1E7
102
{ACAD_REACTORS
330
1E6
102
}
330
1E6
100
AcDbXrecord
280
     1
102
RTVSPost2010Prop28
280
     0
102
RTVSPost2010PropOp28
 70
     1
102
RTVSPost2010Prop29
280
     1
102
RTVSPost2010PropOp29
 70
     1
102
RTVSPost2010Prop30
280
     1
102
RTVSPost2010PropOp30
 70
     1
102
RTVSPost2010Prop31
280
     0
102
RTVSPost2010PropOp31
 70
     1
102
RTVSPost2010Prop32
280
     0
102
RTVSPost2010PropOp32
 70
     1
102
RTVSPost2010Prop33
280
     0
102
RTVSPost2010PropOp33
 70
     1
102
RTVSPost2010Prop34
280
     0
102
RTVSPost2010PropOp34
 70
     1
102
RTVSPost2010Prop35
280
     0
102
RTVSPost2010PropOp35
 70
     1
102
RTVSPost2010Prop36
280
     0
102
RTVSPost2010PropOp36
 70
     1
102
RTVSPost2010Prop37
 90
       50
102
RTVSPost2010PropOp37
 70
     1
102
RTVSPost2010Prop38
140
0.0
102
RTVSPost2010PropOp38
 70
     1
102
RTVSPost2010Prop39
140
1.0
102
RTVSPost2010PropOp39
 70
     1
102
RTVSPost2010Prop40
 90
        0
102
RTVSPost2010PropOp40
 70
     1
102
RTVSPost2010Prop41ColorIndex
 90
       18
102
RTVSPost2010Prop41ColorRGB
 90
        0
102
RTVSPost2010PropOp41
 70
     1
102
RTVSPost2010Prop42
 90
       50
102
RTVSPost2010PropOp42
 70
     1
102
RTVSPost2010Prop43
 90
        3
102
RTVSPost2010PropOp43
 70
     1
102
RTVSPost2010Prop44ColorIndex
 90
        5
102
RTVSPost2010Prop44ColorRGB
 90
      255
102
RTVSPost2010PropOp44
 70
     1
102
RTVSPost2010Prop45
280
     0
102
RTVSPost2010PropOp45
 70
     1
102
RTVSPost2010Prop46
 90
       50
102
RTVSPost2010PropOp46
 70
     1
102
RTVSPost2010Prop47
 90
       50
102
RTVSPost2010PropOp47
 70
     1
102
RTVSPost2010Prop48
 90
       50
102
RTVSPost2010PropOp48
 70
     1
102
RTVSPost2010Prop49
280
     0
102
RTVSPost2010PropOp49
 70
     1
102
RTVSPost2010Prop50
 90
       50
102
RTVSPost2010PropOp50
 70
     1
102
RTVSPost2010Prop51ColorIndex
 90
      256
102
RTVSPost2010Prop51ColorRGB
 90
-16777216
102
RTVSPost2010PropOp51
 70
     0
102
RTVSPost2010Prop52
140
1.0
102
RTVSPost2010PropOp52
 70
     0
102
RTVSPost2010Prop53
 90
        2
102
RTVSPost2010PropOp53
 70
     1
102
RTVSPost2010Prop54
  1
strokes_ogs.tif
102
RTVSPost2010PropOp54
 70
     1
102
RTVSPost2010Prop55
280
     0
102
RTVSPost2010PropOp55
 70
     1
102
RTVSPost2010Prop56
140
1.0
102
RTVSPost2010PropOp56
 70
     1
102
RTVSPost2010Prop57
140
1.0
102
RTVSPost2010PropOp57
 70
     1
  0
XRECORD
  5
1F9
102
{ACAD_REACTORS
330
1F8
102
}
330
1F8
100
AcDbXrecord
280
     1
102
RTVSPost2010Prop28
280
     0
102
RTVSPost2010PropOp28
 70
     0
102
RTVSPost2010Prop29
280
     1
102
RTVSPost2010PropOp29
 70
     0
102
RTVSPost2010Prop30
280
     1
102
RTVSPost2010PropOp30
 70
     0
102
RTVSPost2010Prop31
280
     0
102
RTVSPost2010PropOp31
 70
     0
102
RTVSPost2010Prop32
280
     0
102
RTVSPost2010PropOp32
 70
     0
102
RTVSPost2010Prop33
280
     0
102
RTVSPost2010PropOp33
 70
     0
102
RTVSPost2010Prop34
280
     0
102
RTVSPost2010PropOp34
 70
     0
102
RTVSPost2010Prop35
280
     0
102
RTVSPost2010PropOp35
 70
     0
102
RTVSPost2010Prop36
280
     0
102
RTVSPost2010PropOp36
 70
     0
102
RTVSPost2010Prop37
 90
       50
102
RTVSPost2010PropOp37
 70
     0
102
RTVSPost2010Prop38
140
0.0
102
RTVSPost2010PropOp38
 70
     0
102
RTVSPost2010Prop39
140
1.0
102
RTVSPost2010PropOp39
 70
     0
102
RTVSPost2010Prop40
 90
        0
102
RTVSPost2010PropOp40
 70
     0
102
RTVSPost2010Prop41ColorIndex
 90
       18
102
RTVSPost2010Prop41ColorRGB
 90
        0
102
RTVSPost2010PropOp41
 70
     0
102
RTVSPost2010Prop42
 90
       50
102
RTVSPost2010PropOp42
 70
     0
102
RTVSPost2010Prop43
 90
        3
102
RTVSPost2010PropOp43
 70
     0
102
RTVSPost2010Prop44ColorIndex
 90
        5
102
RTVSPost2010Prop44ColorRGB
 90
      255
102
RTVSPost2010PropOp44
 70
     0
102
RTVSPost2010Prop45
280
     0
102
RTVSPost2010PropOp45
 70
     0
102
RTVSPost2010Prop46
 90
       50
102
RTVSPost2010PropOp46
 70
     0
102
RTVSPost2010Prop47
 90
       50
102
RTVSPost2010PropOp47
 70
     0
102
RTVSPost2010Prop48
 90
       50
102
RTVSPost2010PropOp48
 70
     0
102
RTVSPost2010Prop49
280
     0
102
RTVSPost2010PropOp49
 70
     0
102
RTVSPost2010Prop50
 90
       50
102
RTVSPost2010PropOp50
 70
     0
102
RTVSPost2010Prop51ColorIndex
 90
      256
102
RTVSPost2010Prop51ColorRGB
 90
-16777216
102
RTVSPost2010PropOp51
 70
     0
102
RTVSPost2010Prop52
140
1.0
102
RTVSPost2010PropOp52
 70
     0
102
RTVSPost2010Prop53
 90
        2
102
RTVSPost2010PropOp53
 70
     0
102
RTVSPost2010Prop54
  1
strokes_ogs.tif
102
RTVSPost2010PropOp54
 70
     0
102
RTVSPost2010Prop55
280
     0
102
RTVSPost2010PropOp55
 70
     0
102
RTVSPost2010Prop56
140
1.0
102
RTVSPost2010PropOp56
 70
     0
102
RTVSPost2010Prop57
140
1.0
102
RTVSPost2010PropOp57
 70
     0
  0
XRECORD
  5
1DF
102
{ACAD_REACTORS
330
1DE
102
}
330
1DE
100
AcDbXrecord
280
     1
102
RTVSPost2010Prop28
280
     0
102
RTVSPost2010PropOp28
 70
     1
102
RTVSPost2010Prop29
280
     1
102
RTVSPost2010PropOp29
 70
     1
102
RTVSPost2010Prop30
280
     1
102
RTVSPost2010PropOp30
 70
     1
102
RTVSPost2010Prop31
280
     0
102
RTVSPost2010PropOp31
 70
     1
102
RTVSPost2010Prop32
280
     0
102
RTVSPost2010PropOp32
 70
     1
102
RTVSPost2010Prop33
280
     0
102
RTVSPost2010PropOp33
 70
     1
102
RTVSPost2010Prop34
280
     0
102
RTVSPost2010PropOp34
 70
     1
102
RTVSPost2010Prop35
280
     0
102
RTVSPost2010PropOp35
 70
     1
102
RTVSPost2010Prop36
280
     0
102
RTVSPost2010PropOp36
 70
     1
102
RTVSPost2010Prop37
 90
       50
102
RTVSPost2010PropOp37
 70
     1
102
RTVSPost2010Prop38
140
0.0
102
RTVSPost2010PropOp38
 70
     1
102
RTVSPost2010Prop39
140
1.0
102
RTVSPost2010PropOp39
 70
     1
102
RTVSPost2010Prop40
 90
        0
102
RTVSPost2010PropOp40
 70
     1
102
RTVSPost2010Prop41ColorIndex
 90
       18
102
RTVSPost2010Prop41ColorRGB
 90
        0
102
RTVSPost2010PropOp41
 70
     1
102
RTVSPost2010Prop42
 90
       50
102
RTVSPost2010PropOp42
 70
     1
102
RTVSPost2010Prop43
 90
        3
102
RTVSPost2010PropOp43
 70
     1
102
RTVSPost2010Prop44ColorIndex
 90
        5
102
RTVSPost2010Prop44ColorRGB
 90
      255
102
RTVSPost2010PropOp44
 70
     1
102
RTVSPost2010Prop45
280
     0
102
RTVSPost2010PropOp45
 70
     1
102
RTVSPost2010Prop46
 90
       50
102
RTVSPost2010PropOp46
 70
     1
102
RTVSPost2010Prop47
 90
       50
102
RTVSPost2010PropOp47
 70
     1
102
RTVSPost2010Prop48
 90
       50
102
RTVSPost2010PropOp48
 70
     1
102
RTVSPost2010Prop49
280
     0
102
RTVSPost2010PropOp49
 70
     1
102
RTVSPost2010Prop50
 90
       50
102
RTVSPost2010PropOp50
 70
     1
102
RTVSPost2010Prop51ColorIndex
 90
      256
102
RTVSPost2010Prop51ColorRGB
 90
-16777216
102
RTVSPost2010PropOp51
 70
     0
102
RTVSPost2010Prop52
140
1.0
102
RTVSPost2010PropOp52
 70
     0
102
RTVSPost2010Prop53
 90
        2
102
RTVSPost2010PropOp53
 70
     1
102
RTVSPost2010Prop54
  1
strokes_ogs.tif
102
RTVSPost2010PropOp54
 70
     1
102
RTVSPost2010Prop55
280
     0
102
RTVSPost2010PropOp55
 70
     1
102
RTVSPost2010Prop56
140
1.0
102
RTVSPost2010PropOp56
 70
     1
102
RTVSPost2010Prop57
140
1.0
102
RTVSPost2010PropOp57
 70
     1
  0
XRECORD
  5
1F5
102
{ACAD_REACTORS
330
1F4
102
}
330
1F4
100
AcDbXrecord
280
     1
102
RTVSPost2010Prop28
280
     0
102
RTVSPost2010PropOp28
 70
     1
102
RTVSPost2010Prop29
280
     1
102
RTVSPost2010PropOp29
 70
     1
102
RTVSPost2010Prop30
280
     1
102
RTVSPost2010PropOp30
 70
     1
102
RTVSPost2010Prop31
280
     0
102
RTVSPost2010PropOp31
 70
     1
102
RTVSPost2010Prop32
280
     0
102
RTVSPost2010PropOp32
 70
     1
102
RTVSPost2010Prop33
280
     0
102
RTVSPost2010PropOp33
 70
     1
102
RTVSPost2010Prop34
280
     0
102
RTVSPost2010PropOp34
 70
     1
102
RTVSPost2010Prop35
280
     0
102
RTVSPost2010PropOp35
 70
     1
102
RTVSPost2010Prop36
280
     0
102
RTVSPost2010PropOp36
 70
     1
102
RTVSPost2010Prop37
 90
       50
102
RTVSPost2010PropOp37
 70
     1
102
RTVSPost2010Prop38
140
0.0
102
RTVSPost2010PropOp38
 70
     1
102
RTVSPost2010Prop39
140
1.0
102
RTVSPost2010PropOp39
 70
     1
102
RTVSPost2010Prop40
 90
        0
102
RTVSPost2010PropOp40
 70
     1
102
RTVSPost2010Prop41ColorIndex
 90
       18
102
RTVSPost2010Prop41ColorRGB
 90
        0
102
RTVSPost2010PropOp41
 70
     1
102
RTVSPost2010Prop42
 90
       50
102
RTVSPost2010PropOp42
 70
     1
102
RTVSPost2010Prop43
 90
        3
102
RTVSPost2010PropOp43
 70
     1
102
RTVSPost2010Prop44ColorIndex
 90
        5
102
RTVSPost2010Prop44ColorRGB
 90
      255
102
RTVSPost2010PropOp44
 70
     1
102
RTVSPost2010Prop45
280
     0
102
RTVSPost2010PropOp45
 70
     1
102
RTVSPost2010Prop46
 90
       50
102
RTVSPost2010PropOp46
 70
     1
102
RTVSPost2010Prop47
 90
       50
102
RTVSPost2010PropOp47
 70
     1
102
RTVSPost2010Prop48
 90
       50
102
RTVSPost2010PropOp48
 70
     1
102
RTVSPost2010Prop49
280
     0
102
RTVSPost2010PropOp49
 70
     1
102
RTVSPost2010Prop50
 90
       50
102
RTVSPost2010PropOp50
 70
     1
102
RTVSPost2010Prop51ColorIndex
 90
      256
102
RTVSPost2010Prop51ColorRGB
 90
-16777216
102
RTVSPost2010PropOp51
 70
     0
102
RTVSPost2010Prop52
140
1.0
102
RTVSPost2010PropOp52
 70
     0
102
RTVSPost2010Prop53
 90
        2
102
RTVSPost2010PropOp53
 70
     1
102
RTVSPost2010Prop54
  1
strokes_ogs.tif
102
RTVSPost2010PropOp54
 70
     1
102
RTVSPost2010Prop55
280
     0
102
RTVSPost2010PropOp55
 70
     1
102
RTVSPost2010Prop56
140
1.0
102
RTVSPost2010PropOp56
 70
     1
102
RTVSPost2010Prop57
140
1.0
102
RTVSPost2010PropOp57
 70
     1
  0
XRECORD
  5
1F3
102
{ACAD_REACTORS
330
1F2
102
}
330
1F2
100
AcDbXrecord
280
     1
102
RTVSPost2010Prop28
280
     0
102
RTVSPost2010PropOp28
 70
     1
102
RTVSPost2010Prop29
280
     1
102
RTVSPost2010PropOp29
 70
     1
102
RTVSPost2010Prop30
280
     1
102
RTVSPost2010PropOp30
 70
     1
102
RTVSPost2010Prop31
280
     0
102
RTVSPost2010PropOp31
 70
     1
102
RTVSPost2010Prop32
280
     0
102
RTVSPost2010PropOp32
 70
     1
102
RTVSPost2010Prop33
280
     0
102
RTVSPost2010PropOp33
 70
     1
102
RTVSPost2010Prop34
280
     0
102
RTVSPost2010PropOp34
 70
     1
102
RTVSPost2010Prop35
280
     0
102
RTVSPost2010PropOp35
 70
     1
102
RTVSPost2010Prop36
280
     0
102
RTVSPost2010PropOp36
 70
     1
102
RTVSPost2010Prop37
 90
       50
102
RTVSPost2010PropOp37
 70
     1
102
RTVSPost2010Prop38
140
0.0
102
RTVSPost2010PropOp38
 70
     1
102
RTVSPost2010Prop39
140
1.0
102
RTVSPost2010PropOp39
 70
     1
102
RTVSPost2010Prop40
 90
        0
102
RTVSPost2010PropOp40
 70
     1
102
RTVSPost2010Prop41ColorIndex
 90
       18
102
RTVSPost2010Prop41ColorRGB
 90
        0
102
RTVSPost2010PropOp41
 70
     1
102
RTVSPost2010Prop42
 90
       50
102
RTVSPost2010PropOp42
 70
     1
102
RTVSPost2010Prop43
 90
        3
102
RTVSPost2010PropOp43
 70
     1
102
RTVSPost2010Prop44ColorIndex
 90
        5
102
RTVSPost2010Prop44ColorRGB
 90
      255
102
RTVSPost2010PropOp44
 70
     1
102
RTVSPost2010Prop45
280
     0
102
RTVSPost2010PropOp45
 70
     1
102
RTVSPost2010Prop46
 90
       50
102
RTVSPost2010PropOp46
 70
     1
102
RTVSPost2010Prop47
 90
       50
102
RTVSPost2010PropOp47
 70
     1
102
RTVSPost2010Prop48
 90
       50
102
RTVSPost2010PropOp48
 70
     1
102
RTVSPost2010Prop49
280
     0
102
RTVSPost2010PropOp49
 70
     1
102
RTVSPost2010Prop50
 90
       50
102
RTVSPost2010PropOp50
 70
     1
102
RTVSPost2010Prop51ColorIndex
 90
      256
102
RTVSPost2010Prop51ColorRGB
 90
-16777216
102
RTVSPost2010PropOp51
 70
     0
102
RTVSPost2010Prop52
140
1.0
102
RTVSPost2010PropOp52
 70
     0
102
RTVSPost2010Prop53
 90
        2
102
RTVSPost2010PropOp53
 70
     1
102
RTVSPost2010Prop54
  1
strokes_ogs.tif
102
RTVSPost2010PropOp54
 70
     1
102
RTVSPost2010Prop55
280
     0
102
RTVSPost2010PropOp55
 70
     1
102
RTVSPost2010Prop56
140
1.0
102
RTVSPost2010PropOp56
 70
     1
102
RTVSPost2010Prop57
140
1.0
102
RTVSPost2010PropOp57
 70
     1
  0
XRECORD
  5
1ED
102
{ACAD_REACTORS
330
1EC
102
}
330
1EC
100
AcDbXrecord
280
     1
102
RTVSPost2010Prop28
280
     0
102
RTVSPost2010PropOp28
 70
     1
102
RTVSPost2010Prop29
280
     1
102
RTVSPost2010PropOp29
 70
     1
102
RTVSPost2010Prop30
280
     1
102
RTVSPost2010PropOp30
 70
     1
102
RTVSPost2010Prop31
280
     0
102
RTVSPost2010PropOp31
 70
     1
102
RTVSPost2010Prop32
280
     0
102
RTVSPost2010PropOp32
 70
     1
102
RTVSPost2010Prop33
280
     0
102
RTVSPost2010PropOp33
 70
     1
102
RTVSPost2010Prop34
280
     0
102
RTVSPost2010PropOp34
 70
     1
102
RTVSPost2010Prop35
280
     0
102
RTVSPost2010PropOp35
 70
     1
102
RTVSPost2010Prop36
280
     0
102
RTVSPost2010PropOp36
 70
     1
102
RTVSPost2010Prop37
 90
       50
102
RTVSPost2010PropOp37
 70
     1
102
RTVSPost2010Prop38
140
0.0
102
RTVSPost2010PropOp38
 70
     1
102
RTVSPost2010Prop39
140
1.0
102
RTVSPost2010PropOp39
 70
     1
102
RTVSPost2010Prop40
 90
        0
102
RTVSPost2010PropOp40
 70
     1
102
RTVSPost2010Prop41ColorIndex
 90
       18
102
RTVSPost2010Prop41ColorRGB
 90
        0
102
RTVSPost2010PropOp41
 70
     1
102
RTVSPost2010Prop42
 90
       50
102
RTVSPost2010PropOp42
 70
     1
102
RTVSPost2010Prop43
 90
        3
102
RTVSPost2010PropOp43
 70
     1
102
RTVSPost2010Prop44ColorIndex
 90
        5
102
RTVSPost2010Prop44ColorRGB
 90
      255
102
RTVSPost2010PropOp44
 70
     1
102
RTVSPost2010Prop45
280
     0
102
RTVSPost2010PropOp45
 70
     1
102
RTVSPost2010Prop46
 90
       50
102
RTVSPost2010PropOp46
 70
     1
102
RTVSPost2010Prop47
 90
       50
102
RTVSPost2010PropOp47
 70
     1
102
RTVSPost2010Prop48
 90
       50
102
RTVSPost2010PropOp48
 70
     1
102
RTVSPost2010Prop49
280
     0
102
RTVSPost2010PropOp49
 70
     1
102
RTVSPost2010Prop50
 90
       50
102
RTVSPost2010PropOp50
 70
     1
102
RTVSPost2010Prop51ColorIndex
 90
      256
102
RTVSPost2010Prop51ColorRGB
 90
-16777216
102
RTVSPost2010PropOp51
 70
     0
102
RTVSPost2010Prop52
140
1.0
102
RTVSPost2010PropOp52
 70
     0
102
RTVSPost2010Prop53
 90
        2
102
RTVSPost2010PropOp53
 70
     1
102
RTVSPost2010Prop54
  1
strokes_ogs.tif
102
RTVSPost2010PropOp54
 70
     1
102
RTVSPost2010Prop55
280
     0
102
RTVSPost2010PropOp55
 70
     1
102
RTVSPost2010Prop56
140
1.0
102
RTVSPost2010PropOp56
 70
     1
102
RTVSPost2010Prop57
140
1.0
102
RTVSPost2010PropOp57
 70
     1
  0
XRECORD
  5
1EF
102
{ACAD_REACTORS
330
1EE
102
}
330
1EE
100
AcDbXrecord
280
     1
102
RTVSPost2010Prop28
280
     0
102
RTVSPost2010PropOp28
 70
     1
102
RTVSPost2010Prop29
280
     1
102
RTVSPost2010PropOp29
 70
     1
102
RTVSPost2010Prop30
280
     1
102
RTVSPost2010PropOp30
 70
     1
102
RTVSPost2010Prop31
280
     0
102
RTVSPost2010PropOp31
 70
     1
102
RTVSPost2010Prop32
280
     0
102
RTVSPost2010PropOp32
 70
     1
102
RTVSPost2010Prop33
280
     0
102
RTVSPost2010PropOp33
 70
     1
102
RTVSPost2010Prop34
280
     0
102
RTVSPost2010PropOp34
 70
     1
102
RTVSPost2010Prop35
280
     0
102
RTVSPost2010PropOp35
 70
     1
102
RTVSPost2010Prop36
280
     0
102
RTVSPost2010PropOp36
 70
     1
102
RTVSPost2010Prop37
 90
       50
102
RTVSPost2010PropOp37
 70
     1
102
RTVSPost2010Prop38
140
0.0
102
RTVSPost2010PropOp38
 70
     1
102
RTVSPost2010Prop39
140
1.0
102
RTVSPost2010PropOp39
 70
     1
102
RTVSPost2010Prop40
 90
        0
102
RTVSPost2010PropOp40
 70
     1
102
RTVSPost2010Prop41ColorIndex
 90
       18
102
RTVSPost2010Prop41ColorRGB
 90
        0
102
RTVSPost2010PropOp41
 70
     1
102
RTVSPost2010Prop42
 90
       50
102
RTVSPost2010PropOp42
 70
     1
102
RTVSPost2010Prop43
 90
        3
102
RTVSPost2010PropOp43
 70
     1
102
RTVSPost2010Prop44ColorIndex
 90
        5
102
RTVSPost2010Prop44ColorRGB
 90
      255
102
RTVSPost2010PropOp44
 70
     1
102
RTVSPost2010Prop45
280
     0
102
RTVSPost2010PropOp45
 70
     1
102
RTVSPost2010Prop46
 90
       50
102
RTVSPost2010PropOp46
 70
     1
102
RTVSPost2010Prop47
 90
       50
102
RTVSPost2010PropOp47
 70
     1
102
RTVSPost2010Prop48
 90
       50
102
RTVSPost2010PropOp48
 70
     1
102
RTVSPost2010Prop49
280
     0
102
RTVSPost2010PropOp49
 70
     1
102
RTVSPost2010Prop50
 90
       50
102
RTVSPost2010PropOp50
 70
     1
102
RTVSPost2010Prop51ColorIndex
 90
      256
102
RTVSPost2010Prop51ColorRGB
 90
-16777216
102
RTVSPost2010PropOp51
 70
     0
102
RTVSPost2010Prop52
140
1.0
102
RTVSPost2010PropOp52
 70
     0
102
RTVSPost2010Prop53
 90
        2
102
RTVSPost2010PropOp53
 70
     1
102
RTVSPost2010Prop54
  1
strokes_ogs.tif
102
RTVSPost2010PropOp54
 70
     1
102
RTVSPost2010Prop55
280
     0
102
RTVSPost2010PropOp55
 70
     1
102
RTVSPost2010Prop56
140
1.0
102
RTVSPost2010PropOp56
 70
     1
102
RTVSPost2010Prop57
140
1.0
102
RTVSPost2010PropOp57
 70
     1
  0
XRECORD
  5
1E5
102
{ACAD_REACTORS
330
1E4
102
}
330
1E4
100
AcDbXrecord
280
     1
102
RTVSPost2010Prop28
280
     0
102
RTVSPost2010PropOp28
 70
     1
102
RTVSPost2010Prop29
280
     1
102
RTVSPost2010PropOp29
 70
     1
102
RTVSPost2010Prop30
280
     1
102
RTVSPost2010PropOp30
 70
     1
102
RTVSPost2010Prop31
280
     0
102
RTVSPost2010PropOp31
 70
     1
102
RTVSPost2010Prop32
280
     0
102
RTVSPost2010PropOp32
 70
     1
102
RTVSPost2010Prop33
280
     0
102
RTVSPost2010PropOp33
 70
     1
102
RTVSPost2010Prop34
280
     0
102
RTVSPost2010PropOp34
 70
     1
102
RTVSPost2010Prop35
280
     0
102
RTVSPost2010PropOp35
 70
     1
102
RTVSPost2010Prop36
280
     0
102
RTVSPost2010PropOp36
 70
     1
102
RTVSPost2010Prop37
 90
       50
102
RTVSPost2010PropOp37
 70
     1
102
RTVSPost2010Prop38
140
0.0
102
RTVSPost2010PropOp38
 70
     1
102
RTVSPost2010Prop39
140
1.0
102
RTVSPost2010PropOp39
 70
     1
102
RTVSPost2010Prop40
 90
        0
102
RTVSPost2010PropOp40
 70
     1
102
RTVSPost2010Prop41ColorIndex
 90
       18
102
RTVSPost2010Prop41ColorRGB
 90
        0
102
RTVSPost2010PropOp41
 70
     1
102
RTVSPost2010Prop42
 90
       50
102
RTVSPost2010PropOp42
 70
     1
102
RTVSPost2010Prop43
 90
        3
102
RTVSPost2010PropOp43
 70
     1
102
RTVSPost2010Prop44ColorIndex
 90
        5
102
RTVSPost2010Prop44ColorRGB
 90
      255
102
RTVSPost2010PropOp44
 70
     1
102
RTVSPost2010Prop45
280
     0
102
RTVSPost2010PropOp45
 70
     1
102
RTVSPost2010Prop46
 90
       50
102
RTVSPost2010PropOp46
 70
     1
102
RTVSPost2010Prop47
 90
       50
102
RTVSPost2010PropOp47
 70
     1
102
RTVSPost2010Prop48
 90
       50
102
RTVSPost2010PropOp48
 70
     1
102
RTVSPost2010Prop49
280
     0
102
RTVSPost2010PropOp49
 70
     1
102
RTVSPost2010Prop50
 90
       50
102
RTVSPost2010PropOp50
 70
     1
102
RTVSPost2010Prop51ColorIndex
 90
      256
102
RTVSPost2010Prop51ColorRGB
 90
-16777216
102
RTVSPost2010PropOp51
 70
     0
102
RTVSPost2010Prop52
140
1.0
102
RTVSPost2010PropOp52
 70
     0
102
RTVSPost2010Prop53
 90
        2
102
RTVSPost2010PropOp53
 70
     1
102
RTVSPost2010Prop54
  1
strokes_ogs.tif
102
RTVSPost2010PropOp54
 70
     1
102
RTVSPost2010Prop55
280
     0
102
RTVSPost2010PropOp55
 70
     1
102
RTVSPost2010Prop56
140
1.0
102
RTVSPost2010PropOp56
 70
     1
102
RTVSPost2010Prop57
140
1.0
102
RTVSPost2010PropOp57
 70
     1
  0
XRECORD
  5
1D9
102
{ACAD_REACTORS
330
1D8
102
}
330
1D8
100
AcDbXrecord
280
     1
102
RTVSPost2010Prop28
280
     0
102
RTVSPost2010PropOp28
 70
     1
102
RTVSPost2010Prop29
280
     1
102
RTVSPost2010PropOp29
 70
     1
102
RTVSPost2010Prop30
280
     1
102
RTVSPost2010PropOp30
 70
     1
102
RTVSPost2010Prop31
280
     0
102
RTVSPost2010PropOp31
 70
     1
102
RTVSPost2010Prop32
280
     0
102
RTVSPost2010PropOp32
 70
     1
102
RTVSPost2010Prop33
280
     0
102
RTVSPost2010PropOp33
 70
     1
102
RTVSPost2010Prop34
280
     0
102
RTVSPost2010PropOp34
 70
     1
102
RTVSPost2010Prop35
280
     0
102
RTVSPost2010PropOp35
 70
     1
102
RTVSPost2010Prop36
280
     0
102
RTVSPost2010PropOp36
 70
     1
102
RTVSPost2010Prop37
 90
       50
102
RTVSPost2010PropOp37
 70
     1
102
RTVSPost2010Prop38
140
0.0
102
RTVSPost2010PropOp38
 70
     1
102
RTVSPost2010Prop39
140
1.0
102
RTVSPost2010PropOp39
 70
     1
102
RTVSPost2010Prop40
 90
        0
102
RTVSPost2010PropOp40
 70
     1
102
RTVSPost2010Prop41ColorIndex
 90
       18
102
RTVSPost2010Prop41ColorRGB
 90
        0
102
RTVSPost2010PropOp41
 70
     1
102
RTVSPost2010Prop42
 90
       50
102
RTVSPost2010PropOp42
 70
     1
102
RTVSPost2010Prop43
 90
        3
102
RTVSPost2010PropOp43
 70
     1
102
RTVSPost2010Prop44ColorIndex
 90
        5
102
RTVSPost2010Prop44ColorRGB
 90
      255
102
RTVSPost2010PropOp44
 70
     1
102
RTVSPost2010Prop45
280
     0
102
RTVSPost2010PropOp45
 70
     1
102
RTVSPost2010Prop46
 90
       50
102
RTVSPost2010PropOp46
 70
     1
102
RTVSPost2010Prop47
 90
       50
102
RTVSPost2010PropOp47
 70
     1
102
RTVSPost2010Prop48
 90
       50
102
RTVSPost2010PropOp48
 70
     1
102
RTVSPost2010Prop49
280
     0
102
RTVSPost2010PropOp49
 70
     1
102
RTVSPost2010Prop50
 90
       50
102
RTVSPost2010PropOp50
 70
     1
102
RTVSPost2010Prop51ColorIndex
 90
      256
102
RTVSPost2010Prop51ColorRGB
 90
-16777216
102
RTVSPost2010PropOp51
 70
     0
102
RTVSPost2010Prop52
140
1.0
102
RTVSPost2010PropOp52
 70
     0
102
RTVSPost2010Prop53
 90
        2
102
RTVSPost2010PropOp53
 70
     1
102
RTVSPost2010Prop54
  1
strokes_ogs.tif
102
RTVSPost2010PropOp54
 70
     1
102
RTVSPost2010Prop55
280
     0
102
RTVSPost2010PropOp55
 70
     1
102
RTVSPost2010Prop56
140
1.0
102
RTVSPost2010PropOp56
 70
     1
102
RTVSPost2010Prop57
140
1.0
102
RTVSPost2010PropOp57
 70
     1
  0
XRECORD
  5
1F1
102
{ACAD_REACTORS
330
1F0
102
}
330
1F0
100
AcDbXrecord
280
     1
102
RTVSPost2010Prop28
280
     0
102
RTVSPost2010PropOp28
 70
     1
102
RTVSPost2010Prop29
280
     1
102
RTVSPost2010PropOp29
 70
     1
102
RTVSPost2010Prop30
280
     1
102
RTVSPost2010PropOp30
 70
     1
102
RTVSPost2010Prop31
280
     0
102
RTVSPost2010PropOp31
 70
     1
102
RTVSPost2010Prop32
280
     0
102
RTVSPost2010PropOp32
 70
     1
102
RTVSPost2010Prop33
280
     0
102
RTVSPost2010PropOp33
 70
     1
102
RTVSPost2010Prop34
280
     0
102
RTVSPost2010PropOp34
 70
     1
102
RTVSPost2010Prop35
280
     0
102
RTVSPost2010PropOp35
 70
     1
102
RTVSPost2010Prop36
280
     0
102
RTVSPost2010PropOp36
 70
     1
102
RTVSPost2010Prop37
 90
       50
102
RTVSPost2010PropOp37
 70
     1
102
RTVSPost2010Prop38
140
0.0
102
RTVSPost2010PropOp38
 70
     1
102
RTVSPost2010Prop39
140
1.0
102
RTVSPost2010PropOp39
 70
     1
102
RTVSPost2010Prop40
 90
        0
102
RTVSPost2010PropOp40
 70
     1
102
RTVSPost2010Prop41ColorIndex
 90
       18
102
RTVSPost2010Prop41ColorRGB
 90
        0
102
RTVSPost2010PropOp41
 70
     1
102
RTVSPost2010Prop42
 90
       50
102
RTVSPost2010PropOp42
 70
     1
102
RTVSPost2010Prop43
 90
        3
102
RTVSPost2010PropOp43
 70
     1
102
RTVSPost2010Prop44ColorIndex
 90
        5
102
RTVSPost2010Prop44ColorRGB
 90
      255
102
RTVSPost2010PropOp44
 70
     1
102
RTVSPost2010Prop45
280
     0
102
RTVSPost2010PropOp45
 70
     1
102
RTVSPost2010Prop46
 90
       50
102
RTVSPost2010PropOp46
 70
     1
102
RTVSPost2010Prop47
 90
       50
102
RTVSPost2010PropOp47
 70
     1
102
RTVSPost2010Prop48
 90
       50
102
RTVSPost2010PropOp48
 70
     1
102
RTVSPost2010Prop49
280
     0
102
RTVSPost2010PropOp49
 70
     1
102
RTVSPost2010Prop50
 90
       50
102
RTVSPost2010PropOp50
 70
     1
102
RTVSPost2010Prop51ColorIndex
 90
      256
102
RTVSPost2010Prop51ColorRGB
 90
-16777216
102
RTVSPost2010PropOp51
 70
     0
102
RTVSPost2010Prop52
140
1.0
102
RTVSPost2010PropOp52
 70
     0
102
RTVSPost2010Prop53
 90
        2
102
RTVSPost2010PropOp53
 70
     1
102
RTVSPost2010Prop54
  1
strokes_ogs.tif
102
RTVSPost2010PropOp54
 70
     1
102
RTVSPost2010Prop55
280
     0
102
RTVSPost2010PropOp55
 70
     1
102
RTVSPost2010Prop56
140
1.0
102
RTVSPost2010PropOp56
 70
     1
102
RTVSPost2010Prop57
140
1.0
102
RTVSPost2010PropOp57
 70
     1
  0
ENDSEC
  0
EOF
