  0
SECTION
  2
HEADER
  9
$ACADVER
  1
AC1024
  9
$ACADMAINTVER
 70
   226
  9
$DWGCODEPAGE
  3
ANSI_1252
  9
$INSBASE
 10
0.0
 20
0.0
 30
0.0
  9
$EXTMIN
 10
1.000000000000000E+20
 20
1.000000000000000E+20
 30
1.000000000000000E+20
  9
$EXTMAX
 10
-1.000000000000000E+20
 20
-1.000000000000000E+20
 30
-1.000000000000000E+20
  9
$LIMMIN
 10
0.0
 20
0.0
  9
$LIMMAX
 10
12.0
 20
9.0
  9
$ORTHOMODE
 70
     0
  9
$REGENMODE
 70
     1
  9
$FILLMODE
 70
     1
  9
$QTEXTMODE
 70
     0
  9
$MIRRTEXT
 70
     0
  9
$LTSCALE
 40
1.0
  9
$ATTMODE
 70
     1
  9
$TEXTSIZE
 40
0.2
  9
$TRACEWID
 40
0.05
  9
$TEXTSTYLE
  7
Standard
  9
$CLAYER
  8
0
  9
$CELTYPE
  6
ByLayer
  9
$CECOLOR
 62
   256
  9
$CELTSCALE
 40
1.0
  9
$DISPSILH
 70
     0
  9
$DIMSCALE
 40
1.0
  9
$DIMASZ
 40
0.18
  9
$DIMEXO
 40
0.0625
  9
$DIMDLI
 40
0.38
  9
$DIMRND
 40
0.0
  9
$DIMDLE
 40
0.0
  9
$DIMEXE
 40
0.18
  9
$DIMTP
 40
0.0
  9
$DIMTM
 40
0.0
  9
$DIMTXT
 40
0.18
  9
$DIMCEN
 40
0.09
  9
$DIMTSZ
 40
0.0
  9
$DIMTOL
 70
     0
  9
$DIMLIM
 70
     0
  9
$DIMTIH
 70
     1
  9
$DIMTOH
 70
     1
  9
$DIMSE1
 70
     0
  9
$DIMSE2
 70
     0
  9
$DIMTAD
 70
     0
  9
$DIMZIN
 70
     0
  9
$DIMBLK
  1

  9
$DIMASO
 70
     1
  9
$DIMSHO
 70
     1
  9
$DIMPOST
  1

  9
$DIMAPOST
  1

  9
$DIMALT
 70
     0
  9
$DIMALTD
 70
     2
  9
$DIMALTF
 40
25.4
  9
$DIMLFAC
 40
1.0
  9
$DIMTOFL
 70
     0
  9
$DIMTVP
 40
0.0
  9
$DIMTIX
 70
     0
  9
$DIMSOXD
 70
     0
  9
$DIMSAH
 70
     0
  9
$DIMBLK1
  1

  9
$DIMBLK2
  1

  9
$DIMSTYLE
  2
Standard
  9
$DIMCLRD
 70
     0
  9
$DIMCLRE
 70
     0
  9
$DIMCLRT
 70
     0
  9
$DIMTFAC
 40
1.0
  9
$DIMGAP
 40
0.09
  9
$DIMJUST
 70
     0
  9
$DIMSD1
 70
     0
  9
$DIMSD2
 70
     0
  9
$DIMTOLJ
 70
     1
  9
$DIMTZIN
 70
     0
  9
$DIMALTZ
 70
     0
  9
$DIMALTTZ
 70
     0
  9
$DIMUPT
 70
     0
  9
$DIMDEC
 70
     4
  9
$DIMTDEC
 70
     4
  9
$DIMALTU
 70
     2
  9
$DIMALTTD
 70
     2
  9
$DIMTXSTY
  7
Standard
  9
$DIMAUNIT
 70
     0
  9
$DIMADEC
 70
     0
  9
$DIMALTRND
 40
0.0
  9
$DIMAZIN
 70
     0
  9
$DIMDSEP
 70
    46
  9
$DIMATFIT
 70
     3
  9
$DIMFRAC
 70
     0
  9
$DIMLDRBLK
  1

  9
$DIMLUNIT
 70
     2
  9
$DIMLWD
 70
    -2
  9
$DIMLWE
 70
    -2
  9
$DIMTMOVE
 70
     0
  9
$DIMFXL
 40
1.0
  9
$DIMFXLON
 70
     0
  9
$DIMJOGANG
 40
0.7853981633974483
  9
$DIMTFILL
 70
     0
  9
$DIMTFILLCLR
 70
     0
  9
$DIMARCSYM
 70
     0
  9
$DIMLTYPE
  6

  9
$DIMLTEX1
  6

  9
$DIMLTEX2
  6

  9
$DIMTXTDIRECTION
 70
     0
  9
$LUNITS
 70
     2
  9
$LUPREC
 70
     4
  9
$SKETCHINC
 40
0.1
  9
$FILLETRAD
 40
0.0
  9
$AUNITS
 70
     0
  9
$AUPREC
 70
     0
  9
$MENU
  1
.
  9
$ELEVATION
 40
0.0
  9
$PELEVATION
 40
0.0
  9
$THICKNESS
 40
0.0
  9
$LIMCHECK
 70
     0
  9
$CHAMFERA
 40
0.0
  9
$CHAMFERB
 40
0.0
  9
$CHAMFERC
 40
0.0
  9
$CHAMFERD
 40
0.0
  9
$SKPOLY
 70
     0
  9
$TDCREATE
 40
2459286.488252315
  9
$TDUCREATE
 40
2459285.946585648
  9
$TDUPDATE
 40
2459286.488252315
  9
$TDUUPDATE
 40
2459285.946585648
  9
$TDINDWG
 40
0.0000000000
  9
$TDUSRTIMER
 40
0.0000000000
  9
$USRTIMER
 70
     1
  9
$ANGBASE
 50
0.0
  9
$ANGDIR
 70
     0
  9
$PDMODE
 70
     0
  9
$PDSIZE
 40
0.0
  9
$PLINEWID
 40
0.0
  9
$SPLFRAME
 70
     0
  9
$SPLINETYPE
 70
     6
  9
$SPLINESEGS
 70
     8
  9
$HANDSEED
  5
1F1
  9
$SURFTAB1
 70
     6
  9
$SURFTAB2
 70
     6
  9
$SURFTYPE
 70
     6
  9
$SURFU
 70
     6
  9
$SURFV
 70
     6
  9
$UCSBASE
  2

  9
$UCSNAME
  2

  9
$UCSORG
 10
0.0
 20
0.0
 30
0.0
  9
$UCSXDIR
 10
1.0
 20
0.0
 30
0.0
  9
$UCSYDIR
 10
0.0
 20
1.0
 30
0.0
  9
$UCSORTHOREF
  2

  9
$UCSORTHOVIEW
 70
     0
  9
$UCSORGTOP
 10
0.0
 20
0.0
 30
0.0
  9
$UCSORGBOTTOM
 10
0.0
 20
0.0
 30
0.0
  9
$UCSORGLEFT
 10
0.0
 20
0.0
 30
0.0
  9
$UCSORGRIGHT
 10
0.0
 20
0.0
 30
0.0
  9
$UCSORGFRONT
 10
0.0
 20
0.0
 30
0.0
  9
$UCSORGBACK
 10
0.0
 20
0.0
 30
0.0
  9
$PUCSBASE
  2

  9
$PUCSNAME
  2

  9
$PUCSORG
 10
0.0
 20
0.0
 30
0.0
  9
$PUCSXDIR
 10
1.0
 20
0.0
 30
0.0
  9
$PUCSYDIR
 10
0.0
 20
1.0
 30
0.0
  9
$PUCSORTHOREF
  2

  9
$PUCSORTHOVIEW
 70
     0
  9
$PUCSORGTOP
 10
0.0
 20
0.0
 30
0.0
  9
$PUCSORGBOTTOM
 10
0.0
 20
0.0
 30
0.0
  9
$PUCSORGLEFT
 10
0.0
 20
0.0
 30
0.0
  9
$PUCSORGRIGHT
 10
0.0
 20
0.0
 30
0.0
  9
$PUCSORGFRONT
 10
0.0
 20
0.0
 30
0.0
  9
$PUCSORGBACK
 10
0.0
 20
0.0
 30
0.0
  9
$USERI1
 70
     0
  9
$USERI2
 70
     0
  9
$USERI3
 70
     0
  9
$USERI4
 70
     0
  9
$USERI5
 70
     0
  9
$USERR1
 40
0.0
  9
$USERR2
 40
0.0
  9
$USERR3
 40
0.0
  9
$USERR4
 40
0.0
  9
$USERR5
 40
0.0
  9
$WORLDVIEW
 70
     1
  9
$SHADEDGE
 70
     3
  9
$SHADEDIF
 70
    70
  9
$TILEMODE
 70
     1
  9
$MAXACTVP
 70
    64
  9
$PINSBASE
 10
0.0
 20
0.0
 30
0.0
  9
$PLIMCHECK
 70
     0
  9
$PEXTMIN
 10
1.000000000000000E+20
 20
1.000000000000000E+20
 30
1.000000000000000E+20
  9
$PEXTMAX
 10
-1.000000000000000E+20
 20
-1.000000000000000E+20
 30
-1.000000000000000E+20
  9
$PLIMMIN
 10
0.0
 20
0.0
  9
$PLIMMAX
 10
12.0
 20
9.0
  9
$UNITMODE
 70
     0
  9
$VISRETAIN
 70
     1
  9
$PLINEGEN
 70
     0
  9
$PSLTSCALE
 70
     1
  9
$TREEDEPTH
 70
  3020
  9
$CMLSTYLE
  2
Standard
  9
$CMLJUST
 70
     0
  9
$CMLSCALE
 40
1.0
  9
$PROXYGRAPHICS
 70
     1
  9
$MEASUREMENT
 70
     0
  9
$CELWEIGHT
370
    -1
  9
$ENDCAPS
280
     0
  9
$JOINSTYLE
280
     0
  9
$LWDISPLAY
290
     1
  9
$INSUNITS
 70
     1
  9
$HYPERLINKBASE
  1

  9
$STYLESHEET
  1

  9
$XEDIT
290
     1
  9
$CEPSNTYPE
380
     0
  9
$PSTYLEMODE
290
     1
  9
$FINGERPRINTGUID
  2
{53A1E79C-ADDE-D949-AA5E-23D9C61CD731}
  9
$VERSIONGUID
  2
{7408A360-F27C-104B-9705-4EF8F1E0C572}
  9
$EXTNAMES
290
     1
  9
$PSVPSCALE
 40
0.0
  9
$OLESTARTUP
290
     0
  9
$SORTENTS
280
   127
  9
$INDEXCTL
280
     0
  9
$HIDETEXT
280
     1
  9
$XCLIPFRAME
280
     2
  9
$HALOGAP
280
     0
  9
$OBSCOLOR
 70
   257
  9
$OBSLTYPE
280
     0
  9
$INTERSECTIONDISPLAY
280
     0
  9
$INTERSECTIONCOLOR
 70
   257
  9
$DIMASSOC
280
     2
  9
$PROJECTNAME
  1

  9
$CAMERADISPLAY
290
     0
  9
$LENSLENGTH
 40
50.0
  9
$CAMERAHEIGHT
 40
0.0
  9
$STEPSPERSEC
 40
2.0
  9
$STEPSIZE
 40
6.0
  9
$3DDWFPREC
 40
2.0
  9
$PSOLWIDTH
 40
0.25
  9
$PSOLHEIGHT
 40
4.0
  9
$LOFTANG1
 40
1.570796326794896
  9
$LOFTANG2
 40
1.570796326794896
  9
$LOFTMAG1
 40
0.0
  9
$LOFTMAG2
 40
0.0
  9
$LOFTPARAM
 70
     7
  9
$LOFTNORMALS
280
     1
  9
$LATITUDE
 40
37.795
  9
$LONGITUDE
 40
-122.394
  9
$NORTHDIRECTION
 40
0.0
  9
$TIMEZONE
 70
 -8000
  9
$LIGHTGLYPHDISPLAY
280
     1
  9
$TILEMODELIGHTSYNCH
280
     1
  9
$CMATERIAL
347
11
  9
$SOLIDHIST
280
     0
  9
$SHOWHIST
280
     1
  9
$DWFFRAME
280
     2
  9
$DGNFRAME
280
     0
  9
$REALWORLDSCALE
290
     1
  9
$INTERFERECOLOR
 62
     1
  9
$INTERFEREOBJVS
345
33
  9
$INTERFEREVPVS
346
30
  9
$CSHADOW
280
     0
  9
$SHADOWPLANELOCATION
 40
0.0
  0
ENDSEC
  0
SECTION
  2
CLASSES
  0
CLASS
  1
ACDBDICTIONARYWDFLT
  2
AcDbDictionaryWithDefault
  3
ObjectDBX Classes
 90
        0
 91
        1
280
     0
281
     0
  0
CLASS
  1
MATERIAL
  2
AcDbMaterial
  3
ObjectDBX Classes
 90
     1153
 91
        3
280
     0
281
     0
  0
CLASS
  1
VISUALSTYLE
  2
AcDbVisualStyle
  3
ObjectDBX Classes
 90
     4095
 91
       24
280
     0
281
     0
  0
CLASS
  1
SCALE
  2
AcDbScale
  3
ObjectDBX Classes
 90
     1153
 91
       17
280
     0
281
     0
  0
CLASS
  1
TABLESTYLE
  2
AcDbTableStyle
  3
ObjectDBX Classes
 90
     4095
 91
        1
280
     0
281
     0
  0
CLASS
  1
MLEADERSTYLE
  2
AcDbMLeaderStyle
  3
ACDB_MLEADERSTYLE_CLASS
 90
     4095
 91
        1
280
     0
281
     0
  0
CLASS
  1
ACDBSECTIONVIEWSTYLE
  2
AcDbSectionViewStyle
  3
ObjectDBX Classes
 90
     1025
 91
        1
280
     0
281
     0
  0
CLASS
  1
ACDBDETAILVIEWSTYLE
  2
AcDbDetailViewStyle
  3
ObjectDBX Classes
 90
     1025
 91
        1
280
     0
281
     0
  0
CLASS
  1
DICTIONARYVAR
  2
AcDbDictionaryVar
  3
ObjectDBX Classes
 90
        0
 91
        5
280
     0
281
     0
  0
CLASS
  1
CELLSTYLEMAP
  2
AcDbCellStyleMap
  3
ObjectDBX Classes
 90
     1152
 91
        1
280
     0
281
     0
  0
ENDSEC
  0
SECTION
  2
TABLES
  0
TABLE
  2
VPORT
  5
8
330
0
100
AcDbSymbolTable
 70
     1
  0
VPORT
  5
57
330
8
100
AcDbSymbolTableRecord
100
AcDbViewportTableRecord
  2
*Active
 70
     0
 10
0.0
 20
0.0
 11
1.0
 21
1.0
 12
0.0
 22
0.0
 13
0.0
 23
0.0
 14
1.0
 24
1.0
 15
0.0
 25
0.0
 16
0.0
 26
0.0
 36
1.0
 17
1.475433297894135
 27
-1.45791597222223
 37
0.0
 40
11.9267716535433
 41
0.7070707070707077
 42
50.0
 43
0.0
 44
0.0
 50
0.0
 51
0.0
 71
     0
 72
   100
 73
     1
 74
     0
 75
     1
 76
     0
 77
     0
 78
     0
281
     0
 65
     1
110
0.0
120
0.0
130
0.0
111
1.0
121
0.0
131
0.0
112
0.0
122
1.0
132
0.0
 79
     0
146
0.0
 60
     3
 61
     5
292
     1
282
     1
141
0.0
142
0.0
 63
   250
421
  3355443
  0
ENDTAB
  0
TABLE
  2
LTYPE
  5
5
330
0
100
AcDbSymbolTable
 70
     1
  0
LTYPE
  5
5B
330
5
100
AcDbSymbolTableRecord
100
AcDbLinetypeTableRecord
  2
ByBlock
 70
     0
  3

 72
    65
 73
     0
 40
0.0
  0
LTYPE
  5
5C
330
5
100
AcDbSymbolTableRecord
100
AcDbLinetypeTableRecord
  2
ByLayer
 70
     0
  3

 72
    65
 73
     0
 40
0.0
  0
LTYPE
  5
5D
330
5
100
AcDbSymbolTableRecord
100
AcDbLinetypeTableRecord
  2
Continuous
 70
     0
  3
Solid line
 72
    65
 73
     0
 40
0.0
  0
ENDTAB
  0
TABLE
  2
LAYER
  5
2
330
0
100
AcDbSymbolTable
 70
     5
  0
LAYER
  5
54
330
2
100
AcDbSymbolTableRecord
100
AcDbLayerTableRecord
  2
0
 70
     0
 62
     7
  6
Continuous
370
    -3
390
F
347
21
  0
LAYER
  5
78
330
2
100
AcDbSymbolTableRecord
100
AcDbLayerTableRecord
  2
fill layer
 70
     0
 62
     7
  6
Continuous
370
     0
390
F
347
21
  0
LAYER
  5
83
330
2
100
AcDbSymbolTableRecord
100
AcDbLayerTableRecord
  2
Wood
 70
     0
 62
     7
  6
Continuous
370
     0
390
F
347
21
  0
LAYER
  5
EF
330
2
100
AcDbSymbolTableRecord
100
AcDbLayerTableRecord
  2
SDPW screw
 70
     0
 62
     7
  6
Continuous
370
     0
390
F
347
21
  0
LAYER
  5
191
330
2
100
AcDbSymbolTableRecord
100
AcDbLayerTableRecord
  2
Callout
 70
     0
 62
     7
  6
Continuous
370
     0
390
F
347
21
  0
ENDTAB
  0
TABLE
  2
STYLE
  5
3
330
0
100
AcDbSymbolTable
 70
     2
  0
STYLE
  5
55
330
3
100
AcDbSymbolTableRecord
100
AcDbTextStyleTableRecord
  2
Standard
 70
     0
 40
0.0
 41
1.0
 50
0.0
 71
     0
 42
0.2
  3
txt
  4

  0
STYLE
  5
5A
330
3
100
AcDbSymbolTableRecord
100
AcDbTextStyleTableRecord
  2
Annotative
 70
     0
 40
0.0
 41
1.0
 50
0.0
 71
     0
 42
0.2
  3
txt
  4

1001
AcadAnnotative
1000
AnnotativeData
1002
{
1070
     1
1070
     1
1002
}
  0
ENDTAB
  0
TABLE
  2
VIEW
  5
6
330
0
100
AcDbSymbolTable
 70
     0
  0
ENDTAB
  0
TABLE
  2
UCS
  5
7
330
0
100
AcDbSymbolTable
 70
     0
  0
ENDTAB
  0
TABLE
  2
APPID
  5
9
330
0
100
AcDbSymbolTable
 70
     2
  0
APPID
  5
56
330
9
100
AcDbSymbolTableRecord
100
AcDbRegAppTableRecord
  2
ACAD
 70
     0
  0
APPID
  5
5E
330
9
100
AcDbSymbolTableRecord
100
AcDbRegAppTableRecord
  2
AcadAnnotative
 70
     0
  0
ENDTAB
  0
TABLE
  2
DIMSTYLE
  5
A
330
0
100
AcDbSymbolTable
 70
     2
100
AcDbDimStyleTable
 71
     0
  0
DIMSTYLE
105
58
330
A
100
AcDbSymbolTableRecord
100
AcDbDimStyleTableRecord
  2
Standard
 70
     0
340
55
  0
DIMSTYLE
105
59
330
A
100
AcDbSymbolTableRecord
100
AcDbDimStyleTableRecord
  2
Annotative
 70
     0
340
55
1001
AcadAnnotative
1000
AnnotativeData
1002
{
1070
     1
1070
     1
1002
}
  0
ENDTAB
  0
TABLE
  2
BLOCK_RECORD
  5
1
330
0
100
AcDbSymbolTable
 70
    21
  0
BLOCK_RECORD
  5
70
330
1
100
AcDbSymbolTableRecord
100
AcDbBlockTableRecord
  2
*Model_Space
340
73
 70
     0
280
     1
281
     0
  0
BLOCK_RECORD
  5
6C
330
1
100
AcDbSymbolTableRecord
100
AcDbBlockTableRecord
  2
*Paper_Space
340
6F
 70
     0
280
     1
281
     0
  0
BLOCK_RECORD
  5
74
330
1
100
AcDbSymbolTableRecord
100
AcDbBlockTableRecord
  2
*Paper_Space0
340
77
 70
     0
280
     1
281
     0
  0
BLOCK_RECORD
  5
8A
330
1
100
AcDbSymbolTableRecord
100
AcDbBlockTableRecord
  2
Block_0
340
0
102
{BLKREFS
331
8B
102
}
 70
     0
280
     1
281
     0
  0
BLOCK_RECORD
  5
F2
330
1
100
AcDbSymbolTableRecord
100
AcDbBlockTableRecord
  2
Block_1
340
0
102
{BLKREFS
331
F3
102
}
 70
     0
280
     1
281
     0
  0
BLOCK_RECORD
  5
F6
330
1
100
AcDbSymbolTableRecord
100
AcDbBlockTableRecord
  2
Block_2
340
0
102
{BLKREFS
331
F7
102
}
 70
     0
280
     1
281
     0
  0
BLOCK_RECORD
  5
101
330
1
100
AcDbSymbolTableRecord
100
AcDbBlockTableRecord
  2
Block_3
340
0
102
{BLKREFS
331
102
102
}
 70
     0
280
     1
281
     0
  0
BLOCK_RECORD
  5
109
330
1
100
AcDbSymbolTableRecord
100
AcDbBlockTableRecord
  2
Block_4
340
0
102
{BLKREFS
331
10A
102
}
 70
     0
280
     1
281
     0
  0
BLOCK_RECORD
  5
10D
330
1
100
AcDbSymbolTableRecord
100
AcDbBlockTableRecord
  2
Block_5
340
0
102
{BLKREFS
331
10E
102
}
 70
     0
280
     1
281
     0
  0
BLOCK_RECORD
  5
115
330
1
100
AcDbSymbolTableRecord
100
AcDbBlockTableRecord
  2
Block_6
340
0
102
{BLKREFS
331
116
102
}
 70
     0
280
     1
281
     0
  0
BLOCK_RECORD
  5
11D
330
1
100
AcDbSymbolTableRecord
100
AcDbBlockTableRecord
  2
Block_7
340
0
102
{BLKREFS
331
11E
102
}
 70
     0
280
     1
281
     0
  0
BLOCK_RECORD
  5
125
330
1
100
AcDbSymbolTableRecord
100
AcDbBlockTableRecord
  2
Block_8
340
0
102
{BLKREFS
331
126
102
}
 70
     0
280
     1
281
     0
  0
BLOCK_RECORD
  5
12D
330
1
100
AcDbSymbolTableRecord
100
AcDbBlockTableRecord
  2
Block_9
340
0
102
{BLKREFS
331
12E
102
}
 70
     0
280
     1
281
     0
  0
BLOCK_RECORD
  5
135
330
1
100
AcDbSymbolTableRecord
100
AcDbBlockTableRecord
  2
Block_10
340
0
102
{BLKREFS
331
136
102
}
 70
     0
280
     1
281
     0
  0
BLOCK_RECORD
  5
13D
330
1
100
AcDbSymbolTableRecord
100
AcDbBlockTableRecord
  2
Block_11
340
0
102
{BLKREFS
331
13E
102
}
 70
     0
280
     1
281
     0
  0
BLOCK_RECORD
  5
145
330
1
100
AcDbSymbolTableRecord
100
AcDbBlockTableRecord
  2
Block_12
340
0
102
{BLKREFS
331
146
102
}
 70
     0
280
     1
281
     0
  0
BLOCK_RECORD
  5
14D
330
1
100
AcDbSymbolTableRecord
100
AcDbBlockTableRecord
  2
Block_13
340
0
102
{BLKREFS
331
14E
102
}
 70
     0
280
     1
281
     0
  0
BLOCK_RECORD
  5
155
330
1
100
AcDbSymbolTableRecord
100
AcDbBlockTableRecord
  2
Block_14
340
0
102
{BLKREFS
331
156
102
}
 70
     0
280
     1
281
     0
  0
BLOCK_RECORD
  5
15D
330
1
100
AcDbSymbolTableRecord
100
AcDbBlockTableRecord
  2
Block_15
340
0
102
{BLKREFS
331
15E
102
}
 70
     0
280
     1
281
     0
  0
BLOCK_RECORD
  5
165
330
1
100
AcDbSymbolTableRecord
100
AcDbBlockTableRecord
  2
Block_16
340
0
102
{BLKREFS
331
166
102
}
 70
     0
280
     1
281
     0
  0
BLOCK_RECORD
  5
178
330
1
100
AcDbSymbolTableRecord
100
AcDbBlockTableRecord
  2
Block_17
340
0
102
{BLKREFS
331
179
102
}
 70
     0
280
     1
281
     0
  0
BLOCK_RECORD
  5
195
330
1
100
AcDbSymbolTableRecord
100
AcDbBlockTableRecord
  2
Block_18
340
0
102
{BLKREFS
331
196
102
}
 70
     0
280
     1
281
     0
  0
BLOCK_RECORD
  5
19C
330
1
100
AcDbSymbolTableRecord
100
AcDbBlockTableRecord
  2
Block_19
340
0
102
{BLKREFS
331
19D
102
}
 70
     0
280
     1
281
     0
  0
ENDTAB
  0
ENDSEC
  0
SECTION
  2
BLOCKS
  0
BLOCK
  5
71
330
70
100
AcDbEntity
  8
0
100
AcDbBlockBegin
  2
*Model_Space
 70
     0
 10
0.0
 20
0.0
 30
0.0
  3
*Model_Space
  1

  0
ENDBLK
  5
72
330
70
100
AcDbEntity
  8
0
100
AcDbBlockEnd
  0
BLOCK
  5
6D
330
6C
100
AcDbEntity
 67
     1
  8
0
100
AcDbBlockBegin
  2
*Paper_Space
 70
     0
 10
0.0
 20
0.0
 30
0.0
  3
*Paper_Space
  1

  0
ENDBLK
  5
6E
330
6C
100
AcDbEntity
 67
     1
  8
0
100
AcDbBlockEnd
  0
BLOCK
  5
75
330
74
100
AcDbEntity
 67
     1
  8
0
100
AcDbBlockBegin
  2
*Paper_Space0
 70
     0
 10
0.0
 20
0.0
 30
0.0
  3
*Paper_Space0
  1

  0
ENDBLK
  5
76
330
74
100
AcDbEntity
 67
     1
  8
0
100
AcDbBlockEnd
  0
BLOCK
  5
8C
330
8A
100
AcDbEntity
  8
0
100
AcDbBlockBegin
  2
Block_0
 70
     0
 10
0.0
 20
0.0
 30
0.0
  3
Block_0
  1

  0
LINE
  5
8E
330
8A
100
AcDbEntity
  8
Wood
 62
   250
420
  2301728
370
    20
100
AcDbLine
 10
1.357925545741181
 20
0.1012924212868711
 30
0.0
 11
1.511455976704635
 21
0.234589186072627
 31
0.0
  0
LINE
  5
8F
330
8A
100
AcDbEntity
  8
Wood
 62
   250
420
  2301728
370
    20
100
AcDbLine
 10
1.560809590383188
 20
0.8238812008791253
 30
0.0
 11
1.714412461107258
 21
0.9536830988883796
 31
0.0
  0
LINE
  5
90
330
8A
100
AcDbEntity
  8
Wood
 62
   250
420
  2301728
370
    20
100
AcDbLine
 10
1.341495447517356
 20
-0.0811272805469798
 30
0.0
 11
1.451151050766876
 21
0.0170993062049168
 31
0.0
  0
LINE
  5
91
330
8A
100
AcDbEntity
  8
Wood
 62
   250
420
  2301728
370
    20
100
AcDbLine
 10
1.50050458833218
 20
0.6064086796212173
 30
0.0
 11
1.654035093053809
 21
0.7396958007348708
 31
0.0
  0
LINE
  5
92
330
8A
100
AcDbEntity
  8
Wood
 62
   250
420
  2301728
370
    20
100
AcDbLine
 10
1.697922058296398
 20
1.329014817823298
 30
0.0
 11
1.730842558916037
 21
1.353557191876524
 31
0.0
  0
LINE
  5
93
330
8A
100
AcDbEntity
  8
Wood
 62
   250
420
  2301728
370
    20
100
AcDbLine
 10
1.473089934399821
 20
0.0907441727213281
 30
0.0
 11
1.62665059162244
 21
0.2205576431371128
 31
0.0
  0
LINE
  5
94
330
8A
100
AcDbEntity
  8
Wood
 62
   250
420
  2301728
370
    20
100
AcDbLine
 10
1.67052248061456
 20
0.8098670165534258
 30
0.0
 11
1.824068147120492
 21
0.9431464227293796
 31
0.0
  0
LINE
  5
95
330
8A
100
AcDbEntity
  8
Wood
 62
   250
420
  2301728
370
    20
100
AcDbLine
 10
1.577296977943938
 20
0.0416598103617439
 30
0.0
 11
1.730842558916037
 21
0.1714539934332859
 31
0.0
  0
LINE
  5
96
330
8A
100
AcDbEntity
  8
Wood
 62
   250
420
  2301728
370
    20
100
AcDbLine
 10
1.774657158156186
 20
0.7607633668496116
 30
0.0
 11
1.92824796787982
 21
0.8940427730255652
 31
0.0
  0
LINE
  5
97
330
8A
100
AcDbEntity
  8
Wood
 62
   250
420
  2301728
370
    20
100
AcDbLine
 10
1.862406966640567
 20
0.2310866043584256
 30
0.0
 11
1.939202371502384
 21
0.2977166637742812
 31
0.0
  0
LINE
  5
98
330
8A
100
AcDbEntity
  8
Wood
 62
   250
420
  2301728
370
    20
100
AcDbLine
 10
1.297620542166795
 20
0.2942044383879395
 30
0.0
 11
1.374358659215241
 21
0.3608615000857374
 31
0.0
  0
LINE
  5
99
330
8A
100
AcDbEntity
  8
Wood
 62
   250
420
  2301728
370
    20
100
AcDbLine
 10
1.494995726394841
 20
1.016820220262148
 30
0.0
 11
1.571791131256683
 21
1.079974700245732
 31
0.0
  0
LINE
  5
9A
330
8A
100
AcDbEntity
  8
Wood
 62
   250
420
  2301728
370
    20
100
AcDbLine
 10
1.541080808962204
 20
-0.0214753822775972
 30
0.0
 11
1.566315437070417
 21
0.0030561908628594
 31
0.0
  0
LINE
  5
9B
330
8A
100
AcDbEntity
  8
Wood
 62
   250
420
  2301728
370
    20
100
AcDbLine
 10
1.610190341312621
 20
0.5923655642791724
 30
0.0
 11
1.763763143546081
 21
0.7256816164091712
 31
0.0
  0
LINE
  5
9C
330
8A
100
AcDbEntity
  8
Wood
 62
   250
420
  2301728
370
    20
100
AcDbLine
 10
1.813056368212149
 20
1.315001404991385
 30
0.0
 11
1.856931272454327
 21
1.353557191876524
 31
0.0
  0
LINE
  5
9D
330
8A
100
AcDbEntity
  8
Wood
 62
   250
420
  2301728
370
    20
100
AcDbLine
 10
1.560809590383188
 20
-0.0811272805469798
 30
0.0
 11
1.763763143546081
 21
0.0942583268420852
 31
0.0
  0
LINE
  5
9E
330
8A
100
AcDbEntity
  8
Wood
 62
   250
420
  2301728
370
    20
100
AcDbLine
 10
1.736321268352361
 20
0.6169183534982747
 30
0.0
 11
1.961108163497404
 21
0.8133792419397675
 31
0.0
  0
LINE
  5
9F
330
8A
100
AcDbEntity
  8
Wood
 62
   250
420
  2301728
370
    20
100
AcDbLine
 10
1.93372366206606
 20
1.339543779044598
 30
0.0
 11
1.950156775124949
 21
1.353557191876524
 31
0.0
  0
LINE
  5
A0
330
8A
100
AcDbEntity
  8
Wood
 62
   250
420
  2301728
370
    20
100
AcDbLine
 10
1.966644162685648
 20
0.1819540236382409
 30
0.0
 11
1.977598566308238
 21
0.1959971389802983
 31
0.0
  0
LINE
  5
A1
330
8A
100
AcDbEntity
  8
Wood
 62
   250
420
  2301728
370
    20
100
AcDbLine
 10
1.577296977943938
 20
0.2626638443502113
 30
0.0
 11
1.654035093053809
 21
0.3292842600939517
 31
0.0
  0
LINE
  5
A2
330
8A
100
AcDbEntity
  8
Wood
 62
   250
420
  2301728
370
    20
100
AcDbLine
 10
1.78019315734443
 20
0.9852526239424781
 30
0.0
 11
1.856931272454327
 21
1.048397460253934
 31
0.0
  0
LINE
  5
A3
330
8A
100
AcDbEntity
  8
Wood
 62
   250
420
  2301728
370
    20
100
AcDbLine
 10
1.725306559727742
 20
-0.0495500405551815
 30
0.0
 11
1.802162269591639
 21
0.0135851520841597
 31
0.0
  0
LINE
  5
A4
330
8A
100
AcDbEntity
  8
Wood
 62
   250
420
  2301728
370
    20
100
AcDbLine
 10
1.922772273693605
 20
0.6695631596048012
 30
0.0
 11
1.977598566308238
 21
0.718657165636513
 31
0.0
  0
LINE
  5
A5
330
8A
100
AcDbEntity
  8
Wood
 62
   250
420
  2301728
370
    20
100
AcDbLine
 10
1.851512868020058
 20
-0.0811272805469798
 30
0.0
 11
1.906281870882771
 21
-0.0355184976196673
 31
0.0
  0
LINE
  5
A6
330
8A
100
AcDbEntity
  8
Wood
 62
   250
420
  2301728
370
    20
100
AcDbLine
 10
1.29211469534045
 20
0.9221155025687215
 30
0.0
 11
1.297620542166795
 21
0.9256200130173384
 31
0.0
  0
LINE
  5
A7
330
8A
100
AcDbEntity
  8
Wood
 62
   250
420
  2301728
370
    20
100
AcDbLine
 10
1.341495447517356
 20
0.6625367800977149
 30
0.0
 11
1.418230549315605
 21
0.7256816164091712
 31
0.0
  0
LINE
  5
A8
330
8A
100
AcDbEntity
  8
Wood
 62
   250
420
  2301728
370
    20
100
AcDbLine
 10
1.29211469534045
 20
0.785314227334311
 30
0.0
 11
1.325005044289911
 21
0.8133792419397675
 31
0.0
  0
LINE
  5
A9
330
8A
100
AcDbEntity
  8
Wood
 62
   250
420
  2301728
370
    20
100
AcDbLine
 10
1.325005044289911
 20
0.1819540236382409
 30
0.0
 11
1.478565628586061
 21
0.3117578503819232
 31
0.0
  0
LINE
  5
AA
330
8A
100
AcDbEntity
  8
Wood
 62
   250
420
  2301728
370
    20
100
AcDbLine
 10
1.522470685329254
 20
0.9010768674703387
 30
0.0
 11
1.675971037549844
 21
1.034356273646292
 31
0.0
  0
LINE
  5
AB
330
8A
100
AcDbEntity
  8
Wood
 62
   250
420
  2301728
370
    20
100
AcDbLine
 10
1.686955593673448
 20
1.069436095352304
 30
0.0
 11
1.610190341312621
 21
1.227295293029328
 31
0.0
  0
LINE
  5
AC
330
8A
100
AcDbEntity
  8
Wood
 62
   250
420
  2301728
370
    20
100
AcDbLine
 10
1.484071475273291
 20
0.3468396008223509
 30
0.0
 11
1.412754854991072
 21
0.5046698674830042
 31
0.0
  0
LINE
  5
AD
330
8A
100
AcDbEntity
  8
Wood
 62
   250
420
  2301728
370
    20
100
AcDbLine
 10
1.725306559727742
 20
1.213261821359386
 30
0.0
 11
1.686955593673448
 21
1.290420841996541
 31
0.0
  0
LINE
  5
AE
330
8A
100
AcDbEntity
  8
Wood
 62
   250
420
  2301728
370
    20
100
AcDbLine
 10
1.527946379515469
 20
0.4906653268294324
 30
0.0
 11
1.489550184709641
 21
0.5713365728529045
 31
0.0
  0
LINE
  5
AF
330
8A
100
AcDbEntity
  8
Wood
 62
   250
420
  2301728
370
    20
100
AcDbLine
 10
1.900863466448451
 20
0.3749123303655071
 30
0.0
 11
1.862406966640567
 21
0.455575861451305
 31
0.0
  0
LINE
  5
B0
330
8A
100
AcDbEntity
  8
Wood
 62
   250
420
  2301728
370
    20
100
AcDbLine
 10
1.686955593673448
 20
1.069436095352304
 30
0.0
 11
1.610190341312621
 21
1.223790782580686
 31
0.0
  0
LINE
  5
B1
330
8A
100
AcDbEntity
  8
Wood
 62
   250
420
  2301728
370
    20
100
AcDbLine
 10
1.977598566308238
 20
0.4380494517392764
 30
0.0
 11
1.906281870882771
 21
0.5993919437862461
 31
0.0
  0
LINE
  5
B2
330
8A
100
AcDbEntity
  8
Wood
 62
   250
420
  2301728
370
    20
100
AcDbLine
 10
1.484071475273291
 20
0.3468396008223509
 30
0.0
 11
1.412754854991072
 21
0.5046698674830042
 31
0.0
  0
LINE
  5
B3
330
8A
100
AcDbEntity
  8
Wood
 62
   250
420
  2301728
370
    20
100
AcDbLine
 10
1.401770298589983
 20
1.10101333534409
 30
0.0
 11
1.29211469534045
 21
1.339543779044598
 31
0.0
  0
LINE
  5
B4
330
8A
100
AcDbEntity
  8
Wood
 62
   250
420
  2301728
370
    20
100
AcDbLine
 10
1.396324756767171
 20
1.286927903954443
 30
0.0
 11
1.363404255315951
 21
1.353557191876524
 31
0.0
  0
LINE
  5
B5
330
8A
100
AcDbEntity
  8
Wood
 62
   250
420
  2301728
370
    20
100
AcDbLine
 10
1.763763143546081
 20
0.0942583268420852
 30
0.0
 11
1.966644162685648
 21
0.1819540236382409
 31
0.0
  0
LINE
  5
B6
330
8A
100
AcDbEntity
  8
Wood
 62
   250
420
  2301728
370
    20
100
AcDbLine
 10
1.961108163497404
 20
0.8133792419397675
 30
0.0
 11
1.977598566308238
 21
0.8203766904304959
 31
0.0
  0
LINE
  5
B7
330
8A
100
AcDbEntity
  8
Wood
 62
   250
420
  2301728
370
    20
100
AcDbLine
 10
1.802162269591639
 20
0.0135851520841597
 30
0.0
 11
1.977598566308238
 21
0.0942583268420852
 31
0.0
  0
LINE
  5
B8
330
8A
100
AcDbEntity
  8
Wood
 62
   250
420
  2301728
370
    20
100
AcDbLine
 10
1.29211469534045
 20
0.2942044383879395
 30
0.0
 11
1.297620542166795
 21
0.2942044383879395
 31
0.0
  0
LINE
  5
B9
330
8A
100
AcDbEntity
  8
Wood
 62
   250
420
  2301728
370
    20
100
AcDbLine
 10
1.297620542166795
 20
0.9256200130173384
 30
0.0
 11
1.494995726394841
 21
1.016820220262148
 31
0.0
  0
LINE
  5
BA
330
8A
100
AcDbEntity
  8
Wood
 62
   250
420
  2301728
370
    20
100
AcDbLine
 10
1.29211469534045
 20
0.1644276139262122
 30
0.0
 11
1.325005044289911
 21
0.1819540236382409
 31
0.0
  0
LINE
  5
BB
330
8A
100
AcDbEntity
  8
Wood
 62
   250
420
  2301728
370
    20
100
AcDbLine
 10
1.325005044289911
 20
0.8133792419397675
 30
0.0
 11
1.522470685329254
 21
0.9010768674703387
 31
0.0
  0
LINE
  5
BC
330
8A
100
AcDbEntity
  8
Wood
 62
   250
420
  2301728
370
    20
100
AcDbLine
 10
1.62665059162244
 20
0.2205576431371128
 30
0.0
 11
1.824068147120492
 21
0.3082456249955814
 31
0.0
  0
LINE
  5
BD
330
8A
100
AcDbEntity
  8
Wood
 62
   250
420
  2301728
370
    20
100
AcDbLine
 10
1.824068147120492
 20
0.9431464227293796
 30
0.0
 11
1.977598566308238
 21
1.009803484427165
 31
0.0
  0
LINE
  5
BE
330
8A
100
AcDbEntity
  8
Wood
 62
   250
420
  2301728
370
    20
100
AcDbLine
 10
1.730842558916037
 20
0.1714539934332859
 30
0.0
 11
1.862406966640567
 21
0.2310866043584256
 31
0.0
  0
LINE
  5
BF
330
8A
100
AcDbEntity
  8
Wood
 62
   250
420
  2301728
370
    20
100
AcDbLine
 10
1.92824796787982
 20
0.8940427730255652
 30
0.0
 11
1.977598566308238
 21
0.9150910517960507
 31
0.0
  0
LINE
  5
C0
330
8A
100
AcDbEntity
  8
Wood
 62
   250
420
  2301728
370
    20
100
AcDbLine
 10
1.29211469534045
 20
1.020342089320593
 30
0.0
 11
1.390846047192477
 21
1.065923869965963
 31
0.0
  0
LINE
  5
C1
330
8A
100
AcDbEntity
  8
Wood
 62
   250
420
  2301728
370
    20
100
AcDbLine
 10
1.906281870882771
 20
-0.0355184976196673
 30
0.0
 11
1.977598566308238
 21
-0.0004271035071118
 31
0.0
  0
LINE
  5
C2
330
8A
100
AcDbEntity
  8
Wood
 62
   250
420
  2301728
370
    20
100
AcDbLine
 10
1.29211469534045
 20
0.0381379413032871
 30
0.0
 11
1.352449851416622
 21
0.0662029559087437
 31
0.0
  0
LINE
  5
C3
330
8A
100
AcDbEntity
  8
Wood
 62
   250
420
  2301728
370
    20
100
AcDbLine
 10
1.418230549315605
 20
0.7256816164091712
 30
0.0
 11
1.549855186760623
 21
0.785314227334311
 31
0.0
  0
LINE
  5
C4
330
8A
100
AcDbEntity
  8
Wood
 62
   250
420
  2301728
370
    20
100
AcDbLine
 10
1.511455976704635
 20
0.234589186072627
 30
0.0
 11
1.577296977943938
 21
0.2626638443502113
 31
0.0
  0
LINE
  5
C5
330
8A
100
AcDbEntity
  8
Wood
 62
   250
420
  2301728
370
    20
100
AcDbLine
 10
1.714412461107258
 20
0.9536830988883796
 30
0.0
 11
1.78019315734443
 21
0.9852526239424781
 31
0.0
  0
LINE
  5
C6
330
8A
100
AcDbEntity
  8
Wood
 62
   250
420
  2301728
370
    20
100
AcDbLine
 10
1.862406966640567
 20
1.086962505064333
 30
0.0
 11
1.725306559727742
 21
1.213261821359386
 31
0.0
  0
LINE
  5
C7
330
8A
100
AcDbEntity
  8
Wood
 62
   250
420
  2301728
370
    20
100
AcDbLine
 10
1.66501663392728
 20
0.3643660105343795
 30
0.0
 11
1.527946379515469
 21
0.4906653268294324
 31
0.0
  0
LINE
  5
C8
330
8A
100
AcDbEntity
  8
Wood
 62
   250
420
  2301728
370
    20
100
AcDbLine
 10
1.977598566308238
 20
1.115027519669789
 30
0.0
 11
1.802162269591639
 21
1.279911168119484
 31
0.0
  0
LINE
  5
C9
330
8A
100
AcDbEntity
  8
Wood
 62
   250
420
  2301728
370
    20
100
AcDbLine
 10
1.835022465209198
 20
0.3468396008223509
 30
0.0
 11
1.604681479375257
 21
0.5572857425731601
 31
0.0
  0
LINE
  5
CA
330
8A
100
AcDbEntity
  8
Wood
 62
   250
420
  2301728
370
    20
100
AcDbLine
 10
1.977598566308238
 20
1.251855797186143
 30
0.0
 11
1.922772273693605
 21
1.300950188964722
 31
0.0
  0
LINE
  5
CB
330
8A
100
AcDbEntity
  8
Wood
 62
   250
420
  2301728
370
    20
100
AcDbLine
 10
1.862406966640567
 20
0.455575861451305
 30
0.0
 11
1.725306559727742
 21
0.5818655340742175
 31
0.0
  0
LINE
  5
CC
330
8A
100
AcDbEntity
  8
Wood
 62
   250
420
  2301728
370
    20
100
AcDbLine
 10
1.944738459272937
 20
0.3327964854802809
 30
0.0
 11
1.900863466448451
 21
0.3749123303655071
 31
0.0
  0
LINE
  5
CD
330
8A
100
AcDbEntity
  8
Wood
 62
   250
420
  2301728
370
    20
100
AcDbLine
 10
1.582715382378207
 20
1.118539745056131
 30
0.0
 11
1.396324756767171
 21
1.286927903954443
 31
0.0
  0
LINE
  5
CE
330
8A
100
AcDbEntity
  8
Wood
 62
   250
420
  2301728
370
    20
100
AcDbLine
 10
1.38534020036612
 20
0.3959432505261778
 30
0.0
 11
1.29211469534045
 21
0.4801267219360044
 31
0.0
  0
LINE
  5
CF
330
8A
100
AcDbEntity
  8
Wood
 62
   250
420
  2301728
370
    20
100
AcDbLine
 10
1.610190341312621
 20
1.227295293029328
 30
0.0
 11
1.516964916417818
 21
1.311488600984716
 31
0.0
  0
LINE
  5
D0
330
8A
100
AcDbEntity
  8
Wood
 62
   250
420
  2301728
370
    20
100
AcDbLine
 10
1.412754854991072
 20
0.5046698674830042
 30
0.0
 11
1.319529349965364
 21
0.5888629825649458
 31
0.0
  0
LINE
  5
D1
330
8A
100
AcDbEntity
  8
Wood
 62
   250
420
  2301728
370
    20
100
AcDbLine
 10
1.686955593673448
 20
1.290420841996541
 30
0.0
 11
1.697922058296398
 21
1.329014817823298
 31
0.0
  0
LINE
  5
D2
330
8A
100
AcDbEntity
  8
Wood
 62
   250
420
  2301728
370
    20
100
AcDbLine
 10
1.549855186760623
 20
0.785314227334311
 30
0.0
 11
1.560809590383188
 21
0.8238812008791253
 31
0.0
  0
LINE
  5
D3
330
8A
100
AcDbEntity
  8
Wood
 62
   250
420
  2301728
370
    20
100
AcDbLine
 10
1.489550184709641
 20
0.5713365728529045
 30
0.0
 11
1.50050458833218
 21
0.6064086796212173
 31
0.0
  0
LINE
  5
D4
330
8A
100
AcDbEntity
  8
Wood
 62
   250
420
  2301728
370
    20
100
AcDbLine
 10
1.352449851416622
 20
0.0662029559087437
 30
0.0
 11
1.357925545741181
 21
0.1012924212868711
 31
0.0
  0
LINE
  5
D5
330
8A
100
AcDbEntity
  8
Wood
 62
   250
420
  2301728
370
    20
100
AcDbLine
 10
1.675971037549844
 20
1.034356273646292
 30
0.0
 11
1.686955593673448
 21
1.069436095352304
 31
0.0
  0
LINE
  5
D6
330
8A
100
AcDbEntity
  8
Wood
 62
   250
420
  2301728
370
    20
100
AcDbLine
 10
1.478565628586061
 20
0.3117578503819232
 30
0.0
 11
1.484071475273291
 21
0.3468396008223509
 31
0.0
  0
LINE
  5
D7
330
8A
100
AcDbEntity
  8
Wood
 62
   250
420
  2301728
370
    20
100
AcDbLine
 10
1.802162269591639
 20
1.279911168119484
 30
0.0
 11
1.813056368212149
 21
1.315001404991385
 31
0.0
  0
LINE
  5
D8
330
8A
100
AcDbEntity
  8
Wood
 62
   250
420
  2301728
370
    20
100
AcDbLine
 10
1.654035093053809
 20
0.7396958007348708
 30
0.0
 11
1.67052248061456
 21
0.8098670165534258
 31
0.0
  0
LINE
  5
D9
330
8A
100
AcDbEntity
  8
Wood
 62
   250
420
  2301728
370
    20
100
AcDbLine
 10
1.604681479375257
 20
0.5572857425731601
 30
0.0
 11
1.610190341312621
 21
0.5923655642791724
 31
0.0
  0
LINE
  5
DA
330
8A
100
AcDbEntity
  8
Wood
 62
   250
420
  2301728
370
    20
100
AcDbLine
 10
1.451151050766876
 20
0.0170993062049168
 30
0.0
 11
1.473089934399821
 21
0.0907441727213281
 31
0.0
  0
LINE
  5
DB
330
8A
100
AcDbEntity
  8
Wood
 62
   250
420
  2301728
370
    20
100
AcDbLine
 10
1.922772273693605
 20
1.300950188964722
 30
0.0
 11
1.93372366206606
 21
1.339543779044598
 31
0.0
  0
LINE
  5
DC
330
8A
100
AcDbEntity
  8
Wood
 62
   250
420
  2301728
370
    20
100
AcDbLine
 10
1.856931272454327
 20
1.048397460253934
 30
0.0
 11
1.862406966640567
 21
1.086962505064333
 31
0.0
  0
LINE
  5
DD
330
8A
100
AcDbEntity
  8
Wood
 62
   250
420
  2301728
370
    20
100
AcDbLine
 10
1.763763143546081
 20
0.7256816164091712
 30
0.0
 11
1.774657158156186
 21
0.7607633668496116
 31
0.0
  0
LINE
  5
DE
330
8A
100
AcDbEntity
  8
Wood
 62
   250
420
  2301728
370
    20
100
AcDbLine
 10
1.725306559727742
 20
0.5818655340742175
 30
0.0
 11
1.736321268352361
 21
0.6169183534982747
 31
0.0
  0
LINE
  5
DF
330
8A
100
AcDbEntity
  8
Wood
 62
   250
420
  2301728
370
    20
100
AcDbLine
 10
1.654035093053809
 20
0.3292842600939517
 30
0.0
 11
1.66501663392728
 21
0.3643660105343795
 31
0.0
  0
LINE
  5
E0
330
8A
100
AcDbEntity
  8
Wood
 62
   250
420
  2301728
370
    20
100
AcDbLine
 10
1.566315437070417
 20
0.0030561908628594
 30
0.0
 11
1.577296977943938
 21
0.0416598103617439
 31
0.0
  0
LINE
  5
E1
330
8A
100
AcDbEntity
  8
Wood
 62
   250
420
  2301728
370
    20
100
AcDbLine
 10
1.906281870882771
 20
0.5993919437862461
 30
0.0
 11
1.922772273693605
 21
0.6695631596048012
 31
0.0
  0
LINE
  5
E2
330
8A
100
AcDbEntity
  8
Wood
 62
   250
420
  2301728
370
    20
100
AcDbLine
 10
1.824068147120492
 20
0.3082456249955814
 30
0.0
 11
1.835022465209198
 21
0.3468396008223509
 31
0.0
  0
LINE
  5
E3
330
8A
100
AcDbEntity
  8
Wood
 62
   250
420
  2301728
370
    20
100
AcDbLine
 10
1.714412461107258
 20
-0.0811272805469798
 30
0.0
 11
1.725306559727742
 21
-0.0495500405551815
 31
0.0
  0
LINE
  5
E4
330
8A
100
AcDbEntity
  8
Wood
 62
   250
420
  2301728
370
    20
100
AcDbLine
 10
1.939202371502384
 20
0.2977166637742812
 30
0.0
 11
1.944738459272937
 21
0.3327964854802809
 31
0.0
  0
LINE
  5
E5
330
8A
100
AcDbEntity
  8
Wood
 62
   250
420
  2301728
370
    20
100
AcDbLine
 10
1.390846047192477
 20
1.065923869965963
 30
0.0
 11
1.401770298589983
 21
1.10101333534409
 31
0.0
  0
LINE
  5
E6
330
8A
100
AcDbEntity
  8
Wood
 62
   250
420
  2301728
370
    20
100
AcDbLine
 10
1.516964916417818
 20
1.311488600984716
 30
0.0
 11
1.533425088951819
 21
1.353557191876524
 31
0.0
  0
LINE
  5
E7
330
8A
100
AcDbEntity
  8
Wood
 62
   250
420
  2301728
370
    20
100
AcDbLine
 10
1.319529349965364
 20
0.5888629825649458
 30
0.0
 11
1.341495447517356
 21
0.6625367800977149
 31
0.0
  0
LINE
  5
E8
330
8A
100
AcDbEntity
  8
Wood
 62
   250
420
  2301728
370
    20
100
AcDbLine
 10
1.571791131256683
 20
1.079974700245732
 30
0.0
 11
1.582715382378207
 21
1.118539745056131
 31
0.0
  0
LINE
  5
E9
330
8A
100
AcDbEntity
  8
Wood
 62
   250
420
  2301728
370
    20
100
AcDbLine
 10
1.374358659215241
 20
0.3608615000857374
 30
0.0
 11
1.38534020036612
 21
0.3959432505261778
 31
0.0
  0
ENDBLK
  5
8D
330
8A
100
AcDbEntity
  8
0
100
AcDbBlockEnd
  0
BLOCK
  5
F4
330
F2
100
AcDbEntity
  8
0
100
AcDbBlockBegin
  2
Block_1
 70
     0
 10
0.0
 20
0.0
 30
0.0
  3
Block_1
  1

  0
INSERT
  5
F7
330
F2
100
AcDbEntity
  8
SDPW screw
100
AcDbBlockReference
  2
Block_2
 10
0.0
 20
0.0
 30
0.0
  0
INSERT
  5
179
330
F2
100
AcDbEntity
  8
SDPW screw
100
AcDbBlockReference
  2
Block_17
 10
0.0
 20
0.0
 30
0.0
  0
ENDBLK
  5
F5
330
F2
100
AcDbEntity
  8
0
100
AcDbBlockEnd
  0
BLOCK
  5
F8
330
F6
100
AcDbEntity
  8
0
100
AcDbBlockBegin
  2
Block_2
 70
     0
 10
0.0
 20
0.0
 30
0.0
  3
Block_2
  1

  0
SPLINE
  5
FA
330
F6
100
AcDbEntity
  8
SDPW screw
 62
   250
420
  2301728
370
     5
100
AcDbSpline
210
0.0
220
0.0
230
1.0
 70
     9
 71
     3
 72
    68
 73
    64
 74
     0
 42
0.0000000001
 43
0.0000000001
 40
0.0
 40
0.0
 40
0.0
 40
0.0
 40
1.0
 40
1.0
 40
1.0
 40
2.0
 40
2.0
 40
2.0
 40
3.0
 40
3.0
 40
3.0
 40
4.0
 40
4.0
 40
4.0
 40
5.0
 40
5.0
 40
5.0
 40
6.0
 40
6.0
 40
6.0
 40
7.0
 40
7.0
 40
7.0
 40
8.0
 40
8.0
 40
8.0
 40
9.0
 40
9.0
 40
9.0
 40
10.0
 40
10.0
 40
10.0
 40
11.0
 40
11.0
 40
11.0
 40
12.0
 40
12.0
 40
12.0
 40
13.0
 40
13.0
 40
13.0
 40
14.0
 40
14.0
 40
14.0
 40
15.0
 40
15.0
 40
15.0
 40
16.0
 40
16.0
 40
16.0
 40
17.0
 40
17.0
 40
17.0
 40
18.0
 40
18.0
 40
18.0
 40
19.0
 40
19.0
 40
19.0
 40
20.0
 40
20.0
 40
20.0
 40
21.0
 40
21.0
 40
21.0
 40
21.0
 10
1.602838464615691
 20
0.2041809860268131
 30
0.0
 10
1.602977190646242
 20
0.2034254559680196
 30
0.0
 10
1.603698009861671
 20
0.202670803922034
 30
0.0
 10
1.604936476324635
 20
0.2019161518760863
 30
0.0
 10
1.609528483538572
 20
0.1991174859115543
 30
0.0
 10
1.614106003540478
 20
0.1962867724779471
 30
0.0
 10
1.618616355559247
 20
0.193370013784867
 30
0.0
 10
1.618616355559247
 20
0.193370013784867
 30
0.0
 10
1.618616355559247
 20
-0.4394129703618243
 30
0.0
 10
1.618616355559247
 20
-0.4394129703618243
 30
0.0
 10
1.618616355559247
 20
-0.4394129703618243
 30
0.0
 10
1.615060403510192
 20
-0.4446520730474251
 30
0.0
 10
1.615060403510192
 20
-0.4446520730474251
 30
0.0
 10
1.615060403510192
 20
-0.4446520730474251
 30
0.0
 10
1.615060403510192
 20
-0.9973984604585615
 30
0.0
 10
1.615060403510192
 20
-0.9973984604585615
 30
0.0
 10
1.615060403510192
 20
-0.9973984604585615
 30
0.0
 10
1.671165424728441
 20
-0.9973984604585615
 30
0.0
 10
1.671165424728441
 20
-0.9973984604585615
 30
0.0
 10
1.671165424728441
 20
-0.9973984604585615
 30
0.0
 10
1.671165424728441
 20
-0.4402992920347768
 30
0.0
 10
1.671165424728441
 20
-0.4402992920347768
 30
0.0
 10
1.671165424728441
 20
-0.4402992920347768
 30
0.0
 10
1.667609472679385
 20
-0.4367433398958964
 30
0.0
 10
1.667609472679385
 20
-0.4367433398958964
 30
0.0
 10
1.667609472679385
 20
-0.4367433398958964
 30
0.0
 10
1.667609472679385
 20
0.2584900319570806
 30
0.0
 10
1.667609472679385
 20
0.2584900319570806
 30
0.0
 10
1.667609472679385
 20
0.2584900319570806
 30
0.0
 10
1.643112914119329
 20
0.3499122943819278
 30
0.0
 10
1.643112914119329
 20
0.3499122943819278
 30
0.0
 10
1.643112914119329
 20
0.3499122943819278
 30
0.0
 10
1.632601344259758
 20
0.3106808718828359
 30
0.0
 10
1.632601344259758
 20
0.3106808718828359
 30
0.0
 10
1.628295130229035
 20
0.3081912664420972
 30
0.0
 10
1.623979258056932
 20
0.305697270937066
 30
0.0
 10
1.619734065919348
 20
0.3032432250168111
 30
0.0
 10
1.619183990867819
 20
0.3013695455914558
 30
0.0
 10
1.620690221914729
 20
0.2998808748015259
 30
0.0
 10
1.622322008799503
 20
0.2987644814606938
 30
0.0
 10
1.624336170281089
 20
0.297382489232253
 30
0.0
 10
1.626331454486388
 20
0.2959697665540059
 30
0.0
 10
1.628270106862752
 20
0.2945179723038791
 30
0.0
 10
1.628270106862752
 20
0.2945179723038791
 30
0.0
 10
1.619581262748649
 20
0.262090323655141
 30
0.0
 10
1.619581262748649
 20
0.262090323655141
 30
0.0
 10
1.614836510233013
 20
0.259350045545236
 30
0.0
 10
1.610048706153166
 20
0.2565843050626629
 30
0.0
 10
1.605316655889383
 20
0.2538514900620107
 30
0.0
 10
1.604232749024074
 20
0.2529177233943124
 30
0.0
 10
1.607371644968603
 20
0.2507643968757268
 30
0.0
 10
1.607371644968603
 20
0.2507643968757268
 30
0.0
 10
1.607371644968603
 20
0.2507643968757268
 30
0.0
 10
1.614915970396118
 20
0.2460029331814187
 30
0.0
 10
1.618616355559247
 20
0.2435458142161653
 30
0.0
 10
1.618616355559247
 20
0.2435458142161653
 30
0.0
 10
1.618616355559247
 20
0.2135884547254692
 30
0.0
 10
1.618616355559247
 20
0.2135884547254692
 30
0.0
 10
1.613348278449544
 20
0.2105474572138822
 30
0.0
 10
1.60808064034629
 20
0.2075055816894494
 30
0.0
 10
1.602813441249433
 20
0.2044645841778876
 30
0.0
 10
1.602812124230139
 20
0.2043697587899184
 30
0.0
 10
1.602820904358673
 20
0.2042749334019365
 30
0.0
 10
1.602838464615691
 20
0.2041809860268131
 30
0.0
  0
HATCH
  5
FB
330
F6
100
AcDbEntity
  8
SDPW screw
440
 33554687
100
AcDbHatch
 10
0.0
 20
0.0
 30
0.0
210
0.0
220
0.0
230
1.0
  2
SOLID
 70
     1
 71
     1
 91
        1
 92
        1
 93
        2
 72
     4
 94
        3
 73
     0
 74
     0
 95
       68
 96
       64
 40
0.0
 40
0.0
 40
0.0
 40
0.0
 40
1.0
 40
1.0
 40
1.0
 40
2.0
 40
2.0
 40
2.0
 40
3.0
 40
3.0
 40
3.0
 40
4.0
 40
4.0
 40
4.0
 40
5.0
 40
5.0
 40
5.0
 40
6.0
 40
6.0
 40
6.0
 40
7.0
 40
7.0
 40
7.0
 40
8.0
 40
8.0
 40
8.0
 40
9.0
 40
9.0
 40
9.0
 40
10.0
 40
10.0
 40
10.0
 40
11.0
 40
11.0
 40
11.0
 40
12.0
 40
12.0
 40
12.0
 40
13.0
 40
13.0
 40
13.0
 40
14.0
 40
14.0
 40
14.0
 40
15.0
 40
15.0
 40
15.0
 40
16.0
 40
16.0
 40
16.0
 40
17.0
 40
17.0
 40
17.0
 40
18.0
 40
18.0
 40
18.0
 40
19.0
 40
19.0
 40
19.0
 40
20.0
 40
20.0
 40
20.0
 40
21.0
 40
21.0
 40
21.0
 40
21.0
 10
1.602838464615691
 20
0.2041809860268131
 10
1.602977190646242
 20
0.2034254559680196
 10
1.603698009861671
 20
0.202670803922034
 10
1.604936476324635
 20
0.2019161518760863
 10
1.609528483538572
 20
0.1991174859115543
 10
1.614106003540478
 20
0.1962867724779471
 10
1.618616355559247
 20
0.193370013784867
 10
1.618616355559247
 20
0.193370013784867
 10
1.618616355559247
 20
-0.4394129703618243
 10
1.618616355559247
 20
-0.4394129703618243
 10
1.618616355559247
 20
-0.4394129703618243
 10
1.615060403510192
 20
-0.4446520730474251
 10
1.615060403510192
 20
-0.4446520730474251
 10
1.615060403510192
 20
-0.4446520730474251
 10
1.615060403510192
 20
-0.9973984604585615
 10
1.615060403510192
 20
-0.9973984604585615
 10
1.615060403510192
 20
-0.9973984604585615
 10
1.671165424728441
 20
-0.9973984604585615
 10
1.671165424728441
 20
-0.9973984604585615
 10
1.671165424728441
 20
-0.9973984604585615
 10
1.671165424728441
 20
-0.4402992920347768
 10
1.671165424728441
 20
-0.4402992920347768
 10
1.671165424728441
 20
-0.4402992920347768
 10
1.667609472679385
 20
-0.4367433398958964
 10
1.667609472679385
 20
-0.4367433398958964
 10
1.667609472679385
 20
-0.4367433398958964
 10
1.667609472679385
 20
0.2584900319570806
 10
1.667609472679385
 20
0.2584900319570806
 10
1.667609472679385
 20
0.2584900319570806
 10
1.643112914119329
 20
0.3499122943819278
 10
1.643112914119329
 20
0.3499122943819278
 10
1.643112914119329
 20
0.3499122943819278
 10
1.632601344259758
 20
0.3106808718828359
 10
1.632601344259758
 20
0.3106808718828359
 10
1.628295130229035
 20
0.3081912664420972
 10
1.623979258056932
 20
0.305697270937066
 10
1.619734065919348
 20
0.3032432250168111
 10
1.619183990867819
 20
0.3013695455914558
 10
1.620690221914729
 20
0.2998808748015259
 10
1.622322008799503
 20
0.2987644814606938
 10
1.624336170281089
 20
0.297382489232253
 10
1.626331454486388
 20
0.2959697665540059
 10
1.628270106862752
 20
0.2945179723038791
 10
1.628270106862752
 20
0.2945179723038791
 10
1.619581262748649
 20
0.262090323655141
 10
1.619581262748649
 20
0.262090323655141
 10
1.614836510233013
 20
0.259350045545236
 10
1.610048706153166
 20
0.2565843050626629
 10
1.605316655889383
 20
0.2538514900620107
 10
1.604232749024074
 20
0.2529177233943124
 10
1.607371644968603
 20
0.2507643968757268
 10
1.607371644968603
 20
0.2507643968757268
 10
1.607371644968603
 20
0.2507643968757268
 10
1.614915970396118
 20
0.2460029331814187
 10
1.618616355559247
 20
0.2435458142161653
 10
1.618616355559247
 20
0.2435458142161653
 10
1.618616355559247
 20
0.2135884547254692
 10
1.618616355559247
 20
0.2135884547254692
 10
1.613348278449544
 20
0.2105474572138822
 10
1.60808064034629
 20
0.2075055816894494
 10
1.602813441249433
 20
0.2044645841778876
 10
1.602812124230139
 20
0.2043697587899184
 10
1.602820904358673
 20
0.2042749334019365
 10
1.602838464615691
 20
0.2041809860268131
 97
        0
 72
     1
 10
1.602838464615691
 20
0.2041809860268131
 11
1.602838464615691
 21
0.2041809860268131
 97
        0
 75
     2
 76
     0
 98
        1
 10
0.0
 20
0.0
450
        1
451
        0
460
-90.0
461
0.0
452
        0
462
0.0
453
        2
463
0.0
 63
   250
421
  3157551
463
1.0
 63
   250
421
  3157551
470
LINEAR
  0
LINE
  5
FC
330
F6
100
AcDbEntity
  8
SDPW screw
 62
   250
420
  2301728
370
     5
100
AcDbLine
 10
1.671165424728441
 20
-0.4402992920347768
 30
0.0
 11
1.619257304940927
 21
-0.4402992920347768
 31
0.0
  0
SPLINE
  5
FD
330
F6
100
AcDbEntity
  8
SDPW screw
 62
   250
420
  2301728
370
     5
100
AcDbSpline
210
0.0
220
0.0
230
1.0
 70
    11
 71
     3
 72
    35
 73
    31
 74
     0
 42
0.0000000001
 43
0.0000000001
 40
0.0
 40
0.0
 40
0.0
 40
0.0
 40
1.0
 40
1.0
 40
1.0
 40
2.0
 40
2.0
 40
2.0
 40
3.0
 40
3.0
 40
3.0
 40
4.0
 40
4.0
 40
4.0
 40
5.0
 40
5.0
 40
5.0
 40
6.0
 40
6.0
 40
6.0
 40
7.0
 40
7.0
 40
7.0
 40
8.0
 40
8.0
 40
8.0
 40
9.0
 40
9.0
 40
9.0
 40
10.0
 40
10.0
 40
10.0
 40
10.0
 10
1.57989598880297
 20
-1.032957981847276
 30
0.0
 10
1.57989598880297
 20
-1.032957981847276
 30
0.0
 10
1.542360939396429
 20
-1.032957981847276
 30
0.0
 10
1.542360939396429
 20
-1.032957981847276
 30
0.0
 10
1.537996306515474
 20
-1.032957981847276
 30
0.0
 10
1.534458823731862
 20
-1.036495951961809
 30
0.0
 10
1.534458823731862
 20
-1.040860097711452
 30
0.0
 10
1.534458823731862
 20
-1.040860097711452
 30
0.0
 10
1.534458823731862
 20
-1.049552425162055
 30
0.0
 10
1.534458823731862
 20
-1.049552425162055
 30
0.0
 10
1.534458823731862
 20
-1.053917043957135
 30
0.0
 10
1.537996306515474
 20
-1.057454541026231
 30
0.0
 10
1.542360939396429
 20
-1.057454541026231
 30
0.0
 10
1.542360939396429
 20
-1.057454541026231
 30
0.0
 10
1.743864888842229
 20
-1.057454541026231
 30
0.0
 10
1.743864888842229
 20
-1.057454541026231
 30
0.0
 10
1.748229051721207
 20
-1.057454541026231
 30
0.0
 10
1.751767004506796
 20
-1.053917043957135
 30
0.0
 10
1.751767004506796
 20
-1.049552425162055
 30
0.0
 10
1.751767004506796
 20
-1.049552425162055
 30
0.0
 10
1.751767004506796
 20
-1.040860097711452
 30
0.0
 10
1.751767004506796
 20
-1.040860097711452
 30
0.0
 10
1.751767004506796
 20
-1.036495951961809
 30
0.0
 10
1.748229051721207
 20
-1.032957981847276
 30
0.0
 10
1.743864888842229
 20
-1.032957981847276
 30
0.0
 10
1.743864888842229
 20
-1.032957981847276
 30
0.0
 10
1.706329839435662
 20
-1.032957981847276
 30
0.0
 10
1.706329839435662
 20
-1.032957981847276
 30
0.0
 10
1.706329839435662
 20
-1.032957981847276
 30
0.0
 10
1.57989598880297
 20
-1.032957981847276
 30
0.0
 10
1.57989598880297
 20
-1.032957981847276
 30
0.0
  0
HATCH
  5
FE
330
F6
100
AcDbEntity
  8
SDPW screw
440
 33554687
100
AcDbHatch
 10
0.0
 20
0.0
 30
0.0
210
0.0
220
0.0
230
1.0
  2
SOLID
 70
     1
 71
     1
 91
        1
 92
        1
 93
        1
 72
     4
 94
        3
 73
     0
 74
     0
 95
       35
 96
       31
 40
0.0
 40
0.0
 40
0.0
 40
0.0
 40
1.0
 40
1.0
 40
1.0
 40
2.0
 40
2.0
 40
2.0
 40
3.0
 40
3.0
 40
3.0
 40
4.0
 40
4.0
 40
4.0
 40
5.0
 40
5.0
 40
5.0
 40
6.0
 40
6.0
 40
6.0
 40
7.0
 40
7.0
 40
7.0
 40
8.0
 40
8.0
 40
8.0
 40
9.0
 40
9.0
 40
9.0
 40
10.0
 40
10.0
 40
10.0
 40
10.0
 10
1.57989598880297
 20
-1.032957981847276
 10
1.57989598880297
 20
-1.032957981847276
 10
1.542360939396429
 20
-1.032957981847276
 10
1.542360939396429
 20
-1.032957981847276
 10
1.537996306515474
 20
-1.032957981847276
 10
1.534458823731862
 20
-1.036495951961809
 10
1.534458823731862
 20
-1.040860097711452
 10
1.534458823731862
 20
-1.040860097711452
 10
1.534458823731862
 20
-1.049552425162055
 10
1.534458823731862
 20
-1.049552425162055
 10
1.534458823731862
 20
-1.053917043957135
 10
1.537996306515474
 20
-1.057454541026231
 10
1.542360939396429
 20
-1.057454541026231
 10
1.542360939396429
 20
-1.057454541026231
 10
1.743864888842229
 20
-1.057454541026231
 10
1.743864888842229
 20
-1.057454541026231
 10
1.748229051721207
 20
-1.057454541026231
 10
1.751767004506796
 20
-1.053917043957135
 10
1.751767004506796
 20
-1.049552425162055
 10
1.751767004506796
 20
-1.049552425162055
 10
1.751767004506796
 20
-1.040860097711452
 10
1.751767004506796
 20
-1.040860097711452
 10
1.751767004506796
 20
-1.036495951961809
 10
1.748229051721207
 20
-1.032957981847276
 10
1.743864888842229
 20
-1.032957981847276
 10
1.743864888842229
 20
-1.032957981847276
 10
1.706329839435662
 20
-1.032957981847276
 10
1.706329839435662
 20
-1.032957981847276
 10
1.706329839435662
 20
-1.032957981847276
 10
1.57989598880297
 20
-1.032957981847276
 10
1.57989598880297
 20
-1.032957981847276
 97
        0
 97
        1
330
FD
 75
     2
 76
     0
 98
        1
 10
0.0
 20
0.0
450
        1
451
        0
460
-90.0
461
0.0
452
        0
462
0.0
453
        2
463
0.0
 63
   250
421
  3157551
463
1.0
 63
   250
421
  3157551
470
LINEAR
  0
LWPOLYLINE
  5
FF
330
F6
100
AcDbEntity
  8
SDPW screw
 62
   250
420
  2301728
370
     5
100
AcDbPolyline
 90
        4
 70
     1
 43
0.0
 10
1.57989598880297
 20
-1.032957981847276
 10
1.615060403510192
 20
-0.9973984604585615
 10
1.671165424728441
 20
-0.9973984604585615
 10
1.706329839435662
 20
-1.032957981847276
  0
HATCH
  5
100
330
F6
100
AcDbEntity
  8
SDPW screw
440
 33554687
100
AcDbHatch
 10
0.0
 20
0.0
 30
0.0
210
0.0
220
0.0
230
1.0
  2
SOLID
 70
     1
 71
     1
 91
        1
 92
        1
 93
        4
 72
     1
 10
1.57989598880297
 20
-1.032957981847276
 11
1.615060403510192
 21
-0.9973984604585615
 72
     1
 10
1.615060403510192
 20
-0.9973984604585615
 11
1.671165424728441
 21
-0.9973984604585615
 72
     1
 10
1.671165424728441
 20
-0.9973984604585615
 11
1.706329839435662
 21
-1.032957981847276
 72
     1
 10
1.706329839435662
 20
-1.032957981847276
 11
1.57989598880297
 21
-1.032957981847276
 97
        1
330
FF
 75
     2
 76
     0
 98
        1
 10
0.0
 20
0.0
450
        1
451
        0
460
-90.0
461
0.0
452
        0
462
0.0
453
        2
463
0.0
 63
   250
421
  3157551
463
1.0
 63
   250
421
  3157551
470
LINEAR
  0
INSERT
  5
102
330
F6
100
AcDbEntity
  8
SDPW screw
100
AcDbBlockReference
  2
Block_3
 10
0.0
 20
0.0
 30
0.0
  0
INSERT
  5
10A
330
F6
100
AcDbEntity
  8
SDPW screw
100
AcDbBlockReference
  2
Block_4
 10
0.0
 20
0.0
 30
0.0
  0
LINE
  5
16D
330
F6
100
AcDbEntity
  8
SDPW screw
 62
   250
420
  2301728
370
     5
100
AcDbLine
 10
1.671165424728441
 20
-0.9973984604585615
 30
0.0
 11
1.615060403510192
 21
-0.9973984604585615
 31
0.0
  0
LINE
  5
16E
330
F6
100
AcDbEntity
  8
SDPW screw
 62
   250
420
  2301728
370
     5
100
AcDbLine
 10
1.667609472679385
 20
-0.4367433398958964
 30
0.0
 11
1.635800384084632
 21
-0.4367433398958964
 31
0.0
  0
LINE
  5
16F
330
F6
100
AcDbEntity
  8
SDPW screw
 62
   250
420
  2301728
370
     5
100
AcDbLine
 10
1.667609472679385
 20
0.2584900319570806
 30
0.0
 11
1.637537971517986
 21
0.2584900319570806
 31
0.0
  0
SPLINE
  5
170
330
F6
100
AcDbEntity
  8
SDPW screw
 62
   250
420
  2301728
370
     5
100
AcDbSpline
210
0.0
220
0.0
230
1.0
 70
     9
 71
     3
 72
    29
 73
    25
 74
     0
 42
0.0000000001
 43
0.0000000001
 40
0.0
 40
0.0
 40
0.0
 40
0.0
 40
1.0
 40
1.0
 40
1.0
 40
2.0
 40
2.0
 40
2.0
 40
3.0
 40
3.0
 40
3.0
 40
4.0
 40
4.0
 40
4.0
 40
5.0
 40
5.0
 40
5.0
 40
6.0
 40
6.0
 40
6.0
 40
7.0
 40
7.0
 40
7.0
 40
8.0
 40
8.0
 40
8.0
 40
8.0
 10
1.633303315534627
 20
0.2568226855518863
 30
0.0
 10
1.634694087891602
 20
0.2573929548989832
 30
0.0
 10
1.636112956659821
 20
0.2579496150469191
 30
0.0
 10
1.637537532511563
 20
0.2584953000341935
 30
0.0
 10
1.65002463128725
 20
0.2618695534619948
 30
0.0
 10
1.661230709312424
 20
0.2671994804386991
 30
0.0
 10
1.671392802431354
 20
0.2748904843803833
 30
0.0
 10
1.674818397197592
 20
0.2770652718458753
 30
0.0
 10
1.67450011753888
 20
0.2792155253194753
 30
0.0
 10
1.670903337892241
 20
0.2814127524806306
 30
0.0
 10
1.667067738749943
 20
0.2837847547919333
 30
0.0
 10
1.663239602716935
 20
0.286198361528376
 30
0.0
 10
1.659513755181099
 20
0.2887024541811848
 30
0.0
 10
1.659513755181099
 20
0.2887024541811848
 30
0.0
 10
1.660133632254327
 20
0.2863897683300314
 30
0.0
 10
1.660133632254327
 20
0.2863897683300314
 30
0.0
 10
1.660699950543605
 20
0.2837346574667536
 30
0.0
 10
1.658889488043566
 20
0.2821739896230105
 30
0.0
 10
1.656575046166734
 20
0.280501375140678
 30
0.0
 10
1.650640118296223
 20
0.2766341675357403
 30
0.0
 10
1.64253298663084
 20
0.2741318309086359
 30
0.0
 10
1.635754259883949
 20
0.2714688179296571
 30
0.0
 10
1.635754259883949
 20
0.2714688179296571
 30
0.0
 10
1.633303315534627
 20
0.2568226855518863
 30
0.0
 10
1.633303315534627
 20
0.2568226855518863
 30
0.0
  0
HATCH
  5
171
330
F6
100
AcDbEntity
  8
SDPW screw
440
 33554687
100
AcDbHatch
 10
0.0
 20
0.0
 30
0.0
210
0.0
220
0.0
230
1.0
  2
SOLID
 70
     1
 71
     1
 91
        1
 92
        1
 93
        1
 72
     4
 94
        3
 73
     0
 74
     0
 95
       29
 96
       25
 40
0.0
 40
0.0
 40
0.0
 40
0.0
 40
1.0
 40
1.0
 40
1.0
 40
2.0
 40
2.0
 40
2.0
 40
3.0
 40
3.0
 40
3.0
 40
4.0
 40
4.0
 40
4.0
 40
5.0
 40
5.0
 40
5.0
 40
6.0
 40
6.0
 40
6.0
 40
7.0
 40
7.0
 40
7.0
 40
8.0
 40
8.0
 40
8.0
 40
8.0
 10
1.633303315534627
 20
0.2568226855518863
 10
1.634694087891602
 20
0.2573929548989832
 10
1.636112956659821
 20
0.2579496150469191
 10
1.637537532511563
 20
0.2584953000341935
 10
1.65002463128725
 20
0.2618695534619948
 10
1.661230709312424
 20
0.2671994804386991
 10
1.671392802431354
 20
0.2748904843803833
 10
1.674818397197592
 20
0.2770652718458753
 10
1.67450011753888
 20
0.2792155253194753
 10
1.670903337892241
 20
0.2814127524806306
 10
1.667067738749943
 20
0.2837847547919333
 10
1.663239602716935
 20
0.286198361528376
 10
1.659513755181099
 20
0.2887024541811848
 10
1.659513755181099
 20
0.2887024541811848
 10
1.660133632254327
 20
0.2863897683300314
 10
1.660133632254327
 20
0.2863897683300314
 10
1.660699950543605
 20
0.2837346574667536
 10
1.658889488043566
 20
0.2821739896230105
 10
1.656575046166734
 20
0.280501375140678
 10
1.650640118296223
 20
0.2766341675357403
 10
1.64253298663084
 20
0.2741318309086359
 10
1.635754259883949
 20
0.2714688179296571
 10
1.635754259883949
 20
0.2714688179296571
 10
1.633303315534627
 20
0.2568226855518863
 10
1.633303315534627
 20
0.2568226855518863
 97
        0
 97
        1
330
170
 75
     2
 76
     0
 98
        1
 10
0.0
 20
0.0
450
        1
451
        0
460
90.0
461
0.0
452
        0
462
0.0
453
        2
463
0.0
 63
   250
421
  3157551
463
1.0
 63
     9
421
 12369600
470
LINEAR
  0
SPLINE
  5
172
330
F6
100
AcDbEntity
  8
SDPW screw
 62
   250
420
  2301728
370
     5
100
AcDbSpline
210
0.0
220
0.0
230
1.0
 70
     9
 71
     3
 72
    29
 73
    25
 74
     0
 42
0.0000000001
 43
0.0000000001
 40
0.0
 40
0.0
 40
0.0
 40
0.0
 40
1.0
 40
1.0
 40
1.0
 40
2.0
 40
2.0
 40
2.0
 40
3.0
 40
3.0
 40
3.0
 40
4.0
 40
4.0
 40
4.0
 40
5.0
 40
5.0
 40
5.0
 40
6.0
 40
6.0
 40
6.0
 40
7.0
 40
7.0
 40
7.0
 40
8.0
 40
8.0
 40
8.0
 40
8.0
 10
1.61988771816838
 20
0.1978935359963998
 30
0.0
 10
1.639267217829253
 20
0.2089753752030548
 30
0.0
 10
1.663509152662375
 20
0.2118319900158162
 30
0.0
 10
1.681279693772643
 20
0.2265891910193305
 30
0.0
 10
1.681279693772643
 20
0.2265891910193305
 30
0.0
 10
1.681068092675407
 20
0.2264636843261516
 30
0.0
 10
1.681068092675407
 20
0.2264636843261516
 30
0.0
 10
1.68409065191708
 20
0.2282197100737575
 30
0.0
 10
1.684149917784553
 20
0.2299761255944506
 30
0.0
 10
1.68126959662484
 20
0.2317321512976807
 30
0.0
 10
1.676684174507272
 20
0.2345282325719609
 30
0.0
 10
1.672114995627478
 20
0.2373527505672857
 30
0.0
 10
1.667609472679385
 20
0.2402559000611543
 30
0.0
 10
1.667609472679385
 20
0.2402559000611543
 30
0.0
 10
1.667609472679385
 20
0.2382724690293622
 30
0.0
 10
1.667609472679385
 20
0.2382724690293622
 30
0.0
 10
1.666985177804917
 20
0.2349096798076794
 30
0.0
 10
1.663941134985356
 20
0.2339601089086424
 30
0.0
 10
1.660555078423082
 20
0.2321549144857171
 30
0.0
 10
1.649676499191552
 20
0.2273341849239361
 30
0.0
 10
1.636422017183576
 20
0.2244938133489616
 30
0.0
 10
1.625511390482971
 20
0.2196327441680018
 30
0.0
 10
1.625511390482971
 20
0.2196327441680018
 30
0.0
 10
1.61988771816838
 20
0.1978935359963998
 30
0.0
 10
1.61988771816838
 20
0.1978935359963998
 30
0.0
  0
HATCH
  5
173
330
F6
100
AcDbEntity
  8
SDPW screw
440
 33554687
100
AcDbHatch
 10
0.0
 20
0.0
 30
0.0
210
0.0
220
0.0
230
1.0
  2
SOLID
 70
     1
 71
     1
 91
        1
 92
        1
 93
        1
 72
     4
 94
        3
 73
     0
 74
     0
 95
       29
 96
       25
 40
0.0
 40
0.0
 40
0.0
 40
0.0
 40
1.0
 40
1.0
 40
1.0
 40
2.0
 40
2.0
 40
2.0
 40
3.0
 40
3.0
 40
3.0
 40
4.0
 40
4.0
 40
4.0
 40
5.0
 40
5.0
 40
5.0
 40
6.0
 40
6.0
 40
6.0
 40
7.0
 40
7.0
 40
7.0
 40
8.0
 40
8.0
 40
8.0
 40
8.0
 10
1.61988771816838
 20
0.1978935359963998
 10
1.639267217829253
 20
0.2089753752030548
 10
1.663509152662375
 20
0.2118319900158162
 10
1.681279693772643
 20
0.2265891910193305
 10
1.681279693772643
 20
0.2265891910193305
 10
1.681068092675407
 20
0.2264636843261516
 10
1.681068092675407
 20
0.2264636843261516
 10
1.68409065191708
 20
0.2282197100737575
 10
1.684149917784553
 20
0.2299761255944506
 10
1.68126959662484
 20
0.2317321512976807
 10
1.676684174507272
 20
0.2345282325719609
 10
1.672114995627478
 20
0.2373527505672857
 10
1.667609472679385
 20
0.2402559000611543
 10
1.667609472679385
 20
0.2402559000611543
 10
1.667609472679385
 20
0.2382724690293622
 10
1.667609472679385
 20
0.2382724690293622
 10
1.666985177804917
 20
0.2349096798076794
 10
1.663941134985356
 20
0.2339601089086424
 10
1.660555078423082
 20
0.2321549144857171
 10
1.649676499191552
 20
0.2273341849239361
 10
1.636422017183576
 20
0.2244938133489616
 10
1.625511390482971
 20
0.2196327441680018
 10
1.625511390482971
 20
0.2196327441680018
 10
1.61988771816838
 20
0.1978935359963998
 10
1.61988771816838
 20
0.1978935359963998
 97
        0
 97
        1
330
172
 75
     2
 76
     0
 98
        1
 10
0.0
 20
0.0
450
        1
451
        0
460
90.0
461
0.0
452
        0
462
0.0
453
        2
463
0.0
 63
   250
421
  3157551
463
1.0
 63
     9
421
 12369600
470
LINEAR
  0
SPLINE
  5
174
330
F6
100
AcDbEntity
  8
SDPW screw
 62
   250
420
  2301728
370
     5
100
AcDbSpline
210
0.0
220
0.0
230
1.0
 70
     9
 71
     3
 72
    20
 73
    16
 74
     0
 42
0.0000000001
 43
0.0000000001
 40
0.0
 40
0.0
 40
0.0
 40
0.0
 40
1.0
 40
1.0
 40
1.0
 40
2.0
 40
2.0
 40
2.0
 40
3.0
 40
3.0
 40
3.0
 40
4.0
 40
4.0
 40
4.0
 40
5.0
 40
5.0
 40
5.0
 40
5.0
 10
1.640412585594175
 20
0.3083479917360894
 30
0.0
 10
1.646904612619007
 20
0.3126427915997788
 30
0.0
 10
1.651433402907665
 20
0.3186817639931911
 30
0.0
 10
1.657773533709183
 20
0.3233782547364777
 30
0.0
 10
1.663445057724175
 20
0.329641559413479
 30
0.0
 10
1.649215542444481
 20
0.3366920026119513
 30
0.0
 10
1.645604275585785
 20
0.3406162810522472
 30
0.0
 10
1.645604275585785
 20
0.3406162810522472
 30
0.0
 10
1.647115335703422
 20
0.3349754874870364
 30
0.0
 10
1.647115335703422
 20
0.3349754874870364
 30
0.0
 10
1.64887882451588
 20
0.3295322468134651
 30
0.0
 10
1.645373797212212
 20
0.3247756121898217
 30
0.0
 10
1.641537320057093
 20
0.3212341473528239
 30
0.0
 10
1.641537320057093
 20
0.3212341473528239
 30
0.0
 10
1.640412585594175
 20
0.3083479917360894
 30
0.0
 10
1.640412585594175
 20
0.3083479917360894
 30
0.0
  0
HATCH
  5
175
330
F6
100
AcDbEntity
  8
SDPW screw
440
 33554687
100
AcDbHatch
 10
0.0
 20
0.0
 30
0.0
210
0.0
220
0.0
230
1.0
  2
SOLID
 70
     1
 71
     1
 91
        1
 92
        1
 93
        1
 72
     4
 94
        3
 73
     0
 74
     0
 95
       20
 96
       16
 40
0.0
 40
0.0
 40
0.0
 40
0.0
 40
1.0
 40
1.0
 40
1.0
 40
2.0
 40
2.0
 40
2.0
 40
3.0
 40
3.0
 40
3.0
 40
4.0
 40
4.0
 40
4.0
 40
5.0
 40
5.0
 40
5.0
 40
5.0
 10
1.640412585594175
 20
0.3083479917360894
 10
1.646904612619007
 20
0.3126427915997788
 10
1.651433402907665
 20
0.3186817639931911
 10
1.657773533709183
 20
0.3233782547364777
 10
1.663445057724175
 20
0.329641559413479
 10
1.649215542444481
 20
0.3366920026119513
 10
1.645604275585785
 20
0.3406162810522472
 10
1.645604275585785
 20
0.3406162810522472
 10
1.647115335703422
 20
0.3349754874870364
 10
1.647115335703422
 20
0.3349754874870364
 10
1.64887882451588
 20
0.3295322468134651
 10
1.645373797212212
 20
0.3247756121898217
 10
1.641537320057093
 20
0.3212341473528239
 10
1.641537320057093
 20
0.3212341473528239
 10
1.640412585594175
 20
0.3083479917360894
 10
1.640412585594175
 20
0.3083479917360894
 97
        0
 97
        1
330
174
 75
     2
 76
     0
 98
        1
 10
0.0
 20
0.0
450
        1
451
        0
460
90.0
461
0.0
452
        0
462
0.0
453
        2
463
0.0
 63
   250
421
  3157551
463
1.0
 63
     9
421
 12369600
470
LINEAR
  0
SPLINE
  5
176
330
F6
100
AcDbEntity
  8
SDPW screw
 62
   250
420
  2301728
370
     5
100
AcDbSpline
210
0.0
220
0.0
230
1.0
 70
     9
 71
     3
 72
    56
 73
    52
 74
     0
 42
0.0000000001
 43
0.0000000001
 40
0.0
 40
0.0
 40
0.0
 40
0.0
 40
1.0
 40
1.0
 40
1.0
 40
2.0
 40
2.0
 40
2.0
 40
3.0
 40
3.0
 40
3.0
 40
4.0
 40
4.0
 40
4.0
 40
5.0
 40
5.0
 40
5.0
 40
6.0
 40
6.0
 40
6.0
 40
7.0
 40
7.0
 40
7.0
 40
8.0
 40
8.0
 40
8.0
 40
9.0
 40
9.0
 40
9.0
 40
10.0
 40
10.0
 40
10.0
 40
11.0
 40
11.0
 40
11.0
 40
12.0
 40
12.0
 40
12.0
 40
13.0
 40
13.0
 40
13.0
 40
14.0
 40
14.0
 40
14.0
 40
15.0
 40
15.0
 40
15.0
 40
16.0
 40
16.0
 40
16.0
 40
17.0
 40
17.0
 40
17.0
 40
17.0
 10
1.605316655889383
 20
0.2538514900620107
 30
0.0
 10
1.6097313045073
 20
0.2513017407409027
 30
0.0
 10
1.614192487806374
 20
0.2487257007412482
 30
0.0
 10
1.618616355559247
 20
0.2461706832785037
 30
0.0
 10
1.618616355559247
 20
0.2461706832785037
 30
0.0
 10
1.618616355559247
 20
0.2135884547254692
 30
0.0
 10
1.618616355559247
 20
0.2135884547254692
 30
0.0
 10
1.618616355559247
 20
0.2135884547254692
 30
0.0
 10
1.602813441249433
 20
0.2044645841778876
 30
0.0
 10
1.602813441249433
 20
0.2044645841778876
 30
0.0
 10
1.602813441249433
 20
0.2044645841778876
 30
0.0
 10
1.618616355559247
 20
0.1953402746239084
 30
0.0
 10
1.618616355559247
 20
0.1953402746239084
 30
0.0
 10
1.618616355559247
 20
0.1953402746239084
 30
0.0
 10
1.618616355559247
 20
0.193370013784867
 30
0.0
 10
1.618616355559247
 20
0.193370013784867
 30
0.0
 10
1.618616355559247
 20
0.193370013784867
 30
0.0
 10
1.619887279161932
 20
0.1978900239449912
 30
0.0
 10
1.619887279161932
 20
0.1978900239449912
 30
0.0
 10
1.619887279161932
 20
0.1978900239449912
 30
0.0
 10
1.625511390482971
 20
0.2196327441680018
 30
0.0
 10
1.625511390482971
 20
0.2196327441680018
 30
0.0
 10
1.625511390482971
 20
0.2196327441680018
 30
0.0
 10
1.631095113212824
 20
0.2444949461087415
 30
0.0
 10
1.633303315534627
 20
0.2568222465454381
 30
0.0
 10
1.633303315534627
 20
0.2568226855518863
 30
0.0
 10
1.635754259883949
 20
0.2714688179296571
 30
0.0
 10
1.635754259883949
 20
0.2714688179296571
 30
0.0
 10
1.637652113188702
 20
0.2838527501952891
 30
0.0
 10
1.639193025743275
 20
0.2961857577155216
 30
0.0
 10
1.640412585594175
 20
0.3083479917360894
 30
0.0
 10
1.640412585594175
 20
0.3083479917360894
 30
0.0
 10
1.641537320057093
 20
0.3212341473528239
 30
0.0
 10
1.641537320057093
 20
0.3212341473528239
 30
0.0
 10
1.6422739728396
 20
0.3309497985623769
 30
0.0
 10
1.642805609621265
 20
0.3405280407606723
 30
0.0
 10
1.643112914119329
 20
0.3499122943819278
 30
0.0
 10
1.643112914119329
 20
0.3499122943819278
 30
0.0
 10
1.632601344259758
 20
0.3106808718828359
 30
0.0
 10
1.632601344259758
 20
0.3106808718828359
 30
0.0
 10
1.632601344259758
 20
0.3106808718828359
 30
0.0
 10
1.619734065919348
 20
0.3032432250168111
 30
0.0
 10
1.619734065919348
 20
0.3032432250168111
 30
0.0
 10
1.619734065919348
 20
0.3032432250168111
 30
0.0
 10
1.629150753752911
 20
0.2978043744074688
 30
0.0
 10
1.629150753752911
 20
0.2978043744074688
 30
0.0
 10
1.629150753752911
 20
0.2978043744074688
 30
0.0
 10
1.619581262748649
 20
0.262090323655141
 30
0.0
 10
1.619581262748649
 20
0.262090323655141
 30
0.0
 10
1.619581262748649
 20
0.262090323655141
 30
0.0
 10
1.605316655889383
 20
0.2538514900620107
 30
0.0
 10
1.605316655889383
 20
0.2538514900620107
 30
0.0
  0
HATCH
  5
177
330
F6
100
AcDbEntity
  8
SDPW screw
440
 33554687
100
AcDbHatch
 10
0.0
 20
0.0
 30
0.0
210
0.0
220
0.0
230
1.0
  2
SOLID
 70
     1
 71
     1
 91
        1
 92
        1
 93
        1
 72
     4
 94
        3
 73
     0
 74
     0
 95
       56
 96
       52
 40
0.0
 40
0.0
 40
0.0
 40
0.0
 40
1.0
 40
1.0
 40
1.0
 40
2.0
 40
2.0
 40
2.0
 40
3.0
 40
3.0
 40
3.0
 40
4.0
 40
4.0
 40
4.0
 40
5.0
 40
5.0
 40
5.0
 40
6.0
 40
6.0
 40
6.0
 40
7.0
 40
7.0
 40
7.0
 40
8.0
 40
8.0
 40
8.0
 40
9.0
 40
9.0
 40
9.0
 40
10.0
 40
10.0
 40
10.0
 40
11.0
 40
11.0
 40
11.0
 40
12.0
 40
12.0
 40
12.0
 40
13.0
 40
13.0
 40
13.0
 40
14.0
 40
14.0
 40
14.0
 40
15.0
 40
15.0
 40
15.0
 40
16.0
 40
16.0
 40
16.0
 40
17.0
 40
17.0
 40
17.0
 40
17.0
 10
1.605316655889383
 20
0.2538514900620107
 10
1.6097313045073
 20
0.2513017407409027
 10
1.614192487806374
 20
0.2487257007412482
 10
1.618616355559247
 20
0.2461706832785037
 10
1.618616355559247
 20
0.2461706832785037
 10
1.618616355559247
 20
0.2135884547254692
 10
1.618616355559247
 20
0.2135884547254692
 10
1.618616355559247
 20
0.2135884547254692
 10
1.602813441249433
 20
0.2044645841778876
 10
1.602813441249433
 20
0.2044645841778876
 10
1.602813441249433
 20
0.2044645841778876
 10
1.618616355559247
 20
0.1953402746239084
 10
1.618616355559247
 20
0.1953402746239084
 10
1.618616355559247
 20
0.1953402746239084
 10
1.618616355559247
 20
0.193370013784867
 10
1.618616355559247
 20
0.193370013784867
 10
1.618616355559247
 20
0.193370013784867
 10
1.619887279161932
 20
0.1978900239449912
 10
1.619887279161932
 20
0.1978900239449912
 10
1.619887279161932
 20
0.1978900239449912
 10
1.625511390482971
 20
0.2196327441680018
 10
1.625511390482971
 20
0.2196327441680018
 10
1.625511390482971
 20
0.2196327441680018
 10
1.631095113212824
 20
0.2444949461087415
 10
1.633303315534627
 20
0.2568222465454381
 10
1.633303315534627
 20
0.2568226855518863
 10
1.635754259883949
 20
0.2714688179296571
 10
1.635754259883949
 20
0.2714688179296571
 10
1.637652113188702
 20
0.2838527501952891
 10
1.639193025743275
 20
0.2961857577155216
 10
1.640412585594175
 20
0.3083479917360894
 10
1.640412585594175
 20
0.3083479917360894
 10
1.641537320057093
 20
0.3212341473528239
 10
1.641537320057093
 20
0.3212341473528239
 10
1.6422739728396
 20
0.3309497985623769
 10
1.642805609621265
 20
0.3405280407606723
 10
1.643112914119329
 20
0.3499122943819278
 10
1.643112914119329
 20
0.3499122943819278
 10
1.632601344259758
 20
0.3106808718828359
 10
1.632601344259758
 20
0.3106808718828359
 10
1.632601344259758
 20
0.3106808718828359
 10
1.619734065919348
 20
0.3032432250168111
 10
1.619734065919348
 20
0.3032432250168111
 10
1.619734065919348
 20
0.3032432250168111
 10
1.629150753752911
 20
0.2978043744074688
 10
1.629150753752911
 20
0.2978043744074688
 10
1.629150753752911
 20
0.2978043744074688
 10
1.619581262748649
 20
0.262090323655141
 10
1.619581262748649
 20
0.262090323655141
 10
1.619581262748649
 20
0.262090323655141
 10
1.605316655889383
 20
0.2538514900620107
 10
1.605316655889383
 20
0.2538514900620107
 97
        0
 97
        1
330
176
 75
     2
 76
     0
 98
        1
 10
0.0
 20
0.0
450
        1
451
        0
460
85.52510000000001
461
0.0
452
        0
462
0.0
453
        2
463
0.0
 63
   250
421
  3157551
463
1.0
 63
     9
421
 12369600
470
LINEAR
  0
ENDBLK
  5
F9
330
F6
100
AcDbEntity
  8
0
100
AcDbBlockEnd
  0
BLOCK
  5
103
330
101
100
AcDbEntity
  8
0
100
AcDbBlockBegin
  2
Block_3
 70
     0
 10
0.0
 20
0.0
 30
0.0
  3
Block_3
  1

  0
SPLINE
  5
105
330
101
100
AcDbEntity
  8
SDPW screw
 62
   250
420
  2301728
370
     5
100
AcDbSpline
210
0.0
220
0.0
230
1.0
 70
     9
 71
     3
 72
    35
 73
    31
 74
     0
 42
0.0000000001
 43
0.0000000001
 40
0.0
 40
0.0
 40
0.0
 40
0.0
 40
1.0
 40
1.0
 40
1.0
 40
2.0
 40
2.0
 40
2.0
 40
3.0
 40
3.0
 40
3.0
 40
4.0
 40
4.0
 40
4.0
 40
5.0
 40
5.0
 40
5.0
 40
6.0
 40
6.0
 40
6.0
 40
7.0
 40
7.0
 40
7.0
 40
8.0
 40
8.0
 40
8.0
 40
9.0
 40
9.0
 40
9.0
 40
10.0
 40
10.0
 40
10.0
 40
10.0
 10
1.680542162977265
 20
-0.4158743238228529
 30
0.0
 10
1.677017819390913
 20
-0.4177308819976008
 30
0.0
 10
1.670227267996501
 20
-0.4195878791787587
 30
0.0
 10
1.661805368723788
 20
-0.4214448763599295
 30
0.0
 10
1.653383030444678
 20
-0.4233018735411128
 30
0.0
 10
1.643330222300088
 20
-0.4251588707222583
 30
0.0
 10
1.634066308702687
 20
-0.4270158679034416
 30
0.0
 10
1.624802395105285
 20
-0.4288719544823102
 30
0.0
 10
1.616328225051221
 20
-0.4307289517104083
 30
0.0
 10
1.610684826464143
 20
-0.4325859489384938
 30
0.0
 10
1.608221122402533
 20
-0.4333968263025428
 30
0.0
 10
1.606297835251072
 20
-0.4342072321645926
 30
0.0
 10
1.604968962800133
 20
-0.435017199020207
 30
0.0
 10
1.610612361242803
 20
-0.4315753886418685
 30
0.0
 10
1.616240423763833
 20
-0.4280892386145373
 30
0.0
 10
1.621731545156787
 20
-0.4244555497271373
 30
0.0
 10
1.633334045984434
 20
-0.4178191222891757
 30
0.0
 10
1.648622883769626
 20
-0.4153975628444313
 30
0.0
 10
1.660794336925164
 20
-0.4097826706583369
 30
0.0
 10
1.663891088252815
 20
-0.4081763461463071
 30
0.0
 10
1.667205147761251
 20
-0.4068312304576441
 30
0.0
 10
1.667609472679385
 20
-0.4037748677211665
 30
0.0
 10
1.667609472679385
 20
-0.4037748677211665
 30
0.0
 10
1.667609472679385
 20
-0.4017923147022076
 30
0.0
 10
1.667609472679385
 20
-0.4017923147022076
 30
0.0
 10
1.672120263704578
 20
-0.4046989762474848
 30
0.0
 10
1.676696466687215
 20
-0.4075257386232604
 30
0.0
 10
1.68128671787546
 20
-0.4103239325233846
 30
0.0
 10
1.684322008303474
 20
-0.4121734996532874
 30
0.0
 10
1.684052897364457
 20
-0.4140239117380639
 30
0.0
 10
1.680542162977265
 20
-0.4158743238228529
 30
0.0
  0
HATCH
  5
106
330
101
100
AcDbEntity
  8
SDPW screw
440
 33554687
100
AcDbHatch
 10
0.0
 20
0.0
 30
0.0
210
0.0
220
0.0
230
1.0
  2
SOLID
 70
     1
 71
     1
 91
        1
 92
        1
 93
        1
 72
     4
 94
        3
 73
     0
 74
     0
 95
       35
 96
       31
 40
0.0
 40
0.0
 40
0.0
 40
0.0
 40
1.0
 40
1.0
 40
1.0
 40
2.0
 40
2.0
 40
2.0
 40
3.0
 40
3.0
 40
3.0
 40
4.0
 40
4.0
 40
4.0
 40
5.0
 40
5.0
 40
5.0
 40
6.0
 40
6.0
 40
6.0
 40
7.0
 40
7.0
 40
7.0
 40
8.0
 40
8.0
 40
8.0
 40
9.0
 40
9.0
 40
9.0
 40
10.0
 40
10.0
 40
10.0
 40
10.0
 10
1.680542162977265
 20
-0.4158743238228529
 10
1.677017819390913
 20
-0.4177308819976008
 10
1.670227267996501
 20
-0.4195878791787587
 10
1.661805368723788
 20
-0.4214448763599295
 10
1.653383030444678
 20
-0.4233018735411128
 10
1.643330222300088
 20
-0.4251588707222583
 10
1.634066308702687
 20
-0.4270158679034416
 10
1.624802395105285
 20
-0.4288719544823102
 10
1.616328225051221
 20
-0.4307289517104083
 10
1.610684826464143
 20
-0.4325859489384938
 10
1.608221122402533
 20
-0.4333968263025428
 10
1.606297835251072
 20
-0.4342072321645926
 10
1.604968962800133
 20
-0.435017199020207
 10
1.610612361242803
 20
-0.4315753886418685
 10
1.616240423763833
 20
-0.4280892386145373
 10
1.621731545156787
 20
-0.4244555497271373
 10
1.633334045984434
 20
-0.4178191222891757
 10
1.648622883769626
 20
-0.4153975628444313
 10
1.660794336925164
 20
-0.4097826706583369
 10
1.663891088252815
 20
-0.4081763461463071
 10
1.667205147761251
 20
-0.4068312304576441
 10
1.667609472679385
 20
-0.4037748677211665
 10
1.667609472679385
 20
-0.4037748677211665
 10
1.667609472679385
 20
-0.4017923147022076
 10
1.667609472679385
 20
-0.4017923147022076
 10
1.672120263704578
 20
-0.4046989762474848
 10
1.676696466687215
 20
-0.4075257386232604
 10
1.68128671787546
 20
-0.4103239325233846
 10
1.684322008303474
 20
-0.4121734996532874
 10
1.684052897364457
 20
-0.4140239117380639
 10
1.680542162977265
 20
-0.4158743238228529
 97
        0
 97
        1
330
105
 75
     2
 76
     0
 98
        1
 10
0.0
 20
0.0
450
        1
451
        0
460
90.0
461
0.0
452
        0
462
0.0
453
        2
463
0.0
 63
   250
421
  3157551
463
1.0
 63
     9
421
 12369600
470
LINEAR
  0
SPLINE
  5
107
330
101
100
AcDbEntity
  8
SDPW screw
 62
   250
420
  2301728
370
     5
100
AcDbSpline
210
0.0
220
0.0
230
1.0
 70
     9
 71
     3
 72
    38
 73
    34
 74
     0
 42
0.0000000001
 43
0.0000000001
 40
0.0
 40
0.0
 40
0.0
 40
0.0
 40
1.0
 40
1.0
 40
1.0
 40
2.0
 40
2.0
 40
2.0
 40
3.0
 40
3.0
 40
3.0
 40
4.0
 40
4.0
 40
4.0
 40
5.0
 40
5.0
 40
5.0
 40
6.0
 40
6.0
 40
6.0
 40
7.0
 40
7.0
 40
7.0
 40
8.0
 40
8.0
 40
8.0
 40
9.0
 40
9.0
 40
9.0
 40
10.0
 40
10.0
 40
10.0
 40
11.0
 40
11.0
 40
11.0
 40
11.0
 10
1.680542162977265
 20
-0.4158743238228529
 30
0.0
 10
1.677017819390913
 20
-0.4177308819976008
 30
0.0
 10
1.670227267996501
 20
-0.4195878791787587
 30
0.0
 10
1.661805368723788
 20
-0.4214448763599295
 30
0.0
 10
1.653383030444678
 20
-0.4233018735411128
 30
0.0
 10
1.643330222300088
 20
-0.4251588707222583
 30
0.0
 10
1.634066308702687
 20
-0.4270158679034416
 30
0.0
 10
1.624802395105285
 20
-0.4288719544823102
 30
0.0
 10
1.616328225051221
 20
-0.4307289517104083
 30
0.0
 10
1.610684826464143
 20
-0.4325859489384938
 30
0.0
 10
1.608221122402533
 20
-0.4333968263025428
 30
0.0
 10
1.606297835251072
 20
-0.4342072321645926
 30
0.0
 10
1.604968962800133
 20
-0.435017199020207
 30
0.0
 10
1.599987117880093
 20
-0.4378654727108571
 30
0.0
 10
1.604993986166416
 20
-0.4402058159668311
 30
0.0
 10
1.607755775591183
 20
-0.4418591141664416
 30
0.0
 10
1.607755775591183
 20
-0.4418591141664416
 30
0.0
 10
1.607750507514058
 20
-0.4418678942949378
 30
0.0
 10
1.607750507514058
 20
-0.4418678942949378
 30
0.0
 10
1.607750507514058
 20
-0.4418678942949378
 30
0.0
 10
1.615060403510192
 20
-0.4463527839409886
 30
0.0
 10
1.615060403510192
 20
-0.4463527839409886
 30
0.0
 10
1.615060403510192
 20
-0.4463527839409886
 30
0.0
 10
1.618395945369002
 20
-0.4433390048278246
 30
0.0
 10
1.619907034451115
 20
-0.4422867064251553
 30
0.0
 10
1.624585086924525
 20
-0.4390288397392447
 30
0.0
 10
1.630015157405346
 20
-0.4379076173277225
 30
0.0
 10
1.635800384084632
 20
-0.4367424942736307
 30
0.0
 10
1.64519336557123
 20
-0.4333959482896969
 30
0.0
 10
1.656143063843728
 20
-0.4309577066007554
 30
0.0
 10
1.664552231930075
 20
-0.4259806907513798
 30
0.0
 10
1.67003278814986
 20
-0.4223641558155578
 30
0.0
 10
1.680542162977265
 20
-0.4158743238228529
 30
0.0
 10
1.680542162977265
 20
-0.4158743238228529
 30
0.0
  0
HATCH
  5
108
330
101
100
AcDbEntity
  8
SDPW screw
440
 33554687
100
AcDbHatch
 10
0.0
 20
0.0
 30
0.0
210
0.0
220
0.0
230
1.0
  2
SOLID
 70
     1
 71
     1
 91
        1
 92
        1
 93
        1
 72
     4
 94
        3
 73
     0
 74
     0
 95
       38
 96
       34
 40
0.0
 40
0.0
 40
0.0
 40
0.0
 40
1.0
 40
1.0
 40
1.0
 40
2.0
 40
2.0
 40
2.0
 40
3.0
 40
3.0
 40
3.0
 40
4.0
 40
4.0
 40
4.0
 40
5.0
 40
5.0
 40
5.0
 40
6.0
 40
6.0
 40
6.0
 40
7.0
 40
7.0
 40
7.0
 40
8.0
 40
8.0
 40
8.0
 40
9.0
 40
9.0
 40
9.0
 40
10.0
 40
10.0
 40
10.0
 40
11.0
 40
11.0
 40
11.0
 40
11.0
 10
1.680542162977265
 20
-0.4158743238228529
 10
1.677017819390913
 20
-0.4177308819976008
 10
1.670227267996501
 20
-0.4195878791787587
 10
1.661805368723788
 20
-0.4214448763599295
 10
1.653383030444678
 20
-0.4233018735411128
 10
1.643330222300088
 20
-0.4251588707222583
 10
1.634066308702687
 20
-0.4270158679034416
 10
1.624802395105285
 20
-0.4288719544823102
 10
1.616328225051221
 20
-0.4307289517104083
 10
1.610684826464143
 20
-0.4325859489384938
 10
1.608221122402533
 20
-0.4333968263025428
 10
1.606297835251072
 20
-0.4342072321645926
 10
1.604968962800133
 20
-0.435017199020207
 10
1.599987117880093
 20
-0.4378654727108571
 10
1.604993986166416
 20
-0.4402058159668311
 10
1.607755775591183
 20
-0.4418591141664416
 10
1.607755775591183
 20
-0.4418591141664416
 10
1.607750507514058
 20
-0.4418678942949378
 10
1.607750507514058
 20
-0.4418678942949378
 10
1.607750507514058
 20
-0.4418678942949378
 10
1.615060403510192
 20
-0.4463527839409886
 10
1.615060403510192
 20
-0.4463527839409886
 10
1.615060403510192
 20
-0.4463527839409886
 10
1.618395945369002
 20
-0.4433390048278246
 10
1.619907034451115
 20
-0.4422867064251553
 10
1.624585086924525
 20
-0.4390288397392447
 10
1.630015157405346
 20
-0.4379076173277225
 10
1.635800384084632
 20
-0.4367424942736307
 10
1.64519336557123
 20
-0.4333959482896969
 10
1.656143063843728
 20
-0.4309577066007554
 10
1.664552231930075
 20
-0.4259806907513798
 10
1.67003278814986
 20
-0.4223641558155578
 10
1.680542162977265
 20
-0.4158743238228529
 10
1.680542162977265
 20
-0.4158743238228529
 97
        0
 97
        1
330
107
 75
     2
 76
     0
 98
        1
 10
0.0
 20
0.0
450
        1
451
        0
460
-72.4435
461
0.0
452
        0
462
0.0
453
        2
463
0.0
 63
   250
421
  3157551
463
1.0
 63
     9
421
 12369600
470
LINEAR
  0
ENDBLK
  5
104
330
101
100
AcDbEntity
  8
0
100
AcDbBlockEnd
  0
BLOCK
  5
10B
330
109
100
AcDbEntity
  8
0
100
AcDbBlockBegin
  2
Block_4
 70
     0
 10
0.0
 20
0.0
 30
0.0
  3
Block_4
  1

  0
INSERT
  5
10E
330
109
100
AcDbEntity
  8
SDPW screw
100
AcDbBlockReference
  2
Block_5
 10
0.0
 20
0.0
 30
0.0
  0
INSERT
  5
116
330
109
100
AcDbEntity
  8
SDPW screw
100
AcDbBlockReference
  2
Block_6
 10
0.0
 20
0.0
 30
0.0
  0
INSERT
  5
11E
330
109
100
AcDbEntity
  8
SDPW screw
100
AcDbBlockReference
  2
Block_7
 10
0.0
 20
0.0
 30
0.0
  0
INSERT
  5
126
330
109
100
AcDbEntity
  8
SDPW screw
100
AcDbBlockReference
  2
Block_8
 10
0.0
 20
0.0
 30
0.0
  0
INSERT
  5
12E
330
109
100
AcDbEntity
  8
SDPW screw
100
AcDbBlockReference
  2
Block_9
 10
0.0
 20
0.0
 30
0.0
  0
INSERT
  5
136
330
109
100
AcDbEntity
  8
SDPW screw
100
AcDbBlockReference
  2
Block_10
 10
0.0
 20
0.0
 30
0.0
  0
INSERT
  5
13E
330
109
100
AcDbEntity
  8
SDPW screw
100
AcDbBlockReference
  2
Block_11
 10
0.0
 20
0.0
 30
0.0
  0
INSERT
  5
146
330
109
100
AcDbEntity
  8
SDPW screw
100
AcDbBlockReference
  2
Block_12
 10
0.0
 20
0.0
 30
0.0
  0
INSERT
  5
14E
330
109
100
AcDbEntity
  8
SDPW screw
100
AcDbBlockReference
  2
Block_13
 10
0.0
 20
0.0
 30
0.0
  0
INSERT
  5
156
330
109
100
AcDbEntity
  8
SDPW screw
100
AcDbBlockReference
  2
Block_14
 10
0.0
 20
0.0
 30
0.0
  0
INSERT
  5
15E
330
109
100
AcDbEntity
  8
SDPW screw
100
AcDbBlockReference
  2
Block_15
 10
0.0
 20
0.0
 30
0.0
  0
INSERT
  5
166
330
109
100
AcDbEntity
  8
SDPW screw
100
AcDbBlockReference
  2
Block_16
 10
0.0
 20
0.0
 30
0.0
  0
ENDBLK
  5
10C
330
109
100
AcDbEntity
  8
0
100
AcDbBlockEnd
  0
BLOCK
  5
10F
330
10D
100
AcDbEntity
  8
0
100
AcDbBlockBegin
  2
Block_5
 70
     0
 10
0.0
 20
0.0
 30
0.0
  3
Block_5
  1

  0
SPLINE
  5
111
330
10D
100
AcDbEntity
  8
SDPW screw
 62
   250
420
  2301728
370
     5
100
AcDbSpline
210
0.0
220
0.0
230
1.0
 70
     8
 71
     3
 72
    35
 73
    31
 74
     0
 42
0.0000000001
 43
0.0000000001
 40
0.0
 40
0.0
 40
0.0
 40
0.0
 40
1.0
 40
1.0
 40
1.0
 40
2.0
 40
2.0
 40
2.0
 40
3.0
 40
3.0
 40
3.0
 40
4.0
 40
4.0
 40
4.0
 40
5.0
 40
5.0
 40
5.0
 40
6.0
 40
6.0
 40
6.0
 40
7.0
 40
7.0
 40
7.0
 40
8.0
 40
8.0
 40
8.0
 40
9.0
 40
9.0
 40
9.0
 40
10.0
 40
10.0
 40
10.0
 40
10.0
 10
1.681791136258703
 20
-0.3657380339698698
 30
0.0
 10
1.679121538183355
 20
-0.3675950311510405
 30
0.0
 10
1.673075541687138
 20
-0.3694520283322112
 30
0.0
 10
1.665111087110113
 20
-0.3713090255133946
 30
0.0
 10
1.657145754520267
 20
-0.37316602269454
 30
0.0
 10
1.647261085836791
 20
-0.3750230198757233
 30
0.0
 10
1.63783649588754
 20
-0.3768795780504711
 30
0.0
 10
1.628412344944738
 20
-0.3787365752316292
 30
0.0
 10
1.619448272736134
 20
-0.3805935724127999
 30
0.0
 10
1.613103312863939
 20
-0.382450569593958
 30
0.0
 10
1.609464388600397
 20
-0.3835151601765447
 30
0.0
 10
1.606687643696911
 20
-0.384580189765567
 30
0.0
 10
1.604940398078067
 20
-0.3856447803481538
 30
0.0
 10
1.610588684056892
 20
-0.3822020919569695
 30
0.0
 10
1.616222014512888
 20
-0.3787159419296004
 30
0.0
 10
1.621720130989716
 20
-0.3750792126982231
 30
0.0
 10
1.634755987797638
 20
-0.3659895846518566
 30
0.0
 10
1.657988207851404
 20
-0.3672060714577961
 30
0.0
 10
1.667609472679385
 20
-0.3543848887920578
 30
0.0
 10
1.667609472679385
 20
-0.3543848887920578
 30
0.0
 10
1.667609472679385
 20
-0.3524005797474072
 30
0.0
 10
1.667609472679385
 20
-0.3524005797474072
 30
0.0
 10
1.672107532518212
 20
-0.3553015342091612
 30
0.0
 10
1.676671882327354
 20
-0.3581243455271053
 30
0.0
 10
1.681251158354977
 20
-0.3609186214273703
 30
0.0
 10
1.683884757903393
 20
-0.3625253849458103
 30
0.0
 10
1.684101188071281
 20
-0.364132148464263
 30
0.0
 10
1.681791136258703
 20
-0.3657380339698698
 30
0.0
 10
1.681791136258703
 20
-0.3657380339698698
 30
0.0
 10
1.681305156145349
 20
-0.3660541185964676
 30
0.0
 10
1.681305156145349
 20
-0.3660541185964676
 30
0.0
  0
HATCH
  5
112
330
10D
100
AcDbEntity
  8
SDPW screw
440
 33554687
100
AcDbHatch
 10
0.0
 20
0.0
 30
0.0
210
0.0
220
0.0
230
1.0
  2
SOLID
 70
     1
 71
     1
 91
        1
 92
        1
 93
        2
 72
     4
 94
        3
 73
     0
 74
     0
 95
       35
 96
       31
 40
0.0
 40
0.0
 40
0.0
 40
0.0
 40
1.0
 40
1.0
 40
1.0
 40
2.0
 40
2.0
 40
2.0
 40
3.0
 40
3.0
 40
3.0
 40
4.0
 40
4.0
 40
4.0
 40
5.0
 40
5.0
 40
5.0
 40
6.0
 40
6.0
 40
6.0
 40
7.0
 40
7.0
 40
7.0
 40
8.0
 40
8.0
 40
8.0
 40
9.0
 40
9.0
 40
9.0
 40
10.0
 40
10.0
 40
10.0
 40
10.0
 10
1.681791136258703
 20
-0.3657380339698698
 10
1.679121538183355
 20
-0.3675950311510405
 10
1.673075541687138
 20
-0.3694520283322112
 10
1.665111087110113
 20
-0.3713090255133946
 10
1.657145754520267
 20
-0.37316602269454
 10
1.647261085836791
 20
-0.3750230198757233
 10
1.63783649588754
 20
-0.3768795780504711
 10
1.628412344944738
 20
-0.3787365752316292
 10
1.619448272736134
 20
-0.3805935724127999
 10
1.613103312863939
 20
-0.382450569593958
 10
1.609464388600397
 20
-0.3835151601765447
 10
1.606687643696911
 20
-0.384580189765567
 10
1.604940398078067
 20
-0.3856447803481538
 10
1.610588684056892
 20
-0.3822020919569695
 10
1.616222014512888
 20
-0.3787159419296004
 10
1.621720130989716
 20
-0.3750792126982231
 10
1.634755987797638
 20
-0.3659895846518566
 10
1.657988207851404
 20
-0.3672060714577961
 10
1.667609472679385
 20
-0.3543848887920578
 10
1.667609472679385
 20
-0.3543848887920578
 10
1.667609472679385
 20
-0.3524005797474072
 10
1.667609472679385
 20
-0.3524005797474072
 10
1.672107532518212
 20
-0.3553015342091612
 10
1.676671882327354
 20
-0.3581243455271053
 10
1.681251158354977
 20
-0.3609186214273703
 10
1.683884757903393
 20
-0.3625253849458103
 10
1.684101188071281
 20
-0.364132148464263
 10
1.681791136258703
 20
-0.3657380339698698
 10
1.681791136258703
 20
-0.3657380339698698
 10
1.681305156145349
 20
-0.3660541185964676
 10
1.681305156145349
 20
-0.3660541185964676
 97
        0
 72
     1
 10
1.681305156145349
 20
-0.3660541185964676
 11
1.681791136258703
 21
-0.3657380339698698
 97
        0
 75
     2
 76
     0
 98
        1
 10
0.0
 20
0.0
450
        1
451
        0
460
90.0
461
0.0
452
        0
462
0.0
453
        2
463
0.0
 63
   250
421
  3157551
463
1.0
 63
     9
421
 12369600
470
LINEAR
  0
SPLINE
  5
113
330
10D
100
AcDbEntity
  8
SDPW screw
 62
   250
420
  2301728
370
     5
100
AcDbSpline
210
0.0
220
0.0
230
1.0
 70
     9
 71
     3
 72
    38
 73
    34
 74
     0
 42
0.0000000001
 43
0.0000000001
 40
0.0
 40
0.0
 40
0.0
 40
0.0
 40
1.0
 40
1.0
 40
1.0
 40
2.0
 40
2.0
 40
2.0
 40
3.0
 40
3.0
 40
3.0
 40
4.0
 40
4.0
 40
4.0
 40
5.0
 40
5.0
 40
5.0
 40
6.0
 40
6.0
 40
6.0
 40
7.0
 40
7.0
 40
7.0
 40
8.0
 40
8.0
 40
8.0
 40
9.0
 40
9.0
 40
9.0
 40
10.0
 40
10.0
 40
10.0
 40
11.0
 40
11.0
 40
11.0
 40
11.0
 10
1.681791136258703
 20
-0.3657380339698698
 30
0.0
 10
1.679121538183355
 20
-0.3675950311510405
 30
0.0
 10
1.673075541687138
 20
-0.3694520283322112
 30
0.0
 10
1.665111087110113
 20
-0.3713090255133946
 30
0.0
 10
1.657145754520267
 20
-0.37316602269454
 30
0.0
 10
1.647261085836791
 20
-0.3750230198757233
 30
0.0
 10
1.63783649588754
 20
-0.3768795780504711
 30
0.0
 10
1.628412344944738
 20
-0.3787365752316292
 30
0.0
 10
1.619448272736134
 20
-0.3805935724127999
 30
0.0
 10
1.613103312863939
 20
-0.382450569593958
 30
0.0
 10
1.609464388600397
 20
-0.3835151601765447
 30
0.0
 10
1.606687643696911
 20
-0.384580189765567
 30
0.0
 10
1.604940398078067
 20
-0.3856447803481538
 30
0.0
 10
1.603640529355642
 20
-0.3864371869467252
 30
0.0
 10
1.6029113396824
 20
-0.3872291545388862
 30
0.0
 10
1.602822221377942
 20
-0.3880206831246116
 30
0.0
 10
1.602718615861451
 20
-0.3889307434453207
 30
0.0
 10
1.603460946385742
 20
-0.3898408037660298
 30
0.0
 10
1.604952719562384
 20
-0.3907508640867137
 30
0.0
 10
1.609539458699221
 20
-0.3935477740255413
 30
0.0
 10
1.614112149630424
 20
-0.3963766980231185
 30
0.0
 10
1.618616355559247
 20
-0.3992847099979902
 30
0.0
 10
1.618616355559247
 20
-0.3992847099979902
 30
0.0
 10
1.618616355559247
 20
-0.3973197172360869
 30
0.0
 10
1.618616355559247
 20
-0.3973197172360869
 30
0.0
 10
1.628140599967132
 20
-0.3845174118466856
 30
0.0
 10
1.651548422591228
 20
-0.3856878029778651
 30
0.0
 10
1.664555304975061
 20
-0.3765858827515936
 30
0.0
 10
1.670047275361917
 20
-0.3729614457001213
 30
0.0
 10
1.67566831363797
 20
-0.3694884658655534
 30
0.0
 10
1.681305156145349
 20
-0.3660541185964676
 30
0.0
 10
1.681305156145349
 20
-0.3660541185964676
 30
0.0
 10
1.681791136258703
 20
-0.3657380339698698
 30
0.0
 10
1.681791136258703
 20
-0.3657380339698698
 30
0.0
  0
HATCH
  5
114
330
10D
100
AcDbEntity
  8
SDPW screw
440
 33554687
100
AcDbHatch
 10
0.0
 20
0.0
 30
0.0
210
0.0
220
0.0
230
1.0
  2
SOLID
 70
     1
 71
     1
 91
        1
 92
        1
 93
        1
 72
     4
 94
        3
 73
     0
 74
     0
 95
       38
 96
       34
 40
0.0
 40
0.0
 40
0.0
 40
0.0
 40
1.0
 40
1.0
 40
1.0
 40
2.0
 40
2.0
 40
2.0
 40
3.0
 40
3.0
 40
3.0
 40
4.0
 40
4.0
 40
4.0
 40
5.0
 40
5.0
 40
5.0
 40
6.0
 40
6.0
 40
6.0
 40
7.0
 40
7.0
 40
7.0
 40
8.0
 40
8.0
 40
8.0
 40
9.0
 40
9.0
 40
9.0
 40
10.0
 40
10.0
 40
10.0
 40
11.0
 40
11.0
 40
11.0
 40
11.0
 10
1.681791136258703
 20
-0.3657380339698698
 10
1.679121538183355
 20
-0.3675950311510405
 10
1.673075541687138
 20
-0.3694520283322112
 10
1.665111087110113
 20
-0.3713090255133946
 10
1.657145754520267
 20
-0.37316602269454
 10
1.647261085836791
 20
-0.3750230198757233
 10
1.63783649588754
 20
-0.3768795780504711
 10
1.628412344944738
 20
-0.3787365752316292
 10
1.619448272736134
 20
-0.3805935724127999
 10
1.613103312863939
 20
-0.382450569593958
 10
1.609464388600397
 20
-0.3835151601765447
 10
1.606687643696911
 20
-0.384580189765567
 10
1.604940398078067
 20
-0.3856447803481538
 10
1.603640529355642
 20
-0.3864371869467252
 10
1.6029113396824
 20
-0.3872291545388862
 10
1.602822221377942
 20
-0.3880206831246116
 10
1.602718615861451
 20
-0.3889307434453207
 10
1.603460946385742
 20
-0.3898408037660298
 10
1.604952719562384
 20
-0.3907508640867137
 10
1.609539458699221
 20
-0.3935477740255413
 10
1.614112149630424
 20
-0.3963766980231185
 10
1.618616355559247
 20
-0.3992847099979902
 10
1.618616355559247
 20
-0.3992847099979902
 10
1.618616355559247
 20
-0.3973197172360869
 10
1.618616355559247
 20
-0.3973197172360869
 10
1.628140599967132
 20
-0.3845174118466856
 10
1.651548422591228
 20
-0.3856878029778651
 10
1.664555304975061
 20
-0.3765858827515936
 10
1.670047275361917
 20
-0.3729614457001213
 10
1.67566831363797
 20
-0.3694884658655534
 10
1.681305156145349
 20
-0.3660541185964676
 10
1.681305156145349
 20
-0.3660541185964676
 10
1.681791136258703
 20
-0.3657380339698698
 10
1.681791136258703
 20
-0.3657380339698698
 97
        0
 97
        1
330
113
 75
     2
 76
     0
 98
        1
 10
0.0
 20
0.0
450
        1
451
        0
460
-90.0
461
0.0
452
        0
462
0.0
453
        2
463
0.0
 63
   250
421
  3157551
463
1.0
 63
     9
421
 12369600
470
LINEAR
  0
ENDBLK
  5
110
330
10D
100
AcDbEntity
  8
0
100
AcDbBlockEnd
  0
BLOCK
  5
117
330
115
100
AcDbEntity
  8
0
100
AcDbBlockBegin
  2
Block_6
 70
     0
 10
0.0
 20
0.0
 30
0.0
  3
Block_6
  1

  0
SPLINE
  5
119
330
115
100
AcDbEntity
  8
SDPW screw
 62
   250
420
  2301728
370
     5
100
AcDbSpline
210
0.0
220
0.0
230
1.0
 70
     8
 71
     3
 72
    35
 73
    31
 74
     0
 42
0.0000000001
 43
0.0000000001
 40
0.0
 40
0.0
 40
0.0
 40
0.0
 40
1.0
 40
1.0
 40
1.0
 40
2.0
 40
2.0
 40
2.0
 40
3.0
 40
3.0
 40
3.0
 40
4.0
 40
4.0
 40
4.0
 40
5.0
 40
5.0
 40
5.0
 40
6.0
 40
6.0
 40
6.0
 40
7.0
 40
7.0
 40
7.0
 40
8.0
 40
8.0
 40
8.0
 40
9.0
 40
9.0
 40
9.0
 40
10.0
 40
10.0
 40
10.0
 40
10.0
 10
1.681791136258703
 20
-0.3163717954714432
 30
0.0
 10
1.679121538183355
 20
-0.3182287926568834
 30
0.0
 10
1.673075541687138
 20
-0.3200857898423237
 30
0.0
 10
1.665111087110113
 20
-0.321942787027764
 30
0.0
 10
1.657145754520267
 20
-0.3237997842131663
 30
0.0
 10
1.647261085836766
 20
-0.3256567813986319
 30
0.0
 10
1.63783649588754
 20
-0.3275133039971302
 30
0.0
 10
1.628412344944738
 20
-0.3293703011782882
 30
0.0
 10
1.619448272736134
 20
-0.331227298359459
 30
0.0
 10
1.613103312863939
 20
-0.3330842955406297
 30
0.0
 10
1.609464388600397
 20
-0.3341489260328798
 30
0.0
 10
1.606687643696911
 20
-0.3352139157122261
 30
0.0
 10
1.604940398078067
 20
-0.3362785462045015
 30
0.0
 10
1.610588684056892
 20
-0.3328358578133046
 30
0.0
 10
1.616222014512888
 20
-0.3293497077859355
 30
0.0
 10
1.621720130989716
 20
-0.3257129386448949
 30
0.0
 10
1.634755987797638
 20
-0.3166233505082042
 30
0.0
 10
1.657988207851404
 20
-0.3178397974044552
 30
0.0
 10
1.667609472679385
 20
-0.3050186147387169
 30
0.0
 10
1.667609472679385
 20
-0.3050186147387169
 30
0.0
 10
1.667609472679385
 20
-0.3030343456037422
 30
0.0
 10
1.667609472679385
 20
-0.3030343456037422
 30
0.0
 10
1.672107532518212
 20
-0.3059352601558203
 30
0.0
 10
1.676671882327354
 20
-0.3087581113834403
 30
0.0
 10
1.681251158354977
 20
-0.3115523473740293
 30
0.0
 10
1.683884757903393
 20
-0.3131591108924693
 30
0.0
 10
1.684101188071281
 20
-0.314765874410922
 30
0.0
 10
1.681791136258703
 20
-0.3163717954714432
 30
0.0
 10
1.681791136258703
 20
-0.3163717954714432
 30
0.0
 10
1.681305156145349
 20
-0.3166878800987736
 30
0.0
 10
1.681305156145349
 20
-0.3166878800987736
 30
0.0
  0
HATCH
  5
11A
330
115
100
AcDbEntity
  8
SDPW screw
440
 33554687
100
AcDbHatch
 10
0.0
 20
0.0
 30
0.0
210
0.0
220
0.0
230
1.0
  2
SOLID
 70
     1
 71
     1
 91
        1
 92
        1
 93
        2
 72
     4
 94
        3
 73
     0
 74
     0
 95
       35
 96
       31
 40
0.0
 40
0.0
 40
0.0
 40
0.0
 40
1.0
 40
1.0
 40
1.0
 40
2.0
 40
2.0
 40
2.0
 40
3.0
 40
3.0
 40
3.0
 40
4.0
 40
4.0
 40
4.0
 40
5.0
 40
5.0
 40
5.0
 40
6.0
 40
6.0
 40
6.0
 40
7.0
 40
7.0
 40
7.0
 40
8.0
 40
8.0
 40
8.0
 40
9.0
 40
9.0
 40
9.0
 40
10.0
 40
10.0
 40
10.0
 40
10.0
 10
1.681791136258703
 20
-0.3163717954714432
 10
1.679121538183355
 20
-0.3182287926568834
 10
1.673075541687138
 20
-0.3200857898423237
 10
1.665111087110113
 20
-0.321942787027764
 10
1.657145754520267
 20
-0.3237997842131663
 10
1.647261085836766
 20
-0.3256567813986319
 10
1.63783649588754
 20
-0.3275133039971302
 10
1.628412344944738
 20
-0.3293703011782882
 10
1.619448272736134
 20
-0.331227298359459
 10
1.613103312863939
 20
-0.3330842955406297
 10
1.609464388600397
 20
-0.3341489260328798
 10
1.606687643696911
 20
-0.3352139157122261
 10
1.604940398078067
 20
-0.3362785462045015
 10
1.610588684056892
 20
-0.3328358578133046
 10
1.616222014512888
 20
-0.3293497077859355
 10
1.621720130989716
 20
-0.3257129386448949
 10
1.634755987797638
 20
-0.3166233505082042
 10
1.657988207851404
 20
-0.3178397974044552
 10
1.667609472679385
 20
-0.3050186147387169
 10
1.667609472679385
 20
-0.3050186147387169
 10
1.667609472679385
 20
-0.3030343456037422
 10
1.667609472679385
 20
-0.3030343456037422
 10
1.672107532518212
 20
-0.3059352601558203
 10
1.676671882327354
 20
-0.3087581113834403
 10
1.681251158354977
 20
-0.3115523473740293
 10
1.683884757903393
 20
-0.3131591108924693
 10
1.684101188071281
 20
-0.314765874410922
 10
1.681791136258703
 20
-0.3163717954714432
 10
1.681791136258703
 20
-0.3163717954714432
 10
1.681305156145349
 20
-0.3166878800987736
 10
1.681305156145349
 20
-0.3166878800987736
 97
        0
 72
     1
 10
1.681305156145349
 20
-0.3166878800987736
 11
1.681791136258703
 21
-0.3163717954714432
 97
        0
 75
     2
 76
     0
 98
        1
 10
0.0
 20
0.0
450
        1
451
        0
460
90.0
461
0.0
452
        0
462
0.0
453
        2
463
0.0
 63
   250
421
  3157551
463
1.0
 63
     9
421
 12369600
470
LINEAR
  0
SPLINE
  5
11B
330
115
100
AcDbEntity
  8
SDPW screw
 62
   250
420
  2301728
370
     5
100
AcDbSpline
210
0.0
220
0.0
230
1.0
 70
     9
 71
     3
 72
    38
 73
    34
 74
     0
 42
0.0000000001
 43
0.0000000001
 40
0.0
 40
0.0
 40
0.0
 40
0.0
 40
1.0
 40
1.0
 40
1.0
 40
2.0
 40
2.0
 40
2.0
 40
3.0
 40
3.0
 40
3.0
 40
4.0
 40
4.0
 40
4.0
 40
5.0
 40
5.0
 40
5.0
 40
6.0
 40
6.0
 40
6.0
 40
7.0
 40
7.0
 40
7.0
 40
8.0
 40
8.0
 40
8.0
 40
9.0
 40
9.0
 40
9.0
 40
10.0
 40
10.0
 40
10.0
 40
11.0
 40
11.0
 40
11.0
 40
11.0
 10
1.681791136258703
 20
-0.3163717954714432
 30
0.0
 10
1.679121538183355
 20
-0.3182287926568834
 30
0.0
 10
1.673075541687138
 20
-0.3200857898423237
 30
0.0
 10
1.665111087110113
 20
-0.321942787027764
 30
0.0
 10
1.657145754520267
 20
-0.3237997842131663
 30
0.0
 10
1.647261085836766
 20
-0.3256567813986319
 30
0.0
 10
1.63783649588754
 20
-0.3275133039971302
 30
0.0
 10
1.628412344944738
 20
-0.3293703011782882
 30
0.0
 10
1.619448272736134
 20
-0.331227298359459
 30
0.0
 10
1.613103312863939
 20
-0.3330842955406297
 30
0.0
 10
1.609464388600397
 20
-0.3341489260328798
 30
0.0
 10
1.606687643696911
 20
-0.3352139157122261
 30
0.0
 10
1.604940398078067
 20
-0.3362785462045015
 30
0.0
 10
1.603640529355642
 20
-0.3370709128933842
 30
0.0
 10
1.6029113396824
 20
-0.3378629203952212
 30
0.0
 10
1.602822221377942
 20
-0.3386544489809593
 30
0.0
 10
1.602718615861451
 20
-0.3395645050001627
 30
0.0
 10
1.603460946385742
 20
-0.3404745696223648
 30
0.0
 10
1.604952719562384
 20
-0.3413846299430487
 30
0.0
 10
1.609539458699221
 20
-0.3441814999722004
 30
0.0
 10
1.614112149630424
 20
-0.3470104227226835
 30
0.0
 10
1.618616355559247
 20
-0.3499184359446619
 30
0.0
 10
1.618616355559247
 20
-0.3499184359446619
 30
0.0
 10
1.618616355559247
 20
-0.347953443182746
 30
0.0
 10
1.618616355559247
 20
-0.347953443182746
 30
0.0
 10
1.628140599967132
 20
-0.3351511777030206
 30
0.0
 10
1.651548422591228
 20
-0.3363215289245368
 30
0.0
 10
1.664555304975061
 20
-0.3272196086982527
 30
0.0
 10
1.670047275361917
 20
-0.3235951716467929
 30
0.0
 10
1.67566831363797
 20
-0.3201221918122124
 30
0.0
 10
1.681305156145349
 20
-0.3166878800987736
 30
0.0
 10
1.681305156145349
 20
-0.3166878800987736
 30
0.0
 10
1.681791136258703
 20
-0.3163717954714432
 30
0.0
 10
1.681791136258703
 20
-0.3163717954714432
 30
0.0
  0
HATCH
  5
11C
330
115
100
AcDbEntity
  8
SDPW screw
440
 33554687
100
AcDbHatch
 10
0.0
 20
0.0
 30
0.0
210
0.0
220
0.0
230
1.0
  2
SOLID
 70
     1
 71
     1
 91
        1
 92
        1
 93
        1
 72
     4
 94
        3
 73
     0
 74
     0
 95
       38
 96
       34
 40
0.0
 40
0.0
 40
0.0
 40
0.0
 40
1.0
 40
1.0
 40
1.0
 40
2.0
 40
2.0
 40
2.0
 40
3.0
 40
3.0
 40
3.0
 40
4.0
 40
4.0
 40
4.0
 40
5.0
 40
5.0
 40
5.0
 40
6.0
 40
6.0
 40
6.0
 40
7.0
 40
7.0
 40
7.0
 40
8.0
 40
8.0
 40
8.0
 40
9.0
 40
9.0
 40
9.0
 40
10.0
 40
10.0
 40
10.0
 40
11.0
 40
11.0
 40
11.0
 40
11.0
 10
1.681791136258703
 20
-0.3163717954714432
 10
1.679121538183355
 20
-0.3182287926568834
 10
1.673075541687138
 20
-0.3200857898423237
 10
1.665111087110113
 20
-0.321942787027764
 10
1.657145754520267
 20
-0.3237997842131663
 10
1.647261085836766
 20
-0.3256567813986319
 10
1.63783649588754
 20
-0.3275133039971302
 10
1.628412344944738
 20
-0.3293703011782882
 10
1.619448272736134
 20
-0.331227298359459
 10
1.613103312863939
 20
-0.3330842955406297
 10
1.609464388600397
 20
-0.3341489260328798
 10
1.606687643696911
 20
-0.3352139157122261
 10
1.604940398078067
 20
-0.3362785462045015
 10
1.603640529355642
 20
-0.3370709128933842
 10
1.6029113396824
 20
-0.3378629203952212
 10
1.602822221377942
 20
-0.3386544489809593
 10
1.602718615861451
 20
-0.3395645050001627
 10
1.603460946385742
 20
-0.3404745696223648
 10
1.604952719562384
 20
-0.3413846299430487
 10
1.609539458699221
 20
-0.3441814999722004
 10
1.614112149630424
 20
-0.3470104227226835
 10
1.618616355559247
 20
-0.3499184359446619
 10
1.618616355559247
 20
-0.3499184359446619
 10
1.618616355559247
 20
-0.347953443182746
 10
1.618616355559247
 20
-0.347953443182746
 10
1.628140599967132
 20
-0.3351511777030206
 10
1.651548422591228
 20
-0.3363215289245368
 10
1.664555304975061
 20
-0.3272196086982527
 10
1.670047275361917
 20
-0.3235951716467929
 10
1.67566831363797
 20
-0.3201221918122124
 10
1.681305156145349
 20
-0.3166878800987736
 10
1.681305156145349
 20
-0.3166878800987736
 10
1.681791136258703
 20
-0.3163717954714432
 10
1.681791136258703
 20
-0.3163717954714432
 97
        0
 97
        1
330
11B
 75
     2
 76
     0
 98
        1
 10
0.0
 20
0.0
450
        1
451
        0
460
-90.0
461
0.0
452
        0
462
0.0
453
        2
463
0.0
 63
   250
421
  3157551
463
1.0
 63
     9
421
 12369600
470
LINEAR
  0
ENDBLK
  5
118
330
115
100
AcDbEntity
  8
0
100
AcDbBlockEnd
  0
BLOCK
  5
11F
330
11D
100
AcDbEntity
  8
0
100
AcDbBlockBegin
  2
Block_7
 70
     0
 10
0.0
 20
0.0
 30
0.0
  3
Block_7
  1

  0
SPLINE
  5
121
330
11D
100
AcDbEntity
  8
SDPW screw
 62
   250
420
  2301728
370
     5
100
AcDbSpline
210
0.0
220
0.0
230
1.0
 70
     8
 71
     3
 72
    35
 73
    31
 74
     0
 42
0.0000000001
 43
0.0000000001
 40
0.0
 40
0.0
 40
0.0
 40
0.0
 40
1.0
 40
1.0
 40
1.0
 40
2.0
 40
2.0
 40
2.0
 40
3.0
 40
3.0
 40
3.0
 40
4.0
 40
4.0
 40
4.0
 40
5.0
 40
5.0
 40
5.0
 40
6.0
 40
6.0
 40
6.0
 40
7.0
 40
7.0
 40
7.0
 40
8.0
 40
8.0
 40
8.0
 40
9.0
 40
9.0
 40
9.0
 40
10.0
 40
10.0
 40
10.0
 40
10.0
 10
1.681791136258703
 20
-0.2670055587712012
 30
0.0
 10
1.679121538183355
 20
-0.2688625559608984
 30
0.0
 10
1.673075541687138
 20
-0.2707195531506082
 30
0.0
 10
1.665111087110113
 20
-0.2725765503403181
 30
0.0
 10
1.657145754520267
 20
-0.27443354752999
 30
0.0
 10
1.647261085836791
 20
-0.2762905447197125
 30
0.0
 10
1.63783649588754
 20
-0.278147031741974
 30
0.0
 10
1.628412344944738
 20
-0.280004028923132
 30
0.0
 10
1.619448272736134
 20
-0.2818610261043028
 30
0.0
 10
1.613103312863939
 20
-0.2837180232854734
 30
0.0
 10
1.609464388600397
 20
-0.2847826936873995
 30
0.0
 10
1.606687643696911
 20
-0.2858476434570699
 30
0.0
 10
1.604940398078067
 20
-0.2869123138590087
 30
0.0
 10
1.610588684056892
 20
-0.2834696254678243
 30
0.0
 10
1.616222014512888
 20
-0.2799834754404552
 30
0.0
 10
1.621720130989716
 20
-0.276346666389726
 30
0.0
 10
1.634755987797638
 20
-0.2672571181627114
 30
0.0
 10
1.657988207851404
 20
-0.268473525149299
 30
0.0
 10
1.667609472679385
 20
-0.2556523424835733
 30
0.0
 10
1.667609472679385
 20
-0.2556523424835733
 30
0.0
 10
1.667609472679385
 20
-0.2536681132582619
 30
0.0
 10
1.667609472679385
 20
-0.2536681132582619
 30
0.0
 10
1.672107532518212
 20
-0.2565689879006641
 30
0.0
 10
1.676671882327354
 20
-0.2593918790379601
 30
0.0
 10
1.681251158354977
 20
-0.2621860751188731
 30
0.0
 10
1.683884757903393
 20
-0.2637928386373131
 30
0.0
 10
1.684101188071281
 20
-0.2653996021557658
 30
0.0
 10
1.681791136258703
 20
-0.2670055587712012
 30
0.0
 10
1.681791136258703
 20
-0.2670055587712012
 30
0.0
 10
1.681305156145349
 20
-0.2673216433992517
 30
0.0
 10
1.681305156145349
 20
-0.2673216433992517
 30
0.0
  0
HATCH
  5
122
330
11D
100
AcDbEntity
  8
SDPW screw
440
 33554687
100
AcDbHatch
 10
0.0
 20
0.0
 30
0.0
210
0.0
220
0.0
230
1.0
  2
SOLID
 70
     1
 71
     1
 91
        1
 92
        1
 93
        2
 72
     4
 94
        3
 73
     0
 74
     0
 95
       35
 96
       31
 40
0.0
 40
0.0
 40
0.0
 40
0.0
 40
1.0
 40
1.0
 40
1.0
 40
2.0
 40
2.0
 40
2.0
 40
3.0
 40
3.0
 40
3.0
 40
4.0
 40
4.0
 40
4.0
 40
5.0
 40
5.0
 40
5.0
 40
6.0
 40
6.0
 40
6.0
 40
7.0
 40
7.0
 40
7.0
 40
8.0
 40
8.0
 40
8.0
 40
9.0
 40
9.0
 40
9.0
 40
10.0
 40
10.0
 40
10.0
 40
10.0
 10
1.681791136258703
 20
-0.2670055587712012
 10
1.679121538183355
 20
-0.2688625559608984
 10
1.673075541687138
 20
-0.2707195531506082
 10
1.665111087110113
 20
-0.2725765503403181
 10
1.657145754520267
 20
-0.27443354752999
 10
1.647261085836791
 20
-0.2762905447197125
 10
1.63783649588754
 20
-0.278147031741974
 10
1.628412344944738
 20
-0.280004028923132
 10
1.619448272736134
 20
-0.2818610261043028
 10
1.613103312863939
 20
-0.2837180232854734
 10
1.609464388600397
 20
-0.2847826936873995
 10
1.606687643696911
 20
-0.2858476434570699
 10
1.604940398078067
 20
-0.2869123138590087
 10
1.610588684056892
 20
-0.2834696254678243
 10
1.616222014512888
 20
-0.2799834754404552
 10
1.621720130989716
 20
-0.276346666389726
 10
1.634755987797638
 20
-0.2672571181627114
 10
1.657988207851404
 20
-0.268473525149299
 10
1.667609472679385
 20
-0.2556523424835733
 10
1.667609472679385
 20
-0.2556523424835733
 10
1.667609472679385
 20
-0.2536681132582619
 10
1.667609472679385
 20
-0.2536681132582619
 10
1.672107532518212
 20
-0.2565689879006641
 10
1.676671882327354
 20
-0.2593918790379601
 10
1.681251158354977
 20
-0.2621860751188731
 10
1.683884757903393
 20
-0.2637928386373131
 10
1.684101188071281
 20
-0.2653996021557658
 10
1.681791136258703
 20
-0.2670055587712012
 10
1.681791136258703
 20
-0.2670055587712012
 10
1.681305156145349
 20
-0.2673216433992517
 10
1.681305156145349
 20
-0.2673216433992517
 97
        0
 72
     1
 10
1.681305156145349
 20
-0.2673216433992517
 11
1.681791136258703
 21
-0.2670055587712012
 97
        0
 75
     2
 76
     0
 98
        1
 10
0.0
 20
0.0
450
        1
451
        0
460
90.0
461
0.0
452
        0
462
0.0
453
        2
463
0.0
 63
   250
421
  3157551
463
1.0
 63
     9
421
 12369600
470
LINEAR
  0
SPLINE
  5
123
330
11D
100
AcDbEntity
  8
SDPW screw
 62
   250
420
  2301728
370
     5
100
AcDbSpline
210
0.0
220
0.0
230
1.0
 70
     9
 71
     3
 72
    38
 73
    34
 74
     0
 42
0.0000000001
 43
0.0000000001
 40
0.0
 40
0.0
 40
0.0
 40
0.0
 40
1.0
 40
1.0
 40
1.0
 40
2.0
 40
2.0
 40
2.0
 40
3.0
 40
3.0
 40
3.0
 40
4.0
 40
4.0
 40
4.0
 40
5.0
 40
5.0
 40
5.0
 40
6.0
 40
6.0
 40
6.0
 40
7.0
 40
7.0
 40
7.0
 40
8.0
 40
8.0
 40
8.0
 40
9.0
 40
9.0
 40
9.0
 40
10.0
 40
10.0
 40
10.0
 40
11.0
 40
11.0
 40
11.0
 40
11.0
 10
1.681791136258703
 20
-0.2670055587712012
 30
0.0
 10
1.679121538183355
 20
-0.2688625559608984
 30
0.0
 10
1.673075541687138
 20
-0.2707195531506082
 30
0.0
 10
1.665111087110113
 20
-0.2725765503403181
 30
0.0
 10
1.657145754520267
 20
-0.27443354752999
 30
0.0
 10
1.647261085836791
 20
-0.2762905447197125
 30
0.0
 10
1.63783649588754
 20
-0.278147031741974
 30
0.0
 10
1.628412344944738
 20
-0.280004028923132
 30
0.0
 10
1.619448272736134
 20
-0.2818610261043028
 30
0.0
 10
1.613103312863939
 20
-0.2837180232854734
 30
0.0
 10
1.609464388600397
 20
-0.2847826936873995
 30
0.0
 10
1.606687643696911
 20
-0.2858476434570699
 30
0.0
 10
1.604940398078067
 20
-0.2869123138590087
 30
0.0
 10
1.603640529355642
 20
-0.287704640638228
 30
0.0
 10
1.6029113396824
 20
-0.288496688049741
 30
0.0
 10
1.602822221377942
 20
-0.2892882166354664
 30
0.0
 10
1.602718615861451
 20
-0.2901982683531767
 30
0.0
 10
1.603460946385742
 20
-0.2911083372768846
 30
0.0
 10
1.604952719562384
 20
-0.2920183975975811
 30
0.0
 10
1.609539458699221
 20
-0.2948152277170442
 30
0.0
 10
1.614112149630424
 20
-0.2976441492204331
 30
0.0
 10
1.618616355559247
 20
-0.300552163689493
 30
0.0
 10
1.618616355559247
 20
-0.300552163689493
 30
0.0
 10
1.618616355559247
 20
-0.2985871709276024
 30
0.0
 10
1.618616355559247
 20
-0.2985871709276024
 30
0.0
 10
1.628140599967132
 20
-0.2857849453575403
 30
0.0
 10
1.651548422591228
 20
-0.2869552566693679
 30
0.0
 10
1.664555304975061
 20
-0.2778533364430965
 30
0.0
 10
1.670047275361917
 20
-0.2742288993916241
 30
0.0
 10
1.67566831363797
 20
-0.2707559195570562
 30
0.0
 10
1.681305156145349
 20
-0.2673216433992517
 30
0.0
 10
1.681305156145349
 20
-0.2673216433992517
 30
0.0
 10
1.681791136258703
 20
-0.2670055587712012
 30
0.0
 10
1.681791136258703
 20
-0.2670055587712012
 30
0.0
  0
HATCH
  5
124
330
11D
100
AcDbEntity
  8
SDPW screw
440
 33554687
100
AcDbHatch
 10
0.0
 20
0.0
 30
0.0
210
0.0
220
0.0
230
1.0
  2
SOLID
 70
     1
 71
     1
 91
        1
 92
        1
 93
        1
 72
     4
 94
        3
 73
     0
 74
     0
 95
       38
 96
       34
 40
0.0
 40
0.0
 40
0.0
 40
0.0
 40
1.0
 40
1.0
 40
1.0
 40
2.0
 40
2.0
 40
2.0
 40
3.0
 40
3.0
 40
3.0
 40
4.0
 40
4.0
 40
4.0
 40
5.0
 40
5.0
 40
5.0
 40
6.0
 40
6.0
 40
6.0
 40
7.0
 40
7.0
 40
7.0
 40
8.0
 40
8.0
 40
8.0
 40
9.0
 40
9.0
 40
9.0
 40
10.0
 40
10.0
 40
10.0
 40
11.0
 40
11.0
 40
11.0
 40
11.0
 10
1.681791136258703
 20
-0.2670055587712012
 10
1.679121538183355
 20
-0.2688625559608984
 10
1.673075541687138
 20
-0.2707195531506082
 10
1.665111087110113
 20
-0.2725765503403181
 10
1.657145754520267
 20
-0.27443354752999
 10
1.647261085836791
 20
-0.2762905447197125
 10
1.63783649588754
 20
-0.278147031741974
 10
1.628412344944738
 20
-0.280004028923132
 10
1.619448272736134
 20
-0.2818610261043028
 10
1.613103312863939
 20
-0.2837180232854734
 10
1.609464388600397
 20
-0.2847826936873995
 10
1.606687643696911
 20
-0.2858476434570699
 10
1.604940398078067
 20
-0.2869123138590087
 10
1.603640529355642
 20
-0.287704640638228
 10
1.6029113396824
 20
-0.288496688049741
 10
1.602822221377942
 20
-0.2892882166354664
 10
1.602718615861451
 20
-0.2901982683531767
 10
1.603460946385742
 20
-0.2911083372768846
 10
1.604952719562384
 20
-0.2920183975975811
 10
1.609539458699221
 20
-0.2948152277170442
 10
1.614112149630424
 20
-0.2976441492204331
 10
1.618616355559247
 20
-0.300552163689493
 10
1.618616355559247
 20
-0.300552163689493
 10
1.618616355559247
 20
-0.2985871709276024
 10
1.618616355559247
 20
-0.2985871709276024
 10
1.628140599967132
 20
-0.2857849453575403
 10
1.651548422591228
 20
-0.2869552566693679
 10
1.664555304975061
 20
-0.2778533364430965
 10
1.670047275361917
 20
-0.2742288993916241
 10
1.67566831363797
 20
-0.2707559195570562
 10
1.681305156145349
 20
-0.2673216433992517
 10
1.681305156145349
 20
-0.2673216433992517
 10
1.681791136258703
 20
-0.2670055587712012
 10
1.681791136258703
 20
-0.2670055587712012
 97
        0
 97
        1
330
123
 75
     2
 76
     0
 98
        1
 10
0.0
 20
0.0
450
        1
451
        0
460
-90.0
461
0.0
452
        0
462
0.0
453
        2
463
0.0
 63
   250
421
  3157551
463
1.0
 63
     9
421
 12369600
470
LINEAR
  0
ENDBLK
  5
120
330
11D
100
AcDbEntity
  8
0
100
AcDbBlockEnd
  0
BLOCK
  5
127
330
125
100
AcDbEntity
  8
0
100
AcDbBlockBegin
  2
Block_8
 70
     0
 10
0.0
 20
0.0
 30
0.0
  3
Block_8
  1

  0
SPLINE
  5
129
330
125
100
AcDbEntity
  8
SDPW screw
 62
   250
420
  2301728
370
     5
100
AcDbSpline
210
0.0
220
0.0
230
1.0
 70
     8
 71
     3
 72
    35
 73
    31
 74
     0
 42
0.0000000001
 43
0.0000000001
 40
0.0
 40
0.0
 40
0.0
 40
0.0
 40
1.0
 40
1.0
 40
1.0
 40
2.0
 40
2.0
 40
2.0
 40
3.0
 40
3.0
 40
3.0
 40
4.0
 40
4.0
 40
4.0
 40
5.0
 40
5.0
 40
5.0
 40
6.0
 40
6.0
 40
6.0
 40
7.0
 40
7.0
 40
7.0
 40
8.0
 40
8.0
 40
8.0
 40
9.0
 40
9.0
 40
9.0
 40
10.0
 40
10.0
 40
10.0
 40
10.0
 10
1.681791136258703
 20
-0.2176393220709593
 30
0.0
 10
1.679121538183355
 20
-0.219496319264926
 30
0.0
 10
1.673075541687138
 20
-0.2213533164588802
 30
0.0
 10
1.665111087110113
 20
-0.2232103136528722
 30
0.0
 10
1.657145754520267
 20
-0.2250673108468011
 30
0.0
 10
1.647261085836791
 20
-0.2269243080407806
 30
0.0
 10
1.63783649588754
 20
-0.2287807594868178
 30
0.0
 10
1.628412344944738
 20
-0.2306377566679758
 30
0.0
 10
1.619448272736134
 20
-0.2324947538491465
 30
0.0
 10
1.613103312863939
 20
-0.2343517510303046
 30
0.0
 10
1.609464388600397
 20
-0.2354164613419067
 30
0.0
 10
1.606687643696911
 20
-0.2364813712019137
 30
0.0
 10
1.604940398078067
 20
-0.2375460815135284
 30
0.0
 10
1.610588684056892
 20
-0.234103393122344
 30
0.0
 10
1.616222014512888
 20
-0.230617243094975
 30
0.0
 10
1.621720130989716
 20
-0.2269803941345698
 30
0.0
 10
1.634755987797638
 20
-0.2178908858172311
 30
0.0
 10
1.657988207851404
 20
-0.2191072528941428
 30
0.0
 10
1.667609472679385
 20
-0.206286070228417
 30
0.0
 10
1.667609472679385
 20
-0.206286070228417
 30
0.0
 10
1.667609472679385
 20
-0.2043018809127817
 30
0.0
 10
1.667609472679385
 20
-0.2043018809127817
 30
0.0
 10
1.672107532518212
 20
-0.2072027156455078
 30
0.0
 10
1.676671882327354
 20
-0.2100256466924798
 30
0.0
 10
1.681251158354977
 20
-0.2128198028637295
 30
0.0
 10
1.683884757903393
 20
-0.2144265663821443
 30
0.0
 10
1.684101188071281
 20
-0.2160333299006222
 30
0.0
 10
1.681791136258703
 20
-0.2176393220709593
 30
0.0
 10
1.681791136258703
 20
-0.2176393220709593
 30
0.0
 10
1.681305156145349
 20
-0.2179554066997298
 30
0.0
 10
1.681305156145349
 20
-0.2179554066997298
 30
0.0
  0
HATCH
  5
12A
330
125
100
AcDbEntity
  8
SDPW screw
440
 33554687
100
AcDbHatch
 10
0.0
 20
0.0
 30
0.0
210
0.0
220
0.0
230
1.0
  2
SOLID
 70
     1
 71
     1
 91
        1
 92
        1
 93
        2
 72
     4
 94
        3
 73
     0
 74
     0
 95
       35
 96
       31
 40
0.0
 40
0.0
 40
0.0
 40
0.0
 40
1.0
 40
1.0
 40
1.0
 40
2.0
 40
2.0
 40
2.0
 40
3.0
 40
3.0
 40
3.0
 40
4.0
 40
4.0
 40
4.0
 40
5.0
 40
5.0
 40
5.0
 40
6.0
 40
6.0
 40
6.0
 40
7.0
 40
7.0
 40
7.0
 40
8.0
 40
8.0
 40
8.0
 40
9.0
 40
9.0
 40
9.0
 40
10.0
 40
10.0
 40
10.0
 40
10.0
 10
1.681791136258703
 20
-0.2176393220709593
 10
1.679121538183355
 20
-0.219496319264926
 10
1.673075541687138
 20
-0.2213533164588802
 10
1.665111087110113
 20
-0.2232103136528722
 10
1.657145754520267
 20
-0.2250673108468011
 10
1.647261085836791
 20
-0.2269243080407806
 10
1.63783649588754
 20
-0.2287807594868178
 10
1.628412344944738
 20
-0.2306377566679758
 10
1.619448272736134
 20
-0.2324947538491465
 10
1.613103312863939
 20
-0.2343517510303046
 10
1.609464388600397
 20
-0.2354164613419067
 10
1.606687643696911
 20
-0.2364813712019137
 10
1.604940398078067
 20
-0.2375460815135284
 10
1.610588684056892
 20
-0.234103393122344
 10
1.616222014512888
 20
-0.230617243094975
 10
1.621720130989716
 20
-0.2269803941345698
 10
1.634755987797638
 20
-0.2178908858172311
 10
1.657988207851404
 20
-0.2191072528941428
 10
1.667609472679385
 20
-0.206286070228417
 10
1.667609472679385
 20
-0.206286070228417
 10
1.667609472679385
 20
-0.2043018809127817
 10
1.667609472679385
 20
-0.2043018809127817
 10
1.672107532518212
 20
-0.2072027156455078
 10
1.676671882327354
 20
-0.2100256466924798
 10
1.681251158354977
 20
-0.2128198028637295
 10
1.683884757903393
 20
-0.2144265663821443
 10
1.684101188071281
 20
-0.2160333299006222
 10
1.681791136258703
 20
-0.2176393220709593
 10
1.681791136258703
 20
-0.2176393220709593
 10
1.681305156145349
 20
-0.2179554066997298
 10
1.681305156145349
 20
-0.2179554066997298
 97
        0
 72
     1
 10
1.681305156145349
 20
-0.2179554066997298
 11
1.681791136258703
 21
-0.2176393220709593
 97
        0
 75
     2
 76
     0
 98
        1
 10
0.0
 20
0.0
450
        1
451
        0
460
90.0
461
0.0
452
        0
462
0.0
453
        2
463
0.0
 63
   250
421
  3157551
463
1.0
 63
     9
421
 12369600
470
LINEAR
  0
SPLINE
  5
12B
330
125
100
AcDbEntity
  8
SDPW screw
 62
   250
420
  2301728
370
     5
100
AcDbSpline
210
0.0
220
0.0
230
1.0
 70
     9
 71
     3
 72
    38
 73
    34
 74
     0
 42
0.0000000001
 43
0.0000000001
 40
0.0
 40
0.0
 40
0.0
 40
0.0
 40
1.0
 40
1.0
 40
1.0
 40
2.0
 40
2.0
 40
2.0
 40
3.0
 40
3.0
 40
3.0
 40
4.0
 40
4.0
 40
4.0
 40
5.0
 40
5.0
 40
5.0
 40
6.0
 40
6.0
 40
6.0
 40
7.0
 40
7.0
 40
7.0
 40
8.0
 40
8.0
 40
8.0
 40
9.0
 40
9.0
 40
9.0
 40
10.0
 40
10.0
 40
10.0
 40
11.0
 40
11.0
 40
11.0
 40
11.0
 10
1.681791136258703
 20
-0.2176393220709593
 30
0.0
 10
1.679121538183355
 20
-0.219496319264926
 30
0.0
 10
1.673075541687138
 20
-0.2213533164588802
 30
0.0
 10
1.665111087110113
 20
-0.2232103136528722
 30
0.0
 10
1.657145754520267
 20
-0.2250673108468011
 30
0.0
 10
1.647261085836791
 20
-0.2269243080407806
 30
0.0
 10
1.63783649588754
 20
-0.2287807594868178
 30
0.0
 10
1.628412344944738
 20
-0.2306377566679758
 30
0.0
 10
1.619448272736134
 20
-0.2324947538491465
 30
0.0
 10
1.613103312863939
 20
-0.2343517510303046
 30
0.0
 10
1.609464388600397
 20
-0.2354164613419067
 30
0.0
 10
1.606687643696911
 20
-0.2364813712019137
 30
0.0
 10
1.604940398078067
 20
-0.2375460815135284
 30
0.0
 10
1.603640529355642
 20
-0.2383383683830718
 30
0.0
 10
1.6029113396824
 20
-0.239130455704248
 30
0.0
 10
1.602822221377942
 20
-0.2399219842899735
 30
0.0
 10
1.602718615861451
 20
-0.2408320317062033
 30
0.0
 10
1.603460946385742
 20
-0.2417421049313917
 30
0.0
 10
1.604952719562384
 20
-0.2426521652520882
 30
0.0
 10
1.609539458699221
 20
-0.245448955461888
 30
0.0
 10
1.614112149630424
 20
-0.2482778757181828
 30
0.0
 10
1.618616355559247
 20
-0.2511858914343368
 30
0.0
 10
1.618616355559247
 20
-0.2511858914343368
 30
0.0
 10
1.618616355559247
 20
-0.2492208986724336
 30
0.0
 10
1.618616355559247
 20
-0.2492208986724336
 30
0.0
 10
1.628140599967132
 20
-0.2364187130120475
 30
0.0
 10
1.651548422591228
 20
-0.2375889844142117
 30
0.0
 10
1.664555304975061
 20
-0.2284870641879277
 30
0.0
 10
1.670047275361917
 20
-0.2248626271364679
 30
0.0
 10
1.67566831363797
 20
-0.2213896473019
 30
0.0
 10
1.681305156145349
 20
-0.2179554066997298
 30
0.0
 10
1.681305156145349
 20
-0.2179554066997298
 30
0.0
 10
1.681791136258703
 20
-0.2176393220709593
 30
0.0
 10
1.681791136258703
 20
-0.2176393220709593
 30
0.0
  0
HATCH
  5
12C
330
125
100
AcDbEntity
  8
SDPW screw
440
 33554687
100
AcDbHatch
 10
0.0
 20
0.0
 30
0.0
210
0.0
220
0.0
230
1.0
  2
SOLID
 70
     1
 71
     1
 91
        1
 92
        1
 93
        1
 72
     4
 94
        3
 73
     0
 74
     0
 95
       38
 96
       34
 40
0.0
 40
0.0
 40
0.0
 40
0.0
 40
1.0
 40
1.0
 40
1.0
 40
2.0
 40
2.0
 40
2.0
 40
3.0
 40
3.0
 40
3.0
 40
4.0
 40
4.0
 40
4.0
 40
5.0
 40
5.0
 40
5.0
 40
6.0
 40
6.0
 40
6.0
 40
7.0
 40
7.0
 40
7.0
 40
8.0
 40
8.0
 40
8.0
 40
9.0
 40
9.0
 40
9.0
 40
10.0
 40
10.0
 40
10.0
 40
11.0
 40
11.0
 40
11.0
 40
11.0
 10
1.681791136258703
 20
-0.2176393220709593
 10
1.679121538183355
 20
-0.219496319264926
 10
1.673075541687138
 20
-0.2213533164588802
 10
1.665111087110113
 20
-0.2232103136528722
 10
1.657145754520267
 20
-0.2250673108468011
 10
1.647261085836791
 20
-0.2269243080407806
 10
1.63783649588754
 20
-0.2287807594868178
 10
1.628412344944738
 20
-0.2306377566679758
 10
1.619448272736134
 20
-0.2324947538491465
 10
1.613103312863939
 20
-0.2343517510303046
 10
1.609464388600397
 20
-0.2354164613419067
 10
1.606687643696911
 20
-0.2364813712019137
 10
1.604940398078067
 20
-0.2375460815135284
 10
1.603640529355642
 20
-0.2383383683830718
 10
1.6029113396824
 20
-0.239130455704248
 10
1.602822221377942
 20
-0.2399219842899735
 10
1.602718615861451
 20
-0.2408320317062033
 10
1.603460946385742
 20
-0.2417421049313917
 10
1.604952719562384
 20
-0.2426521652520882
 10
1.609539458699221
 20
-0.245448955461888
 10
1.614112149630424
 20
-0.2482778757181828
 10
1.618616355559247
 20
-0.2511858914343368
 10
1.618616355559247
 20
-0.2511858914343368
 10
1.618616355559247
 20
-0.2492208986724336
 10
1.618616355559247
 20
-0.2492208986724336
 10
1.628140599967132
 20
-0.2364187130120475
 10
1.651548422591228
 20
-0.2375889844142117
 10
1.664555304975061
 20
-0.2284870641879277
 10
1.670047275361917
 20
-0.2248626271364679
 10
1.67566831363797
 20
-0.2213896473019
 10
1.681305156145349
 20
-0.2179554066997298
 10
1.681305156145349
 20
-0.2179554066997298
 10
1.681791136258703
 20
-0.2176393220709593
 10
1.681791136258703
 20
-0.2176393220709593
 97
        0
 97
        1
330
12B
 75
     2
 76
     0
 98
        1
 10
0.0
 20
0.0
450
        1
451
        0
460
-90.0
461
0.0
452
        0
462
0.0
453
        2
463
0.0
 63
   250
421
  3157551
463
1.0
 63
     9
421
 12369600
470
LINEAR
  0
ENDBLK
  5
128
330
125
100
AcDbEntity
  8
0
100
AcDbBlockEnd
  0
BLOCK
  5
12F
330
12D
100
AcDbEntity
  8
0
100
AcDbBlockBegin
  2
Block_9
 70
     0
 10
0.0
 20
0.0
 30
0.0
  3
Block_9
  1

  0
SPLINE
  5
131
330
12D
100
AcDbEntity
  8
SDPW screw
 62
   250
420
  2301728
370
     5
100
AcDbSpline
210
0.0
220
0.0
230
1.0
 70
     8
 71
     3
 72
    35
 73
    31
 74
     0
 42
0.0000000001
 43
0.0000000001
 40
0.0
 40
0.0
 40
0.0
 40
0.0
 40
1.0
 40
1.0
 40
1.0
 40
2.0
 40
2.0
 40
2.0
 40
3.0
 40
3.0
 40
3.0
 40
4.0
 40
4.0
 40
4.0
 40
5.0
 40
5.0
 40
5.0
 40
6.0
 40
6.0
 40
6.0
 40
7.0
 40
7.0
 40
7.0
 40
8.0
 40
8.0
 40
8.0
 40
9.0
 40
9.0
 40
9.0
 40
10.0
 40
10.0
 40
10.0
 40
10.0
 10
1.681791136258703
 20
-0.1682730853707047
 30
0.0
 10
1.679121538183355
 20
-0.1701300825689537
 30
0.0
 10
1.673075541687138
 20
-0.1719870797671648
 30
0.0
 10
1.665111087110113
 20
-0.1738440769654011
 30
0.0
 10
1.657145754520267
 20
-0.1757010741636122
 30
0.0
 10
1.647261085836791
 20
-0.1775580713618486
 30
0.0
 10
1.63783649588754
 20
-0.1794144872316489
 30
0.0
 10
1.628412344944738
 20
-0.181271484412807
 30
0.0
 10
1.619448272736134
 20
-0.1831284815939903
 30
0.0
 10
1.613103312863939
 20
-0.184985478775161
 30
0.0
 10
1.609464388600397
 20
-0.186050228996439
 30
0.0
 10
1.606687643696911
 20
-0.1871150989467449
 30
0.0
 10
1.604940398078067
 20
-0.1881798491680355
 30
0.0
 10
1.610588684056892
 20
-0.1847371607768511
 30
0.0
 10
1.616222014512888
 20
-0.1812510107494947
 30
0.0
 10
1.621720130989716
 20
-0.1776141218794136
 30
0.0
 10
1.634755987797638
 20
-0.1685246534717508
 30
0.0
 10
1.657988207851404
 20
-0.1697409806389866
 30
0.0
 10
1.667609472679385
 20
-0.1569197979732356
 30
0.0
 10
1.667609472679385
 20
-0.1569197979732356
 30
0.0
 10
1.667609472679385
 20
-0.1549356485672888
 30
0.0
 10
1.667609472679385
 20
-0.1549356485672888
 30
0.0
 10
1.672107532518212
 20
-0.1578364433903516
 30
0.0
 10
1.676671882327354
 20
-0.1606594143469869
 30
0.0
 10
1.681251158354977
 20
-0.1634535306085607
 30
0.0
 10
1.683884757903393
 20
-0.1650602941269881
 30
0.0
 10
1.684101188071281
 20
-0.1666670576454534
 30
0.0
 10
1.681791136258703
 20
-0.1682730853707047
 30
0.0
 10
1.681791136258703
 20
-0.1682730853707047
 30
0.0
 10
1.681305156145349
 20
-0.1685891700002078
 30
0.0
 10
1.681305156145349
 20
-0.1685891700002078
 30
0.0
  0
HATCH
  5
132
330
12D
100
AcDbEntity
  8
SDPW screw
440
 33554687
100
AcDbHatch
 10
0.0
 20
0.0
 30
0.0
210
0.0
220
0.0
230
1.0
  2
SOLID
 70
     1
 71
     1
 91
        1
 92
        1
 93
        2
 72
     4
 94
        3
 73
     0
 74
     0
 95
       35
 96
       31
 40
0.0
 40
0.0
 40
0.0
 40
0.0
 40
1.0
 40
1.0
 40
1.0
 40
2.0
 40
2.0
 40
2.0
 40
3.0
 40
3.0
 40
3.0
 40
4.0
 40
4.0
 40
4.0
 40
5.0
 40
5.0
 40
5.0
 40
6.0
 40
6.0
 40
6.0
 40
7.0
 40
7.0
 40
7.0
 40
8.0
 40
8.0
 40
8.0
 40
9.0
 40
9.0
 40
9.0
 40
10.0
 40
10.0
 40
10.0
 40
10.0
 10
1.681791136258703
 20
-0.1682730853707047
 10
1.679121538183355
 20
-0.1701300825689537
 10
1.673075541687138
 20
-0.1719870797671648
 10
1.665111087110113
 20
-0.1738440769654011
 10
1.657145754520267
 20
-0.1757010741636122
 10
1.647261085836791
 20
-0.1775580713618486
 10
1.63783649588754
 20
-0.1794144872316489
 10
1.628412344944738
 20
-0.181271484412807
 10
1.619448272736134
 20
-0.1831284815939903
 10
1.613103312863939
 20
-0.184985478775161
 10
1.609464388600397
 20
-0.186050228996439
 10
1.606687643696911
 20
-0.1871150989467449
 10
1.604940398078067
 20
-0.1881798491680355
 10
1.610588684056892
 20
-0.1847371607768511
 10
1.616222014512888
 20
-0.1812510107494947
 10
1.621720130989716
 20
-0.1776141218794136
 10
1.634755987797638
 20
-0.1685246534717508
 10
1.657988207851404
 20
-0.1697409806389866
 10
1.667609472679385
 20
-0.1569197979732356
 10
1.667609472679385
 20
-0.1569197979732356
 10
1.667609472679385
 20
-0.1549356485672888
 10
1.667609472679385
 20
-0.1549356485672888
 10
1.672107532518212
 20
-0.1578364433903516
 10
1.676671882327354
 20
-0.1606594143469869
 10
1.681251158354977
 20
-0.1634535306085607
 10
1.683884757903393
 20
-0.1650602941269881
 10
1.684101188071281
 20
-0.1666670576454534
 10
1.681791136258703
 20
-0.1682730853707047
 10
1.681791136258703
 20
-0.1682730853707047
 10
1.681305156145349
 20
-0.1685891700002078
 10
1.681305156145349
 20
-0.1685891700002078
 97
        0
 72
     1
 10
1.681305156145349
 20
-0.1685891700002078
 11
1.681791136258703
 21
-0.1682730853707047
 97
        0
 75
     2
 76
     0
 98
        1
 10
0.0
 20
0.0
450
        1
451
        0
460
90.0
461
0.0
452
        0
462
0.0
453
        2
463
0.0
 63
   250
421
  3157551
463
1.0
 63
     9
421
 12369600
470
LINEAR
  0
SPLINE
  5
133
330
12D
100
AcDbEntity
  8
SDPW screw
 62
   250
420
  2301728
370
     5
100
AcDbSpline
210
0.0
220
0.0
230
1.0
 70
     9
 71
     3
 72
    38
 73
    34
 74
     0
 42
0.0000000001
 43
0.0000000001
 40
0.0
 40
0.0
 40
0.0
 40
0.0
 40
1.0
 40
1.0
 40
1.0
 40
2.0
 40
2.0
 40
2.0
 40
3.0
 40
3.0
 40
3.0
 40
4.0
 40
4.0
 40
4.0
 40
5.0
 40
5.0
 40
5.0
 40
6.0
 40
6.0
 40
6.0
 40
7.0
 40
7.0
 40
7.0
 40
8.0
 40
8.0
 40
8.0
 40
9.0
 40
9.0
 40
9.0
 40
10.0
 40
10.0
 40
10.0
 40
11.0
 40
11.0
 40
11.0
 40
11.0
 10
1.681791136258703
 20
-0.1682730853707047
 30
0.0
 10
1.679121538183355
 20
-0.1701300825689537
 30
0.0
 10
1.673075541687138
 20
-0.1719870797671648
 30
0.0
 10
1.665111087110113
 20
-0.1738440769654011
 30
0.0
 10
1.657145754520267
 20
-0.1757010741636122
 30
0.0
 10
1.647261085836791
 20
-0.1775580713618486
 30
0.0
 10
1.63783649588754
 20
-0.1794144872316489
 30
0.0
 10
1.628412344944738
 20
-0.181271484412807
 30
0.0
 10
1.619448272736134
 20
-0.1831284815939903
 30
0.0
 10
1.613103312863939
 20
-0.184985478775161
 30
0.0
 10
1.609464388600397
 20
-0.186050228996439
 30
0.0
 10
1.606687643696911
 20
-0.1871150989467449
 30
0.0
 10
1.604940398078067
 20
-0.1881798491680355
 30
0.0
 10
1.603640529355642
 20
-0.1889720961279029
 30
0.0
 10
1.6029113396824
 20
-0.1897642233587551
 30
0.0
 10
1.602822221377942
 20
-0.1905557519445059
 30
0.0
 10
1.602718615861451
 20
-0.1914657950592174
 30
0.0
 10
1.603460946385742
 20
-0.1923758725859241
 30
0.0
 10
1.604952719562384
 20
-0.1932859329065953
 30
0.0
 10
1.609539458699221
 20
-0.1960826832067192
 30
0.0
 10
1.614112149630424
 20
-0.1989116022159073
 30
0.0
 10
1.618616355559247
 20
-0.2018196191791806
 30
0.0
 10
1.618616355559247
 20
-0.2018196191791806
 30
0.0
 10
1.618616355559247
 20
-0.1998546264172773
 30
0.0
 10
1.618616355559247
 20
-0.1998546264172773
 30
0.0
 10
1.628140599967132
 20
-0.1870524806665546
 30
0.0
 10
1.651548422591228
 20
-0.1882227121590555
 30
0.0
 10
1.664555304975061
 20
-0.1791207919327715
 30
0.0
 10
1.670047275361917
 20
-0.1754963548813116
 30
0.0
 10
1.67566831363797
 20
-0.1720233750467438
 30
0.0
 10
1.681305156145349
 20
-0.1685891700002078
 30
0.0
 10
1.681305156145349
 20
-0.1685891700002078
 30
0.0
 10
1.681791136258703
 20
-0.1682730853707047
 30
0.0
 10
1.681791136258703
 20
-0.1682730853707047
 30
0.0
  0
HATCH
  5
134
330
12D
100
AcDbEntity
  8
SDPW screw
440
 33554687
100
AcDbHatch
 10
0.0
 20
0.0
 30
0.0
210
0.0
220
0.0
230
1.0
  2
SOLID
 70
     1
 71
     1
 91
        1
 92
        1
 93
        1
 72
     4
 94
        3
 73
     0
 74
     0
 95
       38
 96
       34
 40
0.0
 40
0.0
 40
0.0
 40
0.0
 40
1.0
 40
1.0
 40
1.0
 40
2.0
 40
2.0
 40
2.0
 40
3.0
 40
3.0
 40
3.0
 40
4.0
 40
4.0
 40
4.0
 40
5.0
 40
5.0
 40
5.0
 40
6.0
 40
6.0
 40
6.0
 40
7.0
 40
7.0
 40
7.0
 40
8.0
 40
8.0
 40
8.0
 40
9.0
 40
9.0
 40
9.0
 40
10.0
 40
10.0
 40
10.0
 40
11.0
 40
11.0
 40
11.0
 40
11.0
 10
1.681791136258703
 20
-0.1682730853707047
 10
1.679121538183355
 20
-0.1701300825689537
 10
1.673075541687138
 20
-0.1719870797671648
 10
1.665111087110113
 20
-0.1738440769654011
 10
1.657145754520267
 20
-0.1757010741636122
 10
1.647261085836791
 20
-0.1775580713618486
 10
1.63783649588754
 20
-0.1794144872316489
 10
1.628412344944738
 20
-0.181271484412807
 10
1.619448272736134
 20
-0.1831284815939903
 10
1.613103312863939
 20
-0.184985478775161
 10
1.609464388600397
 20
-0.186050228996439
 10
1.606687643696911
 20
-0.1871150989467449
 10
1.604940398078067
 20
-0.1881798491680355
 10
1.603640529355642
 20
-0.1889720961279029
 10
1.6029113396824
 20
-0.1897642233587551
 10
1.602822221377942
 20
-0.1905557519445059
 10
1.602718615861451
 20
-0.1914657950592174
 10
1.603460946385742
 20
-0.1923758725859241
 10
1.604952719562384
 20
-0.1932859329065953
 10
1.609539458699221
 20
-0.1960826832067192
 10
1.614112149630424
 20
-0.1989116022159073
 10
1.618616355559247
 20
-0.2018196191791806
 10
1.618616355559247
 20
-0.2018196191791806
 10
1.618616355559247
 20
-0.1998546264172773
 10
1.618616355559247
 20
-0.1998546264172773
 10
1.628140599967132
 20
-0.1870524806665546
 10
1.651548422591228
 20
-0.1882227121590555
 10
1.664555304975061
 20
-0.1791207919327715
 10
1.670047275361917
 20
-0.1754963548813116
 10
1.67566831363797
 20
-0.1720233750467438
 10
1.681305156145349
 20
-0.1685891700002078
 10
1.681305156145349
 20
-0.1685891700002078
 10
1.681791136258703
 20
-0.1682730853707047
 10
1.681791136258703
 20
-0.1682730853707047
 97
        0
 97
        1
330
133
 75
     2
 76
     0
 98
        1
 10
0.0
 20
0.0
450
        1
451
        0
460
-90.0
461
0.0
452
        0
462
0.0
453
        2
463
0.0
 63
   250
421
  3157551
463
1.0
 63
     9
421
 12369600
470
LINEAR
  0
ENDBLK
  5
130
330
12D
100
AcDbEntity
  8
0
100
AcDbBlockEnd
  0
BLOCK
  5
137
330
135
100
AcDbEntity
  8
0
100
AcDbBlockBegin
  2
Block_10
 70
     0
 10
0.0
 20
0.0
 30
0.0
  3
Block_10
  1

  0
SPLINE
  5
139
330
135
100
AcDbEntity
  8
SDPW screw
 62
   250
420
  2301728
370
     5
100
AcDbSpline
210
0.0
220
0.0
230
1.0
 70
     8
 71
     3
 72
    35
 73
    31
 74
     0
 42
0.0000000001
 43
0.0000000001
 40
0.0
 40
0.0
 40
0.0
 40
0.0
 40
1.0
 40
1.0
 40
1.0
 40
2.0
 40
2.0
 40
2.0
 40
3.0
 40
3.0
 40
3.0
 40
4.0
 40
4.0
 40
4.0
 40
5.0
 40
5.0
 40
5.0
 40
6.0
 40
6.0
 40
6.0
 40
7.0
 40
7.0
 40
7.0
 40
8.0
 40
8.0
 40
8.0
 40
9.0
 40
9.0
 40
9.0
 40
10.0
 40
10.0
 40
10.0
 40
10.0
 10
1.681791136258703
 20
-0.1189068486704501
 30
0.0
 10
1.679121538183355
 20
-0.1207638458729687
 30
0.0
 10
1.673075541687138
 20
-0.1226208430754494
 30
0.0
 10
1.665111087110113
 20
-0.1244778402779553
 30
0.0
 10
1.657145754520267
 20
-0.1263348374804359
 30
0.0
 10
1.647261085836791
 20
-0.1281918346829292
 30
0.0
 10
1.63783649588754
 20
-0.1300482149764927
 30
0.0
 10
1.628412344944738
 20
-0.1319052121576381
 30
0.0
 10
1.619448272736134
 20
-0.1337622093388215
 30
0.0
 10
1.613103312863939
 20
-0.1356192065199922
 30
0.0
 10
1.609464388600397
 20
-0.1366839966509461
 30
0.0
 10
1.606687643696911
 20
-0.137748826691576
 30
0.0
 10
1.604940398078067
 20
-0.1388136168225552
 30
0.0
 10
1.610588684056892
 20
-0.1353709284313582
 30
0.0
 10
1.616222014512888
 20
-0.1318847784040018
 30
0.0
 10
1.621720130989716
 20
-0.1282478496242447
 30
0.0
 10
1.634755987797638
 20
-0.119158421126258
 30
0.0
 10
1.657988207851404
 20
-0.1203747083838178
 30
0.0
 10
1.667609472679385
 20
-0.107553525718092
 30
0.0
 10
1.667609472679385
 20
-0.107553525718092
 30
0.0
 10
1.667609472679385
 20
-0.1055694162218085
 30
0.0
 10
1.667609472679385
 20
-0.1055694162218085
 30
0.0
 10
1.672107532518212
 20
-0.1084701711351701
 30
0.0
 10
1.676671882327354
 20
-0.111293182001494
 30
0.0
 10
1.681251158354977
 20
-0.1140872583533918
 30
0.0
 10
1.683884757903393
 20
-0.1156940218718319
 30
0.0
 10
1.684101188071281
 20
-0.1173007853902972
 30
0.0
 10
1.681791136258703
 20
-0.1189068486704501
 30
0.0
 10
1.681791136258703
 20
-0.1189068486704501
 30
0.0
 10
1.681305156145349
 20
-0.1192229333006859
 30
0.0
 10
1.681305156145349
 20
-0.1192229333006859
 30
0.0
  0
HATCH
  5
13A
330
135
100
AcDbEntity
  8
SDPW screw
440
 33554687
100
AcDbHatch
 10
0.0
 20
0.0
 30
0.0
210
0.0
220
0.0
230
1.0
  2
SOLID
 70
     1
 71
     1
 91
        1
 92
        1
 93
        2
 72
     4
 94
        3
 73
     0
 74
     0
 95
       35
 96
       31
 40
0.0
 40
0.0
 40
0.0
 40
0.0
 40
1.0
 40
1.0
 40
1.0
 40
2.0
 40
2.0
 40
2.0
 40
3.0
 40
3.0
 40
3.0
 40
4.0
 40
4.0
 40
4.0
 40
5.0
 40
5.0
 40
5.0
 40
6.0
 40
6.0
 40
6.0
 40
7.0
 40
7.0
 40
7.0
 40
8.0
 40
8.0
 40
8.0
 40
9.0
 40
9.0
 40
9.0
 40
10.0
 40
10.0
 40
10.0
 40
10.0
 10
1.681791136258703
 20
-0.1189068486704501
 10
1.679121538183355
 20
-0.1207638458729687
 10
1.673075541687138
 20
-0.1226208430754494
 10
1.665111087110113
 20
-0.1244778402779553
 10
1.657145754520267
 20
-0.1263348374804359
 10
1.647261085836791
 20
-0.1281918346829292
 10
1.63783649588754
 20
-0.1300482149764927
 10
1.628412344944738
 20
-0.1319052121576381
 10
1.619448272736134
 20
-0.1337622093388215
 10
1.613103312863939
 20
-0.1356192065199922
 10
1.609464388600397
 20
-0.1366839966509461
 10
1.606687643696911
 20
-0.137748826691576
 10
1.604940398078067
 20
-0.1388136168225552
 10
1.610588684056892
 20
-0.1353709284313582
 10
1.616222014512888
 20
-0.1318847784040018
 10
1.621720130989716
 20
-0.1282478496242447
 10
1.634755987797638
 20
-0.119158421126258
 10
1.657988207851404
 20
-0.1203747083838178
 10
1.667609472679385
 20
-0.107553525718092
 10
1.667609472679385
 20
-0.107553525718092
 10
1.667609472679385
 20
-0.1055694162218085
 10
1.667609472679385
 20
-0.1055694162218085
 10
1.672107532518212
 20
-0.1084701711351701
 10
1.676671882327354
 20
-0.111293182001494
 10
1.681251158354977
 20
-0.1140872583533918
 10
1.683884757903393
 20
-0.1156940218718319
 10
1.684101188071281
 20
-0.1173007853902972
 10
1.681791136258703
 20
-0.1189068486704501
 10
1.681791136258703
 20
-0.1189068486704501
 10
1.681305156145349
 20
-0.1192229333006859
 10
1.681305156145349
 20
-0.1192229333006859
 97
        0
 72
     1
 10
1.681305156145349
 20
-0.1192229333006859
 11
1.681791136258703
 21
-0.1189068486704501
 97
        0
 75
     2
 76
     0
 98
        1
 10
0.0
 20
0.0
450
        1
451
        0
460
90.0
461
0.0
452
        0
462
0.0
453
        2
463
0.0
 63
   250
421
  3157551
463
1.0
 63
     9
421
 12369600
470
LINEAR
  0
SPLINE
  5
13B
330
135
100
AcDbEntity
  8
SDPW screw
 62
   250
420
  2301728
370
     5
100
AcDbSpline
210
0.0
220
0.0
230
1.0
 70
     9
 71
     3
 72
    38
 73
    34
 74
     0
 42
0.0000000001
 43
0.0000000001
 40
0.0
 40
0.0
 40
0.0
 40
0.0
 40
1.0
 40
1.0
 40
1.0
 40
2.0
 40
2.0
 40
2.0
 40
3.0
 40
3.0
 40
3.0
 40
4.0
 40
4.0
 40
4.0
 40
5.0
 40
5.0
 40
5.0
 40
6.0
 40
6.0
 40
6.0
 40
7.0
 40
7.0
 40
7.0
 40
8.0
 40
8.0
 40
8.0
 40
9.0
 40
9.0
 40
9.0
 40
10.0
 40
10.0
 40
10.0
 40
11.0
 40
11.0
 40
11.0
 40
11.0
 10
1.681791136258703
 20
-0.1189068486704501
 30
0.0
 10
1.679121538183355
 20
-0.1207638458729687
 30
0.0
 10
1.673075541687138
 20
-0.1226208430754494
 30
0.0
 10
1.665111087110113
 20
-0.1244778402779553
 30
0.0
 10
1.657145754520267
 20
-0.1263348374804359
 30
0.0
 10
1.647261085836791
 20
-0.1281918346829292
 30
0.0
 10
1.63783649588754
 20
-0.1300482149764927
 30
0.0
 10
1.628412344944738
 20
-0.1319052121576381
 30
0.0
 10
1.619448272736134
 20
-0.1337622093388215
 30
0.0
 10
1.613103312863939
 20
-0.1356192065199922
 30
0.0
 10
1.609464388600397
 20
-0.1366839966509461
 30
0.0
 10
1.606687643696911
 20
-0.137748826691576
 30
0.0
 10
1.604940398078067
 20
-0.1388136168225552
 30
0.0
 10
1.603640529355642
 20
-0.1396058238727467
 30
0.0
 10
1.6029113396824
 20
-0.1403979910132749
 30
0.0
 10
1.602822221377942
 20
-0.141189519599013
 30
0.0
 10
1.602718615861451
 20
-0.1420995584122314
 30
0.0
 10
1.603460946385742
 20
-0.1430096402404186
 30
0.0
 10
1.604952719562384
 20
-0.143919700561115
 30
0.0
 10
1.609539458699221
 20
-0.1467164109515629
 30
0.0
 10
1.614112149630424
 20
-0.149545328713657
 30
0.0
 10
1.618616355559247
 20
-0.1524533469240118
 30
0.0
 10
1.618616355559247
 20
-0.1524533469240118
 30
0.0
 10
1.618616355559247
 20
-0.1504883541621085
 30
0.0
 10
1.618616355559247
 20
-0.1504883541621085
 30
0.0
 10
1.628140599967132
 20
-0.1376862483210743
 30
0.0
 10
1.651548422591228
 20
-0.1388564399038993
 30
0.0
 10
1.664555304975061
 20
-0.1297545196776153
 30
0.0
 10
1.670047275361917
 20
-0.1261300826261554
 30
0.0
 10
1.67566831363797
 20
-0.122657102791575
 30
0.0
 10
1.681305156145349
 20
-0.1192229333006859
 30
0.0
 10
1.681305156145349
 20
-0.1192229333006859
 30
0.0
 10
1.681791136258703
 20
-0.1189068486704501
 30
0.0
 10
1.681791136258703
 20
-0.1189068486704501
 30
0.0
  0
HATCH
  5
13C
330
135
100
AcDbEntity
  8
SDPW screw
440
 33554687
100
AcDbHatch
 10
0.0
 20
0.0
 30
0.0
210
0.0
220
0.0
230
1.0
  2
SOLID
 70
     1
 71
     1
 91
        1
 92
        1
 93
        1
 72
     4
 94
        3
 73
     0
 74
     0
 95
       38
 96
       34
 40
0.0
 40
0.0
 40
0.0
 40
0.0
 40
1.0
 40
1.0
 40
1.0
 40
2.0
 40
2.0
 40
2.0
 40
3.0
 40
3.0
 40
3.0
 40
4.0
 40
4.0
 40
4.0
 40
5.0
 40
5.0
 40
5.0
 40
6.0
 40
6.0
 40
6.0
 40
7.0
 40
7.0
 40
7.0
 40
8.0
 40
8.0
 40
8.0
 40
9.0
 40
9.0
 40
9.0
 40
10.0
 40
10.0
 40
10.0
 40
11.0
 40
11.0
 40
11.0
 40
11.0
 10
1.681791136258703
 20
-0.1189068486704501
 10
1.679121538183355
 20
-0.1207638458729687
 10
1.673075541687138
 20
-0.1226208430754494
 10
1.665111087110113
 20
-0.1244778402779553
 10
1.657145754520267
 20
-0.1263348374804359
 10
1.647261085836791
 20
-0.1281918346829292
 10
1.63783649588754
 20
-0.1300482149764927
 10
1.628412344944738
 20
-0.1319052121576381
 10
1.619448272736134
 20
-0.1337622093388215
 10
1.613103312863939
 20
-0.1356192065199922
 10
1.609464388600397
 20
-0.1366839966509461
 10
1.606687643696911
 20
-0.137748826691576
 10
1.604940398078067
 20
-0.1388136168225552
 10
1.603640529355642
 20
-0.1396058238727467
 10
1.6029113396824
 20
-0.1403979910132749
 10
1.602822221377942
 20
-0.141189519599013
 10
1.602718615861451
 20
-0.1420995584122314
 10
1.603460946385742
 20
-0.1430096402404186
 10
1.604952719562384
 20
-0.143919700561115
 10
1.609539458699221
 20
-0.1467164109515629
 10
1.614112149630424
 20
-0.149545328713657
 10
1.618616355559247
 20
-0.1524533469240118
 10
1.618616355559247
 20
-0.1524533469240118
 10
1.618616355559247
 20
-0.1504883541621085
 10
1.618616355559247
 20
-0.1504883541621085
 10
1.628140599967132
 20
-0.1376862483210743
 10
1.651548422591228
 20
-0.1388564399038993
 10
1.664555304975061
 20
-0.1297545196776153
 10
1.670047275361917
 20
-0.1261300826261554
 10
1.67566831363797
 20
-0.122657102791575
 10
1.681305156145349
 20
-0.1192229333006859
 10
1.681305156145349
 20
-0.1192229333006859
 10
1.681791136258703
 20
-0.1189068486704501
 10
1.681791136258703
 20
-0.1189068486704501
 97
        0
 97
        1
330
13B
 75
     2
 76
     0
 98
        1
 10
0.0
 20
0.0
450
        1
451
        0
460
-90.0
461
0.0
452
        0
462
0.0
453
        2
463
0.0
 63
   250
421
  3157551
463
1.0
 63
     9
421
 12369600
470
LINEAR
  0
ENDBLK
  5
138
330
135
100
AcDbEntity
  8
0
100
AcDbBlockEnd
  0
BLOCK
  5
13F
330
13D
100
AcDbEntity
  8
0
100
AcDbBlockBegin
  2
Block_11
 70
     0
 10
0.0
 20
0.0
 30
0.0
  3
Block_11
  1

  0
SPLINE
  5
141
330
13D
100
AcDbEntity
  8
SDPW screw
 62
   250
420
  2301728
370
     5
100
AcDbSpline
210
0.0
220
0.0
230
1.0
 70
     8
 71
     3
 72
    35
 73
    31
 74
     0
 42
0.0000000001
 43
0.0000000001
 40
0.0
 40
0.0
 40
0.0
 40
0.0
 40
1.0
 40
1.0
 40
1.0
 40
2.0
 40
2.0
 40
2.0
 40
3.0
 40
3.0
 40
3.0
 40
4.0
 40
4.0
 40
4.0
 40
5.0
 40
5.0
 40
5.0
 40
6.0
 40
6.0
 40
6.0
 40
7.0
 40
7.0
 40
7.0
 40
8.0
 40
8.0
 40
8.0
 40
9.0
 40
9.0
 40
9.0
 40
10.0
 40
10.0
 40
10.0
 40
10.0
 10
1.681791136258703
 20
-0.0695406119702082
 30
0.0
 10
1.679121538183355
 20
-0.0713976091769837
 30
0.0
 10
1.673075541687138
 20
-0.0732546063837339
 30
0.0
 10
1.665111087110113
 20
-0.0751116035904968
 30
0.0
 10
1.657145754520267
 20
-0.076968600797247
 30
0.0
 10
1.647261085836791
 20
-0.0788255980040099
 30
0.0
 10
1.63783649588754
 20
-0.0806819427213365
 30
0.0
 10
1.628412344944738
 20
-0.0825389399024819
 30
0.0
 10
1.619448272736134
 20
-0.0843959370836653
 30
0.0
 10
1.613103312863939
 20
-0.086252934264836
 30
0.0
 10
1.609464388600397
 20
-0.0873177643054533
 30
0.0
 10
1.606687643696911
 20
-0.0883825544364198
 30
0.0
 10
1.604940398078067
 20
-0.089447384477075
 30
0.0
 10
1.610588684056892
 20
-0.0860046960858654
 30
0.0
 10
1.616222014512888
 20
-0.0825185460585216
 30
0.0
 10
1.621720130989716
 20
-0.0788815773690885
 30
0.0
 10
1.634755987797638
 20
-0.0697921887807777
 30
0.0
 10
1.657988207851404
 20
-0.0710084361286489
 30
0.0
 10
1.667609472679385
 20
-0.0581872534629232
 30
0.0
 10
1.667609472679385
 20
-0.0581872534629232
 30
0.0
 10
1.667609472679385
 20
-0.0562031838763283
 30
0.0
 10
1.667609472679385
 20
-0.0562031838763283
 30
0.0
 10
1.672107532518212
 20
-0.0591038988800139
 30
0.0
 10
1.676671882327354
 20
-0.0619269496560138
 30
0.0
 10
1.681251158354977
 20
-0.0647209860982356
 30
0.0
 10
1.683884757903393
 20
-0.066327749616663
 30
0.0
 10
1.684101188071281
 20
-0.067934513135141
 30
0.0
 10
1.681791136258703
 20
-0.0695406119702082
 30
0.0
 10
1.681791136258703
 20
-0.0695406119702082
 30
0.0
 10
1.681305156145349
 20
-0.069856696601164
 30
0.0
 10
1.681305156145349
 20
-0.069856696601164
 30
0.0
  0
HATCH
  5
142
330
13D
100
AcDbEntity
  8
SDPW screw
440
 33554687
100
AcDbHatch
 10
0.0
 20
0.0
 30
0.0
210
0.0
220
0.0
230
1.0
  2
SOLID
 70
     1
 71
     1
 91
        1
 92
        1
 93
        2
 72
     4
 94
        3
 73
     0
 74
     0
 95
       35
 96
       31
 40
0.0
 40
0.0
 40
0.0
 40
0.0
 40
1.0
 40
1.0
 40
1.0
 40
2.0
 40
2.0
 40
2.0
 40
3.0
 40
3.0
 40
3.0
 40
4.0
 40
4.0
 40
4.0
 40
5.0
 40
5.0
 40
5.0
 40
6.0
 40
6.0
 40
6.0
 40
7.0
 40
7.0
 40
7.0
 40
8.0
 40
8.0
 40
8.0
 40
9.0
 40
9.0
 40
9.0
 40
10.0
 40
10.0
 40
10.0
 40
10.0
 10
1.681791136258703
 20
-0.0695406119702082
 10
1.679121538183355
 20
-0.0713976091769837
 10
1.673075541687138
 20
-0.0732546063837339
 10
1.665111087110113
 20
-0.0751116035904968
 10
1.657145754520267
 20
-0.076968600797247
 10
1.647261085836791
 20
-0.0788255980040099
 10
1.63783649588754
 20
-0.0806819427213365
 10
1.628412344944738
 20
-0.0825389399024819
 10
1.619448272736134
 20
-0.0843959370836653
 10
1.613103312863939
 20
-0.086252934264836
 10
1.609464388600397
 20
-0.0873177643054533
 10
1.606687643696911
 20
-0.0883825544364198
 10
1.604940398078067
 20
-0.089447384477075
 10
1.610588684056892
 20
-0.0860046960858654
 10
1.616222014512888
 20
-0.0825185460585216
 10
1.621720130989716
 20
-0.0788815773690885
 10
1.634755987797638
 20
-0.0697921887807777
 10
1.657988207851404
 20
-0.0710084361286489
 10
1.667609472679385
 20
-0.0581872534629232
 10
1.667609472679385
 20
-0.0581872534629232
 10
1.667609472679385
 20
-0.0562031838763283
 10
1.667609472679385
 20
-0.0562031838763283
 10
1.672107532518212
 20
-0.0591038988800139
 10
1.676671882327354
 20
-0.0619269496560138
 10
1.681251158354977
 20
-0.0647209860982356
 10
1.683884757903393
 20
-0.066327749616663
 10
1.684101188071281
 20
-0.067934513135141
 10
1.681791136258703
 20
-0.0695406119702082
 10
1.681791136258703
 20
-0.0695406119702082
 10
1.681305156145349
 20
-0.069856696601164
 10
1.681305156145349
 20
-0.069856696601164
 97
        0
 72
     1
 10
1.681305156145349
 20
-0.069856696601164
 11
1.681791136258703
 21
-0.0695406119702082
 97
        0
 75
     2
 76
     0
 98
        1
 10
0.0
 20
0.0
450
        1
451
        0
460
90.0
461
0.0
452
        0
462
0.0
453
        2
463
0.0
 63
   250
421
  3157551
463
1.0
 63
     9
421
 12369600
470
LINEAR
  0
SPLINE
  5
143
330
13D
100
AcDbEntity
  8
SDPW screw
 62
   250
420
  2301728
370
     5
100
AcDbSpline
210
0.0
220
0.0
230
1.0
 70
     9
 71
     3
 72
    38
 73
    34
 74
     0
 42
0.0000000001
 43
0.0000000001
 40
0.0
 40
0.0
 40
0.0
 40
0.0
 40
1.0
 40
1.0
 40
1.0
 40
2.0
 40
2.0
 40
2.0
 40
3.0
 40
3.0
 40
3.0
 40
4.0
 40
4.0
 40
4.0
 40
5.0
 40
5.0
 40
5.0
 40
6.0
 40
6.0
 40
6.0
 40
7.0
 40
7.0
 40
7.0
 40
8.0
 40
8.0
 40
8.0
 40
9.0
 40
9.0
 40
9.0
 40
10.0
 40
10.0
 40
10.0
 40
11.0
 40
11.0
 40
11.0
 40
11.0
 10
1.681791136258703
 20
-0.0695406119702082
 30
0.0
 10
1.679121538183355
 20
-0.0713976091769837
 30
0.0
 10
1.673075541687138
 20
-0.0732546063837339
 30
0.0
 10
1.665111087110113
 20
-0.0751116035904968
 30
0.0
 10
1.657145754520267
 20
-0.076968600797247
 30
0.0
 10
1.647261085836791
 20
-0.0788255980040099
 30
0.0
 10
1.63783649588754
 20
-0.0806819427213365
 30
0.0
 10
1.628412344944738
 20
-0.0825389399024819
 30
0.0
 10
1.619448272736134
 20
-0.0843959370836653
 30
0.0
 10
1.613103312863939
 20
-0.086252934264836
 30
0.0
 10
1.609464388600397
 20
-0.0873177643054533
 30
0.0
 10
1.606687643696911
 20
-0.0883825544364198
 30
0.0
 10
1.604940398078067
 20
-0.089447384477075
 30
0.0
 10
1.603640529355642
 20
-0.0902395516175905
 30
0.0
 10
1.6029113396824
 20
-0.0910317586677947
 30
0.0
 10
1.602822221377942
 20
-0.0918232872535201
 30
0.0
 10
1.602718615861451
 20
-0.0927333217652581
 30
0.0
 10
1.603460946385742
 20
-0.0936434078949383
 30
0.0
 10
1.604952719562384
 20
-0.0945534682156222
 30
0.0
 10
1.609539458699221
 20
-0.0973501386964068
 30
0.0
 10
1.614112149630424
 20
-0.1001790552114067
 30
0.0
 10
1.618616355559247
 20
-0.1030870746688556
 30
0.0
 10
1.618616355559247
 20
-0.1030870746688556
 30
0.0
 10
1.618616355559247
 20
-0.1011220819069523
 30
0.0
 10
1.618616355559247
 20
-0.1011220819069523
 30
0.0
 10
1.628140599967132
 20
-0.0883200159755941
 30
0.0
 10
1.651548422591228
 20
-0.0894901676487431
 30
0.0
 10
1.664555304975061
 20
-0.0803882474224591
 30
0.0
 10
1.670047275361917
 20
-0.0767638103709992
 30
0.0
 10
1.67566831363797
 20
-0.0732908305364062
 30
0.0
 10
1.681305156145349
 20
-0.069856696601164
 30
0.0
 10
1.681305156145349
 20
-0.069856696601164
 30
0.0
 10
1.681791136258703
 20
-0.0695406119702082
 30
0.0
 10
1.681791136258703
 20
-0.0695406119702082
 30
0.0
  0
HATCH
  5
144
330
13D
100
AcDbEntity
  8
SDPW screw
440
 33554687
100
AcDbHatch
 10
0.0
 20
0.0
 30
0.0
210
0.0
220
0.0
230
1.0
  2
SOLID
 70
     1
 71
     1
 91
        1
 92
        1
 93
        1
 72
     4
 94
        3
 73
     0
 74
     0
 95
       38
 96
       34
 40
0.0
 40
0.0
 40
0.0
 40
0.0
 40
1.0
 40
1.0
 40
1.0
 40
2.0
 40
2.0
 40
2.0
 40
3.0
 40
3.0
 40
3.0
 40
4.0
 40
4.0
 40
4.0
 40
5.0
 40
5.0
 40
5.0
 40
6.0
 40
6.0
 40
6.0
 40
7.0
 40
7.0
 40
7.0
 40
8.0
 40
8.0
 40
8.0
 40
9.0
 40
9.0
 40
9.0
 40
10.0
 40
10.0
 40
10.0
 40
11.0
 40
11.0
 40
11.0
 40
11.0
 10
1.681791136258703
 20
-0.0695406119702082
 10
1.679121538183355
 20
-0.0713976091769837
 10
1.673075541687138
 20
-0.0732546063837339
 10
1.665111087110113
 20
-0.0751116035904968
 10
1.657145754520267
 20
-0.076968600797247
 10
1.647261085836791
 20
-0.0788255980040099
 10
1.63783649588754
 20
-0.0806819427213365
 10
1.628412344944738
 20
-0.0825389399024819
 10
1.619448272736134
 20
-0.0843959370836653
 10
1.613103312863939
 20
-0.086252934264836
 10
1.609464388600397
 20
-0.0873177643054533
 10
1.606687643696911
 20
-0.0883825544364198
 10
1.604940398078067
 20
-0.089447384477075
 10
1.603640529355642
 20
-0.0902395516175905
 10
1.6029113396824
 20
-0.0910317586677947
 10
1.602822221377942
 20
-0.0918232872535201
 10
1.602718615861451
 20
-0.0927333217652581
 10
1.603460946385742
 20
-0.0936434078949383
 10
1.604952719562384
 20
-0.0945534682156222
 10
1.609539458699221
 20
-0.0973501386964068
 10
1.614112149630424
 20
-0.1001790552114067
 10
1.618616355559247
 20
-0.1030870746688556
 10
1.618616355559247
 20
-0.1030870746688556
 10
1.618616355559247
 20
-0.1011220819069523
 10
1.618616355559247
 20
-0.1011220819069523
 10
1.628140599967132
 20
-0.0883200159755941
 10
1.651548422591228
 20
-0.0894901676487431
 10
1.664555304975061
 20
-0.0803882474224591
 10
1.670047275361917
 20
-0.0767638103709992
 10
1.67566831363797
 20
-0.0732908305364062
 10
1.681305156145349
 20
-0.069856696601164
 10
1.681305156145349
 20
-0.069856696601164
 10
1.681791136258703
 20
-0.0695406119702082
 10
1.681791136258703
 20
-0.0695406119702082
 97
        0
 97
        1
330
143
 75
     2
 76
     0
 98
        1
 10
0.0
 20
0.0
450
        1
451
        0
460
-90.0
461
0.0
452
        0
462
0.0
453
        2
463
0.0
 63
   250
421
  3157551
463
1.0
 63
     9
421
 12369600
470
LINEAR
  0
ENDBLK
  5
140
330
13D
100
AcDbEntity
  8
0
100
AcDbBlockEnd
  0
BLOCK
  5
147
330
145
100
AcDbEntity
  8
0
100
AcDbBlockBegin
  2
Block_12
 70
     0
 10
0.0
 20
0.0
 30
0.0
  3
Block_12
  1

  0
SPLINE
  5
149
330
145
100
AcDbEntity
  8
SDPW screw
 62
   250
420
  2301728
370
     5
100
AcDbSpline
210
0.0
220
0.0
230
1.0
 70
     8
 71
     3
 72
    35
 73
    31
 74
     0
 42
0.0000000001
 43
0.0000000001
 40
0.0
 40
0.0
 40
0.0
 40
0.0
 40
1.0
 40
1.0
 40
1.0
 40
2.0
 40
2.0
 40
2.0
 40
3.0
 40
3.0
 40
3.0
 40
4.0
 40
4.0
 40
4.0
 40
5.0
 40
5.0
 40
5.0
 40
6.0
 40
6.0
 40
6.0
 40
7.0
 40
7.0
 40
7.0
 40
8.0
 40
8.0
 40
8.0
 40
9.0
 40
9.0
 40
9.0
 40
10.0
 40
10.0
 40
10.0
 40
10.0
 10
1.681791136258703
 20
-0.0201743752699662
 30
0.0
 10
1.679121538183355
 20
-0.0220313724809987
 30
0.0
 10
1.673075541687138
 20
-0.0238883696920059
 30
0.0
 10
1.665111087110113
 20
-0.0257453669030383
 30
0.0
 10
1.657145754520267
 20
-0.0276023641140455
 30
0.0
 10
1.647261085836791
 20
-0.0294593613250779
 30
0.0
 10
1.63783649588754
 20
-0.031315670466155
 30
0.0
 10
1.628412344944738
 20
-0.0331726676473257
 30
0.0
 10
1.619448272736134
 20
-0.0350296648284964
 30
0.0
 10
1.613103312863939
 20
-0.0368866620096671
 30
0.0
 10
1.609464388600397
 20
-0.0379515319599856
 30
0.0
 10
1.606687643696911
 20
-0.0390162821812636
 30
0.0
 10
1.604940398078067
 20
-0.0400811521315821
 30
0.0
 10
1.610588684056892
 20
-0.0366384637403851
 30
0.0
 10
1.616222014512888
 20
-0.0331523137130413
 30
0.0
 10
1.621720130989716
 20
-0.0295153051139197
 30
0.0
 10
1.634755987797638
 20
-0.0204259564352975
 30
0.0
 10
1.657988207851404
 20
-0.0216421638734927
 30
0.0
 10
1.667609472679385
 20
-0.0088209812077669
 30
0.0
 10
1.667609472679385
 20
-0.0088209812077669
 30
0.0
 10
1.667609472679385
 20
-0.0068369515308354
 30
0.0
 10
1.667609472679385
 20
-0.0068369515308354
 30
0.0
 10
1.672107532518212
 20
-0.0097376266248577
 30
0.0
 10
1.676671882327354
 20
-0.0125607173105335
 30
0.0
 10
1.681251158354977
 20
-0.0153547138430794
 30
0.0
 10
1.683884757903393
 20
-0.0169614773615068
 30
0.0
 10
1.684101188071281
 20
-0.0185682408799848
 30
0.0
 10
1.681791136258703
 20
-0.0201743752699662
 30
0.0
 10
1.681791136258703
 20
-0.0201743752699662
 30
0.0
 10
1.681305156145349
 20
-0.0204904599016421
 30
0.0
 10
1.681305156145349
 20
-0.0204904599016421
 30
0.0
  0
HATCH
  5
14A
330
145
100
AcDbEntity
  8
SDPW screw
440
 33554687
100
AcDbHatch
 10
0.0
 20
0.0
 30
0.0
210
0.0
220
0.0
230
1.0
  2
SOLID
 70
     1
 71
     1
 91
        1
 92
        1
 93
        2
 72
     4
 94
        3
 73
     0
 74
     0
 95
       35
 96
       31
 40
0.0
 40
0.0
 40
0.0
 40
0.0
 40
1.0
 40
1.0
 40
1.0
 40
2.0
 40
2.0
 40
2.0
 40
3.0
 40
3.0
 40
3.0
 40
4.0
 40
4.0
 40
4.0
 40
5.0
 40
5.0
 40
5.0
 40
6.0
 40
6.0
 40
6.0
 40
7.0
 40
7.0
 40
7.0
 40
8.0
 40
8.0
 40
8.0
 40
9.0
 40
9.0
 40
9.0
 40
10.0
 40
10.0
 40
10.0
 40
10.0
 10
1.681791136258703
 20
-0.0201743752699662
 10
1.679121538183355
 20
-0.0220313724809987
 10
1.673075541687138
 20
-0.0238883696920059
 10
1.665111087110113
 20
-0.0257453669030383
 10
1.657145754520267
 20
-0.0276023641140455
 10
1.647261085836791
 20
-0.0294593613250779
 10
1.63783649588754
 20
-0.031315670466155
 10
1.628412344944738
 20
-0.0331726676473257
 10
1.619448272736134
 20
-0.0350296648284964
 10
1.613103312863939
 20
-0.0368866620096671
 10
1.609464388600397
 20
-0.0379515319599856
 10
1.606687643696911
 20
-0.0390162821812636
 10
1.604940398078067
 20
-0.0400811521315821
 10
1.610588684056892
 20
-0.0366384637403851
 10
1.616222014512888
 20
-0.0331523137130413
 10
1.621720130989716
 20
-0.0295153051139197
 10
1.634755987797638
 20
-0.0204259564352975
 10
1.657988207851404
 20
-0.0216421638734927
 10
1.667609472679385
 20
-0.0088209812077669
 10
1.667609472679385
 20
-0.0088209812077669
 10
1.667609472679385
 20
-0.0068369515308354
 10
1.667609472679385
 20
-0.0068369515308354
 10
1.672107532518212
 20
-0.0097376266248577
 10
1.676671882327354
 20
-0.0125607173105335
 10
1.681251158354977
 20
-0.0153547138430794
 10
1.683884757903393
 20
-0.0169614773615068
 10
1.684101188071281
 20
-0.0185682408799848
 10
1.681791136258703
 20
-0.0201743752699662
 10
1.681791136258703
 20
-0.0201743752699662
 10
1.681305156145349
 20
-0.0204904599016421
 10
1.681305156145349
 20
-0.0204904599016421
 97
        0
 72
     1
 10
1.681305156145349
 20
-0.0204904599016421
 11
1.681791136258703
 21
-0.0201743752699662
 97
        0
 75
     2
 76
     0
 98
        1
 10
0.0
 20
0.0
450
        1
451
        0
460
90.0
461
0.0
452
        0
462
0.0
453
        2
463
0.0
 63
   250
421
  3157551
463
1.0
 63
     9
421
 12369600
470
LINEAR
  0
SPLINE
  5
14B
330
145
100
AcDbEntity
  8
SDPW screw
 62
   250
420
  2301728
370
     5
100
AcDbSpline
210
0.0
220
0.0
230
1.0
 70
     9
 71
     3
 72
    38
 73
    34
 74
     0
 42
0.0000000001
 43
0.0000000001
 40
0.0
 40
0.0
 40
0.0
 40
0.0
 40
1.0
 40
1.0
 40
1.0
 40
2.0
 40
2.0
 40
2.0
 40
3.0
 40
3.0
 40
3.0
 40
4.0
 40
4.0
 40
4.0
 40
5.0
 40
5.0
 40
5.0
 40
6.0
 40
6.0
 40
6.0
 40
7.0
 40
7.0
 40
7.0
 40
8.0
 40
8.0
 40
8.0
 40
9.0
 40
9.0
 40
9.0
 40
10.0
 40
10.0
 40
10.0
 40
11.0
 40
11.0
 40
11.0
 40
11.0
 10
1.681791136258703
 20
-0.0201743752699662
 30
0.0
 10
1.679121538183355
 20
-0.0220313724809987
 30
0.0
 10
1.673075541687138
 20
-0.0238883696920059
 30
0.0
 10
1.665111087110113
 20
-0.0257453669030383
 30
0.0
 10
1.657145754520267
 20
-0.0276023641140455
 30
0.0
 10
1.647261085836791
 20
-0.0294593613250779
 30
0.0
 10
1.63783649588754
 20
-0.031315670466155
 30
0.0
 10
1.628412344944738
 20
-0.0331726676473257
 30
0.0
 10
1.619448272736134
 20
-0.0350296648284964
 30
0.0
 10
1.613103312863939
 20
-0.0368866620096671
 30
0.0
 10
1.609464388600397
 20
-0.0379515319599856
 30
0.0
 10
1.606687643696911
 20
-0.0390162821812636
 30
0.0
 10
1.604940398078067
 20
-0.0400811521315821
 30
0.0
 10
1.603640529355642
 20
-0.0408732793624343
 30
0.0
 10
1.6029113396824
 20
-0.0416655263223018
 30
0.0
 10
1.602822221377942
 20
-0.0424570549080272
 30
0.0
 10
1.602718615861451
 20
-0.0433670851182594
 30
0.0
 10
1.603460946385742
 20
-0.0442771755494454
 30
0.0
 10
1.604952719562384
 20
-0.0451872358701419
 30
0.0
 10
1.609539458699221
 20
-0.0479838664412379
 30
0.0
 10
1.614112149630424
 20
-0.0508127817091438
 30
0.0
 10
1.618616355559247
 20
-0.0537208024136867
 30
0.0
 10
1.618616355559247
 20
-0.0537208024136867
 30
0.0
 10
1.618616355559247
 20
-0.0517558096517961
 30
0.0
 10
1.618616355559247
 20
-0.0517558096517961
 30
0.0
 10
1.628140599967132
 20
-0.0389537836301012
 30
0.0
 10
1.651548422591228
 20
-0.0401238953935743
 30
0.0
 10
1.664555304975061
 20
-0.0310219751673028
 30
0.0
 10
1.670047275361917
 20
-0.0273975381158304
 30
0.0
 10
1.67566831363797
 20
-0.0239245582812499
 30
0.0
 10
1.681305156145349
 20
-0.0204904599016421
 30
0.0
 10
1.681305156145349
 20
-0.0204904599016421
 30
0.0
 10
1.681791136258703
 20
-0.0201743752699662
 30
0.0
 10
1.681791136258703
 20
-0.0201743752699662
 30
0.0
  0
HATCH
  5
14C
330
145
100
AcDbEntity
  8
SDPW screw
440
 33554687
100
AcDbHatch
 10
0.0
 20
0.0
 30
0.0
210
0.0
220
0.0
230
1.0
  2
SOLID
 70
     1
 71
     1
 91
        1
 92
        1
 93
        1
 72
     4
 94
        3
 73
     0
 74
     0
 95
       38
 96
       34
 40
0.0
 40
0.0
 40
0.0
 40
0.0
 40
1.0
 40
1.0
 40
1.0
 40
2.0
 40
2.0
 40
2.0
 40
3.0
 40
3.0
 40
3.0
 40
4.0
 40
4.0
 40
4.0
 40
5.0
 40
5.0
 40
5.0
 40
6.0
 40
6.0
 40
6.0
 40
7.0
 40
7.0
 40
7.0
 40
8.0
 40
8.0
 40
8.0
 40
9.0
 40
9.0
 40
9.0
 40
10.0
 40
10.0
 40
10.0
 40
11.0
 40
11.0
 40
11.0
 40
11.0
 10
1.681791136258703
 20
-0.0201743752699662
 10
1.679121538183355
 20
-0.0220313724809987
 10
1.673075541687138
 20
-0.0238883696920059
 10
1.665111087110113
 20
-0.0257453669030383
 10
1.657145754520267
 20
-0.0276023641140455
 10
1.647261085836791
 20
-0.0294593613250779
 10
1.63783649588754
 20
-0.031315670466155
 10
1.628412344944738
 20
-0.0331726676473257
 10
1.619448272736134
 20
-0.0350296648284964
 10
1.613103312863939
 20
-0.0368866620096671
 10
1.609464388600397
 20
-0.0379515319599856
 10
1.606687643696911
 20
-0.0390162821812636
 10
1.604940398078067
 20
-0.0400811521315821
 10
1.603640529355642
 20
-0.0408732793624343
 10
1.6029113396824
 20
-0.0416655263223018
 10
1.602822221377942
 20
-0.0424570549080272
 10
1.602718615861451
 20
-0.0433670851182594
 10
1.603460946385742
 20
-0.0442771755494454
 10
1.604952719562384
 20
-0.0451872358701419
 10
1.609539458699221
 20
-0.0479838664412379
 10
1.614112149630424
 20
-0.0508127817091438
 10
1.618616355559247
 20
-0.0537208024136867
 10
1.618616355559247
 20
-0.0537208024136867
 10
1.618616355559247
 20
-0.0517558096517961
 10
1.618616355559247
 20
-0.0517558096517961
 10
1.628140599967132
 20
-0.0389537836301012
 10
1.651548422591228
 20
-0.0401238953935743
 10
1.664555304975061
 20
-0.0310219751673028
 10
1.670047275361917
 20
-0.0273975381158304
 10
1.67566831363797
 20
-0.0239245582812499
 10
1.681305156145349
 20
-0.0204904599016421
 10
1.681305156145349
 20
-0.0204904599016421
 10
1.681791136258703
 20
-0.0201743752699662
 10
1.681791136258703
 20
-0.0201743752699662
 97
        0
 97
        1
330
14B
 75
     2
 76
     0
 98
        1
 10
0.0
 20
0.0
450
        1
451
        0
460
-90.0
461
0.0
452
        0
462
0.0
453
        2
463
0.0
 63
   250
421
  3157551
463
1.0
 63
     9
421
 12369600
470
LINEAR
  0
ENDBLK
  5
148
330
145
100
AcDbEntity
  8
0
100
AcDbBlockEnd
  0
BLOCK
  5
14F
330
14D
100
AcDbEntity
  8
0
100
AcDbBlockBegin
  2
Block_13
 70
     0
 10
0.0
 20
0.0
 30
0.0
  3
Block_13
  1

  0
SPLINE
  5
151
330
14D
100
AcDbEntity
  8
SDPW screw
 62
   250
420
  2301728
370
     5
100
AcDbSpline
210
0.0
220
0.0
230
1.0
 70
     8
 71
     3
 72
    35
 73
    31
 74
     0
 42
0.0000000001
 43
0.0000000001
 40
0.0
 40
0.0
 40
0.0
 40
0.0
 40
1.0
 40
1.0
 40
1.0
 40
2.0
 40
2.0
 40
2.0
 40
3.0
 40
3.0
 40
3.0
 40
4.0
 40
4.0
 40
4.0
 40
5.0
 40
5.0
 40
5.0
 40
6.0
 40
6.0
 40
6.0
 40
7.0
 40
7.0
 40
7.0
 40
8.0
 40
8.0
 40
8.0
 40
9.0
 40
9.0
 40
9.0
 40
10.0
 40
10.0
 40
10.0
 40
10.0
 10
1.681791136258703
 20
0.0291918614302884
 30
0.0
 10
1.679121538183355
 20
0.0273348642149863
 30
0.0
 10
1.673075541687138
 20
0.0254778669997096
 30
0.0
 10
1.665111087110113
 20
0.0236208697844076
 30
0.0
 10
1.657145754520267
 20
0.0217638725691308
 30
0.0
 10
1.647261085836791
 20
0.0199068753538541
 30
0.0
 10
1.63783649588754
 20
0.0180506017890012
 30
0.0
 10
1.628412344944738
 20
0.0161936046078305
 30
0.0
 10
1.619448272736134
 20
0.0143366074266598
 30
0.0
 10
1.613103312863939
 20
0.0124796102454891
 30
0.0
 10
1.609464388600397
 20
0.0114147003855073
 30
0.0
 10
1.606687643696911
 20
0.0103499900738926
 30
0.0
 10
1.604940398078067
 20
0.0092850802139108
 30
0.0
 10
1.610588684056892
 20
0.0127277686050952
 30
0.0
 10
1.616222014512888
 20
0.0162139186324516
 30
0.0
 10
1.621720130989716
 20
0.0198509671412366
 30
0.0
 10
1.634755987797638
 20
0.0289402759101955
 30
0.0
 10
1.657988207851404
 20
0.0277241083816635
 30
0.0
 10
1.667609472679385
 20
0.0405452910473893
 30
0.0
 10
1.667609472679385
 20
0.0405452910473893
 30
0.0
 10
1.667609472679385
 20
0.0425292808146575
 30
0.0
 10
1.667609472679385
 20
0.0425292808146575
 30
0.0
 10
1.672107532518212
 20
0.0396286456302985
 30
0.0
 10
1.676671882327354
 20
0.0368055150349594
 30
0.0
 10
1.681251158354977
 20
0.0340115584120768
 30
0.0
 10
1.683884757903393
 20
0.0324047948936621
 30
0.0
 10
1.684101188071281
 20
0.0307980313751715
 30
0.0
 10
1.681791136258703
 20
0.0291918614302884
 30
0.0
 10
1.681791136258703
 20
0.0291918614302884
 30
0.0
 10
1.681305156145349
 20
0.0288757767978799
 30
0.0
 10
1.681305156145349
 20
0.0288757767978799
 30
0.0
  0
HATCH
  5
152
330
14D
100
AcDbEntity
  8
SDPW screw
440
 33554687
100
AcDbHatch
 10
0.0
 20
0.0
 30
0.0
210
0.0
220
0.0
230
1.0
  2
SOLID
 70
     1
 71
     1
 91
        1
 92
        1
 93
        2
 72
     4
 94
        3
 73
     0
 74
     0
 95
       35
 96
       31
 40
0.0
 40
0.0
 40
0.0
 40
0.0
 40
1.0
 40
1.0
 40
1.0
 40
2.0
 40
2.0
 40
2.0
 40
3.0
 40
3.0
 40
3.0
 40
4.0
 40
4.0
 40
4.0
 40
5.0
 40
5.0
 40
5.0
 40
6.0
 40
6.0
 40
6.0
 40
7.0
 40
7.0
 40
7.0
 40
8.0
 40
8.0
 40
8.0
 40
9.0
 40
9.0
 40
9.0
 40
10.0
 40
10.0
 40
10.0
 40
10.0
 10
1.681791136258703
 20
0.0291918614302884
 10
1.679121538183355
 20
0.0273348642149863
 10
1.673075541687138
 20
0.0254778669997096
 10
1.665111087110113
 20
0.0236208697844076
 10
1.657145754520267
 20
0.0217638725691308
 10
1.647261085836791
 20
0.0199068753538541
 10
1.63783649588754
 20
0.0180506017890012
 10
1.628412344944738
 20
0.0161936046078305
 10
1.619448272736134
 20
0.0143366074266598
 10
1.613103312863939
 20
0.0124796102454891
 10
1.609464388600397
 20
0.0114147003855073
 10
1.606687643696911
 20
0.0103499900738926
 10
1.604940398078067
 20
0.0092850802139108
 10
1.610588684056892
 20
0.0127277686050952
 10
1.616222014512888
 20
0.0162139186324516
 10
1.621720130989716
 20
0.0198509671412366
 10
1.634755987797638
 20
0.0289402759101955
 10
1.657988207851404
 20
0.0277241083816635
 10
1.667609472679385
 20
0.0405452910473893
 10
1.667609472679385
 20
0.0405452910473893
 10
1.667609472679385
 20
0.0425292808146575
 10
1.667609472679385
 20
0.0425292808146575
 10
1.672107532518212
 20
0.0396286456302985
 10
1.676671882327354
 20
0.0368055150349594
 10
1.681251158354977
 20
0.0340115584120768
 10
1.683884757903393
 20
0.0324047948936621
 10
1.684101188071281
 20
0.0307980313751715
 10
1.681791136258703
 20
0.0291918614302884
 10
1.681791136258703
 20
0.0291918614302884
 10
1.681305156145349
 20
0.0288757767978799
 10
1.681305156145349
 20
0.0288757767978799
 97
        0
 72
     1
 10
1.681305156145349
 20
0.0288757767978799
 11
1.681791136258703
 21
0.0291918614302884
 97
        0
 75
     2
 76
     0
 98
        1
 10
0.0
 20
0.0
450
        1
451
        0
460
90.0
461
0.0
452
        0
462
0.0
453
        2
463
0.0
 63
   250
421
  3157551
463
1.0
 63
     9
421
 12369600
470
LINEAR
  0
SPLINE
  5
153
330
14D
100
AcDbEntity
  8
SDPW screw
 62
   250
420
  2301728
370
     5
100
AcDbSpline
210
0.0
220
0.0
230
1.0
 70
     9
 71
     3
 72
    38
 73
    34
 74
     0
 42
0.0000000001
 43
0.0000000001
 40
0.0
 40
0.0
 40
0.0
 40
0.0
 40
1.0
 40
1.0
 40
1.0
 40
2.0
 40
2.0
 40
2.0
 40
3.0
 40
3.0
 40
3.0
 40
4.0
 40
4.0
 40
4.0
 40
5.0
 40
5.0
 40
5.0
 40
6.0
 40
6.0
 40
6.0
 40
7.0
 40
7.0
 40
7.0
 40
8.0
 40
8.0
 40
8.0
 40
9.0
 40
9.0
 40
9.0
 40
10.0
 40
10.0
 40
10.0
 40
11.0
 40
11.0
 40
11.0
 40
11.0
 10
1.681791136258703
 20
0.0291918614302884
 30
0.0
 10
1.679121538183355
 20
0.0273348642149863
 30
0.0
 10
1.673075541687138
 20
0.0254778669997096
 30
0.0
 10
1.665111087110113
 20
0.0236208697844076
 30
0.0
 10
1.657145754520267
 20
0.0217638725691308
 30
0.0
 10
1.647261085836791
 20
0.0199068753538541
 30
0.0
 10
1.63783649588754
 20
0.0180506017890012
 30
0.0
 10
1.628412344944738
 20
0.0161936046078305
 30
0.0
 10
1.619448272736134
 20
0.0143366074266598
 30
0.0
 10
1.613103312863939
 20
0.0124796102454891
 30
0.0
 10
1.609464388600397
 20
0.0114147003855073
 30
0.0
 10
1.606687643696911
 20
0.0103499900738926
 30
0.0
 10
1.604940398078067
 20
0.0092850802139108
 30
0.0
 10
1.603640529355642
 20
0.0084929928927345
 30
0.0
 10
1.6029113396824
 20
0.0077007060231785
 30
0.0
 10
1.602822221377942
 20
0.0069091774374657
 30
0.0
 10
1.602718615861451
 20
0.0059991515287139
 30
0.0
 10
1.603460946385742
 20
0.0050890567960348
 30
0.0
 10
1.604952719562384
 20
0.004178996475351
 30
0.0
 10
1.609539458699221
 20
0.0013824058139309
 30
0.0
 10
1.614112149630424
 20
-0.0014465082068808
 30
0.0
 10
1.618616355559247
 20
-0.0043545301585305
 30
0.0
 10
1.618616355559247
 20
-0.0043545301585305
 30
0.0
 10
1.618616355559247
 20
-0.0023895373966272
 30
0.0
 10
1.618616355559247
 20
-0.0023895373966272
 30
0.0
 10
1.628140599967132
 20
0.0104124487153917
 30
0.0
 10
1.651548422591228
 20
0.0092423768615946
 30
0.0
 10
1.664555304975061
 20
0.018344297087866
 30
0.0
 10
1.670047275361917
 20
0.0219687341393385
 30
0.0
 10
1.67566831363797
 20
0.0254417139739063
 30
0.0
 10
1.681305156145349
 20
0.0288757767978799
 30
0.0
 10
1.681305156145349
 20
0.0288757767978799
 30
0.0
 10
1.681791136258703
 20
0.0291918614302884
 30
0.0
 10
1.681791136258703
 20
0.0291918614302884
 30
0.0
  0
HATCH
  5
154
330
14D
100
AcDbEntity
  8
SDPW screw
440
 33554687
100
AcDbHatch
 10
0.0
 20
0.0
 30
0.0
210
0.0
220
0.0
230
1.0
  2
SOLID
 70
     1
 71
     1
 91
        1
 92
        1
 93
        1
 72
     4
 94
        3
 73
     0
 74
     0
 95
       38
 96
       34
 40
0.0
 40
0.0
 40
0.0
 40
0.0
 40
1.0
 40
1.0
 40
1.0
 40
2.0
 40
2.0
 40
2.0
 40
3.0
 40
3.0
 40
3.0
 40
4.0
 40
4.0
 40
4.0
 40
5.0
 40
5.0
 40
5.0
 40
6.0
 40
6.0
 40
6.0
 40
7.0
 40
7.0
 40
7.0
 40
8.0
 40
8.0
 40
8.0
 40
9.0
 40
9.0
 40
9.0
 40
10.0
 40
10.0
 40
10.0
 40
11.0
 40
11.0
 40
11.0
 40
11.0
 10
1.681791136258703
 20
0.0291918614302884
 10
1.679121538183355
 20
0.0273348642149863
 10
1.673075541687138
 20
0.0254778669997096
 10
1.665111087110113
 20
0.0236208697844076
 10
1.657145754520267
 20
0.0217638725691308
 10
1.647261085836791
 20
0.0199068753538541
 10
1.63783649588754
 20
0.0180506017890012
 10
1.628412344944738
 20
0.0161936046078305
 10
1.619448272736134
 20
0.0143366074266598
 10
1.613103312863939
 20
0.0124796102454891
 10
1.609464388600397
 20
0.0114147003855073
 10
1.606687643696911
 20
0.0103499900738926
 10
1.604940398078067
 20
0.0092850802139108
 10
1.603640529355642
 20
0.0084929928927345
 10
1.6029113396824
 20
0.0077007060231785
 10
1.602822221377942
 20
0.0069091774374657
 10
1.602718615861451
 20
0.0059991515287139
 10
1.603460946385742
 20
0.0050890567960348
 10
1.604952719562384
 20
0.004178996475351
 10
1.609539458699221
 20
0.0013824058139309
 10
1.614112149630424
 20
-0.0014465082068808
 10
1.618616355559247
 20
-0.0043545301585305
 10
1.618616355559247
 20
-0.0043545301585305
 10
1.618616355559247
 20
-0.0023895373966272
 10
1.618616355559247
 20
-0.0023895373966272
 10
1.628140599967132
 20
0.0104124487153917
 10
1.651548422591228
 20
0.0092423768615946
 10
1.664555304975061
 20
0.018344297087866
 10
1.670047275361917
 20
0.0219687341393385
 10
1.67566831363797
 20
0.0254417139739063
 10
1.681305156145349
 20
0.0288757767978799
 10
1.681305156145349
 20
0.0288757767978799
 10
1.681791136258703
 20
0.0291918614302884
 10
1.681791136258703
 20
0.0291918614302884
 97
        0
 97
        1
330
153
 75
     2
 76
     0
 98
        1
 10
0.0
 20
0.0
450
        1
451
        0
460
-90.0
461
0.0
452
        0
462
0.0
453
        2
463
0.0
 63
   250
421
  3157551
463
1.0
 63
     9
421
 12369600
470
LINEAR
  0
ENDBLK
  5
150
330
14D
100
AcDbEntity
  8
0
100
AcDbBlockEnd
  0
BLOCK
  5
157
330
155
100
AcDbEntity
  8
0
100
AcDbBlockBegin
  2
Block_14
 70
     0
 10
0.0
 20
0.0
 30
0.0
  3
Block_14
  1

  0
SPLINE
  5
159
330
155
100
AcDbEntity
  8
SDPW screw
 62
   250
420
  2301728
370
     5
100
AcDbSpline
210
0.0
220
0.0
230
1.0
 70
     8
 71
     3
 72
    35
 73
    31
 74
     0
 42
0.0000000001
 43
0.0000000001
 40
0.0
 40
0.0
 40
0.0
 40
0.0
 40
1.0
 40
1.0
 40
1.0
 40
2.0
 40
2.0
 40
2.0
 40
3.0
 40
3.0
 40
3.0
 40
4.0
 40
4.0
 40
4.0
 40
5.0
 40
5.0
 40
5.0
 40
6.0
 40
6.0
 40
6.0
 40
7.0
 40
7.0
 40
7.0
 40
8.0
 40
8.0
 40
8.0
 40
9.0
 40
9.0
 40
9.0
 40
10.0
 40
10.0
 40
10.0
 40
10.0
 10
1.681791136258703
 20
0.0785580981305303
 30
0.0
 10
1.679121538183355
 20
0.0767011009109587
 30
0.0
 10
1.673075541687138
 20
0.074844103691425
 30
0.0
 10
1.665111087110113
 20
0.072987106471866
 30
0.0
 10
1.657145754520267
 20
0.0711301092523324
 30
0.0
 10
1.647261085836791
 20
0.069273112032786
 30
0.0
 10
1.63783649588754
 20
0.0674168740441575
 30
0.0
 10
1.628412344944738
 20
0.0655598768629867
 30
0.0
 10
1.619448272736134
 20
0.063702879681816
 30
0.0
 10
1.613103312863939
 20
0.0618458825006453
 30
0.0
 10
1.609464388600397
 20
0.0607809327310002
 30
0.0
 10
1.606687643696911
 20
0.0597162623290615
 30
0.0
 10
1.604940398078067
 20
0.0586513125593911
 30
0.0
 10
1.610588684056892
 20
0.0620940009505881
 30
0.0
 10
1.616222014512888
 20
0.0655801509779318
 30
0.0
 10
1.621720130989716
 20
0.0692172393963928
 30
0.0
 10
1.634755987797638
 20
0.0783065082556631
 30
0.0
 10
1.657988207851404
 20
0.077090380636845
 30
0.0
 10
1.667609472679385
 20
0.0899115633025455
 30
0.0
 10
1.667609472679385
 20
0.0899115633025455
 30
0.0
 10
1.667609472679385
 20
0.0918955131601504
 30
0.0
 10
1.667609472679385
 20
0.0918955131601504
 30
0.0
 10
1.672107532518212
 20
0.0889949178854674
 30
0.0
 10
1.676671882327354
 20
0.0861717473804397
 30
0.0
 10
1.681251158354977
 20
0.0833778306672457
 30
0.0
 10
1.683884757903393
 20
0.0817710671488183
 30
0.0
 10
1.684101188071281
 20
0.0801643036303403
 30
0.0
 10
1.681791136258703
 20
0.0785580981305303
 30
0.0
 10
1.681791136258703
 20
0.0785580981305303
 30
0.0
 10
1.681305156145349
 20
0.0782420134974018
 30
0.0
 10
1.681305156145349
 20
0.0782420134974018
 30
0.0
  0
HATCH
  5
15A
330
155
100
AcDbEntity
  8
SDPW screw
440
 33554687
100
AcDbHatch
 10
0.0
 20
0.0
 30
0.0
210
0.0
220
0.0
230
1.0
  2
SOLID
 70
     1
 71
     1
 91
        1
 92
        1
 93
        2
 72
     4
 94
        3
 73
     0
 74
     0
 95
       35
 96
       31
 40
0.0
 40
0.0
 40
0.0
 40
0.0
 40
1.0
 40
1.0
 40
1.0
 40
2.0
 40
2.0
 40
2.0
 40
3.0
 40
3.0
 40
3.0
 40
4.0
 40
4.0
 40
4.0
 40
5.0
 40
5.0
 40
5.0
 40
6.0
 40
6.0
 40
6.0
 40
7.0
 40
7.0
 40
7.0
 40
8.0
 40
8.0
 40
8.0
 40
9.0
 40
9.0
 40
9.0
 40
10.0
 40
10.0
 40
10.0
 40
10.0
 10
1.681791136258703
 20
0.0785580981305303
 10
1.679121538183355
 20
0.0767011009109587
 10
1.673075541687138
 20
0.074844103691425
 10
1.665111087110113
 20
0.072987106471866
 10
1.657145754520267
 20
0.0711301092523324
 10
1.647261085836791
 20
0.069273112032786
 10
1.63783649588754
 20
0.0674168740441575
 10
1.628412344944738
 20
0.0655598768629867
 10
1.619448272736134
 20
0.063702879681816
 10
1.613103312863939
 20
0.0618458825006453
 10
1.609464388600397
 20
0.0607809327310002
 10
1.606687643696911
 20
0.0597162623290615
 10
1.604940398078067
 20
0.0586513125593911
 10
1.610588684056892
 20
0.0620940009505881
 10
1.616222014512888
 20
0.0655801509779318
 10
1.621720130989716
 20
0.0692172393963928
 10
1.634755987797638
 20
0.0783065082556631
 10
1.657988207851404
 20
0.077090380636845
 10
1.667609472679385
 20
0.0899115633025455
 10
1.667609472679385
 20
0.0899115633025455
 10
1.667609472679385
 20
0.0918955131601504
 10
1.667609472679385
 20
0.0918955131601504
 10
1.672107532518212
 20
0.0889949178854674
 10
1.676671882327354
 20
0.0861717473804397
 10
1.681251158354977
 20
0.0833778306672457
 10
1.683884757903393
 20
0.0817710671488183
 10
1.684101188071281
 20
0.0801643036303403
 10
1.681791136258703
 20
0.0785580981305303
 10
1.681791136258703
 20
0.0785580981305303
 10
1.681305156145349
 20
0.0782420134974018
 10
1.681305156145349
 20
0.0782420134974018
 97
        0
 72
     1
 10
1.681305156145349
 20
0.0782420134974018
 11
1.681791136258703
 21
0.0785580981305303
 97
        0
 75
     2
 76
     0
 98
        1
 10
0.0
 20
0.0
450
        1
451
        0
460
90.0
461
0.0
452
        0
462
0.0
453
        2
463
0.0
 63
   250
421
  3157551
463
1.0
 63
     9
421
 12369600
470
LINEAR
  0
SPLINE
  5
15B
330
155
100
AcDbEntity
  8
SDPW screw
 62
   250
420
  2301728
370
     5
100
AcDbSpline
210
0.0
220
0.0
230
1.0
 70
     9
 71
     3
 72
    38
 73
    34
 74
     0
 42
0.0000000001
 43
0.0000000001
 40
0.0
 40
0.0
 40
0.0
 40
0.0
 40
1.0
 40
1.0
 40
1.0
 40
2.0
 40
2.0
 40
2.0
 40
3.0
 40
3.0
 40
3.0
 40
4.0
 40
4.0
 40
4.0
 40
5.0
 40
5.0
 40
5.0
 40
6.0
 40
6.0
 40
6.0
 40
7.0
 40
7.0
 40
7.0
 40
8.0
 40
8.0
 40
8.0
 40
9.0
 40
9.0
 40
9.0
 40
10.0
 40
10.0
 40
10.0
 40
11.0
 40
11.0
 40
11.0
 40
11.0
 10
1.681791136258703
 20
0.0785580981305303
 30
0.0
 10
1.679121538183355
 20
0.0767011009109587
 30
0.0
 10
1.673075541687138
 20
0.074844103691425
 30
0.0
 10
1.665111087110113
 20
0.072987106471866
 30
0.0
 10
1.657145754520267
 20
0.0711301092523324
 30
0.0
 10
1.647261085836791
 20
0.069273112032786
 30
0.0
 10
1.63783649588754
 20
0.0674168740441575
 30
0.0
 10
1.628412344944738
 20
0.0655598768629867
 30
0.0
 10
1.619448272736134
 20
0.063702879681816
 30
0.0
 10
1.613103312863939
 20
0.0618458825006453
 30
0.0
 10
1.609464388600397
 20
0.0607809327310002
 30
0.0
 10
1.606687643696911
 20
0.0597162623290615
 30
0.0
 10
1.604940398078067
 20
0.0586513125593911
 30
0.0
 10
1.603640529355642
 20
0.0578592651478908
 30
0.0
 10
1.6029113396824
 20
0.0570669383686714
 30
0.0
 10
1.602822221377942
 20
0.0562754097829333
 30
0.0
 10
1.602718615861451
 20
0.0553653881757125
 30
0.0
 10
1.603460946385742
 20
0.0544552891415404
 30
0.0
 10
1.604952719562384
 20
0.0535452288208439
 30
0.0
 10
1.609539458699221
 20
0.0507486780690872
 30
0.0
 10
1.614112149630424
 20
0.0479197652953695
 30
0.0
 10
1.618616355559247
 20
0.0450117420966383
 30
0.0
 10
1.618616355559247
 20
0.0450117420966383
 30
0.0
 10
1.618616355559247
 20
0.0469767348585416
 30
0.0
 10
1.618616355559247
 20
0.0469767348585416
 30
0.0
 10
1.628140599967132
 20
0.059778681060872
 30
0.0
 10
1.651548422591228
 20
0.0586086491167508
 30
0.0
 10
1.664555304975061
 20
0.0677105693430223
 30
0.0
 10
1.670047275361917
 20
0.0713350063944947
 30
0.0
 10
1.67566831363797
 20
0.0748079862290625
 30
0.0
 10
1.681305156145349
 20
0.0782420134974018
 30
0.0
 10
1.681305156145349
 20
0.0782420134974018
 30
0.0
 10
1.681791136258703
 20
0.0785580981305303
 30
0.0
 10
1.681791136258703
 20
0.0785580981305303
 30
0.0
  0
HATCH
  5
15C
330
155
100
AcDbEntity
  8
SDPW screw
440
 33554687
100
AcDbHatch
 10
0.0
 20
0.0
 30
0.0
210
0.0
220
0.0
230
1.0
  2
SOLID
 70
     1
 71
     1
 91
        1
 92
        1
 93
        1
 72
     4
 94
        3
 73
     0
 74
     0
 95
       38
 96
       34
 40
0.0
 40
0.0
 40
0.0
 40
0.0
 40
1.0
 40
1.0
 40
1.0
 40
2.0
 40
2.0
 40
2.0
 40
3.0
 40
3.0
 40
3.0
 40
4.0
 40
4.0
 40
4.0
 40
5.0
 40
5.0
 40
5.0
 40
6.0
 40
6.0
 40
6.0
 40
7.0
 40
7.0
 40
7.0
 40
8.0
 40
8.0
 40
8.0
 40
9.0
 40
9.0
 40
9.0
 40
10.0
 40
10.0
 40
10.0
 40
11.0
 40
11.0
 40
11.0
 40
11.0
 10
1.681791136258703
 20
0.0785580981305303
 10
1.679121538183355
 20
0.0767011009109587
 10
1.673075541687138
 20
0.074844103691425
 10
1.665111087110113
 20
0.072987106471866
 10
1.657145754520267
 20
0.0711301092523324
 10
1.647261085836791
 20
0.069273112032786
 10
1.63783649588754
 20
0.0674168740441575
 10
1.628412344944738
 20
0.0655598768629867
 10
1.619448272736134
 20
0.063702879681816
 10
1.613103312863939
 20
0.0618458825006453
 10
1.609464388600397
 20
0.0607809327310002
 10
1.606687643696911
 20
0.0597162623290615
 10
1.604940398078067
 20
0.0586513125593911
 10
1.603640529355642
 20
0.0578592651478908
 10
1.6029113396824
 20
0.0570669383686714
 10
1.602822221377942
 20
0.0562754097829333
 10
1.602718615861451
 20
0.0553653881757125
 10
1.603460946385742
 20
0.0544552891415404
 10
1.604952719562384
 20
0.0535452288208439
 10
1.609539458699221
 20
0.0507486780690872
 10
1.614112149630424
 20
0.0479197652953695
 10
1.618616355559247
 20
0.0450117420966383
 10
1.618616355559247
 20
0.0450117420966383
 10
1.618616355559247
 20
0.0469767348585416
 10
1.618616355559247
 20
0.0469767348585416
 10
1.628140599967132
 20
0.059778681060872
 10
1.651548422591228
 20
0.0586086491167508
 10
1.664555304975061
 20
0.0677105693430223
 10
1.670047275361917
 20
0.0713350063944947
 10
1.67566831363797
 20
0.0748079862290625
 10
1.681305156145349
 20
0.0782420134974018
 10
1.681305156145349
 20
0.0782420134974018
 10
1.681791136258703
 20
0.0785580981305303
 10
1.681791136258703
 20
0.0785580981305303
 97
        0
 97
        1
330
15B
 75
     2
 76
     0
 98
        1
 10
0.0
 20
0.0
450
        1
451
        0
460
-90.0
461
0.0
452
        0
462
0.0
453
        2
463
0.0
 63
   250
421
  3157551
463
1.0
 63
     9
421
 12369600
470
LINEAR
  0
ENDBLK
  5
158
330
155
100
AcDbEntity
  8
0
100
AcDbBlockEnd
  0
BLOCK
  5
15F
330
15D
100
AcDbEntity
  8
0
100
AcDbBlockBegin
  2
Block_15
 70
     0
 10
0.0
 20
0.0
 30
0.0
  3
Block_15
  1

  0
SPLINE
  5
161
330
15D
100
AcDbEntity
  8
SDPW screw
 62
   250
420
  2301728
370
     5
100
AcDbSpline
210
0.0
220
0.0
230
1.0
 70
     8
 71
     3
 72
    35
 73
    31
 74
     0
 42
0.0000000001
 43
0.0000000001
 40
0.0
 40
0.0
 40
0.0
 40
0.0
 40
1.0
 40
1.0
 40
1.0
 40
2.0
 40
2.0
 40
2.0
 40
3.0
 40
3.0
 40
3.0
 40
4.0
 40
4.0
 40
4.0
 40
5.0
 40
5.0
 40
5.0
 40
6.0
 40
6.0
 40
6.0
 40
7.0
 40
7.0
 40
7.0
 40
8.0
 40
8.0
 40
8.0
 40
9.0
 40
9.0
 40
9.0
 40
10.0
 40
10.0
 40
10.0
 40
10.0
 10
1.681791136258703
 20
0.1279243348307722
 30
0.0
 10
1.679121538183355
 20
0.1260673376069563
 30
0.0
 10
1.673075541687138
 20
0.1242103403831404
 30
0.0
 10
1.665111087110113
 20
0.1223533431593245
 30
0.0
 10
1.657145754520267
 20
0.1204963459355086
 30
0.0
 10
1.647261085836791
 20
0.1186393487117054
 30
0.0
 10
1.63783649588754
 20
0.1167831462993263
 30
0.0
 10
1.628412344944738
 20
0.1149261491181556
 30
0.0
 10
1.619448272736134
 20
0.1130691519369722
 30
0.0
 10
1.613103312863939
 20
0.1112121547558015
 30
0.0
 10
1.609464388600397
 20
0.1101471650764678
 30
0.0
 10
1.606687643696911
 20
0.1090825345842303
 30
0.0
 10
1.604940398078067
 20
0.1080175449048839
 30
0.0
 10
1.610588684056892
 20
0.1114602332960683
 30
0.0
 10
1.616222014512888
 20
0.1149463833234121
 30
0.0
 10
1.621720130989716
 20
0.118583511651549
 30
0.0
 10
1.634755987797638
 20
0.127672740601156
 30
0.0
 10
1.657988207851404
 20
0.1264566528920012
 30
0.0
 10
1.667609472679385
 20
0.1392778355577143
 30
0.0
 10
1.667609472679385
 20
0.1392778355577143
 30
0.0
 10
1.667609472679385
 20
0.1412617455056306
 30
0.0
 10
1.667609472679385
 20
0.1412617455056306
 30
0.0
 10
1.672107532518212
 20
0.1383611901406362
 30
0.0
 10
1.676671882327354
 20
0.1355379797259325
 30
0.0
 10
1.681251158354977
 20
0.1327441029224145
 30
0.0
 10
1.683884757903393
 20
0.1311373394039745
 30
0.0
 10
1.684101188071281
 20
0.1295305758854965
 30
0.0
 10
1.681791136258703
 20
0.1279243348307722
 30
0.0
 10
1.681791136258703
 20
0.1279243348307722
 30
0.0
 10
1.681305156145349
 20
0.1276082501969237
 30
0.0
 10
1.681305156145349
 20
0.1276082501969237
 30
0.0
  0
HATCH
  5
162
330
15D
100
AcDbEntity
  8
SDPW screw
440
 33554687
100
AcDbHatch
 10
0.0
 20
0.0
 30
0.0
210
0.0
220
0.0
230
1.0
  2
SOLID
 70
     1
 71
     1
 91
        1
 92
        1
 93
        2
 72
     4
 94
        3
 73
     0
 74
     0
 95
       35
 96
       31
 40
0.0
 40
0.0
 40
0.0
 40
0.0
 40
1.0
 40
1.0
 40
1.0
 40
2.0
 40
2.0
 40
2.0
 40
3.0
 40
3.0
 40
3.0
 40
4.0
 40
4.0
 40
4.0
 40
5.0
 40
5.0
 40
5.0
 40
6.0
 40
6.0
 40
6.0
 40
7.0
 40
7.0
 40
7.0
 40
8.0
 40
8.0
 40
8.0
 40
9.0
 40
9.0
 40
9.0
 40
10.0
 40
10.0
 40
10.0
 40
10.0
 10
1.681791136258703
 20
0.1279243348307722
 10
1.679121538183355
 20
0.1260673376069563
 10
1.673075541687138
 20
0.1242103403831404
 10
1.665111087110113
 20
0.1223533431593245
 10
1.657145754520267
 20
0.1204963459355086
 10
1.647261085836791
 20
0.1186393487117054
 10
1.63783649588754
 20
0.1167831462993263
 10
1.628412344944738
 20
0.1149261491181556
 10
1.619448272736134
 20
0.1130691519369722
 10
1.613103312863939
 20
0.1112121547558015
 10
1.609464388600397
 20
0.1101471650764678
 10
1.606687643696911
 20
0.1090825345842303
 10
1.604940398078067
 20
0.1080175449048839
 10
1.610588684056892
 20
0.1114602332960683
 10
1.616222014512888
 20
0.1149463833234121
 10
1.621720130989716
 20
0.118583511651549
 10
1.634755987797638
 20
0.127672740601156
 10
1.657988207851404
 20
0.1264566528920012
 10
1.667609472679385
 20
0.1392778355577143
 10
1.667609472679385
 20
0.1392778355577143
 10
1.667609472679385
 20
0.1412617455056306
 10
1.667609472679385
 20
0.1412617455056306
 10
1.672107532518212
 20
0.1383611901406362
 10
1.676671882327354
 20
0.1355379797259325
 10
1.681251158354977
 20
0.1327441029224145
 10
1.683884757903393
 20
0.1311373394039745
 10
1.684101188071281
 20
0.1295305758854965
 10
1.681791136258703
 20
0.1279243348307722
 10
1.681791136258703
 20
0.1279243348307722
 10
1.681305156145349
 20
0.1276082501969237
 10
1.681305156145349
 20
0.1276082501969237
 97
        0
 72
     1
 10
1.681305156145349
 20
0.1276082501969237
 11
1.681791136258703
 21
0.1279243348307722
 97
        0
 75
     2
 76
     0
 98
        1
 10
0.0
 20
0.0
450
        1
451
        0
460
90.0
461
0.0
452
        0
462
0.0
453
        2
463
0.0
 63
   250
421
  3157551
463
1.0
 63
     9
421
 12369600
470
LINEAR
  0
SPLINE
  5
163
330
15D
100
AcDbEntity
  8
SDPW screw
 62
   250
420
  2301728
370
     5
100
AcDbSpline
210
0.0
220
0.0
230
1.0
 70
     9
 71
     3
 72
    38
 73
    34
 74
     0
 42
0.0000000001
 43
0.0000000001
 40
0.0
 40
0.0
 40
0.0
 40
0.0
 40
1.0
 40
1.0
 40
1.0
 40
2.0
 40
2.0
 40
2.0
 40
3.0
 40
3.0
 40
3.0
 40
4.0
 40
4.0
 40
4.0
 40
5.0
 40
5.0
 40
5.0
 40
6.0
 40
6.0
 40
6.0
 40
7.0
 40
7.0
 40
7.0
 40
8.0
 40
8.0
 40
8.0
 40
9.0
 40
9.0
 40
9.0
 40
10.0
 40
10.0
 40
10.0
 40
11.0
 40
11.0
 40
11.0
 40
11.0
 10
1.681791136258703
 20
0.1279243348307722
 30
0.0
 10
1.679121538183355
 20
0.1260673376069563
 30
0.0
 10
1.673075541687138
 20
0.1242103403831404
 30
0.0
 10
1.665111087110113
 20
0.1223533431593245
 30
0.0
 10
1.657145754520267
 20
0.1204963459355086
 30
0.0
 10
1.647261085836791
 20
0.1186393487117054
 30
0.0
 10
1.63783649588754
 20
0.1167831462993263
 30
0.0
 10
1.628412344944738
 20
0.1149261491181556
 30
0.0
 10
1.619448272736134
 20
0.1130691519369722
 30
0.0
 10
1.613103312863939
 20
0.1112121547558015
 30
0.0
 10
1.609464388600397
 20
0.1101471650764678
 30
0.0
 10
1.606687643696911
 20
0.1090825345842303
 30
0.0
 10
1.604940398078067
 20
0.1080175449048839
 30
0.0
 10
1.603640529355642
 20
0.107225537403047
 30
0.0
 10
1.6029113396824
 20
0.1064331707141643
 30
0.0
 10
1.602822221377942
 20
0.1056416421284262
 30
0.0
 10
1.602718615861451
 20
0.1047316248226985
 30
0.0
 10
1.603460946385742
 20
0.1038215214870206
 30
0.0
 10
1.604952719562384
 20
0.1029114611663241
 30
0.0
 10
1.609539458699221
 20
0.100114950324256
 30
0.0
 10
1.614112149630424
 20
0.0972860387976198
 30
0.0
 10
1.618616355559247
 20
0.0943780143517946
 30
0.0
 10
1.618616355559247
 20
0.0943780143517946
 30
0.0
 10
1.618616355559247
 20
0.0963430071136978
 30
0.0
 10
1.618616355559247
 20
0.0963430071136978
 30
0.0
 10
1.628140599967132
 20
0.1091449134063522
 30
0.0
 10
1.651548422591228
 20
0.107974921371907
 30
0.0
 10
1.664555304975061
 20
0.1170768415981911
 30
0.0
 10
1.670047275361917
 20
0.1207012786496635
 30
0.0
 10
1.67566831363797
 20
0.1241742584842314
 30
0.0
 10
1.681305156145349
 20
0.1276082501969237
 30
0.0
 10
1.681305156145349
 20
0.1276082501969237
 30
0.0
 10
1.681791136258703
 20
0.1279243348307722
 30
0.0
 10
1.681791136258703
 20
0.1279243348307722
 30
0.0
  0
HATCH
  5
164
330
15D
100
AcDbEntity
  8
SDPW screw
440
 33554687
100
AcDbHatch
 10
0.0
 20
0.0
 30
0.0
210
0.0
220
0.0
230
1.0
  2
SOLID
 70
     1
 71
     1
 91
        1
 92
        1
 93
        1
 72
     4
 94
        3
 73
     0
 74
     0
 95
       38
 96
       34
 40
0.0
 40
0.0
 40
0.0
 40
0.0
 40
1.0
 40
1.0
 40
1.0
 40
2.0
 40
2.0
 40
2.0
 40
3.0
 40
3.0
 40
3.0
 40
4.0
 40
4.0
 40
4.0
 40
5.0
 40
5.0
 40
5.0
 40
6.0
 40
6.0
 40
6.0
 40
7.0
 40
7.0
 40
7.0
 40
8.0
 40
8.0
 40
8.0
 40
9.0
 40
9.0
 40
9.0
 40
10.0
 40
10.0
 40
10.0
 40
11.0
 40
11.0
 40
11.0
 40
11.0
 10
1.681791136258703
 20
0.1279243348307722
 10
1.679121538183355
 20
0.1260673376069563
 10
1.673075541687138
 20
0.1242103403831404
 10
1.665111087110113
 20
0.1223533431593245
 10
1.657145754520267
 20
0.1204963459355086
 10
1.647261085836791
 20
0.1186393487117054
 10
1.63783649588754
 20
0.1167831462993263
 10
1.628412344944738
 20
0.1149261491181556
 10
1.619448272736134
 20
0.1130691519369722
 10
1.613103312863939
 20
0.1112121547558015
 10
1.609464388600397
 20
0.1101471650764678
 10
1.606687643696911
 20
0.1090825345842303
 10
1.604940398078067
 20
0.1080175449048839
 10
1.603640529355642
 20
0.107225537403047
 10
1.6029113396824
 20
0.1064331707141643
 10
1.602822221377942
 20
0.1056416421284262
 10
1.602718615861451
 20
0.1047316248226985
 10
1.603460946385742
 20
0.1038215214870206
 10
1.604952719562384
 20
0.1029114611663241
 10
1.609539458699221
 20
0.100114950324256
 10
1.614112149630424
 20
0.0972860387976198
 10
1.618616355559247
 20
0.0943780143517946
 10
1.618616355559247
 20
0.0943780143517946
 10
1.618616355559247
 20
0.0963430071136978
 10
1.618616355559247
 20
0.0963430071136978
 10
1.628140599967132
 20
0.1091449134063522
 10
1.651548422591228
 20
0.107974921371907
 10
1.664555304975061
 20
0.1170768415981911
 10
1.670047275361917
 20
0.1207012786496635
 10
1.67566831363797
 20
0.1241742584842314
 10
1.681305156145349
 20
0.1276082501969237
 10
1.681305156145349
 20
0.1276082501969237
 10
1.681791136258703
 20
0.1279243348307722
 10
1.681791136258703
 20
0.1279243348307722
 97
        0
 97
        1
330
163
 75
     2
 76
     0
 98
        1
 10
0.0
 20
0.0
450
        1
451
        0
460
-90.0
461
0.0
452
        0
462
0.0
453
        2
463
0.0
 63
   250
421
  3157551
463
1.0
 63
     9
421
 12369600
470
LINEAR
  0
ENDBLK
  5
160
330
15D
100
AcDbEntity
  8
0
100
AcDbBlockEnd
  0
BLOCK
  5
167
330
165
100
AcDbEntity
  8
0
100
AcDbBlockBegin
  2
Block_16
 70
     0
 10
0.0
 20
0.0
 30
0.0
  3
Block_16
  1

  0
SPLINE
  5
169
330
165
100
AcDbEntity
  8
SDPW screw
 62
   250
420
  2301728
370
     5
100
AcDbSpline
210
0.0
220
0.0
230
1.0
 70
     8
 71
     3
 72
    35
 73
    31
 74
     0
 42
0.0000000001
 43
0.0000000001
 40
0.0
 40
0.0
 40
0.0
 40
0.0
 40
1.0
 40
1.0
 40
1.0
 40
2.0
 40
2.0
 40
2.0
 40
3.0
 40
3.0
 40
3.0
 40
4.0
 40
4.0
 40
4.0
 40
5.0
 40
5.0
 40
5.0
 40
6.0
 40
6.0
 40
6.0
 40
7.0
 40
7.0
 40
7.0
 40
8.0
 40
8.0
 40
8.0
 40
9.0
 40
9.0
 40
9.0
 40
10.0
 40
10.0
 40
10.0
 40
10.0
 10
1.681791136258703
 20
0.1772905733291989
 30
0.0
 10
1.679121538183355
 20
0.1754335761011008
 30
0.0
 10
1.673075541687138
 20
0.1735765788730279
 30
0.0
 10
1.665111087110113
 20
0.1717195816449425
 30
0.0
 10
1.657145754520267
 20
0.1698625844168696
 30
0.0
 10
1.647261085836791
 20
0.1680055871887968
 30
0.0
 10
1.63783649588754
 20
0.1661494203526546
 30
0.0
 10
1.628412344944738
 20
0.1642924231714839
 30
0.0
 10
1.619448272736134
 20
0.1624354259903132
 30
0.0
 10
1.613103312863939
 20
0.1605784288091298
 30
0.0
 10
1.609464388600397
 20
0.1595133992201328
 30
0.0
 10
1.606687643696911
 20
0.1584488086375586
 30
0.0
 10
1.604940398078067
 20
0.1573837790485363
 30
0.0
 10
1.610588684056892
 20
0.1608264674397333
 30
0.0
 10
1.616222014512888
 20
0.1643126174670771
 30
0.0
 10
1.621720130989716
 20
0.1679497857048899
 30
0.0
 10
1.634755987797638
 20
0.1770389747448083
 30
0.0
 10
1.657988207851404
 20
0.1758229269453295
 30
0.0
 10
1.667609472679385
 20
0.1886441096110426
 30
0.0
 10
1.667609472679385
 20
0.1886441096110426
 30
0.0
 10
1.667609472679385
 20
0.190627979649283
 30
0.0
 10
1.667609472679385
 20
0.190627979649283
 30
0.0
 10
1.672107532518212
 20
0.1877274641939645
 30
0.0
 10
1.676671882327354
 20
0.1849042138695849
 30
0.0
 10
1.681251158354977
 20
0.1821103769757428
 30
0.0
 10
1.683884757903393
 20
0.1805036134573154
 30
0.0
 10
1.684101188071281
 20
0.1788968499388248
 30
0.0
 10
1.681791136258703
 20
0.1772905733291989
 30
0.0
 10
1.681791136258703
 20
0.1772905733291989
 30
0.0
 10
1.681305156145349
 20
0.1769744886946177
 30
0.0
 10
1.681305156145349
 20
0.1769744886946177
 30
0.0
  0
HATCH
  5
16A
330
165
100
AcDbEntity
  8
SDPW screw
440
 33554687
100
AcDbHatch
 10
0.0
 20
0.0
 30
0.0
210
0.0
220
0.0
230
1.0
  2
SOLID
 70
     1
 71
     1
 91
        1
 92
        1
 93
        2
 72
     4
 94
        3
 73
     0
 74
     0
 95
       35
 96
       31
 40
0.0
 40
0.0
 40
0.0
 40
0.0
 40
1.0
 40
1.0
 40
1.0
 40
2.0
 40
2.0
 40
2.0
 40
3.0
 40
3.0
 40
3.0
 40
4.0
 40
4.0
 40
4.0
 40
5.0
 40
5.0
 40
5.0
 40
6.0
 40
6.0
 40
6.0
 40
7.0
 40
7.0
 40
7.0
 40
8.0
 40
8.0
 40
8.0
 40
9.0
 40
9.0
 40
9.0
 40
10.0
 40
10.0
 40
10.0
 40
10.0
 10
1.681791136258703
 20
0.1772905733291989
 10
1.679121538183355
 20
0.1754335761011008
 10
1.673075541687138
 20
0.1735765788730279
 10
1.665111087110113
 20
0.1717195816449425
 10
1.657145754520267
 20
0.1698625844168696
 10
1.647261085836791
 20
0.1680055871887968
 10
1.63783649588754
 20
0.1661494203526546
 10
1.628412344944738
 20
0.1642924231714839
 10
1.619448272736134
 20
0.1624354259903132
 10
1.613103312863939
 20
0.1605784288091298
 10
1.609464388600397
 20
0.1595133992201328
 10
1.606687643696911
 20
0.1584488086375586
 10
1.604940398078067
 20
0.1573837790485363
 10
1.610588684056892
 20
0.1608264674397333
 10
1.616222014512888
 20
0.1643126174670771
 10
1.621720130989716
 20
0.1679497857048899
 10
1.634755987797638
 20
0.1770389747448083
 10
1.657988207851404
 20
0.1758229269453295
 10
1.667609472679385
 20
0.1886441096110426
 10
1.667609472679385
 20
0.1886441096110426
 10
1.667609472679385
 20
0.190627979649283
 10
1.667609472679385
 20
0.190627979649283
 10
1.672107532518212
 20
0.1877274641939645
 10
1.676671882327354
 20
0.1849042138695849
 10
1.681251158354977
 20
0.1821103769757428
 10
1.683884757903393
 20
0.1805036134573154
 10
1.684101188071281
 20
0.1788968499388248
 10
1.681791136258703
 20
0.1772905733291989
 10
1.681791136258703
 20
0.1772905733291989
 10
1.681305156145349
 20
0.1769744886946177
 10
1.681305156145349
 20
0.1769744886946177
 97
        0
 72
     1
 10
1.681305156145349
 20
0.1769744886946177
 11
1.681791136258703
 21
0.1772905733291989
 97
        0
 75
     2
 76
     0
 98
        1
 10
0.0
 20
0.0
450
        1
451
        0
460
90.0
461
0.0
452
        0
462
0.0
453
        2
463
0.0
 63
   250
421
  3157551
463
1.0
 63
     9
421
 12369600
470
LINEAR
  0
SPLINE
  5
16B
330
165
100
AcDbEntity
  8
SDPW screw
 62
   250
420
  2301728
370
     5
100
AcDbSpline
210
0.0
220
0.0
230
1.0
 70
     9
 71
     3
 72
    38
 73
    34
 74
     0
 42
0.0000000001
 43
0.0000000001
 40
0.0
 40
0.0
 40
0.0
 40
0.0
 40
1.0
 40
1.0
 40
1.0
 40
2.0
 40
2.0
 40
2.0
 40
3.0
 40
3.0
 40
3.0
 40
4.0
 40
4.0
 40
4.0
 40
5.0
 40
5.0
 40
5.0
 40
6.0
 40
6.0
 40
6.0
 40
7.0
 40
7.0
 40
7.0
 40
8.0
 40
8.0
 40
8.0
 40
9.0
 40
9.0
 40
9.0
 40
10.0
 40
10.0
 40
10.0
 40
11.0
 40
11.0
 40
11.0
 40
11.0
 10
1.681791136258703
 20
0.1772905733291989
 30
0.0
 10
1.679121538183355
 20
0.1754335761011008
 30
0.0
 10
1.673075541687138
 20
0.1735765788730279
 30
0.0
 10
1.665111087110113
 20
0.1717195816449425
 30
0.0
 10
1.657145754520267
 20
0.1698625844168696
 30
0.0
 10
1.647261085836791
 20
0.1680055871887968
 30
0.0
 10
1.63783649588754
 20
0.1661494203526546
 30
0.0
 10
1.628412344944738
 20
0.1642924231714839
 30
0.0
 10
1.619448272736134
 20
0.1624354259903132
 30
0.0
 10
1.613103312863939
 20
0.1605784288091298
 30
0.0
 10
1.609464388600397
 20
0.1595133992201328
 30
0.0
 10
1.606687643696911
 20
0.1584488086375586
 30
0.0
 10
1.604940398078067
 20
0.1573837790485363
 30
0.0
 10
1.603640529355642
 20
0.1565918114563879
 30
0.0
 10
1.6029113396824
 20
0.1557994048578166
 30
0.0
 10
1.602822221377942
 20
0.1550078762720785
 30
0.0
 10
1.602718615861451
 20
0.1540978632678439
 30
0.0
 10
1.603460946385742
 20
0.1531877556306729
 30
0.0
 10
1.604952719562384
 20
0.1522776953099765
 30
0.0
 10
1.609539458699221
 20
0.1494812243775843
 30
0.0
 10
1.614112149630424
 20
0.1466523140980548
 30
0.0
 10
1.618616355559247
 20
0.1437442884051228
 30
0.0
 10
1.618616355559247
 20
0.1437442884051228
 30
0.0
 10
1.618616355559247
 20
0.1457092811670261
 30
0.0
 10
1.618616355559247
 20
0.1457092811670261
 30
0.0
 10
1.628140599967132
 20
0.1585111475500172
 30
0.0
 10
1.651548422591228
 20
0.1573411954252479
 30
0.0
 10
1.664555304975061
 20
0.1664431156515194
 30
0.0
 10
1.670047275361917
 20
0.1700675527029918
 30
0.0
 10
1.67566831363797
 20
0.1735405325375596
 30
0.0
 10
1.681305156145349
 20
0.1769744886946177
 30
0.0
 10
1.681305156145349
 20
0.1769744886946177
 30
0.0
 10
1.681791136258703
 20
0.1772905733291989
 30
0.0
 10
1.681791136258703
 20
0.1772905733291989
 30
0.0
  0
HATCH
  5
16C
330
165
100
AcDbEntity
  8
SDPW screw
440
 33554687
100
AcDbHatch
 10
0.0
 20
0.0
 30
0.0
210
0.0
220
0.0
230
1.0
  2
SOLID
 70
     1
 71
     1
 91
        1
 92
        1
 93
        1
 72
     4
 94
        3
 73
     0
 74
     0
 95
       38
 96
       34
 40
0.0
 40
0.0
 40
0.0
 40
0.0
 40
1.0
 40
1.0
 40
1.0
 40
2.0
 40
2.0
 40
2.0
 40
3.0
 40
3.0
 40
3.0
 40
4.0
 40
4.0
 40
4.0
 40
5.0
 40
5.0
 40
5.0
 40
6.0
 40
6.0
 40
6.0
 40
7.0
 40
7.0
 40
7.0
 40
8.0
 40
8.0
 40
8.0
 40
9.0
 40
9.0
 40
9.0
 40
10.0
 40
10.0
 40
10.0
 40
11.0
 40
11.0
 40
11.0
 40
11.0
 10
1.681791136258703
 20
0.1772905733291989
 10
1.679121538183355
 20
0.1754335761011008
 10
1.673075541687138
 20
0.1735765788730279
 10
1.665111087110113
 20
0.1717195816449425
 10
1.657145754520267
 20
0.1698625844168696
 10
1.647261085836791
 20
0.1680055871887968
 10
1.63783649588754
 20
0.1661494203526546
 10
1.628412344944738
 20
0.1642924231714839
 10
1.619448272736134
 20
0.1624354259903132
 10
1.613103312863939
 20
0.1605784288091298
 10
1.609464388600397
 20
0.1595133992201328
 10
1.606687643696911
 20
0.1584488086375586
 10
1.604940398078067
 20
0.1573837790485363
 10
1.603640529355642
 20
0.1565918114563879
 10
1.6029113396824
 20
0.1557994048578166
 10
1.602822221377942
 20
0.1550078762720785
 10
1.602718615861451
 20
0.1540978632678439
 10
1.603460946385742
 20
0.1531877556306729
 10
1.604952719562384
 20
0.1522776953099765
 10
1.609539458699221
 20
0.1494812243775843
 10
1.614112149630424
 20
0.1466523140980548
 10
1.618616355559247
 20
0.1437442884051228
 10
1.618616355559247
 20
0.1437442884051228
 10
1.618616355559247
 20
0.1457092811670261
 10
1.618616355559247
 20
0.1457092811670261
 10
1.628140599967132
 20
0.1585111475500172
 10
1.651548422591228
 20
0.1573411954252479
 10
1.664555304975061
 20
0.1664431156515194
 10
1.670047275361917
 20
0.1700675527029918
 10
1.67566831363797
 20
0.1735405325375596
 10
1.681305156145349
 20
0.1769744886946177
 10
1.681305156145349
 20
0.1769744886946177
 10
1.681791136258703
 20
0.1772905733291989
 10
1.681791136258703
 20
0.1772905733291989
 97
        0
 97
        1
330
16B
 75
     2
 76
     0
 98
        1
 10
0.0
 20
0.0
450
        1
451
        0
460
-90.0
461
0.0
452
        0
462
0.0
453
        2
463
0.0
 63
   250
421
  3157551
463
1.0
 63
     9
421
 12369600
470
LINEAR
  0
ENDBLK
  5
168
330
165
100
AcDbEntity
  8
0
100
AcDbBlockEnd
  0
BLOCK
  5
17A
330
178
100
AcDbEntity
  8
0
100
AcDbBlockBegin
  2
Block_17
 70
     0
 10
0.0
 20
0.0
 30
0.0
  3
Block_17
  1

  0
SPLINE
  5
17C
330
178
100
AcDbEntity
  8
SDPW screw
 62
   250
420
  2301728
370
     5
100
AcDbSpline
210
0.0
220
0.0
230
1.0
 70
     9
 71
     3
 72
    65
 73
    61
 74
     0
 42
0.0000000001
 43
0.0000000001
 40
0.0
 40
0.0
 40
0.0
 40
0.0
 40
1.0
 40
1.0
 40
1.0
 40
2.0
 40
2.0
 40
2.0
 40
3.0
 40
3.0
 40
3.0
 40
4.0
 40
4.0
 40
4.0
 40
5.0
 40
5.0
 40
5.0
 40
6.0
 40
6.0
 40
6.0
 40
7.0
 40
7.0
 40
7.0
 40
8.0
 40
8.0
 40
8.0
 40
9.0
 40
9.0
 40
9.0
 40
10.0
 40
10.0
 40
10.0
 40
11.0
 40
11.0
 40
11.0
 40
12.0
 40
12.0
 40
12.0
 40
13.0
 40
13.0
 40
13.0
 40
14.0
 40
14.0
 40
14.0
 40
15.0
 40
15.0
 40
15.0
 40
16.0
 40
16.0
 40
16.0
 40
17.0
 40
17.0
 40
17.0
 40
18.0
 40
18.0
 40
18.0
 40
19.0
 40
19.0
 40
19.0
 40
20.0
 40
20.0
 40
20.0
 40
20.0
 10
1.555350700529617
 20
-1.012017374807227
 30
0.0
 10
1.561281207928535
 20
-1.012017374807227
 30
0.0
 10
1.566101089884821
 20
-1.008514560393665
 30
0.0
 10
1.566144551520993
 20
-1.004173225848856
 30
0.0
 10
1.566144990527416
 20
-1.004173225848856
 30
0.0
 10
1.568074423768823
 20
-0.8354050852431226
 30
0.0
 10
1.568074423768823
 20
-0.8354050852431226
 30
0.0
 10
1.568074423768823
 20
-0.8354050852431226
 30
0.0
 10
1.583624470377369
 20
-0.4727181928557356
 30
0.0
 10
1.583624470377369
 20
-0.4727181928557356
 30
0.0
 10
1.583775488587838
 20
-0.4691907762243722
 30
0.0
 10
1.585913449881546
 20
-0.466293772820475
 30
0.0
 10
1.588748992385793
 20
-0.4654438563800972
 30
0.0
 10
1.588839427709545
 20
-0.4566466066133394
 30
0.0
 10
1.588929424026825
 20
-0.4478695511421494
 30
0.0
 10
1.589020298356975
 20
-0.4391139746551542
 30
0.0
 10
1.589020298356975
 20
-0.4391139746551542
 30
0.0
 10
1.697205090875235
 20
-0.4391139746551542
 30
0.0
 10
1.697205090875235
 20
-0.4391139746551542
 30
0.0
 10
1.697295965205411
 20
-0.4478695511421494
 30
0.0
 10
1.697386839535511
 20
-0.4566466066133394
 30
0.0
 10
1.697476396846417
 20
-0.4654455807403161
 30
0.0
 10
1.700312378357112
 20
-0.466293772820475
 30
0.0
 10
1.702450778657218
 20
-0.4691907762243722
 30
0.0
 10
1.702601357861264
 20
-0.4727181928557356
 30
0.0
 10
1.702601357861264
 20
-0.4727181928557356
 30
0.0
 10
1.718151378025368
 20
-0.8354050852431226
 30
0.0
 10
1.718151378025368
 20
-0.8354050852431226
 30
0.0
 10
1.718151378025368
 20
-0.8354050852431226
 30
0.0
 10
1.720080837711242
 20
-1.004173225848856
 30
0.0
 10
1.720080837711242
 20
-1.004173225848856
 30
0.0
 10
1.720124299347389
 20
-1.008514560393665
 30
0.0
 10
1.72494458990276
 20
-1.012017374807227
 30
0.0
 10
1.730875127709017
 20
-1.012017374807227
 30
0.0
 10
1.730875127709017
 20
-1.012017374807227
 30
0.0
 10
1.767768788727481
 20
-1.012017374807227
 30
0.0
 10
1.767768788727481
 20
-1.012017374807227
 30
0.0
 10
1.772132951606433
 20
-1.012017374807227
 30
0.0
 10
1.775670904392023
 20
-1.015555345450757
 30
0.0
 10
1.775670904392023
 20
-1.019919490671403
 30
0.0
 10
1.775670904392023
 20
-1.019919490671403
 30
0.0
 10
1.775670904392023
 20
-1.04481115564354
 30
0.0
 10
1.775670904392023
 20
-1.04481115564354
 30
0.0
 10
1.775670904392023
 20
-1.04481115564354
 30
0.0
 10
1.76438536620377
 20
-1.052713271507703
 30
0.0
 10
1.76438536620377
 20
-1.052713271507703
 30
0.0
 10
1.76438536620377
 20
-1.052713271507703
 30
0.0
 10
1.521840462034863
 20
-1.052713271507703
 30
0.0
 10
1.521840462034863
 20
-1.052713271507703
 30
0.0
 10
1.521840462034863
 20
-1.052713271507703
 30
0.0
 10
1.510554923846636
 20
-1.04481115564354
 30
0.0
 10
1.510554923846636
 20
-1.04481115564354
 30
0.0
 10
1.510554923846636
 20
-1.04481115564354
 30
0.0
 10
1.510554923846636
 20
-1.019919490671403
 30
0.0
 10
1.510554923846636
 20
-1.019919490671403
 30
0.0
 10
1.510554923846636
 20
-1.015555345450757
 30
0.0
 10
1.514092406026368
 20
-1.012017374807227
 30
0.0
 10
1.518457039511152
 20
-1.012017374807227
 30
0.0
 10
1.518457039511152
 20
-1.012017374807227
 30
0.0
 10
1.555350700529617
 20
-1.012017374807227
 30
0.0
 10
1.555350700529617
 20
-1.012017374807227
 30
0.0
  0
HATCH
  5
17D
330
178
100
AcDbEntity
  8
SDPW screw
440
 33554687
100
AcDbHatch
 10
0.0
 20
0.0
 30
0.0
210
0.0
220
0.0
230
1.0
  2
SOLID
 70
     1
 71
     1
 91
        1
 92
        1
 93
        1
 72
     4
 94
        3
 73
     0
 74
     0
 95
       65
 96
       61
 40
0.0
 40
0.0
 40
0.0
 40
0.0
 40
1.0
 40
1.0
 40
1.0
 40
2.0
 40
2.0
 40
2.0
 40
3.0
 40
3.0
 40
3.0
 40
4.0
 40
4.0
 40
4.0
 40
5.0
 40
5.0
 40
5.0
 40
6.0
 40
6.0
 40
6.0
 40
7.0
 40
7.0
 40
7.0
 40
8.0
 40
8.0
 40
8.0
 40
9.0
 40
9.0
 40
9.0
 40
10.0
 40
10.0
 40
10.0
 40
11.0
 40
11.0
 40
11.0
 40
12.0
 40
12.0
 40
12.0
 40
13.0
 40
13.0
 40
13.0
 40
14.0
 40
14.0
 40
14.0
 40
15.0
 40
15.0
 40
15.0
 40
16.0
 40
16.0
 40
16.0
 40
17.0
 40
17.0
 40
17.0
 40
18.0
 40
18.0
 40
18.0
 40
19.0
 40
19.0
 40
19.0
 40
20.0
 40
20.0
 40
20.0
 40
20.0
 10
1.555350700529617
 20
-1.012017374807227
 10
1.561281207928535
 20
-1.012017374807227
 10
1.566101089884821
 20
-1.008514560393665
 10
1.566144551520993
 20
-1.004173225848856
 10
1.566144990527416
 20
-1.004173225848856
 10
1.568074423768823
 20
-0.8354050852431226
 10
1.568074423768823
 20
-0.8354050852431226
 10
1.568074423768823
 20
-0.8354050852431226
 10
1.583624470377369
 20
-0.4727181928557356
 10
1.583624470377369
 20
-0.4727181928557356
 10
1.583775488587838
 20
-0.4691907762243722
 10
1.585913449881546
 20
-0.466293772820475
 10
1.588748992385793
 20
-0.4654438563800972
 10
1.588839427709545
 20
-0.4566466066133394
 10
1.588929424026825
 20
-0.4478695511421494
 10
1.589020298356975
 20
-0.4391139746551542
 10
1.589020298356975
 20
-0.4391139746551542
 10
1.697205090875235
 20
-0.4391139746551542
 10
1.697205090875235
 20
-0.4391139746551542
 10
1.697295965205411
 20
-0.4478695511421494
 10
1.697386839535511
 20
-0.4566466066133394
 10
1.697476396846417
 20
-0.4654455807403161
 10
1.700312378357112
 20
-0.466293772820475
 10
1.702450778657218
 20
-0.4691907762243722
 10
1.702601357861264
 20
-0.4727181928557356
 10
1.702601357861264
 20
-0.4727181928557356
 10
1.718151378025368
 20
-0.8354050852431226
 10
1.718151378025368
 20
-0.8354050852431226
 10
1.718151378025368
 20
-0.8354050852431226
 10
1.720080837711242
 20
-1.004173225848856
 10
1.720080837711242
 20
-1.004173225848856
 10
1.720124299347389
 20
-1.008514560393665
 10
1.72494458990276
 20
-1.012017374807227
 10
1.730875127709017
 20
-1.012017374807227
 10
1.730875127709017
 20
-1.012017374807227
 10
1.767768788727481
 20
-1.012017374807227
 10
1.767768788727481
 20
-1.012017374807227
 10
1.772132951606433
 20
-1.012017374807227
 10
1.775670904392023
 20
-1.015555345450757
 10
1.775670904392023
 20
-1.019919490671403
 10
1.775670904392023
 20
-1.019919490671403
 10
1.775670904392023
 20
-1.04481115564354
 10
1.775670904392023
 20
-1.04481115564354
 10
1.775670904392023
 20
-1.04481115564354
 10
1.76438536620377
 20
-1.052713271507703
 10
1.76438536620377
 20
-1.052713271507703
 10
1.76438536620377
 20
-1.052713271507703
 10
1.521840462034863
 20
-1.052713271507703
 10
1.521840462034863
 20
-1.052713271507703
 10
1.521840462034863
 20
-1.052713271507703
 10
1.510554923846636
 20
-1.04481115564354
 10
1.510554923846636
 20
-1.04481115564354
 10
1.510554923846636
 20
-1.04481115564354
 10
1.510554923846636
 20
-1.019919490671403
 10
1.510554923846636
 20
-1.019919490671403
 10
1.510554923846636
 20
-1.015555345450757
 10
1.514092406026368
 20
-1.012017374807227
 10
1.518457039511152
 20
-1.012017374807227
 10
1.518457039511152
 20
-1.012017374807227
 10
1.555350700529617
 20
-1.012017374807227
 10
1.555350700529617
 20
-1.012017374807227
 97
        0
 97
        1
330
17C
 75
     2
 76
     0
 98
        1
 10
0.0
 20
0.0
450
        1
451
        0
460
89.0
461
0.0
452
        0
462
0.0
453
        2
463
0.0
 63
   145
421
  4425388
463
1.0
 63
   145
421
  4425388
470
LINEAR
  0
LINE
  5
17E
330
178
100
AcDbEntity
  8
SDPW screw
 62
   250
420
  2301728
370
     5
100
AcDbLine
 10
1.633325704862348
 20
-0.8354050852431226
 30
0.0
 11
1.652899684369862
 21
-0.8354050852431226
 31
0.0
  0
LWPOLYLINE
  5
17F
330
178
100
AcDbEntity
  8
SDPW screw
 62
   250
420
  2301728
370
     5
100
AcDbPolyline
 90
        1
 70
     0
 43
0.0
 10
1.687238327990118
 20
-0.4651909570068887
  0
LWPOLYLINE
  5
180
330
178
100
AcDbEntity
  8
SDPW screw
 62
   250
420
  2301728
370
     5
100
AcDbPolyline
 90
        1
 70
     0
 43
0.0
 10
1.598967744959357
 20
-0.4651909570068887
  0
SPLINE
  5
181
330
178
100
AcDbEntity
  8
SDPW screw
 62
   250
420
  2301728
370
     5
100
AcDbSpline
210
0.0
220
0.0
230
1.0
 70
     8
 71
     3
 72
    14
 73
    10
 74
     0
 42
0.0000000001
 43
0.0000000001
 40
0.0
 40
0.0
 40
0.0
 40
0.0
 40
1.0
 40
1.0
 40
1.0
 40
2.0
 40
2.0
 40
2.0
 40
3.0
 40
3.0
 40
3.0
 40
3.0
 10
1.588748992385793
 20
-0.4654438563800972
 30
0.0
 10
1.589300823463038
 20
-0.4652783509575708
 30
0.0
 10
1.589878555919414
 20
-0.4651909570068887
 30
0.0
 10
1.59047297061996
 20
-0.4651909570068887
 30
0.0
 10
1.59047297061996
 20
-0.4651909570068887
 30
0.0
 10
1.59054891873163
 20
-0.4651909570068887
 30
0.0
 10
1.59054891873163
 20
-0.4651909570068887
 30
0.0
 10
1.593226857929064
 20
-0.4652172973931102
 30
0.0
 10
1.595846409271846
 20
-0.4652015248330423
 30
0.0
 10
1.59889223585411
 20
-0.4651909570068887
 30
0.0
  0
LWPOLYLINE
  5
182
330
178
100
AcDbEntity
  8
SDPW screw
 62
   250
420
  2301728
370
     5
100
AcDbPolyline
 90
        4
 70
     1
 43
0.0
 10
1.510554923846636
 20
-1.019919490671403
 10
1.775670904392023
 20
-1.019919490671403
 10
1.775670904392023
 20
-1.04481115564354
 10
1.510554923846636
 20
-1.04481115564354
  0
HATCH
  5
183
330
178
100
AcDbEntity
  8
SDPW screw
440
 33554687
100
AcDbHatch
 10
0.0
 20
0.0
 30
0.0
210
0.0
220
0.0
230
1.0
  2
SOLID
 70
     1
 71
     1
 91
        1
 92
        1
 93
        4
 72
     1
 10
1.510554923846636
 20
-1.019919490671403
 11
1.775670904392023
 21
-1.019919490671403
 72
     1
 10
1.775670904392023
 20
-1.019919490671403
 11
1.775670904392023
 21
-1.04481115564354
 72
     1
 10
1.775670904392023
 20
-1.04481115564354
 11
1.510554923846636
 21
-1.04481115564354
 72
     1
 10
1.510554923846636
 20
-1.04481115564354
 11
1.510554923846636
 21
-1.019919490671403
 97
        1
330
182
 75
     2
 76
     0
 98
        1
 10
0.0
 20
0.0
450
        1
451
        0
460
90.0
461
0.0
452
        0
462
0.0
453
        2
463
0.0
 63
   145
421
  4425388
463
1.0
 63
   145
421
  4425388
470
LINEAR
  0
SPLINE
  5
184
330
178
100
AcDbEntity
  8
SDPW screw
 62
   250
420
  2301728
370
     5
100
AcDbSpline
210
0.0
220
0.0
230
1.0
 70
     8
 71
     3
 72
    17
 73
    13
 74
     0
 42
0.0000000001
 43
0.0000000001
 40
0.0
 40
0.0
 40
0.0
 40
0.0
 40
1.0
 40
1.0
 40
1.0
 40
2.0
 40
2.0
 40
2.0
 40
3.0
 40
3.0
 40
3.0
 40
4.0
 40
4.0
 40
4.0
 40
4.0
 10
1.730875127709017
 20
-1.012017374807227
 30
0.0
 10
1.72494458990276
 20
-1.012017374807227
 30
0.0
 10
1.720124299347389
 20
-1.008514560393665
 30
0.0
 10
1.720080837711242
 20
-1.004173225848856
 30
0.0
 10
1.720080837711242
 20
-1.004173225848856
 30
0.0
 10
1.718151378025368
 20
-0.8354050852431226
 30
0.0
 10
1.718151378025368
 20
-0.8354050852431226
 30
0.0
 10
1.718151378025368
 20
-0.8354050852431226
 30
0.0
 10
1.702601357861264
 20
-0.4727181928557356
 30
0.0
 10
1.702601357861264
 20
-0.4727181928557356
 30
0.0
 10
1.702420926220257
 20
-0.4685046091808292
 30
0.0
 10
1.699406269094247
 20
-0.4651909570068887
 30
0.0
 10
1.695752857618698
 20
-0.4651909570068887
 30
0.0
  0
SPLINE
  5
185
330
178
100
AcDbEntity
  8
SDPW screw
 62
   250
420
  2301728
370
     5
100
AcDbSpline
210
0.0
220
0.0
230
1.0
 70
     9
 71
     3
 72
    26
 73
    22
 74
     0
 42
0.0000000001
 43
0.0000000001
 40
0.0
 40
0.0
 40
0.0
 40
0.0
 40
1.0
 40
1.0
 40
1.0
 40
2.0
 40
2.0
 40
2.0
 40
3.0
 40
3.0
 40
3.0
 40
4.0
 40
4.0
 40
4.0
 40
5.0
 40
5.0
 40
5.0
 40
6.0
 40
6.0
 40
6.0
 40
7.0
 40
7.0
 40
7.0
 40
7.0
 10
1.689903975007634
 20
-1.012017374807227
 30
0.0
 10
1.688342840960002
 20
-1.010178833753899
 30
0.0
 10
1.688603637974387
 20
-1.006664148308876
 30
0.0
 10
1.68842320633338
 20
-1.004142934405459
 30
0.0
 10
1.688033368627278
 20
-0.8244922858299332
 30
0.0
 10
1.687638701850472
 20
-0.6448416372543938
 30
0.0
 10
1.687238327990118
 20
-0.4651909570068887
 30
0.0
 10
1.690899202574933
 20
-0.4651791355053345
 30
0.0
 10
1.693914298707391
 20
-0.4684958290523329
 30
0.0
 10
1.69408024313634
 20
-0.4727181928557356
 30
0.0
 10
1.69408024313634
 20
-0.4727181928557356
 30
0.0
 10
1.708364634219277
 20
-0.8354050852431226
 30
0.0
 10
1.708364634219277
 20
-0.8354050852431226
 30
0.0
 10
1.708364634219277
 20
-0.8354050852431226
 30
0.0
 10
1.709704894179468
 20
-1.004173225848856
 30
0.0
 10
1.709704894179468
 20
-1.004173225848856
 30
0.0
 10
1.709716774010757
 20
-1.008514560393665
 30
0.0
 10
1.711007891909073
 20
-1.012017374807227
 30
0.0
 10
1.71259709517047
 20
-1.012017374807227
 30
0.0
 10
1.71259709517047
 20
-1.012017374807227
 30
0.0
 10
1.689903975007634
 20
-1.012017374807227
 30
0.0
 10
1.689903975007634
 20
-1.012017374807227
 30
0.0
  0
HATCH
  5
186
330
178
100
AcDbEntity
  8
SDPW screw
440
 33554687
100
AcDbHatch
 10
0.0
 20
0.0
 30
0.0
210
0.0
220
0.0
230
1.0
  2
SOLID
 70
     1
 71
     1
 91
        1
 92
        1
 93
        1
 72
     4
 94
        3
 73
     0
 74
     0
 95
       26
 96
       22
 40
0.0
 40
0.0
 40
0.0
 40
0.0
 40
1.0
 40
1.0
 40
1.0
 40
2.0
 40
2.0
 40
2.0
 40
3.0
 40
3.0
 40
3.0
 40
4.0
 40
4.0
 40
4.0
 40
5.0
 40
5.0
 40
5.0
 40
6.0
 40
6.0
 40
6.0
 40
7.0
 40
7.0
 40
7.0
 40
7.0
 10
1.689903975007634
 20
-1.012017374807227
 10
1.688342840960002
 20
-1.010178833753899
 10
1.688603637974387
 20
-1.006664148308876
 10
1.68842320633338
 20
-1.004142934405459
 10
1.688033368627278
 20
-0.8244922858299332
 10
1.687638701850472
 20
-0.6448416372543938
 10
1.687238327990118
 20
-0.4651909570068887
 10
1.690899202574933
 20
-0.4651791355053345
 10
1.693914298707391
 20
-0.4684958290523329
 10
1.69408024313634
 20
-0.4727181928557356
 10
1.69408024313634
 20
-0.4727181928557356
 10
1.708364634219277
 20
-0.8354050852431226
 10
1.708364634219277
 20
-0.8354050852431226
 10
1.708364634219277
 20
-0.8354050852431226
 10
1.709704894179468
 20
-1.004173225848856
 10
1.709704894179468
 20
-1.004173225848856
 10
1.709716774010757
 20
-1.008514560393665
 10
1.711007891909073
 20
-1.012017374807227
 10
1.71259709517047
 20
-1.012017374807227
 10
1.71259709517047
 20
-1.012017374807227
 10
1.689903975007634
 20
-1.012017374807227
 10
1.689903975007634
 20
-1.012017374807227
 97
        0
 97
        1
330
185
 75
     2
 76
     0
 98
        1
 10
0.0
 20
0.0
450
        1
451
        0
460
-89.0
461
0.0
452
        0
462
0.0
453
        2
463
0.0
 63
   145
421
  4425388
463
1.0
 63
   145
421
  4425388
470
LINEAR
  0
SPLINE
  5
187
330
178
100
AcDbEntity
  8
SDPW screw
 62
   250
420
  2301728
370
     5
100
AcDbSpline
210
0.0
220
0.0
230
1.0
 70
     9
 71
     3
 72
    29
 73
    25
 74
     0
 42
0.0000000001
 43
0.0000000001
 40
0.0
 40
0.0
 40
0.0
 40
0.0
 40
1.0
 40
1.0
 40
1.0
 40
2.0
 40
2.0
 40
2.0
 40
3.0
 40
3.0
 40
3.0
 40
4.0
 40
4.0
 40
4.0
 40
5.0
 40
5.0
 40
5.0
 40
6.0
 40
6.0
 40
6.0
 40
7.0
 40
7.0
 40
7.0
 40
8.0
 40
8.0
 40
8.0
 40
8.0
 10
1.624834881580808
 20
-1.012017374807227
 30
0.0
 10
1.629176216125617
 20
-1.012017374807227
 30
0.0
 10
1.632704510769851
 20
-1.008514560393665
 30
0.0
 10
1.632736997245349
 20
-1.004173225848856
 30
0.0
 10
1.632736997245349
 20
-1.004173225848856
 30
0.0
 10
1.633325704862348
 20
-0.8354050852431226
 30
0.0
 10
1.633325704862348
 20
-0.8354050852431226
 30
0.0
 10
1.633325704862348
 20
-0.8354050852431226
 30
0.0
 10
1.634770475009695
 20
-0.4651909570068887
 30
0.0
 10
1.634770475009695
 20
-0.4651909570068887
 30
0.0
 10
1.634770475009695
 20
-0.4651909570068887
 30
0.0
 10
1.651455792235386
 20
-0.4651909570068887
 30
0.0
 10
1.651455792235386
 20
-0.4651909570068887
 30
0.0
 10
1.651455792235386
 20
-0.4651909570068887
 30
0.0
 10
1.652899684369862
 20
-0.8354050852431226
 30
0.0
 10
1.652899684369862
 20
-0.8354050852431226
 30
0.0
 10
1.652899684369862
 20
-0.8354050852431226
 30
0.0
 10
1.653489269999706
 20
-1.004173225848856
 30
0.0
 10
1.653489269999706
 20
-1.004173225848856
 30
0.0
 10
1.653520850385246
 20
-1.008514560393665
 30
0.0
 10
1.657049612113016
 20
-1.012017374807227
 30
0.0
 10
1.661391385664273
 20
-1.012017374807227
 30
0.0
 10
1.661391385664273
 20
-1.012017374807227
 30
0.0
 10
1.624834881580808
 20
-1.012017374807227
 30
0.0
 10
1.624834881580808
 20
-1.012017374807227
 30
0.0
  0
HATCH
  5
188
330
178
100
AcDbEntity
  8
SDPW screw
440
 33554687
100
AcDbHatch
 10
0.0
 20
0.0
 30
0.0
210
0.0
220
0.0
230
1.0
  2
SOLID
 70
     1
 71
     1
 91
        1
 92
        1
 93
        1
 72
     4
 94
        3
 73
     0
 74
     0
 95
       29
 96
       25
 40
0.0
 40
0.0
 40
0.0
 40
0.0
 40
1.0
 40
1.0
 40
1.0
 40
2.0
 40
2.0
 40
2.0
 40
3.0
 40
3.0
 40
3.0
 40
4.0
 40
4.0
 40
4.0
 40
5.0
 40
5.0
 40
5.0
 40
6.0
 40
6.0
 40
6.0
 40
7.0
 40
7.0
 40
7.0
 40
8.0
 40
8.0
 40
8.0
 40
8.0
 10
1.624834881580808
 20
-1.012017374807227
 10
1.629176216125617
 20
-1.012017374807227
 10
1.632704510769851
 20
-1.008514560393665
 10
1.632736997245349
 20
-1.004173225848856
 10
1.632736997245349
 20
-1.004173225848856
 10
1.633325704862348
 20
-0.8354050852431226
 10
1.633325704862348
 20
-0.8354050852431226
 10
1.633325704862348
 20
-0.8354050852431226
 10
1.634770475009695
 20
-0.4651909570068887
 10
1.634770475009695
 20
-0.4651909570068887
 10
1.634770475009695
 20
-0.4651909570068887
 10
1.651455792235386
 20
-0.4651909570068887
 10
1.651455792235386
 20
-0.4651909570068887
 10
1.651455792235386
 20
-0.4651909570068887
 10
1.652899684369862
 20
-0.8354050852431226
 10
1.652899684369862
 20
-0.8354050852431226
 10
1.652899684369862
 20
-0.8354050852431226
 10
1.653489269999706
 20
-1.004173225848856
 10
1.653489269999706
 20
-1.004173225848856
 10
1.653520850385246
 20
-1.008514560393665
 10
1.657049612113016
 20
-1.012017374807227
 10
1.661391385664273
 20
-1.012017374807227
 10
1.661391385664273
 20
-1.012017374807227
 10
1.624834881580808
 20
-1.012017374807227
 10
1.624834881580808
 20
-1.012017374807227
 97
        0
 97
        1
330
187
 75
     2
 76
     0
 98
        1
 10
0.0
 20
0.0
450
        1
451
        0
460
-90.0
461
0.0
452
        0
462
0.0
453
        2
463
0.0
 63
   145
421
  4425388
463
1.0
 63
   145
421
  4425388
470
LINEAR
  0
SPLINE
  5
189
330
178
100
AcDbEntity
  8
SDPW screw
 62
   250
420
  2301728
370
     5
100
AcDbSpline
210
0.0
220
0.0
230
1.0
 70
     9
 71
     3
 72
    26
 73
    22
 74
     0
 42
0.0000000001
 43
0.0000000001
 40
0.0
 40
0.0
 40
0.0
 40
0.0
 40
1.0
 40
1.0
 40
1.0
 40
2.0
 40
2.0
 40
2.0
 40
3.0
 40
3.0
 40
3.0
 40
4.0
 40
4.0
 40
4.0
 40
5.0
 40
5.0
 40
5.0
 40
6.0
 40
6.0
 40
6.0
 40
7.0
 40
7.0
 40
7.0
 40
7.0
 10
1.596313921593011
 20
-1.012017374807227
 30
0.0
 10
1.597891740209711
 20
-1.010190686927393
 30
0.0
 10
1.597617770710611
 20
-1.006664148308876
 30
0.0
 10
1.597803060911701
 20
-1.004142934405459
 30
0.0
 10
1.59819286914295
 20
-0.8244922858299332
 30
0.0
 10
1.598587126388186
 20
-0.6448416372543938
 30
0.0
 10
1.59898747079372
 20
-0.4651909570068887
 30
0.0
 10
1.595327064670148
 20
-0.4651791355053345
 30
0.0
 10
1.592311529531242
 20
-0.4684958290523329
 30
0.0
 10
1.592145146095895
 20
-0.4727181928557356
 30
0.0
 10
1.592145146095895
 20
-0.4727181928557356
 30
0.0
 10
1.577861194019356
 20
-0.8354050852431226
 30
0.0
 10
1.577861194019356
 20
-0.8354050852431226
 30
0.0
 10
1.577861194019356
 20
-0.8354050852431226
 30
0.0
 10
1.576521346407793
 20
-1.004173225848856
 30
0.0
 10
1.576521346407793
 20
-1.004173225848856
 30
0.0
 10
1.576509493234299
 20
-1.008514560393665
 30
0.0
 10
1.57521793632956
 20
-1.012017374807227
 30
0.0
 10
1.573628294061715
 20
-1.012017374807227
 30
0.0
 10
1.573628294061715
 20
-1.012017374807227
 30
0.0
 10
1.596313921593011
 20
-1.012017374807227
 30
0.0
 10
1.596313921593011
 20
-1.012017374807227
 30
0.0
  0
HATCH
  5
18A
330
178
100
AcDbEntity
  8
SDPW screw
440
 33554687
100
AcDbHatch
 10
0.0
 20
0.0
 30
0.0
210
0.0
220
0.0
230
1.0
  2
SOLID
 70
     1
 71
     1
 91
        1
 92
        1
 93
        1
 72
     4
 94
        3
 73
     0
 74
     0
 95
       26
 96
       22
 40
0.0
 40
0.0
 40
0.0
 40
0.0
 40
1.0
 40
1.0
 40
1.0
 40
2.0
 40
2.0
 40
2.0
 40
3.0
 40
3.0
 40
3.0
 40
4.0
 40
4.0
 40
4.0
 40
5.0
 40
5.0
 40
5.0
 40
6.0
 40
6.0
 40
6.0
 40
7.0
 40
7.0
 40
7.0
 40
7.0
 10
1.596313921593011
 20
-1.012017374807227
 10
1.597891740209711
 20
-1.010190686927393
 10
1.597617770710611
 20
-1.006664148308876
 10
1.597803060911701
 20
-1.004142934405459
 10
1.59819286914295
 20
-0.8244922858299332
 10
1.598587126388186
 20
-0.6448416372543938
 10
1.59898747079372
 20
-0.4651909570068887
 10
1.595327064670148
 20
-0.4651791355053345
 10
1.592311529531242
 20
-0.4684958290523329
 10
1.592145146095895
 20
-0.4727181928557356
 10
1.592145146095895
 20
-0.4727181928557356
 10
1.577861194019356
 20
-0.8354050852431226
 10
1.577861194019356
 20
-0.8354050852431226
 10
1.577861194019356
 20
-0.8354050852431226
 10
1.576521346407793
 20
-1.004173225848856
 10
1.576521346407793
 20
-1.004173225848856
 10
1.576509493234299
 20
-1.008514560393665
 10
1.57521793632956
 20
-1.012017374807227
 10
1.573628294061715
 20
-1.012017374807227
 10
1.573628294061715
 20
-1.012017374807227
 10
1.596313921593011
 20
-1.012017374807227
 10
1.596313921593011
 20
-1.012017374807227
 97
        0
 97
        1
330
189
 75
     2
 76
     0
 98
        1
 10
0.0
 20
0.0
450
        1
451
        0
460
-90.20000000000001
461
0.0
452
        0
462
0.0
453
        2
463
0.0
 63
   145
421
  4425388
463
1.0
 63
   145
421
  4425388
470
LINEAR
  0
LINE
  5
18B
330
178
100
AcDbEntity
  8
SDPW screw
 62
   250
420
  2301728
370
     5
100
AcDbLine
 10
1.695752857618698
 20
-0.4651909570068887
 30
0.0
 11
1.69567647050058
 21
-0.4651909570068887
 31
0.0
  0
LINE
  5
18C
330
178
100
AcDbEntity
  8
SDPW screw
 62
   250
420
  2301728
370
     5
100
AcDbLine
 10
1.687334031390946
 20
-0.4651909570068887
 30
0.0
 11
1.687258083279276
 21
-0.4651909570068887
 31
0.0
  0
LINE
  5
18D
330
178
100
AcDbEntity
  8
SDPW screw
 62
   250
420
  2301728
370
     5
100
AcDbLine
 10
1.598967744959357
 20
-0.4651909570068887
 30
0.0
 11
1.59889223585411
 21
-0.4651909570068887
 31
0.0
  0
LINE
  5
18E
330
178
100
AcDbEntity
  8
SDPW screw
 62
   250
420
  2301728
370
     5
100
AcDbLine
 10
1.59054891873163
 20
-0.4651909570068887
 30
0.0
 11
1.59047297061996
 21
-0.4651909570068887
 31
0.0
  0
LINE
  5
18F
330
178
100
AcDbEntity
  8
SDPW screw
 62
   250
420
  2301728
370
     5
100
AcDbLine
 10
1.730875127709017
 20
-1.012017374807227
 30
0.0
 11
1.556590015669674
 21
-1.012017374807227
 31
0.0
  0
SPLINE
  5
190
330
178
100
AcDbEntity
  8
SDPW screw
 62
   250
420
  2301728
370
     5
100
AcDbSpline
210
0.0
220
0.0
230
1.0
 70
     8
 71
     3
 72
    14
 73
    10
 74
     0
 42
0.0000000001
 43
0.0000000001
 40
0.0
 40
0.0
 40
0.0
 40
0.0
 40
1.0
 40
1.0
 40
1.0
 40
2.0
 40
2.0
 40
2.0
 40
3.0
 40
3.0
 40
3.0
 40
3.0
 10
1.69747683585284
 20
-0.4654438563800972
 30
0.0
 10
1.696925004775595
 20
-0.4652783509575708
 30
0.0
 10
1.696347711325643
 20
-0.4651909570068887
 30
0.0
 10
1.695752857618698
 20
-0.4651909570068887
 30
0.0
 10
1.695752857618698
 20
-0.4651909570068887
 30
0.0
 10
1.69567647050058
 20
-0.4651909570068887
 30
0.0
 10
1.69567647050058
 20
-0.4651909570068887
 30
0.0
 10
1.693001165341734
 20
-0.4652172973931102
 30
0.0
 10
1.690376784928225
 20
-0.4652015248330423
 30
0.0
 10
1.687334031390946
 20
-0.4651909570068887
 30
0.0
  0
ENDBLK
  5
17B
330
178
100
AcDbEntity
  8
0
100
AcDbBlockEnd
  0
BLOCK
  5
197
330
195
100
AcDbEntity
  8
0
100
AcDbBlockBegin
  2
Block_18
 70
     0
 10
0.0
 20
0.0
 30
0.0
  3
Block_18
  1

  0
LWPOLYLINE
  5
199
330
195
100
AcDbEntity
  8
Callout
100
AcDbPolyline
 90
        3
 70
     1
 43
0.0
 10
2.198869961752203
 20
-0.0925037021356098
 10
2.160801091540861
 20
-0.2359691849908232
 10
2.243528040754098
 20
-0.2350369131101186
  0
HATCH
  5
19A
330
195
100
AcDbEntity
  8
Callout
 62
   250
420
  2301728
440
 33554687
100
AcDbHatch
 10
0.0
 20
0.0
 30
0.0
210
0.0
220
0.0
230
1.0
  2
SOLID
 70
     1
 71
     1
 91
        1
 92
        1
 93
        3
 72
     1
 10
2.198869961752203
 20
-0.0925037021356098
 11
2.160801091540861
 21
-0.2359691849908232
 72
     1
 10
2.160801091540861
 20
-0.2359691849908232
 11
2.243528040754098
 21
-0.2350369131101186
 72
     1
 10
2.243528040754098
 20
-0.2350369131101186
 11
2.198869961752203
 21
-0.0925037021356098
 97
        1
330
199
 75
     2
 76
     1
 98
        1
 10
0.0
 20
0.0
450
        0
451
        0
460
0.0
461
0.0
452
        0
462
0.0
453
        0
470

  0
LINE
  5
19B
330
195
100
AcDbEntity
  8
Callout
 62
   250
420
  2301728
370
    25
100
AcDbLine
 10
2.202799961163564
 20
-0.1686674374143548
 30
0.0
 11
2.202158391553565
 21
-0.3629438830474024
 31
0.0
  0
ENDBLK
  5
198
330
195
100
AcDbEntity
  8
0
100
AcDbBlockEnd
  0
BLOCK
  5
19E
330
19C
100
AcDbEntity
  8
0
100
AcDbBlockBegin
  2
Block_19
 70
     0
 10
0.0
 20
0.0
 30
0.0
  3
Block_19
  1

  0
LWPOLYLINE
  5
1A0
330
19C
100
AcDbEntity
  8
Callout
100
AcDbPolyline
 90
        3
 70
     1
 43
0.0
 10
2.206566779493894
 20
-0.4728373964466578
 10
2.244161670888944
 20
-0.329237332367168
 10
2.161438251438185
 20
-0.3304427913822488
  0
HATCH
  5
1A1
330
19C
100
AcDbEntity
  8
Callout
 62
   250
420
  2301728
440
 33554687
100
AcDbHatch
 10
0.0
 20
0.0
 30
0.0
210
0.0
220
0.0
230
1.0
  2
SOLID
 70
     1
 71
     1
 91
        1
 92
        1
 93
        3
 72
     1
 10
2.206566779493894
 20
-0.4728373964466578
 11
2.244161670888944
 21
-0.329237332367168
 72
     1
 10
2.244161670888944
 20
-0.329237332367168
 11
2.161438251438185
 21
-0.3304427913822488
 72
     1
 10
2.161438251438185
 20
-0.3304427913822488
 11
2.206566779493894
 21
-0.4728373964466578
 97
        1
330
1A0
 75
     2
 76
     1
 98
        1
 10
0.0
 20
0.0
450
        0
451
        0
460
0.0
461
0.0
452
        0
462
0.0
453
        0
470

  0
LINE
  5
1A2
330
19C
100
AcDbEntity
  8
Callout
 62
   250
420
  2301728
370
    25
100
AcDbLine
 10
2.202385283262376
 20
-0.3966871039132735
 30
0.0
 11
2.202385283262376
 21
-0.2279537015530448
 31
0.0
  0
ENDBLK
  5
19F
330
19C
100
AcDbEntity
  8
0
100
AcDbBlockEnd
  0
ENDSEC
  0
SECTION
  2
ENTITIES
  0
LWPOLYLINE
  5
79
330
70
100
AcDbEntity
  8
fill layer
100
AcDbPolyline
 90
       10
 70
     0
 43
0.0
 10
1.833462761739635
 20
-0.4703595727848753
 10
3.373399004279412
 20
-0.4703595727848753
 10
3.373399004279412
 20
-0.6735725022494484
 10
3.443730303278445
 20
-0.7189660221460801
 10
3.292521385715669
 20
-0.7539485527409448
 10
3.373399004279412
 20
-0.7954660082476468
 10
3.373399004279412
 20
-0.8531804015906976
 10
3.373399004279412
 20
-0.9501519763996636
 10
3.373399004279412
 20
-1.051074669027861
 10
1.833462761739635
 20
-1.051074669027861
  0
HATCH
  5
7A
330
70
100
AcDbEntity
  8
fill layer
 62
    33
420
 15180890
440
 33554687
100
AcDbHatch
 10
0.0
 20
0.0
 30
0.0
210
0.0
220
0.0
230
1.0
  2
SOLID
 70
     1
 71
     1
 91
        1
 92
        3
 72
     0
 73
     1
 93
       10
 10
1.833462761739635
 20
-0.4703595727848753
 10
3.373399004279412
 20
-0.4703595727848753
 10
3.373399004279412
 20
-0.6735725022494484
 10
3.443730303278445
 20
-0.7189660221460801
 10
3.292521385715669
 20
-0.7539485527409448
 10
3.373399004279412
 20
-0.7954660082476468
 10
3.373399004279412
 20
-0.8531804015906976
 10
3.373399004279412
 20
-0.9501519763996636
 10
3.373399004279412
 20
-1.051074669027861
 10
1.833462761739635
 20
-1.051074669027861
 97
        0
 75
     2
 76
     1
 98
        1
 10
0.0
 20
0.0
450
        0
451
        0
460
0.0
461
0.0
452
        0
462
0.0
453
        0
470

  0
LWPOLYLINE
  5
7B
330
70
100
AcDbEntity
  8
fill layer
100
AcDbPolyline
 90
       11
 70
     0
 43
0.0
 10
1.833462846887944
 20
-1.054211126475807
 10
-0.1414454221581233
 20
-1.054211126475807
 10
-0.1414454221581233
 20
-1.203879032811667
 10
-0.1414454221581233
 20
-1.068886492132138
 10
-0.1414454221581233
 20
-0.7803469114333615
 10
-0.2073406337583997
 20
-0.734474142083665
 10
-0.0755405668857318
 20
-0.6899528415458715
 10
-0.1414454221581233
 20
-0.6447350299952051
 10
-0.1414454221581233
 20
-0.4703599362221667
 10
1.39498634883508
 20
-0.4703599362221667
 10
1.833462846887944
 20
-0.4703599362221667
  0
HATCH
  5
7C
330
70
100
AcDbEntity
  8
fill layer
 62
    33
420
 15180890
440
 33554687
100
AcDbHatch
 10
0.0
 20
0.0
 30
0.0
210
0.0
220
0.0
230
1.0
  2
SOLID
 70
     1
 71
     1
 91
        1
 92
        3
 72
     0
 73
     1
 93
       11
 10
1.833462846887944
 20
-1.054211126475807
 10
-0.1414454221581233
 20
-1.054211126475807
 10
-0.1414454221581233
 20
-1.203879032811667
 10
-0.1414454221581233
 20
-1.068886492132138
 10
-0.1414454221581233
 20
-0.7803469114333615
 10
-0.2073406337583997
 20
-0.734474142083665
 10
-0.0755405668857318
 20
-0.6899528415458715
 10
-0.1414454221581233
 20
-0.6447350299952051
 10
-0.1414454221581233
 20
-0.4703599362221667
 10
1.39498634883508
 20
-0.4703599362221667
 10
1.833462846887944
 20
-0.4703599362221667
 97
        0
 75
     2
 76
     1
 98
        1
 10
0.0
 20
0.0
450
        0
451
        0
460
0.0
461
0.0
452
        0
462
0.0
453
        0
470

  0
LINE
  5
7D
330
70
100
AcDbEntity
  8
fill layer
100
AcDbLine
 10
1.615980621767473
 20
-0.8186165861359565
 30
0.0
 11
1.615980621767473
 21
-1.164113676771471
 31
0.0
  0
LINE
  5
7E
330
70
100
AcDbEntity
  8
fill layer
100
AcDbLine
 10
1.833501355890929
 20
-1.164113676771471
 30
0.0
 11
1.394986283150577
 21
-1.164113676771471
 31
0.0
  0
LINE
  5
7F
330
70
100
AcDbEntity
  8
fill layer
100
AcDbLine
 10
-0.1414454878426265
 20
-0.8186165861359565
 30
0.0
 11
3.373399023743205
 21
-0.8325054750248455
 31
0.0
  0
LINE
  5
80
330
70
100
AcDbEntity
  8
fill layer
100
AcDbLine
 10
1.394986283150577
 20
-0.4703597010189166
 30
0.0
 11
1.44780730213261
 21
-0.4717383097310706
 31
0.0
  0
LWPOLYLINE
  5
81
330
70
100
AcDbEntity
  8
fill layer
100
AcDbPolyline
 90
        4
 70
     1
 43
0.0
 10
1.977598566308238
 20
-0.0811272805469798
 10
1.29211469534045
 20
-0.0811272805469798
 10
1.29211469534045
 20
1.353557191876524
 10
1.977598566308238
 20
1.353557191876524
  0
HATCH
  5
82
330
70
100
AcDbEntity
  8
fill layer
 62
    33
420
 15180890
440
 33554687
100
AcDbHatch
 10
0.0
 20
0.0
 30
0.0
210
0.0
220
0.0
230
1.0
  2
SOLID
 70
     1
 71
     1
 91
        1
 92
        1
 93
        4
 72
     1
 10
1.977598566308238
 20
-0.0811272805469798
 11
1.29211469534045
 21
-0.0811272805469798
 72
     1
 10
1.29211469534045
 20
-0.0811272805469798
 11
1.29211469534045
 21
1.353557191876524
 72
     1
 10
1.29211469534045
 20
1.353557191876524
 11
1.977598566308238
 21
1.353557191876524
 72
     1
 10
1.977598566308238
 20
1.353557191876524
 11
1.977598566308238
 21
-0.0811272805469798
 97
        1
330
81
 75
     2
 76
     1
 98
        1
 10
0.0
 20
0.0
450
        0
451
        0
460
0.0
461
0.0
452
        0
462
0.0
453
        0
470

  0
LWPOLYLINE
  5
84
330
70
100
AcDbEntity
  8
Wood
 62
   250
420
  2301728
370
    40
100
AcDbPolyline
 90
       10
 70
     0
 43
0.0
 10
1.83346275393938
 20
-0.4703595213940288
 10
3.373398996479156
 20
-0.4703595213940288
 10
3.373398996479156
 20
-0.6735723951810542
 10
3.443730295478189
 20
-0.718965898528116
 10
3.292521377915413
 20
-0.7539484107464507
 10
3.373398996479156
 20
-0.7954658517397017
 10
3.373398996479156
 20
-0.8531801491017933
 10
3.373398996479156
 20
-0.9501516729710221
 10
3.373398996479156
 20
-1.051074312583927
 10
1.83346275393938
 20
-1.051074312583927
  0
LWPOLYLINE
  5
85
330
70
100
AcDbEntity
  8
Wood
 62
   250
420
  2301728
370
    60
100
AcDbPolyline
 90
        4
 70
     1
 43
0.0
 10
1.977598566308238
 20
-0.0811272805469798
 10
1.977598566308238
 20
1.353557191876524
 10
1.29211469534045
 20
1.353557191876524
 10
1.29211469534045
 20
-0.0811272805469798
  0
LWPOLYLINE
  5
86
330
70
100
AcDbEntity
  8
Wood
 62
   250
420
  2301728
370
    50
100
AcDbPolyline
 90
        7
 70
     0
 43
0.0
 10
-0.1414454296550376
 20
-1.089897024291897
 10
-0.1414454296550376
 20
-0.7912286060629109
 10
-0.207340641255314
 20
-0.7437455279067788
 10
-0.0755405743826461
 20
-0.6976613602618551
 10
-0.1414454296550376
 20
-0.6508562314164187
 10
-0.1414454296550376
 20
-0.4703599081404441
 10
1.822580703348876
 20
-0.4703599081404441
  0
LWPOLYLINE
  5
87
330
70
100
AcDbEntity
  8
Wood
 62
   250
420
  2301728
370
    40
100
AcDbPolyline
 90
        1
 70
     0
 43
0.0
 10
-0.1414454878426265
 20
-1.033720986075359
  0
LINE
  5
88
330
70
100
AcDbEntity
  8
Wood
 62
   250
420
  2301728
370
    40
100
AcDbLine
 10
1.394986263686796
 20
-1.051074669027861
 30
0.0
 11
-0.1414455073064068
 21
-1.051074669027861
 31
0.0
  0
LINE
  5
89
330
70
100
AcDbEntity
  8
Wood
 62
   250
420
  2301728
370
    40
100
AcDbLine
 10
1.833501336427136
 20
-1.051074669027861
 30
0.0
 11
1.394986263686796
 21
-1.051074669027861
 31
0.0
  0
INSERT
  5
8B
330
70
100
AcDbEntity
  8
Wood
100
AcDbBlockReference
  2
Block_0
 10
0.0
 20
0.0
 30
0.0
  0
LINE
  5
EA
330
70
100
AcDbEntity
  8
Wood
 62
   250
420
  2301728
370
    40
100
AcDbLine
 10
3.373399023743205
 20
-0.4703597010189166
 30
0.0
 11
3.373399023743205
 21
-0.4023587297261758
 31
0.0
  0
LINE
  5
EB
330
70
100
AcDbEntity
  8
Wood
 62
   250
420
  2301728
370
    40
100
AcDbLine
 10
3.373399023743205
 20
-1.05300256566036
 30
0.0
 11
3.373399023743205
 21
-1.126792114695338
 31
0.0
  0
LINE
  5
EC
330
70
100
AcDbEntity
  8
Wood
 62
   250
420
  2301728
370
    40
100
AcDbLine
 10
-0.1414454878426265
 20
-0.4703597010189166
 30
0.0
 11
-0.1414454878426265
 21
-0.3974014336917485
 31
0.0
  0
LWPOLYLINE
  5
ED
330
70
100
AcDbEntity
  8
Wood
 62
   250
420
  2301728
370
    40
100
AcDbPolyline
 90
        1
 70
     0
 43
0.0
 10
-0.1414454878426265
 20
-1.237903225806449
  0
LWPOLYLINE
  5
EE
330
70
100
AcDbEntity
  8
Wood
 62
   250
420
  2301728
370
    40
100
AcDbPolyline
 90
        1
 70
     0
 43
0.0
 10
-0.1414454878426265
 20
-1.164113676771471
  0
LWPOLYLINE
  5
F0
330
70
100
AcDbEntity
  8
SDPW screw
 62
   250
420
  2301728
370
    50
100
AcDbPolyline
 90
        1
 70
     0
 43
0.0
 10
1.833501355890929
 20
-0.4690911254485476
  0
LWPOLYLINE
  5
F1
330
70
100
AcDbEntity
  8
SDPW screw
 62
   250
420
  2301728
370
    50
100
AcDbPolyline
 90
        1
 70
     0
 43
0.0
 10
1.394986283150577
 20
-0.4690911254485476
  0
INSERT
  5
F3
330
70
100
AcDbEntity
  8
SDPW screw
100
AcDbBlockReference
  2
Block_1
 10
0.0
 20
0.0
 30
0.0
  0
MTEXT
  5
192
330
70
100
AcDbEntity
  8
Callout
100
AcDbMText
 10
-0.118132750193278
 20
0.8657938109503851
 30
0.0
 40
0.2
 41
0.0
 46
0.0
 71
     7
 72
     1
  1
\C250;\c2105123;\FHelvetica Neue LT Std 57 Condensed|b0|i0|c1;\H0.118000;\W1.000000;Minimum screw 
 73
     1
 44
1.0
  0
MTEXT
  5
193
330
70
100
AcDbEntity
  8
Callout
100
AcDbMText
 10
-0.2656275961134169
 20
0.6991271442837185
 30
0.0
 40
0.2
 41
0.0
 46
0.0
 71
     7
 72
     1
  1
\C250;\c2105123;\FHelvetica Neue LT Std 57 Condensed|b0|i0|c1;\H0.118000;\W1.000000;embedment 13mm
 73
     1
 44
1.0
  0
MTEXT
  5
194
330
70
100
AcDbEntity
  8
Callout
100
AcDbMText
 10
2.350768460167778
 20
-0.3164677090115017
 30
0.0
 40
0.2
 41
0.0
 46
0.0
 71
     7
 72
     1
  1
\C250;\c2105123;\FHelvetica Neue LT Std 57 Condensed|b0|i0|c1;\H0.118000;\W1.000000;10mm - 19mm Gap
 73
     1
 44
1.0
  0
INSERT
  5
196
330
70
100
AcDbEntity
  8
Callout
100
AcDbBlockReference
  2
Block_18
 10
0.0
 20
0.0
 30
0.0
  0
INSERT
  5
19D
330
70
100
AcDbEntity
  8
Callout
100
AcDbBlockReference
  2
Block_19
 10
0.0
 20
0.0
 30
0.0
  0
LINE
  5
1A3
330
70
100
AcDbEntity
  8
Callout
 62
   250
420
  2301728
370
    25
100
AcDbLine
 10
2.009819526721685
 20
-0.0928819167878601
 30
0.0
 11
2.278685176000029
 21
-0.0933464502451721
 31
0.0
  0
MTEXT
  5
1A4
330
70
100
AcDbEntity
  8
Callout
100
AcDbMText
 10
0.8339234458075628
 20
-2.159536494149102
 30
0.0
 40
0.2
 41
0.0
 46
0.0
 71
     7
 72
     1
  1
\C250;\c2105123;\FHelvetica Neue LT Std 55 Roman|b0|i0|c1;\H0.118000;\W1.000000;SIMPSON Strong-Tie\H0.068794;®\H0.118000; ^C
 73
     1
 44
1.0
  0
MTEXT
  5
1A5
330
70
100
AcDbEntity
  8
Callout
100
AcDbMText
 10
0.0116442574395074
 20
-2.359541919496324
 30
0.0
 40
0.2
 41
0.0
 46
0.0
 71
     7
 72
     1
  1
\C250;\c2105123;\FHelvetica Neue LT Std 55 Roman|b0|i0|c1;\H0.118000;\W1.000000;SDPW Wall Plate-to-Truss/Joist Installation - 
 73
     1
 44
1.0
  0
MTEXT
  5
1A6
330
70
100
AcDbEntity
  8
Callout
100
AcDbMText
 10
1.144456757439507
 20
-2.559547344843546
 30
0.0
 40
0.2
 41
0.0
 46
0.0
 71
     7
 72
     1
  1
\C250;\c2105123;\FHelvetica Neue LT Std 55 Roman|b0|i0|c1;\H0.118000;\W1.000000;Cross Section 
 73
     1
 44
1.0
  0
MTEXT
  5
1A7
330
70
100
AcDbEntity
  8
Callout
100
AcDbMText
 10
2.430643717447916
 20
1.114137437608506
 30
0.0
 40
0.2
 41
0.0
 46
0.0
 71
     7
 72
     1
  1
\C250;\c2105123;\FHelvetica Neue LT Std 57 Condensed|b0|i0|c1;\H0.118000;\W1.000000;Truss/Rafter/Joist
 73
     1
 44
1.0
  0
MTEXT
  5
1A8
330
70
100
AcDbEntity
  8
Callout
100
AcDbMText
 10
-0.1795623567369249
 20
0.0223580731285943
 30
0.0
 40
0.2
 41
0.0
 46
0.0
 71
     7
 72
     1
  1
\C250;\c2105123;\FHelvetica Neue LT Std 57 Condensed|b0|i0|c1;\H0.118000;\W1.000000;35mm Top Plate
 73
     1
 44
1.0
  0
MTEXT
  5
1A9
330
70
100
AcDbEntity
  8
Callout
100
AcDbMText
 10
2.202158610026041
 20
-1.321637789408365
 30
0.0
 40
0.2
 41
0.0
 46
0.0
 71
     7
 72
     1
  1
\C250;\c2105123;\FHelvetica Neue LT Std 57 Condensed|b0|i0|c1;\H0.118000;\W1.000000;No offset
 73
     1
 44
1.0
  0
LINE
  5
1AA
330
70
100
AcDbEntity
  8
Callout
 62
   250
420
  2301728
370
    18
100
AcDbLine
 10
2.350767130510525
 20
1.158393364206138
 30
0.0
 11
1.973214710248208
 21
0.8138121598317916
 31
0.0
  0
LINE
  5
1AB
330
70
100
AcDbEntity
  8
Callout
 62
   250
420
  2301728
370
    18
100
AcDbLine
 10
0.8024262440066978
 20
-0.0569769678463419
 30
0.0
 11
1.044802867383509
 21
-0.465190925504506
 31
0.0
  0
LINE
  5
1AC
330
70
100
AcDbEntity
  8
Callout
 62
   250
420
  2301728
370
    18
100
AcDbLine
 10
2.138217696342381
 20
-1.237903225806424
 30
0.0
 11
1.74639200378955
 21
-1.045709847742361
 31
0.0
  0
LINE
  5
1AD
330
70
100
AcDbEntity
  8
Callout
 62
   250
420
  2301728
370
    18
100
AcDbLine
 10
0.9712259455234541
 20
0.8572280547050468
 30
0.0
 11
1.598113369080465
 21
0.2909663548024102
 31
0.0
  0
MTEXT
  5
1AE
330
70
100
AcDbEntity
  8
Callout
100
AcDbMText
 10
0.0849664476182726
 20
-1.3193056318495
 30
0.0
 40
0.2
 41
0.0
 46
0.0
 71
     7
 72
     1
  1
\C250;\c2105123;\FHelvetica Neue LT Std 57 Condensed|b0|i0|c1;\H0.118000;\W1.000000;SDPW14312^C
 73
     1
 44
1.0
  0
MTEXT
  5
1AF
330
70
100
AcDbEntity
  8
Callout
100
AcDbMText
 10
0.2947171529134114
 20
-1.479027854071722
 30
0.0
 40
0.2
 41
0.0
 46
0.0
 71
     7
 72
     1
  1
\C250;\c2105123;\FHelvetica Neue LT Std 57 Condensed|b0|i0|c1;\H0.118000;\W1.000000;(Blue)
 73
     1
 44
1.0
  0
LINE
  5
1B0
330
70
100
AcDbEntity
  8
Callout
 62
   250
420
  2301728
370
    18
100
AcDbLine
 10
0.9457885304659486
 20
-1.25653076171875
 30
0.0
 11
1.558473336530217
 21
-0.7662395773272818
 31
0.0
  0
ENDSEC
  0
SECTION
  2
OBJECTS
  0
DICTIONARY
  5
C
330
0
100
AcDbDictionary
281
     1
  3
ACAD_COLOR
350
63
  3
ACAD_DETAILVIEWSTYLE
350
6A
  3
ACAD_GROUP
350
D
  3
ACAD_LAYOUT
350
62
  3
ACAD_MATERIAL
350
10
  3
ACAD_MLEADERSTYLE
350
66
  3
ACAD_MLINESTYLE
350
5F
  3
ACAD_PLOTSETTINGS
350
61
  3
ACAD_PLOTSTYLENAME
350
E
  3
ACAD_SCALELIST
350
42
  3
ACAD_SECTIONVIEWSTYLE
350
68
  3
ACAD_TABLESTYLE
350
64
  3
ACAD_VISUALSTYLE
350
29
  3
ACDB_RECOMPOSE_DATA
350
1BA
  3
AcDbVariableDictionary
350
1B1
  0
DICTIONARY
  5
63
102
{ACAD_REACTORS
330
C
102
}
330
C
100
AcDbDictionary
281
     1
  0
DICTIONARY
  5
6A
102
{ACAD_REACTORS
330
C
102
}
330
C
100
AcDbDictionary
281
     1
  3
Imperial24
350
6B
  0
DICTIONARY
  5
D
102
{ACAD_REACTORS
330
C
102
}
330
C
100
AcDbDictionary
281
     1
  0
DICTIONARY
  5
62
102
{ACAD_REACTORS
330
C
102
}
330
C
100
AcDbDictionary
281
     1
  3
Layout1
350
6F
  3
Layout2
350
77
  3
Model
350
73
  0
DICTIONARY
  5
10
102
{ACAD_REACTORS
330
C
102
}
330
C
100
AcDbDictionary
281
     1
  3
ByBlock
350
19
  3
ByLayer
350
11
  3
Global
350
21
  0
DICTIONARY
  5
66
102
{ACAD_REACTORS
330
C
102
}
330
C
100
AcDbDictionary
281
     1
  3
Standard
350
67
  0
DICTIONARY
  5
5F
102
{ACAD_REACTORS
330
C
102
}
330
C
100
AcDbDictionary
281
     1
  3
Standard
350
60
  0
DICTIONARY
  5
61
102
{ACAD_REACTORS
330
C
102
}
330
C
100
AcDbDictionary
281
     1
  0
ACDBDICTIONARYWDFLT
  5
E
102
{ACAD_REACTORS
330
C
102
}
330
C
100
AcDbDictionary
281
     1
  3
Normal
350
F
100
AcDbDictionaryWithDefault
340
F
  0
DICTIONARY
  5
42
102
{ACAD_REACTORS
330
C
102
}
330
C
100
AcDbDictionary
281
     1
  3
A0
350
43
  3
A1
350
44
  3
A2
350
45
  3
A3
350
46
  3
A4
350
47
  3
A5
350
48
  3
A6
350
49
  3
A7
350
4A
  3
A8
350
4B
  3
A9
350
4C
  3
B0
350
4D
  3
B1
350
4E
  3
B2
350
4F
  3
B3
350
50
  3
B4
350
51
  3
B5
350
52
  3
B6
350
53
  0
DICTIONARY
  5
68
102
{ACAD_REACTORS
330
C
102
}
330
C
100
AcDbDictionary
281
     1
  3
Imperial24
350
69
  0
DICTIONARY
  5
64
102
{ACAD_REACTORS
330
C
102
}
330
C
100
AcDbDictionary
281
     1
  3
Standard
350
65
  0
DICTIONARY
  5
29
102
{ACAD_REACTORS
330
C
102
}
330
C
100
AcDbDictionary
281
     1
  3
2dWireframe
350
2F
  3
Basic
350
2E
  3
Brighten
350
35
  3
ColorChange
350
39
  3
Conceptual
350
32
  3
Dim
350
34
  3
EdgeColorOff
350
41
  3
Facepattern
350
38
  3
Flat
350
2A
  3
FlatWithEdges
350
2B
  3
Gouraud
350
2C
  3
GouraudWithEdges
350
2D
  3
Hidden
350
31
  3
JitterOff
350
3F
  3
Linepattern
350
37
  3
OverhangOff
350
40
  3
Realistic
350
33
  3
Shaded
350
3E
  3
Shaded with edges
350
3D
  3
Shades of Gray
350
3A
  3
Sketchy
350
3B
  3
Thicken
350
36
  3
Wireframe
350
30
  3
X-Ray
350
3C
  0
XRECORD
  5
1BA
102
{ACAD_REACTORS
330
C
102
}
330
C
100
AcDbXrecord
280
     1
 90
        1
330
65
  0
DICTIONARY
  5
1B1
102
{ACAD_REACTORS
330
C
102
}
330
C
100
AcDbDictionary
281
     1
  3
CANNOSCALE
350
1B6
  3
CMLEADERSTYLE
350
1B3
  3
CTABLESTYLE
350
1B2
  3
CVIEWDETAILSTYLE
350
1B4
  3
CVIEWSECTIONSTYLE
350
1B5
  0
ACDBDETAILVIEWSTYLE
  5
6B
102
{ACAD_XDICTIONARY
360
1EF
102
}
102
{ACAD_REACTORS
330
6A
102
}
330
6A
100
AcDbModelDocViewStyle
 70
     0
  3
Imperial24
290
     0
100
AcDbDetailViewStyle
 70
     0
 71
     0
 90
        3
 71
     1
340
55
 62
   256
 40
0.24
340
0
 62
   256
 40
0.24
300

 40
0.36
280
     3
 71
     2
340
5D
 90
       25
 62
   256
 71
     3
340
55
 62
   256
 40
0.24
 90
        1
 40
0.75
 90
        1
300
%<\AcVar ViewType \f "%tc1">% %<\AcVar ViewDetailId>%\PSCALE %<\AcVar ViewScale \f "%sn">%
 71
     4
340
5D
 90
       25
 62
   256
340
5D
 90
       25
 62
   256
280
     0
  0
LAYOUT
  5
6F
102
{ACAD_REACTORS
330
62
102
}
330
62
100
AcDbPlotSettings
  1

  2

  4

  6

 40
0.0
 41
0.0
 42
0.0
 43
0.0
 44
0.0
 45
0.0
 46
0.0
 47
0.0
 48
0.0
 49
0.0
140
0.0
141
0.0
142
1.0
143
1.0
 70
   688
 72
     0
 73
     0
 74
     5
  7

 75
    16
147
1.0
 76
     0
 77
     2
 78
   300
148
0.0
149
0.0
100
AcDbLayout
  1
Layout1
 70
     1
 71
     1
 10
0.0
 20
0.0
 11
12.0
 21
9.0
 12
0.0
 22
0.0
 32
0.0
 14
0.0
 24
0.0
 34
0.0
 15
0.0
 25
0.0
 35
0.0
146
0.0
 13
0.0
 23
0.0
 33
0.0
 16
1.0
 26
0.0
 36
0.0
 17
0.0
 27
1.0
 37
0.0
 76
     0
330
6C
  0
LAYOUT
  5
77
102
{ACAD_REACTORS
330
62
102
}
330
62
100
AcDbPlotSettings
  1

  2

  4

  6

 40
0.0
 41
0.0
 42
0.0
 43
0.0
 44
0.0
 45
0.0
 46
0.0
 47
0.0
 48
0.0
 49
0.0
140
0.0
141
0.0
142
1.0
143
1.0
 70
   688
 72
     0
 73
     0
 74
     5
  7

 75
    16
147
1.0
 76
     0
 77
     2
 78
   300
148
0.0
149
0.0
100
AcDbLayout
  1
Layout2
 70
     1
 71
     2
 10
0.0
 20
0.0
 11
12.0
 21
9.0
 12
0.0
 22
0.0
 32
0.0
 14
0.0
 24
0.0
 34
0.0
 15
0.0
 25
0.0
 35
0.0
146
0.0
 13
0.0
 23
0.0
 33
0.0
 16
1.0
 26
0.0
 36
0.0
 17
0.0
 27
1.0
 37
0.0
 76
     0
330
74
  0
LAYOUT
  5
73
102
{ACAD_REACTORS
330
62
102
}
330
62
100
AcDbPlotSettings
  1

  2

  4

  6

 40
0.0
 41
0.0
 42
0.0
 43
0.0
 44
0.0
 45
0.0
 46
0.0
 47
0.0
 48
0.0
 49
0.0
140
0.0
141
0.0
142
1.0
143
1.0
 70
  1712
 72
     0
 73
     0
 74
     0
  7

 75
     0
147
1.0
 76
     0
 77
     2
 78
   300
148
0.0
149
0.0
100
AcDbLayout
  1
Model
 70
     1
 71
     0
 10
0.0
 20
0.0
 11
12.0
 21
9.0
 12
0.0
 22
0.0
 32
0.0
 14
0.0
 24
0.0
 34
0.0
 15
0.0
 25
0.0
 35
0.0
146
0.0
 13
0.0
 23
0.0
 33
0.0
 16
1.0
 26
0.0
 36
0.0
 17
0.0
 27
1.0
 37
0.0
 76
     0
330
70
  0
MATERIAL
  5
19
102
{ACAD_XDICTIONARY
360
1A
102
}
102
{ACAD_REACTORS
330
10
102
}
330
10
100
AcDbMaterial
  1
ByBlock
 72
     0
 43
0.0208333333333333
 43
0.0
 43
0.0
 43
0.0
 43
0.0
 43
0.0208333333333333
 43
0.0
 43
0.0
 43
0.0
 43
0.0
 43
1.0
 43
0.0
 43
0.0
 43
0.0
 43
0.0
 43
1.0
 77
     0
 47
0.0208333333333333
 47
0.0
 47
0.0
 47
0.0
 47
0.0
 47
0.0208333333333333
 47
0.0
 47
0.0
 47
0.0
 47
0.0
 47
1.0
 47
0.0
 47
0.0
 47
0.0
 47
0.0
 47
1.0
171
     0
 49
0.0208333333333333
 49
0.0
 49
0.0
 49
0.0
 49
0.0
 49
0.0208333333333333
 49
0.0
 49
0.0
 49
0.0
 49
0.0
 49
1.0
 49
0.0
 49
0.0
 49
0.0
 49
0.0
 49
1.0
175
     0
142
0.0208333333333333
142
0.0
142
0.0
142
0.0
142
0.0
142
0.0208333333333333
142
0.0
142
0.0
142
0.0
142
0.0
142
1.0
142
0.0
142
0.0
142
0.0
142
0.0
142
1.0
179
     0
144
0.0208333333333333
144
0.0
144
0.0
144
0.0
144
0.0
144
0.0208333333333333
144
0.0
144
0.0
144
0.0
144
0.0
144
1.0
144
0.0
144
0.0
144
0.0
144
0.0
144
1.0
147
0.0208333333333333
147
0.0
147
0.0
147
0.0
147
0.0
147
0.0208333333333333
147
0.0
147
0.0
147
0.0
147
0.0
147
1.0
147
0.0
147
0.0
147
0.0
147
0.0
147
1.0
  0
MATERIAL
  5
11
102
{ACAD_XDICTIONARY
360
12
102
}
102
{ACAD_REACTORS
330
10
102
}
330
10
100
AcDbMaterial
  1
ByLayer
 72
     0
 43
0.0208333333333333
 43
0.0
 43
0.0
 43
0.0
 43
0.0
 43
0.0208333333333333
 43
0.0
 43
0.0
 43
0.0
 43
0.0
 43
1.0
 43
0.0
 43
0.0
 43
0.0
 43
0.0
 43
1.0
 77
     0
 47
0.0208333333333333
 47
0.0
 47
0.0
 47
0.0
 47
0.0
 47
0.0208333333333333
 47
0.0
 47
0.0
 47
0.0
 47
0.0
 47
1.0
 47
0.0
 47
0.0
 47
0.0
 47
0.0
 47
1.0
171
     0
 49
0.0208333333333333
 49
0.0
 49
0.0
 49
0.0
 49
0.0
 49
0.0208333333333333
 49
0.0
 49
0.0
 49
0.0
 49
0.0
 49
1.0
 49
0.0
 49
0.0
 49
0.0
 49
0.0
 49
1.0
175
     0
142
0.0208333333333333
142
0.0
142
0.0
142
0.0
142
0.0
142
0.0208333333333333
142
0.0
142
0.0
142
0.0
142
0.0
142
1.0
142
0.0
142
0.0
142
0.0
142
0.0
142
1.0
179
     0
144
0.0208333333333333
144
0.0
144
0.0
144
0.0
144
0.0
144
0.0208333333333333
144
0.0
144
0.0
144
0.0
144
0.0
144
1.0
144
0.0
144
0.0
144
0.0
144
0.0
144
1.0
147
0.0208333333333333
147
0.0
147
0.0
147
0.0
147
0.0
147
0.0208333333333333
147
0.0
147
0.0
147
0.0
147
0.0
147
1.0
147
0.0
147
0.0
147
0.0
147
0.0
147
1.0
  0
MATERIAL
  5
21
102
{ACAD_XDICTIONARY
360
22
102
}
102
{ACAD_REACTORS
330
10
102
}
330
10
100
AcDbMaterial
  1
Global
 72
     0
 43
0.0208333333333333
 43
0.0
 43
0.0
 43
0.0
 43
0.0
 43
0.0208333333333333
 43
0.0
 43
0.0
 43
0.0
 43
0.0
 43
1.0
 43
0.0
 43
0.0
 43
0.0
 43
0.0
 43
1.0
 77
     0
 47
0.0208333333333333
 47
0.0
 47
0.0
 47
0.0
 47
0.0
 47
0.0208333333333333
 47
0.0
 47
0.0
 47
0.0
 47
0.0
 47
1.0
 47
0.0
 47
0.0
 47
0.0
 47
0.0
 47
1.0
171
     0
 49
0.0208333333333333
 49
0.0
 49
0.0
 49
0.0
 49
0.0
 49
0.0208333333333333
 49
0.0
 49
0.0
 49
0.0
 49
0.0
 49
1.0
 49
0.0
 49
0.0
 49
0.0
 49
0.0
 49
1.0
175
     0
142
0.0208333333333333
142
0.0
142
0.0
142
0.0
142
0.0
142
0.0208333333333333
142
0.0
142
0.0
142
0.0
142
0.0
142
1.0
142
0.0
142
0.0
142
0.0
142
0.0
142
1.0
179
     0
144
0.0208333333333333
144
0.0
144
0.0
144
0.0
144
0.0
144
0.0208333333333333
144
0.0
144
0.0
144
0.0
144
0.0
144
1.0
144
0.0
144
0.0
144
0.0
144
0.0
144
1.0
147
0.0208333333333333
147
0.0
147
0.0
147
0.0
147
0.0
147
0.0208333333333333
147
0.0
147
0.0
147
0.0
147
0.0
147
1.0
147
0.0
147
0.0
147
0.0
147
0.0
147
1.0
  0
MLEADERSTYLE
  5
67
102
{ACAD_XDICTIONARY
360
1EB
102
}
102
{ACAD_REACTORS
330
66
102
}
330
66
100
AcDbMLeaderStyle
179
     2
170
     2
171
     1
172
     0
 90
        2
 40
0.0
 41
0.0
173
     1
 91
-1056964608
340
5B
 92
       -2
290
     1
 42
0.09
291
     1
 43
0.36
  3
Standard
 44
0.18
300

342
55
174
     1
178
     6
175
     1
176
     0
 93
-1056964608
 45
0.18
292
     0
297
     0
 46
0.18
 94
-1056964608
 47
1.0
 49
1.0
140
1.0
293
     1
141
0.0
294
     1
177
     0
142
1.0
295
     0
296
     0
143
0.125
271
     0
272
     9
273
     9
  0
MLINESTYLE
  5
60
102
{ACAD_REACTORS
330
5F
102
}
330
5F
100
AcDbMlineStyle
  2
STANDARD
 70
     0
  3

 62
   256
 51
90.0
 52
90.0
 71
     2
 49
0.5
 62
   256
  6
BYLAYER
 49
-0.5
 62
   256
  6
BYLAYER
  0
ACDBPLACEHOLDER
  5
F
102
{ACAD_REACTORS
330
E
102
}
330
E
  0
SCALE
  5
43
102
{ACAD_REACTORS
330
42
102
}
330
42
100
AcDbScale
 70
     0
300
1:1
140
1.0
141
1.0
290
     1
  0
SCALE
  5
44
102
{ACAD_REACTORS
330
42
102
}
330
42
100
AcDbScale
 70
     0
300
1/128" = 1'-0"
140
0.0078125
141
12.0
290
     0
  0
SCALE
  5
45
102
{ACAD_REACTORS
330
42
102
}
330
42
100
AcDbScale
 70
     0
300
1/64" = 1'-0"
140
0.015625
141
12.0
290
     0
  0
SCALE
  5
46
102
{ACAD_REACTORS
330
42
102
}
330
42
100
AcDbScale
 70
     0
300
1/32" = 1'-0"
140
0.03125
141
12.0
290
     0
  0
SCALE
  5
47
102
{ACAD_REACTORS
330
42
102
}
330
42
100
AcDbScale
 70
     0
300
1/16" = 1'-0"
140
0.0625
141
12.0
290
     0
  0
SCALE
  5
48
102
{ACAD_REACTORS
330
42
102
}
330
42
100
AcDbScale
 70
     0
300
3/32" = 1'-0"
140
0.09375
141
12.0
290
     0
  0
SCALE
  5
49
102
{ACAD_REACTORS
330
42
102
}
330
42
100
AcDbScale
 70
     0
300
1/8" = 1'-0"
140
0.125
141
12.0
290
     0
  0
SCALE
  5
4A
102
{ACAD_REACTORS
330
42
102
}
330
42
100
AcDbScale
 70
     0
300
3/16" = 1'-0"
140
0.1875
141
12.0
290
     0
  0
SCALE
  5
4B
102
{ACAD_REACTORS
330
42
102
}
330
42
100
AcDbScale
 70
     0
300
1/4" = 1'-0"
140
0.25
141
12.0
290
     0
  0
SCALE
  5
4C
102
{ACAD_REACTORS
330
42
102
}
330
42
100
AcDbScale
 70
     0
300
3/8" = 1'-0"
140
0.375
141
12.0
290
     0
  0
SCALE
  5
4D
102
{ACAD_REACTORS
330
42
102
}
330
42
100
AcDbScale
 70
     0
300
1/2" = 1'-0"
140
0.5
141
12.0
290
     0
  0
SCALE
  5
4E
102
{ACAD_REACTORS
330
42
102
}
330
42
100
AcDbScale
 70
     0
300
3/4" = 1'-0"
140
0.75
141
12.0
290
     0
  0
SCALE
  5
4F
102
{ACAD_REACTORS
330
42
102
}
330
42
100
AcDbScale
 70
     0
300
1" = 1'-0"
140
1.0
141
12.0
290
     0
  0
SCALE
  5
50
102
{ACAD_REACTORS
330
42
102
}
330
42
100
AcDbScale
 70
     0
300
1-1/2" = 1'-0"
140
1.5
141
12.0
290
     0
  0
SCALE
  5
51
102
{ACAD_REACTORS
330
42
102
}
330
42
100
AcDbScale
 70
     0
300
3" = 1'-0"
140
3.0
141
12.0
290
     0
  0
SCALE
  5
52
102
{ACAD_REACTORS
330
42
102
}
330
42
100
AcDbScale
 70
     0
300
6" = 1'-0"
140
6.0
141
12.0
290
     0
  0
SCALE
  5
53
102
{ACAD_REACTORS
330
42
102
}
330
42
100
AcDbScale
 70
     0
300
1'-0" = 1'-0"
140
12.0
141
12.0
290
     0
  0
ACDBSECTIONVIEWSTYLE
  5
69
102
{ACAD_XDICTIONARY
360
1ED
102
}
102
{ACAD_REACTORS
330
68
102
}
330
68
100
AcDbModelDocViewStyle
 70
     0
  3
Imperial24
290
     0
100
AcDbSectionViewStyle
 70
     0
 71
     0
 90
       78
 71
     1
340
55
 62
   256
 40
0.24
340
0
340
0
 62
   256
 40
0.24
300
I, O, Q, S, X, Z
 40
0.48
 90
        3
 40
0.18
 90
        1
 71
     2
340
5D
 90
       25
 62
   256
340
5D
 90
       50
 62
   256
 40
0.24
 40
0.0
 40
0.24
 71
     3
340
55
 62
   256
 40
0.24
 90
        1
 40
0.75
 90
        1
300
%<\AcVar ViewType \f "%tc1">% %<\AcVar ViewSectionStartId>%-%<\AcVar ViewSectionEndId>%\PSCALE %<\AcVar ViewScale \f "%sn">%
 71
     4
 62
   256
 62
   257
300
ANSI31
 40
1.0
 90
        0
290
     0
290
     0
 90
        6
 40
0.0
 40
1.570796326794896
 40
0.2617993877991494
 40
1.308996938995747
 40
-0.2617993877991494
 40
1.832595714594046
  0
TABLESTYLE
  5
65
102
{ACAD_XDICTIONARY
360
1B7
102
}
102
{ACAD_REACTORS
330
64
102
}
330
64
100
AcDbTableStyle
280
     0
  3
Standard
 70
     0
 71
     0
 40
0.06
 41
0.06
280
     0
281
     0
  7
Standard
140
0.18
170
     2
 62
     0
 63
     7
283
     0
 90
      512
 91
        0
  1

274
    -2
284
     1
 64
     0
275
    -2
285
     1
 65
     0
276
    -2
286
     1
 66
     0
277
    -2
287
     1
 67
     0
278
    -2
288
     1
 68
     0
279
    -2
289
     1
 69
     0
  7
Standard
140
0.25
170
     5
 62
     0
 63
     7
283
     0
 90
      512
 91
        0
  1

274
    -2
284
     1
 64
     0
275
    -2
285
     1
 65
     0
276
    -2
286
     1
 66
     0
277
    -2
287
     1
 67
     0
278
    -2
288
     1
 68
     0
279
    -2
289
     1
 69
     0
  7
Standard
140
0.18
170
     5
 62
     0
 63
     7
283
     0
 90
      512
 91
        0
  1

274
    -2
284
     1
 64
     0
275
    -2
285
     1
 65
     0
276
    -2
286
     1
 66
     0
277
    -2
287
     1
 67
     0
278
    -2
288
     1
 68
     0
279
    -2
289
     1
 69
     0
  0
VISUALSTYLE
  5
2F
102
{ACAD_XDICTIONARY
360
1C5
102
}
102
{ACAD_REACTORS
330
29
102
}
330
29
100
AcDbVisualStyle
  2
2dWireframe
 70
     4
177
     2
291
     0
 71
     0
176
     1
 72
     2
176
     1
 73
     0
176
     1
 90
        0
176
     1
 40
0.6
176
     1
 41
30.0
176
     1
 63
     7
421
 16777215
176
     1
 74
     1
176
     1
 91
        4
176
     1
 64
     7
176
     1
 65
   257
176
     1
 75
     1
176
     1
175
     1
176
     1
 42
1.0
176
     1
 92
        0
176
     1
 66
   257
176
     1
 43
1.0
176
     1
 76
     1
176
     1
 77
     6
176
     1
 78
     2
176
     1
 67
     7
176
     1
 79
     5
176
     1
170
     0
176
     1
171
     0
176
     1
290
     0
176
     1
 93
        1
176
     1
 44
0.0
176
     1
173
     0
176
     1
1001
ACAD
1000
AcDbSavedByObjectVersion
1070
     0
  0
VISUALSTYLE
  5
2E
102
{ACAD_XDICTIONARY
360
1C3
102
}
102
{ACAD_REACTORS
330
29
102
}
330
29
100
AcDbVisualStyle
  2
Basic
 70
     7
177
     2
291
     1
 71
     1
176
     1
 72
     0
176
     1
 73
     1
176
     1
 90
        0
176
     1
 40
0.6
176
     1
 41
30.0
176
     1
 63
     7
421
 16777215
176
     1
 74
     0
176
     1
 91
        4
176
     1
 64
     7
176
     1
 65
   257
176
     1
 75
     1
176
     1
175
     1
176
     1
 42
1.0
176
     1
 92
        8
176
     1
 66
     7
176
     1
 43
1.0
176
     1
 76
     1
176
     1
 77
     6
176
     1
 78
     2
176
     1
 67
     7
176
     1
 79
     5
176
     1
170
     0
176
     1
171
     0
176
     1
290
     0
176
     1
 93
        1
176
     1
 44
0.0
176
     1
173
     0
176
     1
1001
ACAD
1000
AcDbSavedByObjectVersion
1070
     0
  0
VISUALSTYLE
  5
35
102
{ACAD_XDICTIONARY
360
1D1
102
}
102
{ACAD_REACTORS
330
29
102
}
330
29
100
AcDbVisualStyle
  2
Brighten
 70
    12
177
     2
291
     1
 71
     2
176
     1
 72
     2
176
     1
 73
     0
176
     1
 90
        0
176
     1
 40
0.6
176
     1
 41
30.0
176
     1
 63
     7
421
 16777215
176
     1
 74
     1
176
     1
 91
        4
176
     1
 64
     7
176
     1
 65
   257
176
     1
 75
     1
176
     1
175
     1
176
     1
 42
1.0
176
     1
 92
        8
176
     1
 66
     7
176
     1
 43
1.0
176
     1
 76
     1
176
     1
 77
     6
176
     1
 78
     2
176
     1
 67
     7
176
     1
 79
     5
176
     1
170
     0
176
     1
171
     0
176
     1
290
     0
176
     1
 93
        1
176
     1
 44
50.0
176
     1
173
     0
176
     1
1001
ACAD
1000
AcDbSavedByObjectVersion
1070
     0
  0
VISUALSTYLE
  5
39
102
{ACAD_XDICTIONARY
360
1D9
102
}
102
{ACAD_REACTORS
330
29
102
}
330
29
100
AcDbVisualStyle
  2
ColorChange
 70
    16
177
     2
291
     1
 71
     2
176
     1
 72
     2
176
     1
 73
     3
176
     1
 90
        0
176
     1
 40
0.6
176
     1
 41
30.0
176
     1
 63
     8
421
  8421504
176
     1
 74
     1
176
     1
 91
        4
176
     1
 64
     7
176
     1
 65
   257
176
     1
 75
     1
176
     1
175
     1
176
     1
 42
1.0
176
     1
 92
        8
176
     1
 66
     8
424
  8421504
176
     1
 43
1.0
176
     1
 76
     1
176
     1
 77
     6
176
     1
 78
     2
176
     1
 67
     7
176
     1
 79
     5
176
     1
170
     0
176
     1
171
     0
176
     1
290
     0
176
     1
 93
        1
176
     1
 44
0.0
176
     1
173
     0
176
     1
1001
ACAD
1000
AcDbSavedByObjectVersion
1070
     0
  0
VISUALSTYLE
  5
32
102
{ACAD_XDICTIONARY
360
1CB
102
}
102
{ACAD_REACTORS
330
29
102
}
330
29
100
AcDbVisualStyle
  2
Conceptual
 70
     9
177
     2
291
     0
 71
     3
176
     1
 72
     2
176
     1
 73
     0
176
     1
 90
        0
176
     1
 40
0.6
176
     1
 41
30.0
176
     1
 63
     7
421
 16777215
176
     1
 74
     2
176
     1
 91
        2
176
     1
 64
     7
176
     1
 65
   257
176
     1
 75
     1
176
     1
175
     1
176
     1
 42
179.0
176
     1
 92
        8
176
     1
 66
     7
176
     1
 43
1.0
176
     1
 76
     1
176
     1
 77
     6
176
     1
 78
     2
176
     1
 67
     7
176
     1
 79
     3
176
     1
170
     0
176
     1
171
     0
176
     1
290
     0
176
     1
 93
        1
176
     1
 44
0.0
176
     1
173
     0
176
     1
1001
ACAD
1000
AcDbSavedByObjectVersion
1070
     0
  0
VISUALSTYLE
  5
34
102
{ACAD_XDICTIONARY
360
1CF
102
}
102
{ACAD_REACTORS
330
29
102
}
330
29
100
AcDbVisualStyle
  2
Dim
 70
    11
177
     2
291
     1
 71
     2
176
     1
 72
     2
176
     1
 73
     0
176
     1
 90
        0
176
     1
 40
0.6
176
     1
 41
30.0
176
     1
 63
     7
421
 16777215
176
     1
 74
     1
176
     1
 91
        4
176
     1
 64
     7
176
     1
 65
   257
176
     1
 75
     1
176
     1
175
     1
176
     1
 42
1.0
176
     1
 92
        8
176
     1
 66
     7
176
     1
 43
1.0
176
     1
 76
     1
176
     1
 77
     6
176
     1
 78
     2
176
     1
 67
     7
176
     1
 79
     5
176
     1
170
     0
176
     1
171
     0
176
     1
290
     0
176
     1
 93
        1
176
     1
 44
-50.0
176
     1
173
     0
176
     1
1001
ACAD
1000
AcDbSavedByObjectVersion
1070
     0
  0
VISUALSTYLE
  5
41
102
{ACAD_XDICTIONARY
360
1E9
102
}
102
{ACAD_REACTORS
330
29
102
}
330
29
100
AcDbVisualStyle
  2
EdgeColorOff
 70
    22
177
     2
291
     1
 71
     2
176
     0
 72
     2
176
     0
 73
     0
176
     0
 90
        0
176
     0
 40
0.6
176
     0
 41
30.0
176
     0
 63
     7
421
 16777215
176
     0
 74
     1
176
     0
 91
        4
176
     0
 64
     7
176
     0
 65
   257
176
     0
 75
     1
176
     0
175
     1
176
     0
 42
1.0
176
     0
 92
        8
176
     2
 66
     7
176
     0
 43
1.0
176
     0
 76
     1
176
     0
 77
     6
176
     0
 78
     2
176
     0
 67
     7
176
     0
 79
     5
176
     0
170
     0
176
     0
171
     0
176
     0
290
     0
176
     0
 93
        1
176
     0
 44
0.0
176
     0
173
     0
176
     0
1001
ACAD
1000
AcDbSavedByObjectVersion
1070
     0
  0
VISUALSTYLE
  5
38
102
{ACAD_XDICTIONARY
360
1D7
102
}
102
{ACAD_REACTORS
330
29
102
}
330
29
100
AcDbVisualStyle
  2
Facepattern
 70
    15
177
     2
291
     1
 71
     2
176
     1
 72
     2
176
     1
 73
     0
176
     1
 90
        0
176
     1
 40
0.6
176
     1
 41
30.0
176
     1
 63
     7
421
 16777215
176
     1
 74
     1
176
     1
 91
        4
176
     1
 64
     7
176
     1
 65
   257
176
     1
 75
     1
176
     1
175
     1
176
     1
 42
1.0
176
     1
 92
        8
176
     1
 66
     7
176
     1
 43
1.0
176
     1
 76
     1
176
     1
 77
     6
176
     1
 78
     2
176
     1
 67
     7
176
     1
 79
     5
176
     1
170
     0
176
     1
171
     0
176
     1
290
     0
176
     1
 93
        1
176
     1
 44
0.0
176
     1
173
     0
176
     1
1001
ACAD
1000
AcDbSavedByObjectVersion
1070
     0
  0
VISUALSTYLE
  5
2A
102
{ACAD_XDICTIONARY
360
1BB
102
}
102
{ACAD_REACTORS
330
29
102
}
330
29
100
AcDbVisualStyle
  2
Flat
 70
     0
177
     2
291
     1
 71
     2
176
     1
 72
     1
176
     1
 73
     1
176
     1
 90
        2
176
     1
 40
0.6
176
     1
 41
30.0
176
     1
 63
     7
421
 16777215
176
     1
 74
     0
176
     1
 91
        0
176
     1
 64
     7
176
     1
 65
   257
176
     1
 75
     1
176
     1
175
     1
176
     1
 42
1.0
176
     1
 92
        8
176
     1
 66
     7
176
     1
 43
1.0
176
     1
 76
     1
176
     1
 77
     6
176
     1
 78
     2
176
     1
 67
     7
176
     1
 79
     5
176
     1
170
     0
176
     1
171
     0
176
     1
290
     0
176
     1
 93
       13
176
     1
 44
0.0
176
     1
173
     0
176
     1
1001
ACAD
1000
AcDbSavedByObjectVersion
1070
     0
  0
VISUALSTYLE
  5
2B
102
{ACAD_XDICTIONARY
360
1BD
102
}
102
{ACAD_REACTORS
330
29
102
}
330
29
100
AcDbVisualStyle
  2
FlatWithEdges
 70
     1
177
     2
291
     1
 71
     2
176
     1
 72
     1
176
     1
 73
     1
176
     1
 90
        2
176
     1
 40
0.6
176
     1
 41
30.0
176
     1
 63
     7
421
 16777215
176
     1
 74
     1
176
     1
 91
        0
176
     1
 64
     7
176
     1
 65
   257
176
     1
 75
     1
176
     1
175
     1
176
     1
 42
1.0
176
     1
 92
        0
176
     1
 66
   257
176
     1
 43
1.0
176
     1
 76
     1
176
     1
 77
     6
176
     1
 78
     2
176
     1
 67
     7
176
     1
 79
     5
176
     1
170
     0
176
     1
171
     0
176
     1
290
     0
176
     1
 93
       13
176
     1
 44
0.0
176
     1
173
     0
176
     1
1001
ACAD
1000
AcDbSavedByObjectVersion
1070
     0
  0
VISUALSTYLE
  5
2C
102
{ACAD_XDICTIONARY
360
1BF
102
}
102
{ACAD_REACTORS
330
29
102
}
330
29
100
AcDbVisualStyle
  2
Gouraud
 70
     2
177
     2
291
     1
 71
     2
176
     1
 72
     2
176
     1
 73
     1
176
     1
 90
        2
176
     1
 40
0.6
176
     1
 41
30.0
176
     1
 63
     7
421
 16777215
176
     1
 74
     0
176
     1
 91
        0
176
     1
 64
     7
176
     1
 65
   257
176
     1
 75
     1
176
     1
175
     1
176
     1
 42
1.0
176
     1
 92
        0
176
     1
 66
     7
176
     1
 43
1.0
176
     1
 76
     1
176
     1
 77
     6
176
     1
 78
     2
176
     1
 67
     7
176
     1
 79
     5
176
     1
170
     0
176
     1
171
     0
176
     1
290
     0
176
     1
 93
       13
176
     1
 44
0.0
176
     1
173
     0
176
     1
1001
ACAD
1000
AcDbSavedByObjectVersion
1070
     0
  0
VISUALSTYLE
  5
2D
102
{ACAD_XDICTIONARY
360
1C1
102
}
102
{ACAD_REACTORS
330
29
102
}
330
29
100
AcDbVisualStyle
  2
GouraudWithEdges
 70
     3
177
     2
291
     1
 71
     2
176
     1
 72
     2
176
     1
 73
     1
176
     1
 90
        2
176
     1
 40
0.6
176
     1
 41
30.0
176
     1
 63
     7
421
 16777215
176
     1
 74
     1
176
     1
 91
        0
176
     1
 64
     7
176
     1
 65
   257
176
     1
 75
     1
176
     1
175
     1
176
     1
 42
1.0
176
     1
 92
        0
176
     1
 66
   257
176
     1
 43
1.0
176
     1
 76
     1
176
     1
 77
     6
176
     1
 78
     2
176
     1
 67
     7
176
     1
 79
     5
176
     1
170
     0
176
     1
171
     0
176
     1
290
     0
176
     1
 93
       13
176
     1
 44
0.0
176
     1
173
     0
176
     1
1001
ACAD
1000
AcDbSavedByObjectVersion
1070
     0
  0
VISUALSTYLE
  5
31
102
{ACAD_XDICTIONARY
360
1C9
102
}
102
{ACAD_REACTORS
330
29
102
}
330
29
100
AcDbVisualStyle
  2
Hidden
 70
     6
177
     2
291
     0
 71
     1
176
     1
 72
     2
176
     1
 73
     2
176
     1
 90
        0
176
     1
 40
0.6
176
     1
 41
30.0
176
     1
 63
     7
421
 16777215
176
     1
 74
     2
176
     1
 91
        2
176
     1
 64
     7
176
     1
 65
   257
176
     1
 75
     2
176
     1
175
     1
176
     1
 42
40.0
176
     1
 92
        0
176
     1
 66
   257
176
     1
 43
1.0
176
     1
 76
     1
176
     1
 77
     6
176
     1
 78
     2
176
     1
 67
     7
176
     1
 79
     3
176
     1
170
     0
176
     1
171
     0
176
     1
290
     0
176
     1
 93
        1
176
     1
 44
0.0
176
     1
173
     0
176
     1
1001
ACAD
1000
AcDbSavedByObjectVersion
1070
     0
  0
VISUALSTYLE
  5
3F
102
{ACAD_XDICTIONARY
360
1E5
102
}
102
{ACAD_REACTORS
330
29
102
}
330
29
100
AcDbVisualStyle
  2
JitterOff
 70
    20
177
     2
291
     1
 71
     2
176
     0
 72
     2
176
     0
 73
     0
176
     0
 90
        0
176
     0
 40
0.6
176
     0
 41
30.0
176
     0
 63
     7
421
 16777215
176
     0
 74
     1
176
     0
 91
        4
176
     0
 64
     7
176
     0
 65
   257
176
     0
 75
     1
176
     0
175
     1
176
     0
 42
1.0
176
     0
 92
       10
176
     2
 66
     7
176
     0
 43
1.0
176
     0
 76
     1
176
     0
 77
     6
176
     0
 78
     2
176
     0
 67
     7
176
     0
 79
     5
176
     0
170
     0
176
     0
171
     0
176
     0
290
     0
176
     0
 93
        1
176
     0
 44
0.0
176
     0
173
     0
176
     0
1001
ACAD
1000
AcDbSavedByObjectVersion
1070
     0
  0
VISUALSTYLE
  5
37
102
{ACAD_XDICTIONARY
360
1D5
102
}
102
{ACAD_REACTORS
330
29
102
}
330
29
100
AcDbVisualStyle
  2
Linepattern
 70
    14
177
     2
291
     1
 71
     2
176
     1
 72
     2
176
     1
 73
     0
176
     1
 90
        0
176
     1
 40
0.6
176
     1
 41
30.0
176
     1
 63
     7
421
 16777215
176
     1
 74
     1
176
     1
 91
        4
176
     1
 64
     7
176
     1
 65
   257
176
     1
 75
     7
176
     1
175
     7
176
     1
 42
1.0
176
     1
 92
        8
176
     1
 66
     7
176
     1
 43
1.0
176
     1
 76
     1
176
     1
 77
     6
176
     1
 78
     2
176
     1
 67
     7
176
     1
 79
     5
176
     1
170
     0
176
     1
171
     0
176
     1
290
     0
176
     1
 93
        1
176
     1
 44
0.0
176
     1
173
     0
176
     1
1001
ACAD
1000
AcDbSavedByObjectVersion
1070
     0
  0
VISUALSTYLE
  5
40
102
{ACAD_XDICTIONARY
360
1E7
102
}
102
{ACAD_REACTORS
330
29
102
}
330
29
100
AcDbVisualStyle
  2
OverhangOff
 70
    21
177
     2
291
     1
 71
     2
176
     0
 72
     2
176
     0
 73
     0
176
     0
 90
        0
176
     0
 40
0.6
176
     0
 41
30.0
176
     0
 63
     7
421
 16777215
176
     0
 74
     1
176
     0
 91
        4
176
     0
 64
     7
176
     0
 65
   257
176
     0
 75
     1
176
     0
175
     1
176
     0
 42
1.0
176
     0
 92
        9
176
     2
 66
     7
176
     0
 43
1.0
176
     0
 76
     1
176
     0
 77
     6
176
     0
 78
     2
176
     0
 67
     7
176
     0
 79
     5
176
     0
170
     0
176
     0
171
     0
176
     0
290
     0
176
     0
 93
        1
176
     0
 44
0.0
176
     0
173
     0
176
     0
1001
ACAD
1000
AcDbSavedByObjectVersion
1070
     0
  0
VISUALSTYLE
  5
33
102
{ACAD_XDICTIONARY
360
1CD
102
}
102
{ACAD_REACTORS
330
29
102
}
330
29
100
AcDbVisualStyle
  2
Realistic
 70
     8
177
     2
291
     0
 71
     2
176
     1
 72
     3
176
     1
 73
     0
176
     1
 90
        2
176
     1
 40
0.6
176
     1
 41
30.0
176
     1
 63
     7
421
 16777215
176
     1
 74
     0
176
     1
 91
        0
176
     1
 64
     7
176
     1
 65
   257
176
     1
 75
     1
176
     1
175
     1
176
     1
 42
1.0
176
     1
 92
        8
176
     1
 66
   257
176
     1
 43
1.0
176
     1
 76
     1
176
     1
 77
     6
176
     1
 78
     2
176
     1
 67
     7
176
     1
 79
     3
176
     1
170
     0
176
     1
171
     0
176
     1
290
     0
176
     1
 93
       13
176
     1
 44
0.0
176
     1
173
     0
176
     1
1001
ACAD
1000
AcDbSavedByObjectVersion
1070
     0
  0
VISUALSTYLE
  5
3E
102
{ACAD_XDICTIONARY
360
1E3
102
}
102
{ACAD_REACTORS
330
29
102
}
330
29
100
AcDbVisualStyle
  2
Shaded
 70
    27
177
     2
291
     0
 71
     2
176
     1
 72
     2
176
     1
 73
     1
176
     1
 90
        2
176
     1
 40
0.6
176
     1
 41
30.0
176
     1
 63
     7
421
 16777215
176
     1
 74
     0
176
     1
 91
        4
176
     1
 64
     7
176
     1
 65
   257
176
     1
 75
     1
176
     1
175
     1
176
     1
 42
1.0
176
     1
 92
        8
176
     1
 66
   257
176
     1
 43
1.0
176
     1
 76
     1
176
     1
 77
     6
176
     1
 78
     2
176
     1
 67
     8
425
  7895160
176
     1
 79
     3
176
     1
170
     0
176
     1
171
     0
176
     1
290
     0
176
     1
 93
        5
176
     1
 44
0.0
176
     1
173
     0
176
     1
1001
ACAD
1000
AcDbSavedByObjectVersion
1070
     0
  0
VISUALSTYLE
  5
3D
102
{ACAD_XDICTIONARY
360
1E1
102
}
102
{ACAD_REACTORS
330
29
102
}
330
29
100
AcDbVisualStyle
  2
Shaded with edges
 70
    26
177
     2
291
     0
 71
     2
176
     1
 72
     2
176
     1
 73
     1
176
     1
 90
        2
176
     1
 40
0.6
176
     1
 41
30.0
176
     1
 63
     7
421
 16777215
176
     1
 74
     1
176
     1
 91
        2
176
     1
 64
     7
176
     1
 65
   257
176
     1
 75
     2
176
     1
175
     1
176
     1
 42
1.0
176
     1
 92
        8
176
     1
 66
   257
176
     1
 43
1.0
176
     1
 76
     1
176
     1
 77
     6
176
     1
 78
     2
176
     1
 67
     7
176
     1
 79
     3
176
     1
170
     0
176
     1
171
     0
176
     1
290
     0
176
     1
 93
        5
176
     1
 44
0.0
176
     1
173
     0
176
     1
1001
ACAD
1000
AcDbSavedByObjectVersion
1070
     0
  0
VISUALSTYLE
  5
3A
102
{ACAD_XDICTIONARY
360
1DB
102
}
102
{ACAD_REACTORS
330
29
102
}
330
29
100
AcDbVisualStyle
  2
Shades of Gray
 70
    23
177
     2
291
     0
 71
     2
176
     1
 72
     2
176
     1
 73
     3
176
     1
 90
        0
176
     1
 40
0.6
176
     1
 41
30.0
176
     1
 63
     7
421
 16777215
176
     1
 74
     2
176
     1
 91
        2
176
     1
 64
     7
176
     1
 65
     7
176
     1
 75
     1
176
     1
175
     1
176
     1
 42
40.0
176
     1
 92
        8
176
     1
 66
     7
176
     1
 43
1.0
176
     1
 76
     1
176
     1
 77
     6
176
     1
 78
     2
176
     1
 67
     7
176
     1
 79
     3
176
     1
170
     0
176
     1
171
     0
176
     1
290
     0
176
     1
 93
        1
176
     1
 44
0.0
176
     1
173
     0
176
     1
1001
ACAD
1000
AcDbSavedByObjectVersion
1070
     0
  0
VISUALSTYLE
  5
3B
102
{ACAD_XDICTIONARY
360
1DD
102
}
102
{ACAD_REACTORS
330
29
102
}
330
29
100
AcDbVisualStyle
  2
Sketchy
 70
    24
177
     2
291
     0
 71
     1
176
     1
 72
     2
176
     1
 73
     2
176
     1
 90
        0
176
     1
 40
0.6
176
     1
 41
30.0
176
     1
 63
     7
421
 16777215
176
     1
 74
     2
176
     1
 91
        2
176
     1
 64
     7
176
     1
 65
     7
176
     1
 75
     1
176
     1
175
     1
176
     1
 42
40.0
176
     1
 92
       11
176
     1
 66
     7
176
     1
 43
1.0
176
     1
 76
     1
176
     1
 77
     6
176
     1
 78
     2
176
     1
 67
     7
176
     1
 79
     6
176
     1
170
     0
176
     1
171
     0
176
     1
290
     0
176
     1
 93
        1
176
     1
 44
0.0
176
     1
173
     0
176
     1
1001
ACAD
1000
AcDbSavedByObjectVersion
1070
     0
  0
VISUALSTYLE
  5
36
102
{ACAD_XDICTIONARY
360
1D3
102
}
102
{ACAD_REACTORS
330
29
102
}
330
29
100
AcDbVisualStyle
  2
Thicken
 70
    13
177
     2
291
     1
 71
     2
176
     1
 72
     2
176
     1
 73
     0
176
     1
 90
        0
176
     1
 40
0.6
176
     1
 41
30.0
176
     1
 63
     7
421
 16777215
176
     1
 74
     1
176
     1
 91
        4
176
     1
 64
     7
176
     1
 65
   257
176
     1
 75
     1
176
     1
175
     1
176
     1
 42
1.0
176
     1
 92
       12
176
     1
 66
     7
176
     1
 43
1.0
176
     1
 76
     1
176
     1
 77
     6
176
     1
 78
     2
176
     1
 67
     7
176
     1
 79
     5
176
     1
170
     0
176
     1
171
     0
176
     1
290
     0
176
     1
 93
        1
176
     1
 44
0.0
176
     1
173
     0
176
     1
1001
ACAD
1000
AcDbSavedByObjectVersion
1070
     0
  0
VISUALSTYLE
  5
30
102
{ACAD_XDICTIONARY
360
1C7
102
}
102
{ACAD_REACTORS
330
29
102
}
330
29
100
AcDbVisualStyle
  2
Wireframe
 70
     5
177
     2
291
     0
 71
     0
176
     1
 72
     2
176
     1
 73
     0
176
     1
 90
        0
176
     1
 40
0.6
176
     1
 41
30.0
176
     1
 63
     7
421
 16777215
176
     1
 74
     1
176
     1
 91
        4
176
     1
 64
     7
176
     1
 65
   257
176
     1
 75
     1
176
     1
175
     1
176
     1
 42
1.0
176
     1
 92
        0
176
     1
 66
   257
176
     1
 43
1.0
176
     1
 76
     1
176
     1
 77
     6
176
     1
 78
     2
176
     1
 67
     7
176
     1
 79
     3
176
     1
170
     0
176
     1
171
     0
176
     1
290
     0
176
     1
 93
        1
176
     1
 44
0.0
176
     1
173
     0
176
     1
1001
ACAD
1000
AcDbSavedByObjectVersion
1070
     0
  0
VISUALSTYLE
  5
3C
102
{ACAD_XDICTIONARY
360
1DF
102
}
102
{ACAD_REACTORS
330
29
102
}
330
29
100
AcDbVisualStyle
  2
X-Ray
 70
    25
177
     2
291
     0
 71
     2
176
     1
 72
     2
176
     1
 73
     1
176
     1
 90
        1
176
     1
 40
0.5
176
     1
 41
30.0
176
     1
 63
     7
421
 16777215
176
     1
 74
     1
176
     1
 91
        0
176
     1
 64
     7
176
     1
 65
   257
176
     1
 75
     1
176
     1
175
     1
176
     1
 42
1.0
176
     1
 92
        8
176
     1
 66
     7
176
     1
 43
1.0
176
     1
 76
     1
176
     1
 77
     6
176
     1
 78
     2
176
     1
 67
     7
176
     1
 79
     3
176
     1
170
     0
176
     1
171
     0
176
     1
290
     0
176
     1
 93
       13
176
     1
 44
0.0
176
     1
173
     0
176
     1
1001
ACAD
1000
AcDbSavedByObjectVersion
1070
     0
  0
DICTIONARYVAR
  5
1B6
102
{ACAD_REACTORS
330
1B1
102
}
330
1B1
100
DictionaryVariables
280
     0
  1
1:1
  0
DICTIONARYVAR
  5
1B3
102
{ACAD_REACTORS
330
1B1
102
}
330
1B1
100
DictionaryVariables
280
     0
  1
STANDARD
  0
DICTIONARYVAR
  5
1B2
102
{ACAD_REACTORS
330
1B1
102
}
330
1B1
100
DictionaryVariables
280
     0
  1
STANDARD
  0
DICTIONARYVAR
  5
1B4
102
{ACAD_REACTORS
330
1B1
102
}
330
1B1
100
DictionaryVariables
280
     0
  1
Imperial24
  0
DICTIONARYVAR
  5
1B5
102
{ACAD_REACTORS
330
1B1
102
}
330
1B1
100
DictionaryVariables
280
     0
  1
Imperial24
  0
DICTIONARY
  5
1EF
330
6B
100
AcDbDictionary
280
     1
281
     1
  3
ACAD_XREC_ROUNDTRIP
360
1F0
  0
DICTIONARY
  5
1A
330
19
100
AcDbDictionary
280
     1
281
     1
  3
BUMPTILE
360
1C
  3
DIFFUSETILE
360
1B
  3
OPACITYTILE
360
1F
  3
REFLECTIONTILE
360
1E
  3
REFRACTIONTILE
360
20
  3
SPECULARTILE
360
1D
  0
DICTIONARY
  5
12
330
11
100
AcDbDictionary
280
     1
281
     1
  3
BUMPTILE
360
14
  3
DIFFUSETILE
360
13
  3
OPACITYTILE
360
17
  3
REFLECTIONTILE
360
16
  3
REFRACTIONTILE
360
18
  3
SPECULARTILE
360
15
  0
DICTIONARY
  5
22
330
21
100
AcDbDictionary
280
     1
281
     1
  3
BUMPTILE
360
24
  3
DIFFUSETILE
360
23
  3
OPACITYTILE
360
27
  3
REFLECTIONTILE
360
26
  3
REFRACTIONTILE
360
28
  3
SPECULARTILE
360
25
  0
DICTIONARY
  5
1EB
330
67
100
AcDbDictionary
280
     1
281
     1
  3
ACAD_XREC_ROUNDTRIP
360
1EC
  0
DICTIONARY
  5
1ED
330
69
100
AcDbDictionary
280
     1
281
     1
  3
ACAD_XREC_ROUNDTRIP
360
1EE
  0
DICTIONARY
  5
1B7
330
65
100
AcDbDictionary
280
     1
281
     1
  3
ACAD_ROUNDTRIP_2008_TABLESTYLE_CELLSTYLEMAP
360
1B8
  0
DICTIONARY
  5
1C5
330
2F
100
AcDbDictionary
280
     1
281
     1
  3
ACAD_XREC_ROUNDTRIP
360
1C6
  0
DICTIONARY
  5
1C3
330
2E
100
AcDbDictionary
280
     1
281
     1
  3
ACAD_XREC_ROUNDTRIP
360
1C4
  0
DICTIONARY
  5
1D1
330
35
100
AcDbDictionary
280
     1
281
     1
  3
ACAD_XREC_ROUNDTRIP
360
1D2
  0
DICTIONARY
  5
1D9
330
39
100
AcDbDictionary
280
     1
281
     1
  3
ACAD_XREC_ROUNDTRIP
360
1DA
  0
DICTIONARY
  5
1CB
330
32
100
AcDbDictionary
280
     1
281
     1
  3
ACAD_XREC_ROUNDTRIP
360
1CC
  0
DICTIONARY
  5
1CF
330
34
100
AcDbDictionary
280
     1
281
     1
  3
ACAD_XREC_ROUNDTRIP
360
1D0
  0
DICTIONARY
  5
1E9
330
41
100
AcDbDictionary
280
     1
281
     1
  3
ACAD_XREC_ROUNDTRIP
360
1EA
  0
DICTIONARY
  5
1D7
330
38
100
AcDbDictionary
280
     1
281
     1
  3
ACAD_XREC_ROUNDTRIP
360
1D8
  0
DICTIONARY
  5
1BB
330
2A
100
AcDbDictionary
280
     1
281
     1
  3
ACAD_XREC_ROUNDTRIP
360
1BC
  0
DICTIONARY
  5
1BD
330
2B
100
AcDbDictionary
280
     1
281
     1
  3
ACAD_XREC_ROUNDTRIP
360
1BE
  0
DICTIONARY
  5
1BF
330
2C
100
AcDbDictionary
280
     1
281
     1
  3
ACAD_XREC_ROUNDTRIP
360
1C0
  0
DICTIONARY
  5
1C1
330
2D
100
AcDbDictionary
280
     1
281
     1
  3
ACAD_XREC_ROUNDTRIP
360
1C2
  0
DICTIONARY
  5
1C9
330
31
100
AcDbDictionary
280
     1
281
     1
  3
ACAD_XREC_ROUNDTRIP
360
1CA
  0
DICTIONARY
  5
1E5
330
3F
100
AcDbDictionary
280
     1
281
     1
  3
ACAD_XREC_ROUNDTRIP
360
1E6
  0
DICTIONARY
  5
1D5
330
37
100
AcDbDictionary
280
     1
281
     1
  3
ACAD_XREC_ROUNDTRIP
360
1D6
  0
DICTIONARY
  5
1E7
330
40
100
AcDbDictionary
280
     1
281
     1
  3
ACAD_XREC_ROUNDTRIP
360
1E8
  0
DICTIONARY
  5
1CD
330
33
100
AcDbDictionary
280
     1
281
     1
  3
ACAD_XREC_ROUNDTRIP
360
1CE
  0
DICTIONARY
  5
1E3
330
3E
100
AcDbDictionary
280
     1
281
     1
  3
ACAD_XREC_ROUNDTRIP
360
1E4
  0
DICTIONARY
  5
1E1
330
3D
100
AcDbDictionary
280
     1
281
     1
  3
ACAD_XREC_ROUNDTRIP
360
1E2
  0
DICTIONARY
  5
1DB
330
3A
100
AcDbDictionary
280
     1
281
     1
  3
ACAD_XREC_ROUNDTRIP
360
1DC
  0
DICTIONARY
  5
1DD
330
3B
100
AcDbDictionary
280
     1
281
     1
  3
ACAD_XREC_ROUNDTRIP
360
1DE
  0
DICTIONARY
  5
1D3
330
36
100
AcDbDictionary
280
     1
281
     1
  3
ACAD_XREC_ROUNDTRIP
360
1D4
  0
DICTIONARY
  5
1C7
330
30
100
AcDbDictionary
280
     1
281
     1
  3
ACAD_XREC_ROUNDTRIP
360
1C8
  0
DICTIONARY
  5
1DF
330
3C
100
AcDbDictionary
280
     1
281
     1
  3
ACAD_XREC_ROUNDTRIP
360
1E0
  0
XRECORD
  5
1F0
102
{ACAD_REACTORS
330
1EF
102
}
330
1EF
100
AcDbXrecord
280
     1
102
DISPLAYNAME
  1
Imperial24
102
FLAGS
 90
        0
  0
XRECORD
  5
1C
102
{ACAD_REACTORS
330
1A
102
}
330
1A
100
AcDbXrecord
280
     1
270
     1
271
     1
  0
XRECORD
  5
1B
102
{ACAD_REACTORS
330
1A
102
}
330
1A
100
AcDbXrecord
280
     1
270
     1
271
     1
  0
XRECORD
  5
1F
102
{ACAD_REACTORS
330
1A
102
}
330
1A
100
AcDbXrecord
280
     1
270
     1
271
     1
  0
XRECORD
  5
1E
102
{ACAD_REACTORS
330
1A
102
}
330
1A
100
AcDbXrecord
280
     1
270
     1
271
     1
  0
XRECORD
  5
20
102
{ACAD_REACTORS
330
1A
102
}
330
1A
100
AcDbXrecord
280
     1
270
     1
271
     1
  0
XRECORD
  5
1D
102
{ACAD_REACTORS
330
1A
102
}
330
1A
100
AcDbXrecord
280
     1
270
     1
271
     1
  0
XRECORD
  5
14
102
{ACAD_REACTORS
330
12
102
}
330
12
100
AcDbXrecord
280
     1
270
     1
271
     1
  0
XRECORD
  5
13
102
{ACAD_REACTORS
330
12
102
}
330
12
100
AcDbXrecord
280
     1
270
     1
271
     1
  0
XRECORD
  5
17
102
{ACAD_REACTORS
330
12
102
}
330
12
100
AcDbXrecord
280
     1
270
     1
271
     1
  0
XRECORD
  5
16
102
{ACAD_REACTORS
330
12
102
}
330
12
100
AcDbXrecord
280
     1
270
     1
271
     1
  0
XRECORD
  5
18
102
{ACAD_REACTORS
330
12
102
}
330
12
100
AcDbXrecord
280
     1
270
     1
271
     1
  0
XRECORD
  5
15
102
{ACAD_REACTORS
330
12
102
}
330
12
100
AcDbXrecord
280
     1
270
     1
271
     1
  0
XRECORD
  5
24
102
{ACAD_REACTORS
330
22
102
}
330
22
100
AcDbXrecord
280
     1
270
     1
271
     1
  0
XRECORD
  5
23
102
{ACAD_REACTORS
330
22
102
}
330
22
100
AcDbXrecord
280
     1
270
     1
271
     1
  0
XRECORD
  5
27
102
{ACAD_REACTORS
330
22
102
}
330
22
100
AcDbXrecord
280
     1
270
     1
271
     1
  0
XRECORD
  5
26
102
{ACAD_REACTORS
330
22
102
}
330
22
100
AcDbXrecord
280
     1
270
     1
271
     1
  0
XRECORD
  5
28
102
{ACAD_REACTORS
330
22
102
}
330
22
100
AcDbXrecord
280
     1
270
     1
271
     1
  0
XRECORD
  5
25
102
{ACAD_REACTORS
330
22
102
}
330
22
100
AcDbXrecord
280
     1
270
     1
271
     1
  0
XRECORD
  5
1EC
102
{ACAD_REACTORS
330
1EB
102
}
330
1EB
100
AcDbXrecord
280
     1
102
ACAD_ROUNDTRIP_2012_MLEADER_STYLE
298
     1
  0
XRECORD
  5
1EE
102
{ACAD_REACTORS
330
1ED
102
}
330
1ED
100
AcDbXrecord
280
     1
102
DISPLAYNAME
  1
Imperial24
102
FLAGS
 90
        0
  0
CELLSTYLEMAP
  5
1B8
102
{ACAD_REACTORS
330
1B7
102
}
330
1B7
100
AcDbCellStyleMap
 90
        3
300
CELLSTYLE
  1
TABLEFORMAT_BEGIN
 90
        5
170
     1
 91
        0
 92
    32768
 62
   257
 93
        1
300
CONTENTFORMAT
  1
CONTENTFORMAT_BEGIN
 90
        0
 91
        0
 92
      512
 93
        0
300

 40
0.0
140
1.0
 94
        5
 62
     0
340
55
144
0.25
309
CONTENTFORMAT_END
171
     0
 94
        0
309
TABLEFORMAT_END
  1
CELLSTYLE_BEGIN
 90
        1
 91
        1
300
_TITLE
309
CELLSTYLE_END
300
CELLSTYLE
  1
TABLEFORMAT_BEGIN
 90
        5
170
     1
 91
        0
 92
        0
 62
   257
 93
        1
300
CONTENTFORMAT
  1
CONTENTFORMAT_BEGIN
 90
        0
 91
        0
 92
      512
 93
        0
300

 40
0.0
140
1.0
 94
        5
 62
     0
340
55
144
0.18
309
CONTENTFORMAT_END
171
     0
 94
        0
309
TABLEFORMAT_END
  1
CELLSTYLE_BEGIN
 90
        2
 91
        1
300
_HEADER
309
CELLSTYLE_END
300
CELLSTYLE
  1
TABLEFORMAT_BEGIN
 90
        5
170
     1
 91
        0
 92
        0
 62
   257
 93
        1
300
CONTENTFORMAT
  1
CONTENTFORMAT_BEGIN
 90
        0
 91
        0
 92
      512
 93
        0
300

 40
0.0
140
1.0
 94
        2
 62
     0
340
55
144
0.18
309
CONTENTFORMAT_END
171
     0
 94
        0
309
TABLEFORMAT_END
  1
CELLSTYLE_BEGIN
 90
        3
 91
        2
300
_DATA
309
CELLSTYLE_END
  0
XRECORD
  5
1C6
102
{ACAD_REACTORS
330
1C5
102
}
330
1C5
100
AcDbXrecord
280
     1
102
RTVSPost2010Prop28
280
     1
102
RTVSPost2010PropOp28
 70
     1
102
RTVSPost2010Prop29
280
     1
102
RTVSPost2010PropOp29
 70
     1
102
RTVSPost2010Prop30
280
     0
102
RTVSPost2010PropOp30
 70
     1
102
RTVSPost2010Prop31
280
     0
102
RTVSPost2010PropOp31
 70
     1
102
RTVSPost2010Prop32
280
     0
102
RTVSPost2010PropOp32
 70
     1
102
RTVSPost2010Prop33
280
     0
102
RTVSPost2010PropOp33
 70
     1
102
RTVSPost2010Prop34
280
     0
102
RTVSPost2010PropOp34
 70
     1
102
RTVSPost2010Prop35
280
     0
102
RTVSPost2010PropOp35
 70
     1
102
RTVSPost2010Prop36
280
     0
102
RTVSPost2010PropOp36
 70
     1
102
RTVSPost2010Prop37
 90
       50
102
RTVSPost2010PropOp37
 70
     1
102
RTVSPost2010Prop38
140
0.0
102
RTVSPost2010PropOp38
 70
     1
102
RTVSPost2010Prop39
140
1.0
102
RTVSPost2010PropOp39
 70
     1
102
RTVSPost2010Prop40
 90
        0
102
RTVSPost2010PropOp40
 70
     1
102
RTVSPost2010Prop41ColorIndex
 90
       18
102
RTVSPost2010Prop41ColorRGB
 90
        0
102
RTVSPost2010PropOp41
 70
     1
102
RTVSPost2010Prop42
 90
       50
102
RTVSPost2010PropOp42
 70
     1
102
RTVSPost2010Prop43
 90
        3
102
RTVSPost2010PropOp43
 70
     1
102
RTVSPost2010Prop44ColorIndex
 90
        5
102
RTVSPost2010Prop44ColorRGB
 90
      255
102
RTVSPost2010PropOp44
 70
     1
102
RTVSPost2010Prop45
280
     0
102
RTVSPost2010PropOp45
 70
     1
102
RTVSPost2010Prop46
 90
       50
102
RTVSPost2010PropOp46
 70
     1
102
RTVSPost2010Prop47
 90
       50
102
RTVSPost2010PropOp47
 70
     1
102
RTVSPost2010Prop48
 90
       50
102
RTVSPost2010PropOp48
 70
     1
102
RTVSPost2010Prop49
280
     0
102
RTVSPost2010PropOp49
 70
     1
102
RTVSPost2010Prop50
 90
       50
102
RTVSPost2010PropOp50
 70
     1
102
RTVSPost2010Prop51ColorIndex
 90
      256
102
RTVSPost2010Prop51ColorRGB
 90
-16777216
102
RTVSPost2010PropOp51
 70
     0
102
RTVSPost2010Prop52
140
1.0
102
RTVSPost2010PropOp52
 70
     0
102
RTVSPost2010Prop53
 90
        2
102
RTVSPost2010PropOp53
 70
     1
102
RTVSPost2010Prop54
  1
strokes_ogs.tif
102
RTVSPost2010PropOp54
 70
     1
102
RTVSPost2010Prop55
280
     0
102
RTVSPost2010PropOp55
 70
     1
102
RTVSPost2010Prop56
140
1.0
102
RTVSPost2010PropOp56
 70
     1
102
RTVSPost2010Prop57
140
1.0
102
RTVSPost2010PropOp57
 70
     1
  0
XRECORD
  5
1C4
102
{ACAD_REACTORS
330
1C3
102
}
330
1C3
100
AcDbXrecord
280
     1
102
RTVSPost2010Prop28
280
     0
102
RTVSPost2010PropOp28
 70
     1
102
RTVSPost2010Prop29
280
     1
102
RTVSPost2010PropOp29
 70
     1
102
RTVSPost2010Prop30
280
     1
102
RTVSPost2010PropOp30
 70
     1
102
RTVSPost2010Prop31
280
     0
102
RTVSPost2010PropOp31
 70
     1
102
RTVSPost2010Prop32
280
     0
102
RTVSPost2010PropOp32
 70
     1
102
RTVSPost2010Prop33
280
     0
102
RTVSPost2010PropOp33
 70
     1
102
RTVSPost2010Prop34
280
     0
102
RTVSPost2010PropOp34
 70
     1
102
RTVSPost2010Prop35
280
     0
102
RTVSPost2010PropOp35
 70
     1
102
RTVSPost2010Prop36
280
     0
102
RTVSPost2010PropOp36
 70
     1
102
RTVSPost2010Prop37
 90
       50
102
RTVSPost2010PropOp37
 70
     1
102
RTVSPost2010Prop38
140
0.0
102
RTVSPost2010PropOp38
 70
     1
102
RTVSPost2010Prop39
140
1.0
102
RTVSPost2010PropOp39
 70
     1
102
RTVSPost2010Prop40
 90
        0
102
RTVSPost2010PropOp40
 70
     1
102
RTVSPost2010Prop41ColorIndex
 90
       18
102
RTVSPost2010Prop41ColorRGB
 90
        0
102
RTVSPost2010PropOp41
 70
     1
102
RTVSPost2010Prop42
 90
       50
102
RTVSPost2010PropOp42
 70
     1
102
RTVSPost2010Prop43
 90
        3
102
RTVSPost2010PropOp43
 70
     1
102
RTVSPost2010Prop44ColorIndex
 90
        5
102
RTVSPost2010Prop44ColorRGB
 90
      255
102
RTVSPost2010PropOp44
 70
     1
102
RTVSPost2010Prop45
280
     0
102
RTVSPost2010PropOp45
 70
     1
102
RTVSPost2010Prop46
 90
       50
102
RTVSPost2010PropOp46
 70
     1
102
RTVSPost2010Prop47
 90
       50
102
RTVSPost2010PropOp47
 70
     1
102
RTVSPost2010Prop48
 90
       50
102
RTVSPost2010PropOp48
 70
     1
102
RTVSPost2010Prop49
280
     0
102
RTVSPost2010PropOp49
 70
     1
102
RTVSPost2010Prop50
 90
       50
102
RTVSPost2010PropOp50
 70
     1
102
RTVSPost2010Prop51ColorIndex
 90
      256
102
RTVSPost2010Prop51ColorRGB
 90
-16777216
102
RTVSPost2010PropOp51
 70
     0
102
RTVSPost2010Prop52
140
1.0
102
RTVSPost2010PropOp52
 70
     0
102
RTVSPost2010Prop53
 90
        2
102
RTVSPost2010PropOp53
 70
     1
102
RTVSPost2010Prop54
  1
strokes_ogs.tif
102
RTVSPost2010PropOp54
 70
     1
102
RTVSPost2010Prop55
280
     0
102
RTVSPost2010PropOp55
 70
     1
102
RTVSPost2010Prop56
140
1.0
102
RTVSPost2010PropOp56
 70
     1
102
RTVSPost2010Prop57
140
1.0
102
RTVSPost2010PropOp57
 70
     1
  0
XRECORD
  5
1D2
102
{ACAD_REACTORS
330
1D1
102
}
330
1D1
100
AcDbXrecord
280
     1
102
RTVSPost2010Prop28
280
     0
102
RTVSPost2010PropOp28
 70
     1
102
RTVSPost2010Prop29
280
     1
102
RTVSPost2010PropOp29
 70
     1
102
RTVSPost2010Prop30
280
     1
102
RTVSPost2010PropOp30
 70
     1
102
RTVSPost2010Prop31
280
     0
102
RTVSPost2010PropOp31
 70
     1
102
RTVSPost2010Prop32
280
     0
102
RTVSPost2010PropOp32
 70
     1
102
RTVSPost2010Prop33
280
     0
102
RTVSPost2010PropOp33
 70
     1
102
RTVSPost2010Prop34
280
     0
102
RTVSPost2010PropOp34
 70
     1
102
RTVSPost2010Prop35
280
     0
102
RTVSPost2010PropOp35
 70
     1
102
RTVSPost2010Prop36
280
     0
102
RTVSPost2010PropOp36
 70
     1
102
RTVSPost2010Prop37
 90
       50
102
RTVSPost2010PropOp37
 70
     1
102
RTVSPost2010Prop38
140
0.0
102
RTVSPost2010PropOp38
 70
     1
102
RTVSPost2010Prop39
140
1.0
102
RTVSPost2010PropOp39
 70
     1
102
RTVSPost2010Prop40
 90
        0
102
RTVSPost2010PropOp40
 70
     1
102
RTVSPost2010Prop41ColorIndex
 90
       18
102
RTVSPost2010Prop41ColorRGB
 90
        0
102
RTVSPost2010PropOp41
 70
     1
102
RTVSPost2010Prop42
 90
       50
102
RTVSPost2010PropOp42
 70
     1
102
RTVSPost2010Prop43
 90
        3
102
RTVSPost2010PropOp43
 70
     1
102
RTVSPost2010Prop44ColorIndex
 90
        5
102
RTVSPost2010Prop44ColorRGB
 90
      255
102
RTVSPost2010PropOp44
 70
     1
102
RTVSPost2010Prop45
280
     0
102
RTVSPost2010PropOp45
 70
     1
102
RTVSPost2010Prop46
 90
       50
102
RTVSPost2010PropOp46
 70
     1
102
RTVSPost2010Prop47
 90
       50
102
RTVSPost2010PropOp47
 70
     1
102
RTVSPost2010Prop48
 90
       50
102
RTVSPost2010PropOp48
 70
     1
102
RTVSPost2010Prop49
280
     0
102
RTVSPost2010PropOp49
 70
     1
102
RTVSPost2010Prop50
 90
       50
102
RTVSPost2010PropOp50
 70
     1
102
RTVSPost2010Prop51ColorIndex
 90
      256
102
RTVSPost2010Prop51ColorRGB
 90
-16777216
102
RTVSPost2010PropOp51
 70
     0
102
RTVSPost2010Prop52
140
1.0
102
RTVSPost2010PropOp52
 70
     0
102
RTVSPost2010Prop53
 90
        2
102
RTVSPost2010PropOp53
 70
     1
102
RTVSPost2010Prop54
  1
strokes_ogs.tif
102
RTVSPost2010PropOp54
 70
     1
102
RTVSPost2010Prop55
280
     0
102
RTVSPost2010PropOp55
 70
     1
102
RTVSPost2010Prop56
140
1.0
102
RTVSPost2010PropOp56
 70
     1
102
RTVSPost2010Prop57
140
1.0
102
RTVSPost2010PropOp57
 70
     1
  0
XRECORD
  5
1DA
102
{ACAD_REACTORS
330
1D9
102
}
330
1D9
100
AcDbXrecord
280
     1
102
RTVSPost2010Prop28
280
     0
102
RTVSPost2010PropOp28
 70
     1
102
RTVSPost2010Prop29
280
     1
102
RTVSPost2010PropOp29
 70
     1
102
RTVSPost2010Prop30
280
     1
102
RTVSPost2010PropOp30
 70
     1
102
RTVSPost2010Prop31
280
     0
102
RTVSPost2010PropOp31
 70
     1
102
RTVSPost2010Prop32
280
     0
102
RTVSPost2010PropOp32
 70
     1
102
RTVSPost2010Prop33
280
     0
102
RTVSPost2010PropOp33
 70
     1
102
RTVSPost2010Prop34
280
     0
102
RTVSPost2010PropOp34
 70
     1
102
RTVSPost2010Prop35
280
     0
102
RTVSPost2010PropOp35
 70
     1
102
RTVSPost2010Prop36
280
     0
102
RTVSPost2010PropOp36
 70
     1
102
RTVSPost2010Prop37
 90
       50
102
RTVSPost2010PropOp37
 70
     1
102
RTVSPost2010Prop38
140
0.0
102
RTVSPost2010PropOp38
 70
     1
102
RTVSPost2010Prop39
140
1.0
102
RTVSPost2010PropOp39
 70
     1
102
RTVSPost2010Prop40
 90
        0
102
RTVSPost2010PropOp40
 70
     1
102
RTVSPost2010Prop41ColorIndex
 90
       18
102
RTVSPost2010Prop41ColorRGB
 90
        0
102
RTVSPost2010PropOp41
 70
     1
102
RTVSPost2010Prop42
 90
       50
102
RTVSPost2010PropOp42
 70
     1
102
RTVSPost2010Prop43
 90
        3
102
RTVSPost2010PropOp43
 70
     1
102
RTVSPost2010Prop44ColorIndex
 90
        5
102
RTVSPost2010Prop44ColorRGB
 90
      255
102
RTVSPost2010PropOp44
 70
     1
102
RTVSPost2010Prop45
280
     0
102
RTVSPost2010PropOp45
 70
     1
102
RTVSPost2010Prop46
 90
       50
102
RTVSPost2010PropOp46
 70
     1
102
RTVSPost2010Prop47
 90
       50
102
RTVSPost2010PropOp47
 70
     1
102
RTVSPost2010Prop48
 90
       50
102
RTVSPost2010PropOp48
 70
     1
102
RTVSPost2010Prop49
280
     0
102
RTVSPost2010PropOp49
 70
     1
102
RTVSPost2010Prop50
 90
       50
102
RTVSPost2010PropOp50
 70
     1
102
RTVSPost2010Prop51ColorIndex
 90
      256
102
RTVSPost2010Prop51ColorRGB
 90
-16777216
102
RTVSPost2010PropOp51
 70
     0
102
RTVSPost2010Prop52
140
1.0
102
RTVSPost2010PropOp52
 70
     0
102
RTVSPost2010Prop53
 90
        2
102
RTVSPost2010PropOp53
 70
     1
102
RTVSPost2010Prop54
  1
strokes_ogs.tif
102
RTVSPost2010PropOp54
 70
     1
102
RTVSPost2010Prop55
280
     0
102
RTVSPost2010PropOp55
 70
     1
102
RTVSPost2010Prop56
140
1.0
102
RTVSPost2010PropOp56
 70
     1
102
RTVSPost2010Prop57
140
1.0
102
RTVSPost2010PropOp57
 70
     1
  0
XRECORD
  5
1CC
102
{ACAD_REACTORS
330
1CB
102
}
330
1CB
100
AcDbXrecord
280
     1
102
RTVSPost2010Prop28
280
     0
102
RTVSPost2010PropOp28
 70
     1
102
RTVSPost2010Prop29
280
     1
102
RTVSPost2010PropOp29
 70
     1
102
RTVSPost2010Prop30
280
     1
102
RTVSPost2010PropOp30
 70
     1
102
RTVSPost2010Prop31
280
     0
102
RTVSPost2010PropOp31
 70
     1
102
RTVSPost2010Prop32
280
     0
102
RTVSPost2010PropOp32
 70
     1
102
RTVSPost2010Prop33
280
     0
102
RTVSPost2010PropOp33
 70
     1
102
RTVSPost2010Prop34
280
     0
102
RTVSPost2010PropOp34
 70
     1
102
RTVSPost2010Prop35
280
     0
102
RTVSPost2010PropOp35
 70
     1
102
RTVSPost2010Prop36
280
     0
102
RTVSPost2010PropOp36
 70
     1
102
RTVSPost2010Prop37
 90
       50
102
RTVSPost2010PropOp37
 70
     1
102
RTVSPost2010Prop38
140
0.0
102
RTVSPost2010PropOp38
 70
     1
102
RTVSPost2010Prop39
140
1.0
102
RTVSPost2010PropOp39
 70
     1
102
RTVSPost2010Prop40
 90
        0
102
RTVSPost2010PropOp40
 70
     1
102
RTVSPost2010Prop41ColorIndex
 90
       18
102
RTVSPost2010Prop41ColorRGB
 90
        0
102
RTVSPost2010PropOp41
 70
     1
102
RTVSPost2010Prop42
 90
       50
102
RTVSPost2010PropOp42
 70
     1
102
RTVSPost2010Prop43
 90
        3
102
RTVSPost2010PropOp43
 70
     1
102
RTVSPost2010Prop44ColorIndex
 90
        5
102
RTVSPost2010Prop44ColorRGB
 90
      255
102
RTVSPost2010PropOp44
 70
     1
102
RTVSPost2010Prop45
280
     0
102
RTVSPost2010PropOp45
 70
     1
102
RTVSPost2010Prop46
 90
       50
102
RTVSPost2010PropOp46
 70
     1
102
RTVSPost2010Prop47
 90
       50
102
RTVSPost2010PropOp47
 70
     1
102
RTVSPost2010Prop48
 90
       50
102
RTVSPost2010PropOp48
 70
     1
102
RTVSPost2010Prop49
280
     0
102
RTVSPost2010PropOp49
 70
     1
102
RTVSPost2010Prop50
 90
       50
102
RTVSPost2010PropOp50
 70
     1
102
RTVSPost2010Prop51ColorIndex
 90
      256
102
RTVSPost2010Prop51ColorRGB
 90
-16777216
102
RTVSPost2010PropOp51
 70
     0
102
RTVSPost2010Prop52
140
1.0
102
RTVSPost2010PropOp52
 70
     0
102
RTVSPost2010Prop53
 90
        2
102
RTVSPost2010PropOp53
 70
     1
102
RTVSPost2010Prop54
  1
strokes_ogs.tif
102
RTVSPost2010PropOp54
 70
     1
102
RTVSPost2010Prop55
280
     0
102
RTVSPost2010PropOp55
 70
     1
102
RTVSPost2010Prop56
140
1.0
102
RTVSPost2010PropOp56
 70
     1
102
RTVSPost2010Prop57
140
1.0
102
RTVSPost2010PropOp57
 70
     1
  0
XRECORD
  5
1D0
102
{ACAD_REACTORS
330
1CF
102
}
330
1CF
100
AcDbXrecord
280
     1
102
RTVSPost2010Prop28
280
     0
102
RTVSPost2010PropOp28
 70
     1
102
RTVSPost2010Prop29
280
     1
102
RTVSPost2010PropOp29
 70
     1
102
RTVSPost2010Prop30
280
     1
102
RTVSPost2010PropOp30
 70
     1
102
RTVSPost2010Prop31
280
     0
102
RTVSPost2010PropOp31
 70
     1
102
RTVSPost2010Prop32
280
     0
102
RTVSPost2010PropOp32
 70
     1
102
RTVSPost2010Prop33
280
     0
102
RTVSPost2010PropOp33
 70
     1
102
RTVSPost2010Prop34
280
     0
102
RTVSPost2010PropOp34
 70
     1
102
RTVSPost2010Prop35
280
     0
102
RTVSPost2010PropOp35
 70
     1
102
RTVSPost2010Prop36
280
     0
102
RTVSPost2010PropOp36
 70
     1
102
RTVSPost2010Prop37
 90
       50
102
RTVSPost2010PropOp37
 70
     1
102
RTVSPost2010Prop38
140
0.0
102
RTVSPost2010PropOp38
 70
     1
102
RTVSPost2010Prop39
140
1.0
102
RTVSPost2010PropOp39
 70
     1
102
RTVSPost2010Prop40
 90
        0
102
RTVSPost2010PropOp40
 70
     1
102
RTVSPost2010Prop41ColorIndex
 90
       18
102
RTVSPost2010Prop41ColorRGB
 90
        0
102
RTVSPost2010PropOp41
 70
     1
102
RTVSPost2010Prop42
 90
       50
102
RTVSPost2010PropOp42
 70
     1
102
RTVSPost2010Prop43
 90
        3
102
RTVSPost2010PropOp43
 70
     1
102
RTVSPost2010Prop44ColorIndex
 90
        5
102
RTVSPost2010Prop44ColorRGB
 90
      255
102
RTVSPost2010PropOp44
 70
     1
102
RTVSPost2010Prop45
280
     0
102
RTVSPost2010PropOp45
 70
     1
102
RTVSPost2010Prop46
 90
       50
102
RTVSPost2010PropOp46
 70
     1
102
RTVSPost2010Prop47
 90
       50
102
RTVSPost2010PropOp47
 70
     1
102
RTVSPost2010Prop48
 90
       50
102
RTVSPost2010PropOp48
 70
     1
102
RTVSPost2010Prop49
280
     0
102
RTVSPost2010PropOp49
 70
     1
102
RTVSPost2010Prop50
 90
       50
102
RTVSPost2010PropOp50
 70
     1
102
RTVSPost2010Prop51ColorIndex
 90
      256
102
RTVSPost2010Prop51ColorRGB
 90
-16777216
102
RTVSPost2010PropOp51
 70
     0
102
RTVSPost2010Prop52
140
1.0
102
RTVSPost2010PropOp52
 70
     0
102
RTVSPost2010Prop53
 90
        2
102
RTVSPost2010PropOp53
 70
     1
102
RTVSPost2010Prop54
  1
strokes_ogs.tif
102
RTVSPost2010PropOp54
 70
     1
102
RTVSPost2010Prop55
280
     0
102
RTVSPost2010PropOp55
 70
     1
102
RTVSPost2010Prop56
140
1.0
102
RTVSPost2010PropOp56
 70
     1
102
RTVSPost2010Prop57
140
1.0
102
RTVSPost2010PropOp57
 70
     1
  0
XRECORD
  5
1EA
102
{ACAD_REACTORS
330
1E9
102
}
330
1E9
100
AcDbXrecord
280
     1
102
RTVSPost2010Prop28
280
     0
102
RTVSPost2010PropOp28
 70
     0
102
RTVSPost2010Prop29
280
     1
102
RTVSPost2010PropOp29
 70
     0
102
RTVSPost2010Prop30
280
     1
102
RTVSPost2010PropOp30
 70
     0
102
RTVSPost2010Prop31
280
     0
102
RTVSPost2010PropOp31
 70
     0
102
RTVSPost2010Prop32
280
     0
102
RTVSPost2010PropOp32
 70
     0
102
RTVSPost2010Prop33
280
     0
102
RTVSPost2010PropOp33
 70
     0
102
RTVSPost2010Prop34
280
     0
102
RTVSPost2010PropOp34
 70
     0
102
RTVSPost2010Prop35
280
     0
102
RTVSPost2010PropOp35
 70
     0
102
RTVSPost2010Prop36
280
     0
102
RTVSPost2010PropOp36
 70
     0
102
RTVSPost2010Prop37
 90
       50
102
RTVSPost2010PropOp37
 70
     0
102
RTVSPost2010Prop38
140
0.0
102
RTVSPost2010PropOp38
 70
     0
102
RTVSPost2010Prop39
140
1.0
102
RTVSPost2010PropOp39
 70
     0
102
RTVSPost2010Prop40
 90
        0
102
RTVSPost2010PropOp40
 70
     0
102
RTVSPost2010Prop41ColorIndex
 90
       18
102
RTVSPost2010Prop41ColorRGB
 90
        0
102
RTVSPost2010PropOp41
 70
     0
102
RTVSPost2010Prop42
 90
       50
102
RTVSPost2010PropOp42
 70
     0
102
RTVSPost2010Prop43
 90
        3
102
RTVSPost2010PropOp43
 70
     0
102
RTVSPost2010Prop44ColorIndex
 90
        5
102
RTVSPost2010Prop44ColorRGB
 90
      255
102
RTVSPost2010PropOp44
 70
     0
102
RTVSPost2010Prop45
280
     0
102
RTVSPost2010PropOp45
 70
     0
102
RTVSPost2010Prop46
 90
       50
102
RTVSPost2010PropOp46
 70
     0
102
RTVSPost2010Prop47
 90
       50
102
RTVSPost2010PropOp47
 70
     0
102
RTVSPost2010Prop48
 90
       50
102
RTVSPost2010PropOp48
 70
     0
102
RTVSPost2010Prop49
280
     0
102
RTVSPost2010PropOp49
 70
     0
102
RTVSPost2010Prop50
 90
       50
102
RTVSPost2010PropOp50
 70
     0
102
RTVSPost2010Prop51ColorIndex
 90
      256
102
RTVSPost2010Prop51ColorRGB
 90
-16777216
102
RTVSPost2010PropOp51
 70
     0
102
RTVSPost2010Prop52
140
1.0
102
RTVSPost2010PropOp52
 70
     0
102
RTVSPost2010Prop53
 90
        2
102
RTVSPost2010PropOp53
 70
     0
102
RTVSPost2010Prop54
  1
strokes_ogs.tif
102
RTVSPost2010PropOp54
 70
     0
102
RTVSPost2010Prop55
280
     0
102
RTVSPost2010PropOp55
 70
     0
102
RTVSPost2010Prop56
140
1.0
102
RTVSPost2010PropOp56
 70
     0
102
RTVSPost2010Prop57
140
1.0
102
RTVSPost2010PropOp57
 70
     0
  0
XRECORD
  5
1D8
102
{ACAD_REACTORS
330
1D7
102
}
330
1D7
100
AcDbXrecord
280
     1
102
RTVSPost2010Prop28
280
     0
102
RTVSPost2010PropOp28
 70
     1
102
RTVSPost2010Prop29
280
     1
102
RTVSPost2010PropOp29
 70
     1
102
RTVSPost2010Prop30
280
     1
102
RTVSPost2010PropOp30
 70
     1
102
RTVSPost2010Prop31
280
     0
102
RTVSPost2010PropOp31
 70
     1
102
RTVSPost2010Prop32
280
     0
102
RTVSPost2010PropOp32
 70
     1
102
RTVSPost2010Prop33
280
     0
102
RTVSPost2010PropOp33
 70
     1
102
RTVSPost2010Prop34
280
     0
102
RTVSPost2010PropOp34
 70
     1
102
RTVSPost2010Prop35
280
     0
102
RTVSPost2010PropOp35
 70
     1
102
RTVSPost2010Prop36
280
     0
102
RTVSPost2010PropOp36
 70
     1
102
RTVSPost2010Prop37
 90
       50
102
RTVSPost2010PropOp37
 70
     1
102
RTVSPost2010Prop38
140
0.0
102
RTVSPost2010PropOp38
 70
     1
102
RTVSPost2010Prop39
140
1.0
102
RTVSPost2010PropOp39
 70
     1
102
RTVSPost2010Prop40
 90
        0
102
RTVSPost2010PropOp40
 70
     1
102
RTVSPost2010Prop41ColorIndex
 90
       18
102
RTVSPost2010Prop41ColorRGB
 90
        0
102
RTVSPost2010PropOp41
 70
     1
102
RTVSPost2010Prop42
 90
       50
102
RTVSPost2010PropOp42
 70
     1
102
RTVSPost2010Prop43
 90
        3
102
RTVSPost2010PropOp43
 70
     1
102
RTVSPost2010Prop44ColorIndex
 90
        5
102
RTVSPost2010Prop44ColorRGB
 90
      255
102
RTVSPost2010PropOp44
 70
     1
102
RTVSPost2010Prop45
280
     0
102
RTVSPost2010PropOp45
 70
     1
102
RTVSPost2010Prop46
 90
       50
102
RTVSPost2010PropOp46
 70
     1
102
RTVSPost2010Prop47
 90
       50
102
RTVSPost2010PropOp47
 70
     1
102
RTVSPost2010Prop48
 90
       50
102
RTVSPost2010PropOp48
 70
     1
102
RTVSPost2010Prop49
280
     0
102
RTVSPost2010PropOp49
 70
     1
102
RTVSPost2010Prop50
 90
       50
102
RTVSPost2010PropOp50
 70
     1
102
RTVSPost2010Prop51ColorIndex
 90
      256
102
RTVSPost2010Prop51ColorRGB
 90
-16777216
102
RTVSPost2010PropOp51
 70
     0
102
RTVSPost2010Prop52
140
1.0
102
RTVSPost2010PropOp52
 70
     0
102
RTVSPost2010Prop53
 90
        2
102
RTVSPost2010PropOp53
 70
     1
102
RTVSPost2010Prop54
  1
strokes_ogs.tif
102
RTVSPost2010PropOp54
 70
     1
102
RTVSPost2010Prop55
280
     0
102
RTVSPost2010PropOp55
 70
     1
102
RTVSPost2010Prop56
140
1.0
102
RTVSPost2010PropOp56
 70
     1
102
RTVSPost2010Prop57
140
1.0
102
RTVSPost2010PropOp57
 70
     1
  0
XRECORD
  5
1BC
102
{ACAD_REACTORS
330
1BB
102
}
330
1BB
100
AcDbXrecord
280
     1
102
RTVSPost2010Prop28
280
     0
102
RTVSPost2010PropOp28
 70
     1
102
RTVSPost2010Prop29
280
     1
102
RTVSPost2010PropOp29
 70
     1
102
RTVSPost2010Prop30
280
     1
102
RTVSPost2010PropOp30
 70
     1
102
RTVSPost2010Prop31
280
     0
102
RTVSPost2010PropOp31
 70
     1
102
RTVSPost2010Prop32
280
     0
102
RTVSPost2010PropOp32
 70
     1
102
RTVSPost2010Prop33
280
     0
102
RTVSPost2010PropOp33
 70
     1
102
RTVSPost2010Prop34
280
     0
102
RTVSPost2010PropOp34
 70
     1
102
RTVSPost2010Prop35
280
     0
102
RTVSPost2010PropOp35
 70
     1
102
RTVSPost2010Prop36
280
     0
102
RTVSPost2010PropOp36
 70
     1
102
RTVSPost2010Prop37
 90
       50
102
RTVSPost2010PropOp37
 70
     1
102
RTVSPost2010Prop38
140
0.0
102
RTVSPost2010PropOp38
 70
     1
102
RTVSPost2010Prop39
140
1.0
102
RTVSPost2010PropOp39
 70
     1
102
RTVSPost2010Prop40
 90
        0
102
RTVSPost2010PropOp40
 70
     1
102
RTVSPost2010Prop41ColorIndex
 90
       18
102
RTVSPost2010Prop41ColorRGB
 90
        0
102
RTVSPost2010PropOp41
 70
     1
102
RTVSPost2010Prop42
 90
       50
102
RTVSPost2010PropOp42
 70
     1
102
RTVSPost2010Prop43
 90
        3
102
RTVSPost2010PropOp43
 70
     1
102
RTVSPost2010Prop44ColorIndex
 90
        5
102
RTVSPost2010Prop44ColorRGB
 90
      255
102
RTVSPost2010PropOp44
 70
     1
102
RTVSPost2010Prop45
280
     0
102
RTVSPost2010PropOp45
 70
     1
102
RTVSPost2010Prop46
 90
       50
102
RTVSPost2010PropOp46
 70
     1
102
RTVSPost2010Prop47
 90
       50
102
RTVSPost2010PropOp47
 70
     1
102
RTVSPost2010Prop48
 90
       50
102
RTVSPost2010PropOp48
 70
     1
102
RTVSPost2010Prop49
280
     0
102
RTVSPost2010PropOp49
 70
     1
102
RTVSPost2010Prop50
 90
       50
102
RTVSPost2010PropOp50
 70
     1
102
RTVSPost2010Prop51ColorIndex
 90
      256
102
RTVSPost2010Prop51ColorRGB
 90
-16777216
102
RTVSPost2010PropOp51
 70
     0
102
RTVSPost2010Prop52
140
1.0
102
RTVSPost2010PropOp52
 70
     0
102
RTVSPost2010Prop53
 90
        2
102
RTVSPost2010PropOp53
 70
     1
102
RTVSPost2010Prop54
  1
strokes_ogs.tif
102
RTVSPost2010PropOp54
 70
     1
102
RTVSPost2010Prop55
280
     0
102
RTVSPost2010PropOp55
 70
     1
102
RTVSPost2010Prop56
140
1.0
102
RTVSPost2010PropOp56
 70
     1
102
RTVSPost2010Prop57
140
1.0
102
RTVSPost2010PropOp57
 70
     1
  0
XRECORD
  5
1BE
102
{ACAD_REACTORS
330
1BD
102
}
330
1BD
100
AcDbXrecord
280
     1
102
RTVSPost2010Prop28
280
     0
102
RTVSPost2010PropOp28
 70
     1
102
RTVSPost2010Prop29
280
     1
102
RTVSPost2010PropOp29
 70
     1
102
RTVSPost2010Prop30
280
     1
102
RTVSPost2010PropOp30
 70
     1
102
RTVSPost2010Prop31
280
     0
102
RTVSPost2010PropOp31
 70
     1
102
RTVSPost2010Prop32
280
     0
102
RTVSPost2010PropOp32
 70
     1
102
RTVSPost2010Prop33
280
     0
102
RTVSPost2010PropOp33
 70
     1
102
RTVSPost2010Prop34
280
     0
102
RTVSPost2010PropOp34
 70
     1
102
RTVSPost2010Prop35
280
     0
102
RTVSPost2010PropOp35
 70
     1
102
RTVSPost2010Prop36
280
     0
102
RTVSPost2010PropOp36
 70
     1
102
RTVSPost2010Prop37
 90
       50
102
RTVSPost2010PropOp37
 70
     1
102
RTVSPost2010Prop38
140
0.0
102
RTVSPost2010PropOp38
 70
     1
102
RTVSPost2010Prop39
140
1.0
102
RTVSPost2010PropOp39
 70
     1
102
RTVSPost2010Prop40
 90
        0
102
RTVSPost2010PropOp40
 70
     1
102
RTVSPost2010Prop41ColorIndex
 90
       18
102
RTVSPost2010Prop41ColorRGB
 90
        0
102
RTVSPost2010PropOp41
 70
     1
102
RTVSPost2010Prop42
 90
       50
102
RTVSPost2010PropOp42
 70
     1
102
RTVSPost2010Prop43
 90
        3
102
RTVSPost2010PropOp43
 70
     1
102
RTVSPost2010Prop44ColorIndex
 90
        5
102
RTVSPost2010Prop44ColorRGB
 90
      255
102
RTVSPost2010PropOp44
 70
     1
102
RTVSPost2010Prop45
280
     0
102
RTVSPost2010PropOp45
 70
     1
102
RTVSPost2010Prop46
 90
       50
102
RTVSPost2010PropOp46
 70
     1
102
RTVSPost2010Prop47
 90
       50
102
RTVSPost2010PropOp47
 70
     1
102
RTVSPost2010Prop48
 90
       50
102
RTVSPost2010PropOp48
 70
     1
102
RTVSPost2010Prop49
280
     0
102
RTVSPost2010PropOp49
 70
     1
102
RTVSPost2010Prop50
 90
       50
102
RTVSPost2010PropOp50
 70
     1
102
RTVSPost2010Prop51ColorIndex
 90
      256
102
RTVSPost2010Prop51ColorRGB
 90
-16777216
102
RTVSPost2010PropOp51
 70
     0
102
RTVSPost2010Prop52
140
1.0
102
RTVSPost2010PropOp52
 70
     0
102
RTVSPost2010Prop53
 90
        2
102
RTVSPost2010PropOp53
 70
     1
102
RTVSPost2010Prop54
  1
strokes_ogs.tif
102
RTVSPost2010PropOp54
 70
     1
102
RTVSPost2010Prop55
280
     0
102
RTVSPost2010PropOp55
 70
     1
102
RTVSPost2010Prop56
140
1.0
102
RTVSPost2010PropOp56
 70
     1
102
RTVSPost2010Prop57
140
1.0
102
RTVSPost2010PropOp57
 70
     1
  0
XRECORD
  5
1C0
102
{ACAD_REACTORS
330
1BF
102
}
330
1BF
100
AcDbXrecord
280
     1
102
RTVSPost2010Prop28
280
     0
102
RTVSPost2010PropOp28
 70
     1
102
RTVSPost2010Prop29
280
     1
102
RTVSPost2010PropOp29
 70
     1
102
RTVSPost2010Prop30
280
     1
102
RTVSPost2010PropOp30
 70
     1
102
RTVSPost2010Prop31
280
     0
102
RTVSPost2010PropOp31
 70
     1
102
RTVSPost2010Prop32
280
     0
102
RTVSPost2010PropOp32
 70
     1
102
RTVSPost2010Prop33
280
     0
102
RTVSPost2010PropOp33
 70
     1
102
RTVSPost2010Prop34
280
     0
102
RTVSPost2010PropOp34
 70
     1
102
RTVSPost2010Prop35
280
     0
102
RTVSPost2010PropOp35
 70
     1
102
RTVSPost2010Prop36
280
     0
102
RTVSPost2010PropOp36
 70
     1
102
RTVSPost2010Prop37
 90
       50
102
RTVSPost2010PropOp37
 70
     1
102
RTVSPost2010Prop38
140
0.0
102
RTVSPost2010PropOp38
 70
     1
102
RTVSPost2010Prop39
140
1.0
102
RTVSPost2010PropOp39
 70
     1
102
RTVSPost2010Prop40
 90
        0
102
RTVSPost2010PropOp40
 70
     1
102
RTVSPost2010Prop41ColorIndex
 90
       18
102
RTVSPost2010Prop41ColorRGB
 90
        0
102
RTVSPost2010PropOp41
 70
     1
102
RTVSPost2010Prop42
 90
       50
102
RTVSPost2010PropOp42
 70
     1
102
RTVSPost2010Prop43
 90
        3
102
RTVSPost2010PropOp43
 70
     1
102
RTVSPost2010Prop44ColorIndex
 90
        5
102
RTVSPost2010Prop44ColorRGB
 90
      255
102
RTVSPost2010PropOp44
 70
     1
102
RTVSPost2010Prop45
280
     0
102
RTVSPost2010PropOp45
 70
     1
102
RTVSPost2010Prop46
 90
       50
102
RTVSPost2010PropOp46
 70
     1
102
RTVSPost2010Prop47
 90
       50
102
RTVSPost2010PropOp47
 70
     1
102
RTVSPost2010Prop48
 90
       50
102
RTVSPost2010PropOp48
 70
     1
102
RTVSPost2010Prop49
280
     0
102
RTVSPost2010PropOp49
 70
     1
102
RTVSPost2010Prop50
 90
       50
102
RTVSPost2010PropOp50
 70
     1
102
RTVSPost2010Prop51ColorIndex
 90
      256
102
RTVSPost2010Prop51ColorRGB
 90
-16777216
102
RTVSPost2010PropOp51
 70
     0
102
RTVSPost2010Prop52
140
1.0
102
RTVSPost2010PropOp52
 70
     0
102
RTVSPost2010Prop53
 90
        2
102
RTVSPost2010PropOp53
 70
     1
102
RTVSPost2010Prop54
  1
strokes_ogs.tif
102
RTVSPost2010PropOp54
 70
     1
102
RTVSPost2010Prop55
280
     0
102
RTVSPost2010PropOp55
 70
     1
102
RTVSPost2010Prop56
140
1.0
102
RTVSPost2010PropOp56
 70
     1
102
RTVSPost2010Prop57
140
1.0
102
RTVSPost2010PropOp57
 70
     1
  0
XRECORD
  5
1C2
102
{ACAD_REACTORS
330
1C1
102
}
330
1C1
100
AcDbXrecord
280
     1
102
RTVSPost2010Prop28
280
     0
102
RTVSPost2010PropOp28
 70
     1
102
RTVSPost2010Prop29
280
     1
102
RTVSPost2010PropOp29
 70
     1
102
RTVSPost2010Prop30
280
     1
102
RTVSPost2010PropOp30
 70
     1
102
RTVSPost2010Prop31
280
     0
102
RTVSPost2010PropOp31
 70
     1
102
RTVSPost2010Prop32
280
     0
102
RTVSPost2010PropOp32
 70
     1
102
RTVSPost2010Prop33
280
     0
102
RTVSPost2010PropOp33
 70
     1
102
RTVSPost2010Prop34
280
     0
102
RTVSPost2010PropOp34
 70
     1
102
RTVSPost2010Prop35
280
     0
102
RTVSPost2010PropOp35
 70
     1
102
RTVSPost2010Prop36
280
     0
102
RTVSPost2010PropOp36
 70
     1
102
RTVSPost2010Prop37
 90
       50
102
RTVSPost2010PropOp37
 70
     1
102
RTVSPost2010Prop38
140
0.0
102
RTVSPost2010PropOp38
 70
     1
102
RTVSPost2010Prop39
140
1.0
102
RTVSPost2010PropOp39
 70
     1
102
RTVSPost2010Prop40
 90
        0
102
RTVSPost2010PropOp40
 70
     1
102
RTVSPost2010Prop41ColorIndex
 90
       18
102
RTVSPost2010Prop41ColorRGB
 90
        0
102
RTVSPost2010PropOp41
 70
     1
102
RTVSPost2010Prop42
 90
       50
102
RTVSPost2010PropOp42
 70
     1
102
RTVSPost2010Prop43
 90
        3
102
RTVSPost2010PropOp43
 70
     1
102
RTVSPost2010Prop44ColorIndex
 90
        5
102
RTVSPost2010Prop44ColorRGB
 90
      255
102
RTVSPost2010PropOp44
 70
     1
102
RTVSPost2010Prop45
280
     0
102
RTVSPost2010PropOp45
 70
     1
102
RTVSPost2010Prop46
 90
       50
102
RTVSPost2010PropOp46
 70
     1
102
RTVSPost2010Prop47
 90
       50
102
RTVSPost2010PropOp47
 70
     1
102
RTVSPost2010Prop48
 90
       50
102
RTVSPost2010PropOp48
 70
     1
102
RTVSPost2010Prop49
280
     0
102
RTVSPost2010PropOp49
 70
     1
102
RTVSPost2010Prop50
 90
       50
102
RTVSPost2010PropOp50
 70
     1
102
RTVSPost2010Prop51ColorIndex
 90
      256
102
RTVSPost2010Prop51ColorRGB
 90
-16777216
102
RTVSPost2010PropOp51
 70
     0
102
RTVSPost2010Prop52
140
1.0
102
RTVSPost2010PropOp52
 70
     0
102
RTVSPost2010Prop53
 90
        2
102
RTVSPost2010PropOp53
 70
     1
102
RTVSPost2010Prop54
  1
strokes_ogs.tif
102
RTVSPost2010PropOp54
 70
     1
102
RTVSPost2010Prop55
280
     0
102
RTVSPost2010PropOp55
 70
     1
102
RTVSPost2010Prop56
140
1.0
102
RTVSPost2010PropOp56
 70
     1
102
RTVSPost2010Prop57
140
1.0
102
RTVSPost2010PropOp57
 70
     1
  0
XRECORD
  5
1CA
102
{ACAD_REACTORS
330
1C9
102
}
330
1C9
100
AcDbXrecord
280
     1
102
RTVSPost2010Prop28
280
     0
102
RTVSPost2010PropOp28
 70
     1
102
RTVSPost2010Prop29
280
     1
102
RTVSPost2010PropOp29
 70
     1
102
RTVSPost2010Prop30
280
     1
102
RTVSPost2010PropOp30
 70
     1
102
RTVSPost2010Prop31
280
     0
102
RTVSPost2010PropOp31
 70
     1
102
RTVSPost2010Prop32
280
     0
102
RTVSPost2010PropOp32
 70
     1
102
RTVSPost2010Prop33
280
     0
102
RTVSPost2010PropOp33
 70
     1
102
RTVSPost2010Prop34
280
     0
102
RTVSPost2010PropOp34
 70
     1
102
RTVSPost2010Prop35
280
     0
102
RTVSPost2010PropOp35
 70
     1
102
RTVSPost2010Prop36
280
     0
102
RTVSPost2010PropOp36
 70
     1
102
RTVSPost2010Prop37
 90
       50
102
RTVSPost2010PropOp37
 70
     1
102
RTVSPost2010Prop38
140
0.0
102
RTVSPost2010PropOp38
 70
     1
102
RTVSPost2010Prop39
140
1.0
102
RTVSPost2010PropOp39
 70
     1
102
RTVSPost2010Prop40
 90
        0
102
RTVSPost2010PropOp40
 70
     1
102
RTVSPost2010Prop41ColorIndex
 90
       18
102
RTVSPost2010Prop41ColorRGB
 90
        0
102
RTVSPost2010PropOp41
 70
     1
102
RTVSPost2010Prop42
 90
       50
102
RTVSPost2010PropOp42
 70
     1
102
RTVSPost2010Prop43
 90
        3
102
RTVSPost2010PropOp43
 70
     1
102
RTVSPost2010Prop44ColorIndex
 90
        5
102
RTVSPost2010Prop44ColorRGB
 90
      255
102
RTVSPost2010PropOp44
 70
     1
102
RTVSPost2010Prop45
280
     0
102
RTVSPost2010PropOp45
 70
     1
102
RTVSPost2010Prop46
 90
       50
102
RTVSPost2010PropOp46
 70
     1
102
RTVSPost2010Prop47
 90
       50
102
RTVSPost2010PropOp47
 70
     1
102
RTVSPost2010Prop48
 90
       50
102
RTVSPost2010PropOp48
 70
     1
102
RTVSPost2010Prop49
280
     0
102
RTVSPost2010PropOp49
 70
     1
102
RTVSPost2010Prop50
 90
       50
102
RTVSPost2010PropOp50
 70
     1
102
RTVSPost2010Prop51ColorIndex
 90
      256
102
RTVSPost2010Prop51ColorRGB
 90
-16777216
102
RTVSPost2010PropOp51
 70
     0
102
RTVSPost2010Prop52
140
1.0
102
RTVSPost2010PropOp52
 70
     0
102
RTVSPost2010Prop53
 90
        2
102
RTVSPost2010PropOp53
 70
     1
102
RTVSPost2010Prop54
  1
strokes_ogs.tif
102
RTVSPost2010PropOp54
 70
     1
102
RTVSPost2010Prop55
280
     0
102
RTVSPost2010PropOp55
 70
     1
102
RTVSPost2010Prop56
140
1.0
102
RTVSPost2010PropOp56
 70
     1
102
RTVSPost2010Prop57
140
1.0
102
RTVSPost2010PropOp57
 70
     1
  0
XRECORD
  5
1E6
102
{ACAD_REACTORS
330
1E5
102
}
330
1E5
100
AcDbXrecord
280
     1
102
RTVSPost2010Prop28
280
     0
102
RTVSPost2010PropOp28
 70
     0
102
RTVSPost2010Prop29
280
     1
102
RTVSPost2010PropOp29
 70
     0
102
RTVSPost2010Prop30
280
     1
102
RTVSPost2010PropOp30
 70
     0
102
RTVSPost2010Prop31
280
     0
102
RTVSPost2010PropOp31
 70
     0
102
RTVSPost2010Prop32
280
     0
102
RTVSPost2010PropOp32
 70
     0
102
RTVSPost2010Prop33
280
     0
102
RTVSPost2010PropOp33
 70
     0
102
RTVSPost2010Prop34
280
     0
102
RTVSPost2010PropOp34
 70
     0
102
RTVSPost2010Prop35
280
     0
102
RTVSPost2010PropOp35
 70
     0
102
RTVSPost2010Prop36
280
     0
102
RTVSPost2010PropOp36
 70
     0
102
RTVSPost2010Prop37
 90
       50
102
RTVSPost2010PropOp37
 70
     0
102
RTVSPost2010Prop38
140
0.0
102
RTVSPost2010PropOp38
 70
     0
102
RTVSPost2010Prop39
140
1.0
102
RTVSPost2010PropOp39
 70
     0
102
RTVSPost2010Prop40
 90
        0
102
RTVSPost2010PropOp40
 70
     0
102
RTVSPost2010Prop41ColorIndex
 90
       18
102
RTVSPost2010Prop41ColorRGB
 90
        0
102
RTVSPost2010PropOp41
 70
     0
102
RTVSPost2010Prop42
 90
       50
102
RTVSPost2010PropOp42
 70
     0
102
RTVSPost2010Prop43
 90
        3
102
RTVSPost2010PropOp43
 70
     0
102
RTVSPost2010Prop44ColorIndex
 90
        5
102
RTVSPost2010Prop44ColorRGB
 90
      255
102
RTVSPost2010PropOp44
 70
     0
102
RTVSPost2010Prop45
280
     0
102
RTVSPost2010PropOp45
 70
     0
102
RTVSPost2010Prop46
 90
       50
102
RTVSPost2010PropOp46
 70
     0
102
RTVSPost2010Prop47
 90
       50
102
RTVSPost2010PropOp47
 70
     0
102
RTVSPost2010Prop48
 90
       50
102
RTVSPost2010PropOp48
 70
     0
102
RTVSPost2010Prop49
280
     0
102
RTVSPost2010PropOp49
 70
     0
102
RTVSPost2010Prop50
 90
       50
102
RTVSPost2010PropOp50
 70
     0
102
RTVSPost2010Prop51ColorIndex
 90
      256
102
RTVSPost2010Prop51ColorRGB
 90
-16777216
102
RTVSPost2010PropOp51
 70
     0
102
RTVSPost2010Prop52
140
1.0
102
RTVSPost2010PropOp52
 70
     0
102
RTVSPost2010Prop53
 90
        2
102
RTVSPost2010PropOp53
 70
     0
102
RTVSPost2010Prop54
  1
strokes_ogs.tif
102
RTVSPost2010PropOp54
 70
     0
102
RTVSPost2010Prop55
280
     0
102
RTVSPost2010PropOp55
 70
     0
102
RTVSPost2010Prop56
140
1.0
102
RTVSPost2010PropOp56
 70
     0
102
RTVSPost2010Prop57
140
1.0
102
RTVSPost2010PropOp57
 70
     0
  0
XRECORD
  5
1D6
102
{ACAD_REACTORS
330
1D5
102
}
330
1D5
100
AcDbXrecord
280
     1
102
RTVSPost2010Prop28
280
     0
102
RTVSPost2010PropOp28
 70
     1
102
RTVSPost2010Prop29
280
     1
102
RTVSPost2010PropOp29
 70
     1
102
RTVSPost2010Prop30
280
     1
102
RTVSPost2010PropOp30
 70
     1
102
RTVSPost2010Prop31
280
     0
102
RTVSPost2010PropOp31
 70
     1
102
RTVSPost2010Prop32
280
     0
102
RTVSPost2010PropOp32
 70
     1
102
RTVSPost2010Prop33
280
     0
102
RTVSPost2010PropOp33
 70
     1
102
RTVSPost2010Prop34
280
     0
102
RTVSPost2010PropOp34
 70
     1
102
RTVSPost2010Prop35
280
     0
102
RTVSPost2010PropOp35
 70
     1
102
RTVSPost2010Prop36
280
     0
102
RTVSPost2010PropOp36
 70
     1
102
RTVSPost2010Prop37
 90
       50
102
RTVSPost2010PropOp37
 70
     1
102
RTVSPost2010Prop38
140
0.0
102
RTVSPost2010PropOp38
 70
     1
102
RTVSPost2010Prop39
140
1.0
102
RTVSPost2010PropOp39
 70
     1
102
RTVSPost2010Prop40
 90
        0
102
RTVSPost2010PropOp40
 70
     1
102
RTVSPost2010Prop41ColorIndex
 90
       18
102
RTVSPost2010Prop41ColorRGB
 90
        0
102
RTVSPost2010PropOp41
 70
     1
102
RTVSPost2010Prop42
 90
       50
102
RTVSPost2010PropOp42
 70
     1
102
RTVSPost2010Prop43
 90
        3
102
RTVSPost2010PropOp43
 70
     1
102
RTVSPost2010Prop44ColorIndex
 90
        5
102
RTVSPost2010Prop44ColorRGB
 90
      255
102
RTVSPost2010PropOp44
 70
     1
102
RTVSPost2010Prop45
280
     0
102
RTVSPost2010PropOp45
 70
     1
102
RTVSPost2010Prop46
 90
       50
102
RTVSPost2010PropOp46
 70
     1
102
RTVSPost2010Prop47
 90
       50
102
RTVSPost2010PropOp47
 70
     1
102
RTVSPost2010Prop48
 90
       50
102
RTVSPost2010PropOp48
 70
     1
102
RTVSPost2010Prop49
280
     0
102
RTVSPost2010PropOp49
 70
     1
102
RTVSPost2010Prop50
 90
       50
102
RTVSPost2010PropOp50
 70
     1
102
RTVSPost2010Prop51ColorIndex
 90
      256
102
RTVSPost2010Prop51ColorRGB
 90
-16777216
102
RTVSPost2010PropOp51
 70
     0
102
RTVSPost2010Prop52
140
1.0
102
RTVSPost2010PropOp52
 70
     0
102
RTVSPost2010Prop53
 90
        2
102
RTVSPost2010PropOp53
 70
     1
102
RTVSPost2010Prop54
  1
strokes_ogs.tif
102
RTVSPost2010PropOp54
 70
     1
102
RTVSPost2010Prop55
280
     0
102
RTVSPost2010PropOp55
 70
     1
102
RTVSPost2010Prop56
140
1.0
102
RTVSPost2010PropOp56
 70
     1
102
RTVSPost2010Prop57
140
1.0
102
RTVSPost2010PropOp57
 70
     1
  0
XRECORD
  5
1E8
102
{ACAD_REACTORS
330
1E7
102
}
330
1E7
100
AcDbXrecord
280
     1
102
RTVSPost2010Prop28
280
     0
102
RTVSPost2010PropOp28
 70
     0
102
RTVSPost2010Prop29
280
     1
102
RTVSPost2010PropOp29
 70
     0
102
RTVSPost2010Prop30
280
     1
102
RTVSPost2010PropOp30
 70
     0
102
RTVSPost2010Prop31
280
     0
102
RTVSPost2010PropOp31
 70
     0
102
RTVSPost2010Prop32
280
     0
102
RTVSPost2010PropOp32
 70
     0
102
RTVSPost2010Prop33
280
     0
102
RTVSPost2010PropOp33
 70
     0
102
RTVSPost2010Prop34
280
     0
102
RTVSPost2010PropOp34
 70
     0
102
RTVSPost2010Prop35
280
     0
102
RTVSPost2010PropOp35
 70
     0
102
RTVSPost2010Prop36
280
     0
102
RTVSPost2010PropOp36
 70
     0
102
RTVSPost2010Prop37
 90
       50
102
RTVSPost2010PropOp37
 70
     0
102
RTVSPost2010Prop38
140
0.0
102
RTVSPost2010PropOp38
 70
     0
102
RTVSPost2010Prop39
140
1.0
102
RTVSPost2010PropOp39
 70
     0
102
RTVSPost2010Prop40
 90
        0
102
RTVSPost2010PropOp40
 70
     0
102
RTVSPost2010Prop41ColorIndex
 90
       18
102
RTVSPost2010Prop41ColorRGB
 90
        0
102
RTVSPost2010PropOp41
 70
     0
102
RTVSPost2010Prop42
 90
       50
102
RTVSPost2010PropOp42
 70
     0
102
RTVSPost2010Prop43
 90
        3
102
RTVSPost2010PropOp43
 70
     0
102
RTVSPost2010Prop44ColorIndex
 90
        5
102
RTVSPost2010Prop44ColorRGB
 90
      255
102
RTVSPost2010PropOp44
 70
     0
102
RTVSPost2010Prop45
280
     0
102
RTVSPost2010PropOp45
 70
     0
102
RTVSPost2010Prop46
 90
       50
102
RTVSPost2010PropOp46
 70
     0
102
RTVSPost2010Prop47
 90
       50
102
RTVSPost2010PropOp47
 70
     0
102
RTVSPost2010Prop48
 90
       50
102
RTVSPost2010PropOp48
 70
     0
102
RTVSPost2010Prop49
280
     0
102
RTVSPost2010PropOp49
 70
     0
102
RTVSPost2010Prop50
 90
       50
102
RTVSPost2010PropOp50
 70
     0
102
RTVSPost2010Prop51ColorIndex
 90
      256
102
RTVSPost2010Prop51ColorRGB
 90
-16777216
102
RTVSPost2010PropOp51
 70
     0
102
RTVSPost2010Prop52
140
1.0
102
RTVSPost2010PropOp52
 70
     0
102
RTVSPost2010Prop53
 90
        2
102
RTVSPost2010PropOp53
 70
     0
102
RTVSPost2010Prop54
  1
strokes_ogs.tif
102
RTVSPost2010PropOp54
 70
     0
102
RTVSPost2010Prop55
280
     0
102
RTVSPost2010PropOp55
 70
     0
102
RTVSPost2010Prop56
140
1.0
102
RTVSPost2010PropOp56
 70
     0
102
RTVSPost2010Prop57
140
1.0
102
RTVSPost2010PropOp57
 70
     0
  0
XRECORD
  5
1CE
102
{ACAD_REACTORS
330
1CD
102
}
330
1CD
100
AcDbXrecord
280
     1
102
RTVSPost2010Prop28
280
     0
102
RTVSPost2010PropOp28
 70
     1
102
RTVSPost2010Prop29
280
     1
102
RTVSPost2010PropOp29
 70
     1
102
RTVSPost2010Prop30
280
     1
102
RTVSPost2010PropOp30
 70
     1
102
RTVSPost2010Prop31
280
     0
102
RTVSPost2010PropOp31
 70
     1
102
RTVSPost2010Prop32
280
     0
102
RTVSPost2010PropOp32
 70
     1
102
RTVSPost2010Prop33
280
     0
102
RTVSPost2010PropOp33
 70
     1
102
RTVSPost2010Prop34
280
     0
102
RTVSPost2010PropOp34
 70
     1
102
RTVSPost2010Prop35
280
     0
102
RTVSPost2010PropOp35
 70
     1
102
RTVSPost2010Prop36
280
     0
102
RTVSPost2010PropOp36
 70
     1
102
RTVSPost2010Prop37
 90
       50
102
RTVSPost2010PropOp37
 70
     1
102
RTVSPost2010Prop38
140
0.0
102
RTVSPost2010PropOp38
 70
     1
102
RTVSPost2010Prop39
140
1.0
102
RTVSPost2010PropOp39
 70
     1
102
RTVSPost2010Prop40
 90
        0
102
RTVSPost2010PropOp40
 70
     1
102
RTVSPost2010Prop41ColorIndex
 90
       18
102
RTVSPost2010Prop41ColorRGB
 90
        0
102
RTVSPost2010PropOp41
 70
     1
102
RTVSPost2010Prop42
 90
       50
102
RTVSPost2010PropOp42
 70
     1
102
RTVSPost2010Prop43
 90
        3
102
RTVSPost2010PropOp43
 70
     1
102
RTVSPost2010Prop44ColorIndex
 90
        5
102
RTVSPost2010Prop44ColorRGB
 90
      255
102
RTVSPost2010PropOp44
 70
     1
102
RTVSPost2010Prop45
280
     0
102
RTVSPost2010PropOp45
 70
     1
102
RTVSPost2010Prop46
 90
       50
102
RTVSPost2010PropOp46
 70
     1
102
RTVSPost2010Prop47
 90
       50
102
RTVSPost2010PropOp47
 70
     1
102
RTVSPost2010Prop48
 90
       50
102
RTVSPost2010PropOp48
 70
     1
102
RTVSPost2010Prop49
280
     0
102
RTVSPost2010PropOp49
 70
     1
102
RTVSPost2010Prop50
 90
       50
102
RTVSPost2010PropOp50
 70
     1
102
RTVSPost2010Prop51ColorIndex
 90
      256
102
RTVSPost2010Prop51ColorRGB
 90
-16777216
102
RTVSPost2010PropOp51
 70
     0
102
RTVSPost2010Prop52
140
1.0
102
RTVSPost2010PropOp52
 70
     0
102
RTVSPost2010Prop53
 90
        2
102
RTVSPost2010PropOp53
 70
     1
102
RTVSPost2010Prop54
  1
strokes_ogs.tif
102
RTVSPost2010PropOp54
 70
     1
102
RTVSPost2010Prop55
280
     0
102
RTVSPost2010PropOp55
 70
     1
102
RTVSPost2010Prop56
140
1.0
102
RTVSPost2010PropOp56
 70
     1
102
RTVSPost2010Prop57
140
1.0
102
RTVSPost2010PropOp57
 70
     1
  0
XRECORD
  5
1E4
102
{ACAD_REACTORS
330
1E3
102
}
330
1E3
100
AcDbXrecord
280
     1
102
RTVSPost2010Prop28
280
     0
102
RTVSPost2010PropOp28
 70
     1
102
RTVSPost2010Prop29
280
     1
102
RTVSPost2010PropOp29
 70
     1
102
RTVSPost2010Prop30
280
     1
102
RTVSPost2010PropOp30
 70
     1
102
RTVSPost2010Prop31
280
     0
102
RTVSPost2010PropOp31
 70
     1
102
RTVSPost2010Prop32
280
     0
102
RTVSPost2010PropOp32
 70
     1
102
RTVSPost2010Prop33
280
     0
102
RTVSPost2010PropOp33
 70
     1
102
RTVSPost2010Prop34
280
     0
102
RTVSPost2010PropOp34
 70
     1
102
RTVSPost2010Prop35
280
     0
102
RTVSPost2010PropOp35
 70
     1
102
RTVSPost2010Prop36
280
     0
102
RTVSPost2010PropOp36
 70
     1
102
RTVSPost2010Prop37
 90
       50
102
RTVSPost2010PropOp37
 70
     1
102
RTVSPost2010Prop38
140
0.0
102
RTVSPost2010PropOp38
 70
     1
102
RTVSPost2010Prop39
140
1.0
102
RTVSPost2010PropOp39
 70
     1
102
RTVSPost2010Prop40
 90
        0
102
RTVSPost2010PropOp40
 70
     1
102
RTVSPost2010Prop41ColorIndex
 90
       18
102
RTVSPost2010Prop41ColorRGB
 90
        0
102
RTVSPost2010PropOp41
 70
     1
102
RTVSPost2010Prop42
 90
       50
102
RTVSPost2010PropOp42
 70
     1
102
RTVSPost2010Prop43
 90
        3
102
RTVSPost2010PropOp43
 70
     1
102
RTVSPost2010Prop44ColorIndex
 90
        5
102
RTVSPost2010Prop44ColorRGB
 90
      255
102
RTVSPost2010PropOp44
 70
     1
102
RTVSPost2010Prop45
280
     0
102
RTVSPost2010PropOp45
 70
     1
102
RTVSPost2010Prop46
 90
       50
102
RTVSPost2010PropOp46
 70
     1
102
RTVSPost2010Prop47
 90
       50
102
RTVSPost2010PropOp47
 70
     1
102
RTVSPost2010Prop48
 90
       50
102
RTVSPost2010PropOp48
 70
     1
102
RTVSPost2010Prop49
280
     0
102
RTVSPost2010PropOp49
 70
     1
102
RTVSPost2010Prop50
 90
       50
102
RTVSPost2010PropOp50
 70
     1
102
RTVSPost2010Prop51ColorIndex
 90
      256
102
RTVSPost2010Prop51ColorRGB
 90
-16777216
102
RTVSPost2010PropOp51
 70
     0
102
RTVSPost2010Prop52
140
1.0
102
RTVSPost2010PropOp52
 70
     0
102
RTVSPost2010Prop53
 90
        2
102
RTVSPost2010PropOp53
 70
     1
102
RTVSPost2010Prop54
  1
strokes_ogs.tif
102
RTVSPost2010PropOp54
 70
     1
102
RTVSPost2010Prop55
280
     0
102
RTVSPost2010PropOp55
 70
     1
102
RTVSPost2010Prop56
140
1.0
102
RTVSPost2010PropOp56
 70
     1
102
RTVSPost2010Prop57
140
1.0
102
RTVSPost2010PropOp57
 70
     1
  0
XRECORD
  5
1E2
102
{ACAD_REACTORS
330
1E1
102
}
330
1E1
100
AcDbXrecord
280
     1
102
RTVSPost2010Prop28
280
     0
102
RTVSPost2010PropOp28
 70
     1
102
RTVSPost2010Prop29
280
     1
102
RTVSPost2010PropOp29
 70
     1
102
RTVSPost2010Prop30
280
     1
102
RTVSPost2010PropOp30
 70
     1
102
RTVSPost2010Prop31
280
     0
102
RTVSPost2010PropOp31
 70
     1
102
RTVSPost2010Prop32
280
     0
102
RTVSPost2010PropOp32
 70
     1
102
RTVSPost2010Prop33
280
     0
102
RTVSPost2010PropOp33
 70
     1
102
RTVSPost2010Prop34
280
     0
102
RTVSPost2010PropOp34
 70
     1
102
RTVSPost2010Prop35
280
     0
102
RTVSPost2010PropOp35
 70
     1
102
RTVSPost2010Prop36
280
     0
102
RTVSPost2010PropOp36
 70
     1
102
RTVSPost2010Prop37
 90
       50
102
RTVSPost2010PropOp37
 70
     1
102
RTVSPost2010Prop38
140
0.0
102
RTVSPost2010PropOp38
 70
     1
102
RTVSPost2010Prop39
140
1.0
102
RTVSPost2010PropOp39
 70
     1
102
RTVSPost2010Prop40
 90
        0
102
RTVSPost2010PropOp40
 70
     1
102
RTVSPost2010Prop41ColorIndex
 90
       18
102
RTVSPost2010Prop41ColorRGB
 90
        0
102
RTVSPost2010PropOp41
 70
     1
102
RTVSPost2010Prop42
 90
       50
102
RTVSPost2010PropOp42
 70
     1
102
RTVSPost2010Prop43
 90
        3
102
RTVSPost2010PropOp43
 70
     1
102
RTVSPost2010Prop44ColorIndex
 90
        5
102
RTVSPost2010Prop44ColorRGB
 90
      255
102
RTVSPost2010PropOp44
 70
     1
102
RTVSPost2010Prop45
280
     0
102
RTVSPost2010PropOp45
 70
     1
102
RTVSPost2010Prop46
 90
       50
102
RTVSPost2010PropOp46
 70
     1
102
RTVSPost2010Prop47
 90
       50
102
RTVSPost2010PropOp47
 70
     1
102
RTVSPost2010Prop48
 90
       50
102
RTVSPost2010PropOp48
 70
     1
102
RTVSPost2010Prop49
280
     0
102
RTVSPost2010PropOp49
 70
     1
102
RTVSPost2010Prop50
 90
       50
102
RTVSPost2010PropOp50
 70
     1
102
RTVSPost2010Prop51ColorIndex
 90
      256
102
RTVSPost2010Prop51ColorRGB
 90
-16777216
102
RTVSPost2010PropOp51
 70
     0
102
RTVSPost2010Prop52
140
1.0
102
RTVSPost2010PropOp52
 70
     0
102
RTVSPost2010Prop53
 90
        2
102
RTVSPost2010PropOp53
 70
     1
102
RTVSPost2010Prop54
  1
strokes_ogs.tif
102
RTVSPost2010PropOp54
 70
     1
102
RTVSPost2010Prop55
280
     0
102
RTVSPost2010PropOp55
 70
     1
102
RTVSPost2010Prop56
140
1.0
102
RTVSPost2010PropOp56
 70
     1
102
RTVSPost2010Prop57
140
1.0
102
RTVSPost2010PropOp57
 70
     1
  0
XRECORD
  5
1DC
102
{ACAD_REACTORS
330
1DB
102
}
330
1DB
100
AcDbXrecord
280
     1
102
RTVSPost2010Prop28
280
     0
102
RTVSPost2010PropOp28
 70
     1
102
RTVSPost2010Prop29
280
     1
102
RTVSPost2010PropOp29
 70
     1
102
RTVSPost2010Prop30
280
     1
102
RTVSPost2010PropOp30
 70
     1
102
RTVSPost2010Prop31
280
     0
102
RTVSPost2010PropOp31
 70
     1
102
RTVSPost2010Prop32
280
     0
102
RTVSPost2010PropOp32
 70
     1
102
RTVSPost2010Prop33
280
     0
102
RTVSPost2010PropOp33
 70
     1
102
RTVSPost2010Prop34
280
     0
102
RTVSPost2010PropOp34
 70
     1
102
RTVSPost2010Prop35
280
     0
102
RTVSPost2010PropOp35
 70
     1
102
RTVSPost2010Prop36
280
     0
102
RTVSPost2010PropOp36
 70
     1
102
RTVSPost2010Prop37
 90
       50
102
RTVSPost2010PropOp37
 70
     1
102
RTVSPost2010Prop38
140
0.0
102
RTVSPost2010PropOp38
 70
     1
102
RTVSPost2010Prop39
140
1.0
102
RTVSPost2010PropOp39
 70
     1
102
RTVSPost2010Prop40
 90
        0
102
RTVSPost2010PropOp40
 70
     1
102
RTVSPost2010Prop41ColorIndex
 90
       18
102
RTVSPost2010Prop41ColorRGB
 90
        0
102
RTVSPost2010PropOp41
 70
     1
102
RTVSPost2010Prop42
 90
       50
102
RTVSPost2010PropOp42
 70
     1
102
RTVSPost2010Prop43
 90
        3
102
RTVSPost2010PropOp43
 70
     1
102
RTVSPost2010Prop44ColorIndex
 90
        5
102
RTVSPost2010Prop44ColorRGB
 90
      255
102
RTVSPost2010PropOp44
 70
     1
102
RTVSPost2010Prop45
280
     0
102
RTVSPost2010PropOp45
 70
     1
102
RTVSPost2010Prop46
 90
       50
102
RTVSPost2010PropOp46
 70
     1
102
RTVSPost2010Prop47
 90
       50
102
RTVSPost2010PropOp47
 70
     1
102
RTVSPost2010Prop48
 90
       50
102
RTVSPost2010PropOp48
 70
     1
102
RTVSPost2010Prop49
280
     0
102
RTVSPost2010PropOp49
 70
     1
102
RTVSPost2010Prop50
 90
       50
102
RTVSPost2010PropOp50
 70
     1
102
RTVSPost2010Prop51ColorIndex
 90
      256
102
RTVSPost2010Prop51ColorRGB
 90
-16777216
102
RTVSPost2010PropOp51
 70
     0
102
RTVSPost2010Prop52
140
1.0
102
RTVSPost2010PropOp52
 70
     0
102
RTVSPost2010Prop53
 90
        2
102
RTVSPost2010PropOp53
 70
     1
102
RTVSPost2010Prop54
  1
strokes_ogs.tif
102
RTVSPost2010PropOp54
 70
     1
102
RTVSPost2010Prop55
280
     0
102
RTVSPost2010PropOp55
 70
     1
102
RTVSPost2010Prop56
140
1.0
102
RTVSPost2010PropOp56
 70
     1
102
RTVSPost2010Prop57
140
1.0
102
RTVSPost2010PropOp57
 70
     1
  0
XRECORD
  5
1DE
102
{ACAD_REACTORS
330
1DD
102
}
330
1DD
100
AcDbXrecord
280
     1
102
RTVSPost2010Prop28
280
     0
102
RTVSPost2010PropOp28
 70
     1
102
RTVSPost2010Prop29
280
     1
102
RTVSPost2010PropOp29
 70
     1
102
RTVSPost2010Prop30
280
     1
102
RTVSPost2010PropOp30
 70
     1
102
RTVSPost2010Prop31
280
     0
102
RTVSPost2010PropOp31
 70
     1
102
RTVSPost2010Prop32
280
     0
102
RTVSPost2010PropOp32
 70
     1
102
RTVSPost2010Prop33
280
     0
102
RTVSPost2010PropOp33
 70
     1
102
RTVSPost2010Prop34
280
     0
102
RTVSPost2010PropOp34
 70
     1
102
RTVSPost2010Prop35
280
     0
102
RTVSPost2010PropOp35
 70
     1
102
RTVSPost2010Prop36
280
     0
102
RTVSPost2010PropOp36
 70
     1
102
RTVSPost2010Prop37
 90
       50
102
RTVSPost2010PropOp37
 70
     1
102
RTVSPost2010Prop38
140
0.0
102
RTVSPost2010PropOp38
 70
     1
102
RTVSPost2010Prop39
140
1.0
102
RTVSPost2010PropOp39
 70
     1
102
RTVSPost2010Prop40
 90
        0
102
RTVSPost2010PropOp40
 70
     1
102
RTVSPost2010Prop41ColorIndex
 90
       18
102
RTVSPost2010Prop41ColorRGB
 90
        0
102
RTVSPost2010PropOp41
 70
     1
102
RTVSPost2010Prop42
 90
       50
102
RTVSPost2010PropOp42
 70
     1
102
RTVSPost2010Prop43
 90
        3
102
RTVSPost2010PropOp43
 70
     1
102
RTVSPost2010Prop44ColorIndex
 90
        5
102
RTVSPost2010Prop44ColorRGB
 90
      255
102
RTVSPost2010PropOp44
 70
     1
102
RTVSPost2010Prop45
280
     0
102
RTVSPost2010PropOp45
 70
     1
102
RTVSPost2010Prop46
 90
       50
102
RTVSPost2010PropOp46
 70
     1
102
RTVSPost2010Prop47
 90
       50
102
RTVSPost2010PropOp47
 70
     1
102
RTVSPost2010Prop48
 90
       50
102
RTVSPost2010PropOp48
 70
     1
102
RTVSPost2010Prop49
280
     0
102
RTVSPost2010PropOp49
 70
     1
102
RTVSPost2010Prop50
 90
       50
102
RTVSPost2010PropOp50
 70
     1
102
RTVSPost2010Prop51ColorIndex
 90
      256
102
RTVSPost2010Prop51ColorRGB
 90
-16777216
102
RTVSPost2010PropOp51
 70
     0
102
RTVSPost2010Prop52
140
1.0
102
RTVSPost2010PropOp52
 70
     0
102
RTVSPost2010Prop53
 90
        2
102
RTVSPost2010PropOp53
 70
     1
102
RTVSPost2010Prop54
  1
strokes_ogs.tif
102
RTVSPost2010PropOp54
 70
     1
102
RTVSPost2010Prop55
280
     0
102
RTVSPost2010PropOp55
 70
     1
102
RTVSPost2010Prop56
140
1.0
102
RTVSPost2010PropOp56
 70
     1
102
RTVSPost2010Prop57
140
1.0
102
RTVSPost2010PropOp57
 70
     1
  0
XRECORD
  5
1D4
102
{ACAD_REACTORS
330
1D3
102
}
330
1D3
100
AcDbXrecord
280
     1
102
RTVSPost2010Prop28
280
     0
102
RTVSPost2010PropOp28
 70
     1
102
RTVSPost2010Prop29
280
     1
102
RTVSPost2010PropOp29
 70
     1
102
RTVSPost2010Prop30
280
     1
102
RTVSPost2010PropOp30
 70
     1
102
RTVSPost2010Prop31
280
     0
102
RTVSPost2010PropOp31
 70
     1
102
RTVSPost2010Prop32
280
     0
102
RTVSPost2010PropOp32
 70
     1
102
RTVSPost2010Prop33
280
     0
102
RTVSPost2010PropOp33
 70
     1
102
RTVSPost2010Prop34
280
     0
102
RTVSPost2010PropOp34
 70
     1
102
RTVSPost2010Prop35
280
     0
102
RTVSPost2010PropOp35
 70
     1
102
RTVSPost2010Prop36
280
     0
102
RTVSPost2010PropOp36
 70
     1
102
RTVSPost2010Prop37
 90
       50
102
RTVSPost2010PropOp37
 70
     1
102
RTVSPost2010Prop38
140
0.0
102
RTVSPost2010PropOp38
 70
     1
102
RTVSPost2010Prop39
140
1.0
102
RTVSPost2010PropOp39
 70
     1
102
RTVSPost2010Prop40
 90
        0
102
RTVSPost2010PropOp40
 70
     1
102
RTVSPost2010Prop41ColorIndex
 90
       18
102
RTVSPost2010Prop41ColorRGB
 90
        0
102
RTVSPost2010PropOp41
 70
     1
102
RTVSPost2010Prop42
 90
       50
102
RTVSPost2010PropOp42
 70
     1
102
RTVSPost2010Prop43
 90
        3
102
RTVSPost2010PropOp43
 70
     1
102
RTVSPost2010Prop44ColorIndex
 90
        5
102
RTVSPost2010Prop44ColorRGB
 90
      255
102
RTVSPost2010PropOp44
 70
     1
102
RTVSPost2010Prop45
280
     0
102
RTVSPost2010PropOp45
 70
     1
102
RTVSPost2010Prop46
 90
       50
102
RTVSPost2010PropOp46
 70
     1
102
RTVSPost2010Prop47
 90
       50
102
RTVSPost2010PropOp47
 70
     1
102
RTVSPost2010Prop48
 90
       50
102
RTVSPost2010PropOp48
 70
     1
102
RTVSPost2010Prop49
280
     0
102
RTVSPost2010PropOp49
 70
     1
102
RTVSPost2010Prop50
 90
       50
102
RTVSPost2010PropOp50
 70
     1
102
RTVSPost2010Prop51ColorIndex
 90
      256
102
RTVSPost2010Prop51ColorRGB
 90
-16777216
102
RTVSPost2010PropOp51
 70
     0
102
RTVSPost2010Prop52
140
1.0
102
RTVSPost2010PropOp52
 70
     0
102
RTVSPost2010Prop53
 90
        2
102
RTVSPost2010PropOp53
 70
     1
102
RTVSPost2010Prop54
  1
strokes_ogs.tif
102
RTVSPost2010PropOp54
 70
     1
102
RTVSPost2010Prop55
280
     0
102
RTVSPost2010PropOp55
 70
     1
102
RTVSPost2010Prop56
140
1.0
102
RTVSPost2010PropOp56
 70
     1
102
RTVSPost2010Prop57
140
1.0
102
RTVSPost2010PropOp57
 70
     1
  0
XRECORD
  5
1C8
102
{ACAD_REACTORS
330
1C7
102
}
330
1C7
100
AcDbXrecord
280
     1
102
RTVSPost2010Prop28
280
     0
102
RTVSPost2010PropOp28
 70
     1
102
RTVSPost2010Prop29
280
     1
102
RTVSPost2010PropOp29
 70
     1
102
RTVSPost2010Prop30
280
     1
102
RTVSPost2010PropOp30
 70
     1
102
RTVSPost2010Prop31
280
     0
102
RTVSPost2010PropOp31
 70
     1
102
RTVSPost2010Prop32
280
     0
102
RTVSPost2010PropOp32
 70
     1
102
RTVSPost2010Prop33
280
     0
102
RTVSPost2010PropOp33
 70
     1
102
RTVSPost2010Prop34
280
     0
102
RTVSPost2010PropOp34
 70
     1
102
RTVSPost2010Prop35
280
     0
102
RTVSPost2010PropOp35
 70
     1
102
RTVSPost2010Prop36
280
     0
102
RTVSPost2010PropOp36
 70
     1
102
RTVSPost2010Prop37
 90
       50
102
RTVSPost2010PropOp37
 70
     1
102
RTVSPost2010Prop38
140
0.0
102
RTVSPost2010PropOp38
 70
     1
102
RTVSPost2010Prop39
140
1.0
102
RTVSPost2010PropOp39
 70
     1
102
RTVSPost2010Prop40
 90
        0
102
RTVSPost2010PropOp40
 70
     1
102
RTVSPost2010Prop41ColorIndex
 90
       18
102
RTVSPost2010Prop41ColorRGB
 90
        0
102
RTVSPost2010PropOp41
 70
     1
102
RTVSPost2010Prop42
 90
       50
102
RTVSPost2010PropOp42
 70
     1
102
RTVSPost2010Prop43
 90
        3
102
RTVSPost2010PropOp43
 70
     1
102
RTVSPost2010Prop44ColorIndex
 90
        5
102
RTVSPost2010Prop44ColorRGB
 90
      255
102
RTVSPost2010PropOp44
 70
     1
102
RTVSPost2010Prop45
280
     0
102
RTVSPost2010PropOp45
 70
     1
102
RTVSPost2010Prop46
 90
       50
102
RTVSPost2010PropOp46
 70
     1
102
RTVSPost2010Prop47
 90
       50
102
RTVSPost2010PropOp47
 70
     1
102
RTVSPost2010Prop48
 90
       50
102
RTVSPost2010PropOp48
 70
     1
102
RTVSPost2010Prop49
280
     0
102
RTVSPost2010PropOp49
 70
     1
102
RTVSPost2010Prop50
 90
       50
102
RTVSPost2010PropOp50
 70
     1
102
RTVSPost2010Prop51ColorIndex
 90
      256
102
RTVSPost2010Prop51ColorRGB
 90
-16777216
102
RTVSPost2010PropOp51
 70
     0
102
RTVSPost2010Prop52
140
1.0
102
RTVSPost2010PropOp52
 70
     0
102
RTVSPost2010Prop53
 90
        2
102
RTVSPost2010PropOp53
 70
     1
102
RTVSPost2010Prop54
  1
strokes_ogs.tif
102
RTVSPost2010PropOp54
 70
     1
102
RTVSPost2010Prop55
280
     0
102
RTVSPost2010PropOp55
 70
     1
102
RTVSPost2010Prop56
140
1.0
102
RTVSPost2010PropOp56
 70
     1
102
RTVSPost2010Prop57
140
1.0
102
RTVSPost2010PropOp57
 70
     1
  0
XRECORD
  5
1E0
102
{ACAD_REACTORS
330
1DF
102
}
330
1DF
100
AcDbXrecord
280
     1
102
RTVSPost2010Prop28
280
     0
102
RTVSPost2010PropOp28
 70
     1
102
RTVSPost2010Prop29
280
     1
102
RTVSPost2010PropOp29
 70
     1
102
RTVSPost2010Prop30
280
     1
102
RTVSPost2010PropOp30
 70
     1
102
RTVSPost2010Prop31
280
     0
102
RTVSPost2010PropOp31
 70
     1
102
RTVSPost2010Prop32
280
     0
102
RTVSPost2010PropOp32
 70
     1
102
RTVSPost2010Prop33
280
     0
102
RTVSPost2010PropOp33
 70
     1
102
RTVSPost2010Prop34
280
     0
102
RTVSPost2010PropOp34
 70
     1
102
RTVSPost2010Prop35
280
     0
102
RTVSPost2010PropOp35
 70
     1
102
RTVSPost2010Prop36
280
     0
102
RTVSPost2010PropOp36
 70
     1
102
RTVSPost2010Prop37
 90
       50
102
RTVSPost2010PropOp37
 70
     1
102
RTVSPost2010Prop38
140
0.0
102
RTVSPost2010PropOp38
 70
     1
102
RTVSPost2010Prop39
140
1.0
102
RTVSPost2010PropOp39
 70
     1
102
RTVSPost2010Prop40
 90
        0
102
RTVSPost2010PropOp40
 70
     1
102
RTVSPost2010Prop41ColorIndex
 90
       18
102
RTVSPost2010Prop41ColorRGB
 90
        0
102
RTVSPost2010PropOp41
 70
     1
102
RTVSPost2010Prop42
 90
       50
102
RTVSPost2010PropOp42
 70
     1
102
RTVSPost2010Prop43
 90
        3
102
RTVSPost2010PropOp43
 70
     1
102
RTVSPost2010Prop44ColorIndex
 90
        5
102
RTVSPost2010Prop44ColorRGB
 90
      255
102
RTVSPost2010PropOp44
 70
     1
102
RTVSPost2010Prop45
280
     0
102
RTVSPost2010PropOp45
 70
     1
102
RTVSPost2010Prop46
 90
       50
102
RTVSPost2010PropOp46
 70
     1
102
RTVSPost2010Prop47
 90
       50
102
RTVSPost2010PropOp47
 70
     1
102
RTVSPost2010Prop48
 90
       50
102
RTVSPost2010PropOp48
 70
     1
102
RTVSPost2010Prop49
280
     0
102
RTVSPost2010PropOp49
 70
     1
102
RTVSPost2010Prop50
 90
       50
102
RTVSPost2010PropOp50
 70
     1
102
RTVSPost2010Prop51ColorIndex
 90
      256
102
RTVSPost2010Prop51ColorRGB
 90
-16777216
102
RTVSPost2010PropOp51
 70
     0
102
RTVSPost2010Prop52
140
1.0
102
RTVSPost2010PropOp52
 70
     0
102
RTVSPost2010Prop53
 90
        2
102
RTVSPost2010PropOp53
 70
     1
102
RTVSPost2010Prop54
  1
strokes_ogs.tif
102
RTVSPost2010PropOp54
 70
     1
102
RTVSPost2010Prop55
280
     0
102
RTVSPost2010PropOp55
 70
     1
102
RTVSPost2010Prop56
140
1.0
102
RTVSPost2010PropOp56
 70
     1
102
RTVSPost2010Prop57
140
1.0
102
RTVSPost2010PropOp57
 70
     1
  0
ENDSEC
  0
EOF
