  0
SECTION
  2
HEADER
  9
$ACADVER
  1
AC1024
  9
$ACADMAINTVER
 70
     6
  9
$DWGCODEPAGE
  3
ANSI_1252
  9
$INSBASE
 10
0.0
 20
0.0
 30
0.0
  9
$EXTMIN
 10
1.000000000000000E+20
 20
1.000000000000000E+20
 30
1.000000000000000E+20
  9
$EXTMAX
 10
-1.000000000000000E+20
 20
-1.000000000000000E+20
 30
-1.000000000000000E+20
  9
$LIMMIN
 10
0.0
 20
0.0
  9
$LIMMAX
 10
12.0
 20
9.0
  9
$ORTHOMODE
 70
     0
  9
$REGENMODE
 70
     1
  9
$FILLMODE
 70
     1
  9
$QTEXTMODE
 70
     0
  9
$MIRRTEXT
 70
     1
  9
$LTSCALE
 40
1.0
  9
$ATTMODE
 70
     1
  9
$TEXTSIZE
 40
0.2
  9
$TRACEWID
 40
0.05
  9
$TEXTSTYLE
  7
Standard
  9
$CLAYER
  8
0
  9
$CELTYPE
  6
ByLayer
  9
$CECOLOR
 62
   256
  9
$CELTSCALE
 40
1.0
  9
$DISPSILH
 70
     0
  9
$DIMSCALE
 40
1.0
  9
$DIMASZ
 40
0.18
  9
$DIMEXO
 40
0.0625
  9
$DIMDLI
 40
0.38
  9
$DIMRND
 40
0.0
  9
$DIMDLE
 40
0.0
  9
$DIMEXE
 40
0.18
  9
$DIMTP
 40
0.0
  9
$DIMTM
 40
0.0
  9
$DIMTXT
 40
0.18
  9
$DIMCEN
 40
0.09
  9
$DIMTSZ
 40
0.0
  9
$DIMTOL
 70
     0
  9
$DIMLIM
 70
     0
  9
$DIMTIH
 70
     1
  9
$DIMTOH
 70
     1
  9
$DIMSE1
 70
     0
  9
$DIMSE2
 70
     0
  9
$DIMTAD
 70
     0
  9
$DIMZIN
 70
     0
  9
$DIMBLK
  1

  9
$DIMASO
 70
     1
  9
$DIMSHO
 70
     1
  9
$DIMPOST
  1

  9
$DIMAPOST
  1

  9
$DIMALT
 70
     0
  9
$DIMALTD
 70
     2
  9
$DIMALTF
 40
25.4
  9
$DIMLFAC
 40
1.0
  9
$DIMTOFL
 70
     0
  9
$DIMTVP
 40
0.0
  9
$DIMTIX
 70
     0
  9
$DIMSOXD
 70
     0
  9
$DIMSAH
 70
     0
  9
$DIMBLK1
  1

  9
$DIMBLK2
  1

  9
$DIMSTYLE
  2
Standard
  9
$DIMCLRD
 70
     0
  9
$DIMCLRE
 70
     0
  9
$DIMCLRT
 70
     0
  9
$DIMTFAC
 40
1.0
  9
$DIMGAP
 40
0.09
  9
$DIMJUST
 70
     0
  9
$DIMSD1
 70
     0
  9
$DIMSD2
 70
     0
  9
$DIMTOLJ
 70
     1
  9
$DIMTZIN
 70
     0
  9
$DIMALTZ
 70
     0
  9
$DIMALTTZ
 70
     0
  9
$DIMUPT
 70
     0
  9
$DIMDEC
 70
     4
  9
$DIMTDEC
 70
     4
  9
$DIMALTU
 70
     2
  9
$DIMALTTD
 70
     2
  9
$DIMTXSTY
  7
Standard
  9
$DIMAUNIT
 70
     0
  9
$DIMADEC
 70
     0
  9
$DIMALTRND
 40
0.0
  9
$DIMAZIN
 70
     0
  9
$DIMDSEP
 70
    46
  9
$DIMATFIT
 70
     3
  9
$DIMFRAC
 70
     0
  9
$DIMLDRBLK
  1

  9
$DIMLUNIT
 70
     2
  9
$DIMLWD
 70
    -2
  9
$DIMLWE
 70
    -2
  9
$DIMTMOVE
 70
     0
  9
$DIMFXL
 40
1.0
  9
$DIMFXLON
 70
     0
  9
$DIMJOGANG
 40
0.7853981633974483
  9
$DIMTFILL
 70
     0
  9
$DIMTFILLCLR
 70
     0
  9
$DIMARCSYM
 70
     0
  9
$DIMLTYPE
  6

  9
$DIMLTEX1
  6

  9
$DIMLTEX2
  6

  9
$DIMTXTDIRECTION
 70
     0
  9
$LUNITS
 70
     2
  9
$LUPREC
 70
     4
  9
$SKETCHINC
 40
0.1
  9
$FILLETRAD
 40
0.5
  9
$AUNITS
 70
     0
  9
$AUPREC
 70
     0
  9
$MENU
  1
.
  9
$ELEVATION
 40
0.0
  9
$PELEVATION
 40
0.0
  9
$THICKNESS
 40
0.0
  9
$LIMCHECK
 70
     0
  9
$CHAMFERA
 40
0.5
  9
$CHAMFERB
 40
0.5
  9
$CHAMFERC
 40
1.0
  9
$CHAMFERD
 40
0.0
  9
$SKPOLY
 70
     0
  9
$TDCREATE
 40
2458787.983066285
  9
$TDUCREATE
 40
2458787.441399618
  9
$TDUPDATE
 40
2458787.983066424
  9
$TDUUPDATE
 40
2458787.441399757
  9
$TDINDWG
 40
0.0000000116
  9
$TDUSRTIMER
 40
0.0000000116
  9
$USRTIMER
 70
     1
  9
$ANGBASE
 50
0.0
  9
$ANGDIR
 70
     0
  9
$PDMODE
 70
     0
  9
$PDSIZE
 40
0.0
  9
$PLINEWID
 40
0.0
  9
$SPLFRAME
 70
     0
  9
$SPLINETYPE
 70
     6
  9
$SPLINESEGS
 70
     8
  9
$HANDSEED
  5
1B8
  9
$SURFTAB1
 70
     6
  9
$SURFTAB2
 70
     6
  9
$SURFTYPE
 70
     6
  9
$SURFU
 70
     6
  9
$SURFV
 70
     6
  9
$UCSBASE
  2

  9
$UCSNAME
  2

  9
$UCSORG
 10
0.0
 20
0.0
 30
0.0
  9
$UCSXDIR
 10
1.0
 20
0.0
 30
0.0
  9
$UCSYDIR
 10
0.0
 20
1.0
 30
0.0
  9
$UCSORTHOREF
  2

  9
$UCSORTHOVIEW
 70
     0
  9
$UCSORGTOP
 10
0.0
 20
0.0
 30
0.0
  9
$UCSORGBOTTOM
 10
0.0
 20
0.0
 30
0.0
  9
$UCSORGLEFT
 10
0.0
 20
0.0
 30
0.0
  9
$UCSORGRIGHT
 10
0.0
 20
0.0
 30
0.0
  9
$UCSORGFRONT
 10
0.0
 20
0.0
 30
0.0
  9
$UCSORGBACK
 10
0.0
 20
0.0
 30
0.0
  9
$PUCSBASE
  2

  9
$PUCSNAME
  2

  9
$PUCSORG
 10
0.0
 20
0.0
 30
0.0
  9
$PUCSXDIR
 10
1.0
 20
0.0
 30
0.0
  9
$PUCSYDIR
 10
0.0
 20
1.0
 30
0.0
  9
$PUCSORTHOREF
  2

  9
$PUCSORTHOVIEW
 70
     0
  9
$PUCSORGTOP
 10
0.0
 20
0.0
 30
0.0
  9
$PUCSORGBOTTOM
 10
0.0
 20
0.0
 30
0.0
  9
$PUCSORGLEFT
 10
0.0
 20
0.0
 30
0.0
  9
$PUCSORGRIGHT
 10
0.0
 20
0.0
 30
0.0
  9
$PUCSORGFRONT
 10
0.0
 20
0.0
 30
0.0
  9
$PUCSORGBACK
 10
0.0
 20
0.0
 30
0.0
  9
$USERI1
 70
     0
  9
$USERI2
 70
     0
  9
$USERI3
 70
     0
  9
$USERI4
 70
     0
  9
$USERI5
 70
     0
  9
$USERR1
 40
0.0
  9
$USERR2
 40
0.0
  9
$USERR3
 40
0.0
  9
$USERR4
 40
0.0
  9
$USERR5
 40
0.0
  9
$WORLDVIEW
 70
     1
  9
$SHADEDGE
 70
     3
  9
$SHADEDIF
 70
    70
  9
$TILEMODE
 70
     1
  9
$MAXACTVP
 70
    64
  9
$PINSBASE
 10
0.0
 20
0.0
 30
0.0
  9
$PLIMCHECK
 70
     0
  9
$PEXTMIN
 10
1.000000000000000E+20
 20
1.000000000000000E+20
 30
1.000000000000000E+20
  9
$PEXTMAX
 10
-1.000000000000000E+20
 20
-1.000000000000000E+20
 30
-1.000000000000000E+20
  9
$PLIMMIN
 10
0.0
 20
0.0
  9
$PLIMMAX
 10
12.0
 20
9.0
  9
$UNITMODE
 70
     0
  9
$VISRETAIN
 70
     1
  9
$PLINEGEN
 70
     0
  9
$PSLTSCALE
 70
     1
  9
$TREEDEPTH
 70
  3020
  9
$CMLSTYLE
  2
Standard
  9
$CMLJUST
 70
     0
  9
$CMLSCALE
 40
1.0
  9
$PROXYGRAPHICS
 70
     1
  9
$MEASUREMENT
 70
     0
  9
$CELWEIGHT
370
    -1
  9
$ENDCAPS
280
     0
  9
$JOINSTYLE
280
     0
  9
$LWDISPLAY
290
     1
  9
$INSUNITS
 70
     1
  9
$HYPERLINKBASE
  1

  9
$STYLESHEET
  1

  9
$XEDIT
290
     1
  9
$CEPSNTYPE
380
     0
  9
$PSTYLEMODE
290
     1
  9
$FINGERPRINTGUID
  2
{F485BEB9-DD8F-479D-B446-C93AF1AF2AF7}
  9
$VERSIONGUID
  2
{FAEB1C32-E019-11D5-929B-00C0DF256EC4}
  9
$EXTNAMES
290
     1
  9
$PSVPSCALE
 40
0.0
  9
$OLESTARTUP
290
     0
  9
$SORTENTS
280
   127
  9
$INDEXCTL
280
     0
  9
$HIDETEXT
280
     1
  9
$XCLIPFRAME
280
     2
  9
$HALOGAP
280
     0
  9
$OBSCOLOR
 70
   257
  9
$OBSLTYPE
280
     0
  9
$INTERSECTIONDISPLAY
280
     0
  9
$INTERSECTIONCOLOR
 70
   257
  9
$DIMASSOC
280
     2
  9
$PROJECTNAME
  1

  9
$CAMERADISPLAY
290
     0
  9
$LENSLENGTH
 40
50.0
  9
$CAMERAHEIGHT
 40
0.0
  9
$STEPSPERSEC
 40
2.0
  9
$STEPSIZE
 40
6.0
  9
$3DDWFPREC
 40
2.0
  9
$PSOLWIDTH
 40
0.25
  9
$PSOLHEIGHT
 40
4.0
  9
$LOFTANG1
 40
1.570796326794897
  9
$LOFTANG2
 40
1.570796326794897
  9
$LOFTMAG1
 40
0.0
  9
$LOFTMAG2
 40
0.0
  9
$LOFTPARAM
 70
     7
  9
$LOFTNORMALS
280
     1
  9
$LATITUDE
 40
37.795
  9
$LONGITUDE
 40
-122.394
  9
$NORTHDIRECTION
 40
0.0
  9
$TIMEZONE
 70
 -8000
  9
$LIGHTGLYPHDISPLAY
280
     1
  9
$TILEMODELIGHTSYNCH
280
     1
  9
$CMATERIAL
347
3C
  9
$SOLIDHIST
280
     1
  9
$SHOWHIST
280
     1
  9
$DWFFRAME
280
     2
  9
$DGNFRAME
280
     2
  9
$REALWORLDSCALE
290
     1
  9
$INTERFERECOLOR
 62
   256
  9
$CSHADOW
280
     0
  9
$SHADOWPLANELOCATION
 40
0.0
  0
ENDSEC
  0
SECTION
  2
CLASSES
  0
CLASS
  1
ACDBDICTIONARYWDFLT
  2
AcDbDictionaryWithDefault
  3
ObjectDBX Classes
 90
        0
 91
        4
280
     0
281
     0
  0
CLASS
  1
VISUALSTYLE
  2
AcDbVisualStyle
  3
ObjectDBX Classes
 90
     4095
 91
        4
280
     0
281
     0
  0
CLASS
  1
MATERIAL
  2
AcDbMaterial
  3
ObjectDBX Classes
 90
     1153
 91
        4
280
     0
281
     0
  0
CLASS
  1
SUN
  2
AcDbSun
  3
SCENEOE
 90
     1024
 91
        4
280
     0
281
     0
  0
ENDSEC
  0
SECTION
  2
TABLES
  0
TABLE
  2
VPORT
  5
8
330
0
100
AcDbSymbolTable
 70
     1
  0
VPORT
  5
29
330
8
100
AcDbSymbolTableRecord
100
AcDbViewportTableRecord
  2
*Active
 70
     0
 10
0.0
 20
0.0
 11
1.0
 21
1.0
 12
0.0
 22
0.0
 13
0.0
 23
0.0
 14
0.5
 24
0.5
 15
0.5
 25
0.5
 16
0.0
 26
0.0
 36
1.0
 17
2.892900097465877
 27
-1.098075048732931
 37
0.0
 40
11.69291338582677
 41
0.7070707070707065
 42
50.0
 43
0.0
 44
0.0
 50
0.0
 51
0.0
 71
     0
 72
   100
 73
     1
 74
     3
 75
     0
 76
     0
 77
     0
 78
     0
281
     0
 65
     1
110
0.0
120
0.0
130
0.0
111
1.0
121
0.0
131
0.0
112
0.0
122
1.0
132
0.0
 79
     0
146
0.0
 60
     3
 61
     5
292
     1
282
     1
141
0.0
142
0.0
 63
   250
361
3F
  0
ENDTAB
  0
TABLE
  2
LTYPE
  5
5
330
0
100
AcDbSymbolTable
 70
     1
  0
LTYPE
  5
14
330
5
100
AcDbSymbolTableRecord
100
AcDbLinetypeTableRecord
  2
ByBlock
 70
     0
  3

 72
    65
 73
     0
 40
0.0
  0
LTYPE
  5
15
330
5
100
AcDbSymbolTableRecord
100
AcDbLinetypeTableRecord
  2
ByLayer
 70
     0
  3

 72
    65
 73
     0
 40
0.0
  0
LTYPE
  5
16
330
5
100
AcDbSymbolTableRecord
100
AcDbLinetypeTableRecord
  2
Continuous
 70
     0
  3
Solid line
 72
    65
 73
     0
 40
0.0
  0
ENDTAB
  0
TABLE
  2
LAYER
  5
2
330
0
100
AcDbSymbolTable
 70
     6
  0
LAYER
  5
10
330
2
100
AcDbSymbolTableRecord
100
AcDbLayerTableRecord
  2
0
 70
     0
 62
     7
  6
Continuous
370
    -3
390
F
347
3E
  0
LAYER
  5
40
330
2
100
AcDbSymbolTableRecord
100
AcDbLayerTableRecord
  2
Wood
 70
     0
 62
     7
  6
Continuous
370
    -3
390
F
347
3E
  0
LAYER
  5
DD
330
2
100
AcDbSymbolTableRecord
100
AcDbLayerTableRecord
  2
Wood-Front
 70
     0
 62
     7
  6
Continuous
370
    -3
390
F
347
3E
  0
LAYER
  5
FA
330
2
100
AcDbSymbolTableRecord
100
AcDbLayerTableRecord
  2
SDEG
 70
     0
 62
     7
  6
Continuous
370
    -3
390
F
347
3E
  0
LAYER
  5
122
330
2
100
AcDbSymbolTableRecord
100
AcDbLayerTableRecord
  2
Nails
 70
     0
 62
     7
  6
Continuous
370
    -3
390
F
347
3E
  0
LAYER
  5
1A1
330
2
100
AcDbSymbolTableRecord
100
AcDbLayerTableRecord
  2
callout
 70
     0
 62
     7
  6
Continuous
370
    -3
390
F
347
3E
  0
ENDTAB
  0
TABLE
  2
STYLE
  5
3
330
0
100
AcDbSymbolTable
 70
     1
  0
STYLE
  5
11
330
3
100
AcDbSymbolTableRecord
100
AcDbTextStyleTableRecord
  2
Standard
 70
     0
 40
0.0
 41
1.0
 50
0.0
 71
     0
 42
0.2
  3
txt
  4

  0
ENDTAB
  0
TABLE
  2
VIEW
  5
6
330
0
100
AcDbSymbolTable
 70
     0
  0
ENDTAB
  0
TABLE
  2
UCS
  5
7
330
0
100
AcDbSymbolTable
 70
     0
  0
ENDTAB
  0
TABLE
  2
APPID
  5
9
330
0
100
AcDbSymbolTable
 70
     1
  0
APPID
  5
12
330
9
100
AcDbSymbolTableRecord
100
AcDbRegAppTableRecord
  2
ACAD
 70
     0
  0
ENDTAB
  0
TABLE
  2
DIMSTYLE
  5
A
330
0
100
AcDbSymbolTable
 70
     1
100
AcDbDimStyleTable
  0
DIMSTYLE
105
27
330
A
100
AcDbSymbolTableRecord
100
AcDbDimStyleTableRecord
  2
Standard
 70
     0
178
     0
340
11
  0
ENDTAB
  0
TABLE
  2
BLOCK_RECORD
  5
1
330
0
100
AcDbSymbolTable
 70
    21
  0
BLOCK_RECORD
  5
1F
330
1
100
AcDbSymbolTableRecord
100
AcDbBlockTableRecord
  2
*Model_Space
340
22
 70
     0
280
     1
281
     0
  0
BLOCK_RECORD
  5
1B
330
1
100
AcDbSymbolTableRecord
100
AcDbBlockTableRecord
  2
*Paper_Space
340
1E
 70
     0
280
     1
281
     0
  0
BLOCK_RECORD
  5
23
330
1
100
AcDbSymbolTableRecord
100
AcDbBlockTableRecord
  2
*Paper_Space0
340
26
 70
     0
280
     1
281
     0
  0
BLOCK_RECORD
  5
41
330
1
100
AcDbSymbolTableRecord
100
AcDbBlockTableRecord
  2
block 2
340
0
102
{BLKREFS
331
42
102
}
 70
     0
280
     1
281
     0
  0
BLOCK_RECORD
  5
47
330
1
100
AcDbSymbolTableRecord
100
AcDbBlockTableRecord
  2
block 3
340
0
102
{BLKREFS
331
48
102
}
 70
     0
280
     1
281
     0
  0
BLOCK_RECORD
  5
123
330
1
100
AcDbSymbolTableRecord
100
AcDbBlockTableRecord
  2
block 4
340
0
102
{BLKREFS
331
124
102
}
 70
     0
280
     1
281
     0
  0
BLOCK_RECORD
  5
12A
330
1
100
AcDbSymbolTableRecord
100
AcDbBlockTableRecord
  2
block 5
340
0
102
{BLKREFS
331
12B
102
}
 70
     0
280
     1
281
     0
  0
BLOCK_RECORD
  5
131
330
1
100
AcDbSymbolTableRecord
100
AcDbBlockTableRecord
  2
block 6
340
0
102
{BLKREFS
331
132
102
}
 70
     0
280
     1
281
     0
  0
BLOCK_RECORD
  5
138
330
1
100
AcDbSymbolTableRecord
100
AcDbBlockTableRecord
  2
block 7
340
0
102
{BLKREFS
331
139
102
}
 70
     0
280
     1
281
     0
  0
BLOCK_RECORD
  5
13F
330
1
100
AcDbSymbolTableRecord
100
AcDbBlockTableRecord
  2
block 8
340
0
102
{BLKREFS
331
140
102
}
 70
     0
280
     1
281
     0
  0
BLOCK_RECORD
  5
146
330
1
100
AcDbSymbolTableRecord
100
AcDbBlockTableRecord
  2
block 9
340
0
102
{BLKREFS
331
147
102
}
 70
     0
280
     1
281
     0
  0
BLOCK_RECORD
  5
14D
330
1
100
AcDbSymbolTableRecord
100
AcDbBlockTableRecord
  2
block 10
340
0
102
{BLKREFS
331
14E
102
}
 70
     0
280
     1
281
     0
  0
BLOCK_RECORD
  5
154
330
1
100
AcDbSymbolTableRecord
100
AcDbBlockTableRecord
  2
block 11
340
0
102
{BLKREFS
331
155
102
}
 70
     0
280
     1
281
     0
  0
BLOCK_RECORD
  5
15B
330
1
100
AcDbSymbolTableRecord
100
AcDbBlockTableRecord
  2
block 12
340
0
102
{BLKREFS
331
15C
102
}
 70
     0
280
     1
281
     0
  0
BLOCK_RECORD
  5
162
330
1
100
AcDbSymbolTableRecord
100
AcDbBlockTableRecord
  2
block 13
340
0
102
{BLKREFS
331
163
102
}
 70
     0
280
     1
281
     0
  0
BLOCK_RECORD
  5
169
330
1
100
AcDbSymbolTableRecord
100
AcDbBlockTableRecord
  2
block 14
340
0
102
{BLKREFS
331
16A
102
}
 70
     0
280
     1
281
     0
  0
BLOCK_RECORD
  5
170
330
1
100
AcDbSymbolTableRecord
100
AcDbBlockTableRecord
  2
block 15
340
0
102
{BLKREFS
331
171
102
}
 70
     0
280
     1
281
     0
  0
BLOCK_RECORD
  5
177
330
1
100
AcDbSymbolTableRecord
100
AcDbBlockTableRecord
  2
block 16
340
0
102
{BLKREFS
331
178
102
}
 70
     0
280
     1
281
     0
  0
BLOCK_RECORD
  5
17E
330
1
100
AcDbSymbolTableRecord
100
AcDbBlockTableRecord
  2
block 17
340
0
102
{BLKREFS
331
17F
102
}
 70
     0
280
     1
281
     0
  0
BLOCK_RECORD
  5
185
330
1
100
AcDbSymbolTableRecord
100
AcDbBlockTableRecord
  2
block 18
340
0
102
{BLKREFS
331
186
102
}
 70
     0
280
     1
281
     0
  0
BLOCK_RECORD
  5
18C
330
1
100
AcDbSymbolTableRecord
100
AcDbBlockTableRecord
  2
block 19
340
0
102
{BLKREFS
331
18D
102
}
 70
     0
280
     1
281
     0
  0
BLOCK_RECORD
  5
193
330
1
100
AcDbSymbolTableRecord
100
AcDbBlockTableRecord
  2
block 20
340
0
102
{BLKREFS
331
194
102
}
 70
     0
280
     1
281
     0
  0
BLOCK_RECORD
  5
19A
330
1
100
AcDbSymbolTableRecord
100
AcDbBlockTableRecord
  2
block 21
340
0
102
{BLKREFS
331
19B
102
}
 70
     0
280
     1
281
     0
  0
ENDTAB
  0
ENDSEC
  0
SECTION
  2
BLOCKS
  0
BLOCK
  5
20
330
1F
100
AcDbEntity
  8
0
100
AcDbBlockBegin
  2
*Model_Space
 70
     0
 10
0.0
 20
0.0
 30
0.0
  3
*Model_Space
  1

  0
ENDBLK
  5
21
330
1F
100
AcDbEntity
  8
0
100
AcDbBlockEnd
  0
BLOCK
  5
1C
330
1B
100
AcDbEntity
 67
     1
  8
0
100
AcDbBlockBegin
  2
*Paper_Space
 70
     0
 10
0.0
 20
0.0
 30
0.0
  3
*Paper_Space
  1

  0
ENDBLK
  5
1D
330
1B
100
AcDbEntity
 67
     1
  8
0
100
AcDbBlockEnd
  0
BLOCK
  5
24
330
23
100
AcDbEntity
  8
0
100
AcDbBlockBegin
  2
*Paper_Space0
 70
     0
 10
0.0
 20
0.0
 30
0.0
  3
*Paper_Space0
  1

  0
ENDBLK
  5
25
330
23
100
AcDbEntity
  8
0
100
AcDbBlockEnd
  0
BLOCK
  5
43
330
41
100
AcDbEntity
  8
0
100
AcDbBlockBegin
  2
block 2
 70
     0
 10
0.0
 20
0.0
 30
0.0
  3
block 2
  1

  0
SPLINE
  5
45
330
41
100
AcDbEntity
  8
Wood
370
     0
100
AcDbSpline
210
0.0
220
0.0
230
1.0
 70
    11
 71
     3
 72
    35
 73
    31
 74
     0
 42
0.0000000001
 43
0.0000000001
 12
1.0
 22
0.0
 32
0.0
 13
1.0
 23
0.0
 33
0.0
 40
0.0
 40
0.0
 40
0.0
 40
0.0
 40
1.0
 40
1.0
 40
1.0
 40
2.0
 40
2.0
 40
2.0
 40
3.0
 40
3.0
 40
3.0
 40
4.0
 40
4.0
 40
4.0
 40
5.0
 40
5.0
 40
5.0
 40
6.0
 40
6.0
 40
6.0
 40
7.0
 40
7.0
 40
7.0
 40
8.0
 40
8.0
 40
8.0
 40
9.0
 40
9.0
 40
9.0
 40
10.0
 40
10.0
 40
10.0
 40
10.0
 10
1.737480511663105
 20
0.693997222222227
 30
0.0
 10
1.737480511663105
 20
0.693997222222227
 30
0.0
 10
1.380276388888888
 20
0.5418694444444504
 30
0.0
 10
1.380276388888888
 20
0.5418694444444504
 30
0.0
 10
1.380276388888888
 20
0.5418694444444504
 30
0.0
 10
1.380201388888887
 20
-0.415513888888894
 30
0.0
 10
1.380201388888887
 20
-0.415513888888894
 30
0.0
 10
1.380201388888887
 20
-0.415513888888894
 30
0.0
 10
5.138888888888888
 20
-2.106486111111116
 30
0.0
 10
5.138888888888888
 20
-2.106486111111116
 30
0.0
 10
5.138888888888888
 20
-2.106486111111116
 30
0.0
 10
5.440972222222222
 20
-1.839125000000005
 30
0.0
 10
5.440972222222222
 20
-1.839125000000005
 30
0.0
 10
5.440972222222222
 20
-1.839125000000005
 30
0.0
 10
5.438856807047361
 20
-1.302720833333334
 30
0.0
 10
5.438856807047361
 20
-1.302720833333334
 30
0.0
 10
5.438856807047361
 20
-1.302720833333334
 30
0.0
 10
5.378662364123556
 20
-1.244900000000004
 30
0.0
 10
5.378662364123556
 20
-1.244900000000004
 30
0.0
 10
5.378662364123556
 20
-1.244900000000004
 30
0.0
 10
5.501654027683192
 20
-1.133944444444448
 30
0.0
 10
5.501654027683192
 20
-1.133951388888893
 30
0.0
 10
5.501654027683192
 20
-1.133951388888893
 30
0.0
 10
5.438123473732554
 20
-1.082180555555561
 30
0.0
 10
5.438123473732554
 20
-1.082180555555561
 30
0.0
 10
5.438123473732554
 20
-1.082180555555561
 30
0.0
 10
5.436198473781183
 20
-0.5987958333333331
 30
0.0
 10
5.436198473781183
 20
-0.5987958333333331
 30
0.0
 10
5.436198473781183
 20
-0.5987958333333331
 30
0.0
 10
1.737480511663105
 20
0.693997222222227
 30
0.0
 10
1.737480511663105
 20
0.693997222222227
 30
0.0
  0
HATCH
  5
46
330
41
100
AcDbEntity
  8
Wood
 62
    43
420
 15510365
100
AcDbHatch
 10
0.0
 20
0.0
 30
0.0
210
0.0
220
0.0
230
1.0
  2
SOLID
 70
     1
 71
     0
 91
        1
 92
        1
 93
        1
 72
     4
 94
        3
 73
     0
 74
     1
 95
       35
 96
       31
 40
0.0
 40
0.0
 40
0.0
 40
0.0
 40
1.0
 40
1.0
 40
1.0
 40
2.0
 40
2.0
 40
2.0
 40
3.0
 40
3.0
 40
3.0
 40
4.0
 40
4.0
 40
4.0
 40
5.0
 40
5.0
 40
5.0
 40
6.0
 40
6.0
 40
6.0
 40
7.0
 40
7.0
 40
7.0
 40
8.0
 40
8.0
 40
8.0
 40
9.0
 40
9.0
 40
9.0
 40
10.0
 40
10.0
 40
10.0
 40
10.0
 10
1.737480511663105
 20
0.693997222222227
 10
1.737480511663105
 20
0.693997222222227
 10
1.380276388888888
 20
0.5418694444444504
 10
1.380276388888888
 20
0.5418694444444504
 10
1.380276388888888
 20
0.5418694444444504
 10
1.380201388888887
 20
-0.415513888888894
 10
1.380201388888887
 20
-0.415513888888894
 10
1.380201388888887
 20
-0.415513888888894
 10
5.138888888888888
 20
-2.106486111111116
 10
5.138888888888888
 20
-2.106486111111116
 10
5.138888888888888
 20
-2.106486111111116
 10
5.440972222222222
 20
-1.839125000000005
 10
5.440972222222222
 20
-1.839125000000005
 10
5.440972222222222
 20
-1.839125000000005
 10
5.438856807047361
 20
-1.302720833333334
 10
5.438856807047361
 20
-1.302720833333334
 10
5.438856807047361
 20
-1.302720833333334
 10
5.378662364123556
 20
-1.244900000000004
 10
5.378662364123556
 20
-1.244900000000004
 10
5.378662364123556
 20
-1.244900000000004
 10
5.501654027683192
 20
-1.133944444444448
 10
5.501654027683192
 20
-1.133951388888893
 10
5.501654027683192
 20
-1.133951388888893
 10
5.438123473732554
 20
-1.082180555555561
 10
5.438123473732554
 20
-1.082180555555561
 10
5.438123473732554
 20
-1.082180555555561
 10
5.436198473781183
 20
-0.5987958333333331
 10
5.436198473781183
 20
-0.5987958333333331
 10
5.436198473781183
 20
-0.5987958333333331
 10
1.737480511663105
 20
0.693997222222227
 10
1.737480511663105
 20
0.693997222222227
 97
        0
 97
        0
 75
     2
 76
     1
 98
        0
  0
ENDBLK
  5
44
330
41
100
AcDbEntity
  8
0
100
AcDbBlockEnd
  0
BLOCK
  5
49
330
47
100
AcDbEntity
  8
0
100
AcDbBlockBegin
  2
block 3
 70
     0
 10
0.0
 20
0.0
 30
0.0
  3
block 3
  1

  0
POLYLINE
  5
4B
330
47
100
AcDbEntity
  8
Wood
 62
   250
420
  2301728
370
    30
100
AcDb2dPolyline
 66
     1
 10
0.0
 20
0.0
 30
0.0
  0
VERTEX
  5
4C
330
4B
100
AcDbEntity
  8
Wood
 62
   250
420
  2301728
370
    30
100
AcDbVertex
100
AcDb2dVertex
 10
5.437120695980107
 20
-0.5982333333333322
 30
0.0
  0
VERTEX
  5
4D
330
4B
100
AcDbEntity
  8
Wood
 62
   250
420
  2301728
370
    30
100
AcDbVertex
100
AcDb2dVertex
 10
5.438015140401957
 20
-1.078708333333338
 30
0.0
  0
VERTEX
  5
4E
330
4B
100
AcDbEntity
  8
Wood
 62
   250
420
  2301728
370
    30
100
AcDbVertex
100
AcDb2dVertex
 10
5.500515138823074
 20
-1.134263888888894
 30
0.0
  0
VERTEX
  5
4F
330
4B
100
AcDbEntity
  8
Wood
 62
   250
420
  2301728
370
    30
100
AcDbVertex
100
AcDb2dVertex
 10
5.378472222222222
 20
-1.242994444444447
 30
0.0
  0
VERTEX
  5
50
330
4B
100
AcDbEntity
  8
Wood
 62
   250
420
  2301728
370
    30
100
AcDbVertex
100
AcDb2dVertex
 10
5.439995695907479
 20
-1.303873611111107
 30
0.0
  0
VERTEX
  5
51
330
4B
100
AcDbEntity
  8
Wood
 62
   250
420
  2301728
370
    30
100
AcDbVertex
100
AcDb2dVertex
 10
5.439995695907479
 20
-1.842597222222227
 30
0.0
  0
VERTEX
  5
52
330
4B
100
AcDbEntity
  8
Wood
 62
   250
420
  2301728
370
    30
100
AcDbVertex
100
AcDb2dVertex
 10
5.139756814603262
 20
-2.109198611111108
 30
0.0
  0
VERTEX
  5
53
330
4B
100
AcDbEntity
  8
Wood
 62
   250
420
  2301728
370
    30
100
AcDbVertex
100
AcDb2dVertex
 10
1.379672222222224
 20
-0.4143541666666629
 30
0.0
  0
VERTEX
  5
54
330
4B
100
AcDbEntity
  8
Wood
 62
   250
420
  2301728
370
    30
100
AcDbVertex
100
AcDb2dVertex
 10
1.379672222222224
 20
0.5408194444444486
 30
0.0
  0
VERTEX
  5
55
330
4B
100
AcDbEntity
  8
Wood
 62
   250
420
  2301728
370
    30
100
AcDbVertex
100
AcDb2dVertex
 10
1.738423567194837
 20
0.6945194444444446
 30
0.0
  0
VERTEX
  5
56
330
4B
100
AcDbEntity
  8
Wood
 62
   250
420
  2301728
370
    30
100
AcDbVertex
100
AcDb2dVertex
 10
5.437120695980107
 20
-0.5982333333333322
 30
0.0
  0
SEQEND
  5
57
330
4B
100
AcDbEntity
  8
Wood
 62
   250
420
  2301728
370
    30
  0
ENDBLK
  5
4A
330
47
100
AcDbEntity
  8
0
100
AcDbBlockEnd
  0
BLOCK
  5
125
330
123
100
AcDbEntity
  8
0
100
AcDbBlockBegin
  2
block 4
 70
     0
 10
0.0
 20
0.0
 30
0.0
  3
block 4
  1

  0
SPLINE
  5
127
330
123
100
AcDbEntity
  8
Nails
 62
   250
420
  2301728
370
    20
100
AcDbSpline
210
0.0
220
0.0
230
1.0
 70
    11
 71
     3
 72
    23
 73
    19
 74
     0
 42
0.0000000001
 43
0.0000000001
 12
1.0
 22
0.0
 32
0.0
 13
1.0
 23
0.0
 33
0.0
 40
0.0
 40
0.0
 40
0.0
 40
0.0
 40
1.0
 40
1.0
 40
1.0
 40
2.0
 40
2.0
 40
2.0
 40
3.0
 40
3.0
 40
3.0
 40
4.0
 40
4.0
 40
4.0
 40
5.0
 40
5.0
 40
5.0
 40
6.0
 40
6.0
 40
6.0
 40
6.0
 10
3.990858232515772
 20
-0.583462499999996
 30
0.0
 10
3.979248510586836
 20
-0.588520833333329
 30
0.0
 10
3.965087399833465
 20
-0.580058333333328
 30
0.0
 10
3.959283233313423
 20
-0.5645541666666657
 30
0.0
 10
3.953504066792751
 20
-0.5490652777777743
 30
0.0
 10
3.95819712222975
 20
-0.5323888888888935
 30
0.0
 10
3.969862399712838
 20
-0.5272833333333311
 30
0.0
 10
3.969862399712838
 20
-0.5272833333333311
 30
0.0
 10
3.980359621669878
 20
-0.5227249999999988
 30
0.0
 10
3.980359621669878
 20
-0.5227249999999988
 30
0.0
 10
3.991942954710591
 20
-0.5175986111111115
 30
0.0
 10
4.006076287686887
 20
-0.5260888888888833
 30
0.0
 10
4.01193600976108
 20
-0.5416263888888831
 30
0.0
 10
4.017713787392899
 20
-0.5570944444444497
 30
0.0
 10
4.012992954178824
 20
-0.5737847222222222
 30
0.0
 10
4.001383232249887
 20
-0.5789319444444471
 30
0.0
 10
4.001383232249887
 20
-0.5789319444444471
 30
0.0
 10
3.990858232515772
 20
-0.583462499999996
 30
0.0
 10
3.990858232515772
 20
-0.583462499999996
 30
0.0
  0
HATCH
  5
128
330
123
100
AcDbEntity
  8
Nails
 62
   254
420
 13358815
100
AcDbHatch
 10
0.0
 20
0.0
 30
0.0
210
0.0
220
0.0
230
1.0
  2
SOLID
 70
     1
 71
     0
 91
        1
 92
        1
 93
        1
 72
     4
 94
        3
 73
     0
 74
     1
 95
       23
 96
       19
 40
0.0
 40
0.0
 40
0.0
 40
0.0
 40
1.0
 40
1.0
 40
1.0
 40
2.0
 40
2.0
 40
2.0
 40
3.0
 40
3.0
 40
3.0
 40
4.0
 40
4.0
 40
4.0
 40
5.0
 40
5.0
 40
5.0
 40
6.0
 40
6.0
 40
6.0
 40
6.0
 10
3.990858232515772
 20
-0.583462499999996
 10
3.979248510586836
 20
-0.588520833333329
 10
3.965087399833465
 20
-0.580058333333328
 10
3.959283233313423
 20
-0.5645541666666657
 10
3.953504066792751
 20
-0.5490652777777743
 10
3.95819712222975
 20
-0.5323888888888935
 10
3.969862399712838
 20
-0.5272833333333311
 10
3.969862399712838
 20
-0.5272833333333311
 10
3.980359621669878
 20
-0.5227249999999988
 10
3.980359621669878
 20
-0.5227249999999988
 10
3.991942954710591
 20
-0.5175986111111115
 10
4.006076287686887
 20
-0.5260888888888833
 10
4.01193600976108
 20
-0.5416263888888831
 10
4.017713787392899
 20
-0.5570944444444497
 10
4.012992954178824
 20
-0.5737847222222222
 10
4.001383232249887
 20
-0.5789319444444471
 10
4.001383232249887
 20
-0.5789319444444471
 10
3.990858232515772
 20
-0.583462499999996
 10
3.990858232515772
 20
-0.583462499999996
 97
        0
 97
        0
 75
     2
 76
     1
 98
        0
  0
SPLINE
  5
129
330
123
100
AcDbEntity
  8
Nails
 62
   250
420
  2301728
370
    20
100
AcDbSpline
210
0.0
220
0.0
230
1.0
 70
    11
 71
     3
 72
    17
 73
    13
 74
     0
 42
0.0000000001
 43
0.0000000001
 12
1.0
 22
0.0
 32
0.0
 13
1.0
 23
0.0
 33
0.0
 40
0.0
 40
0.0
 40
0.0
 40
0.0
 40
1.0
 40
1.0
 40
1.0
 40
2.0
 40
2.0
 40
2.0
 40
3.0
 40
3.0
 40
3.0
 40
4.0
 40
4.0
 40
4.0
 40
4.0
 10
3.990423510304531
 20
-0.583651388888888
 30
0.0
 10
4.00208878778762
 20
-0.5786069444444466
 30
0.0
 10
4.00680823211284
 20
-0.5618958333333365
 30
0.0
 10
4.000976287815724
 20
-0.5463805555555533
 30
0.0
 10
3.995144343518607
 20
-0.5308833333333369
 30
0.0
 10
3.981038788319387
 20
-0.5223999999999983
 30
0.0
 10
3.969401288613375
 20
-0.5274722222222231
 30
0.0
 10
3.957790177795586
 20
-0.5325527777777729
 30
0.0
 10
3.953097222222216
 20
-0.5492277777777745
 30
0.0
 10
3.958848511102183
 20
-0.564779166666666
 30
0.0
 10
3.964654066511078
 20
-0.5802541666666658
 30
0.0
 10
3.978813788375596
 20
-0.5887388888888836
 30
0.0
 10
3.990423510304531
 20
-0.583651388888888
 30
0.0
  0
ENDBLK
  5
126
330
123
100
AcDbEntity
  8
0
100
AcDbBlockEnd
  0
BLOCK
  5
12C
330
12A
100
AcDbEntity
  8
0
100
AcDbBlockBegin
  2
block 5
 70
     0
 10
0.0
 20
0.0
 30
0.0
  3
block 5
  1

  0
SPLINE
  5
12E
330
12A
100
AcDbEntity
  8
Nails
 62
   250
420
  2301728
370
    20
100
AcDbSpline
210
0.0
220
0.0
230
1.0
 70
    11
 71
     3
 72
    23
 73
    19
 74
     0
 42
0.0000000001
 43
0.0000000001
 12
1.0
 22
0.0
 32
0.0
 13
1.0
 23
0.0
 33
0.0
 40
0.0
 40
0.0
 40
0.0
 40
0.0
 40
1.0
 40
1.0
 40
1.0
 40
2.0
 40
2.0
 40
2.0
 40
3.0
 40
3.0
 40
3.0
 40
4.0
 40
4.0
 40
4.0
 40
5.0
 40
5.0
 40
5.0
 40
6.0
 40
6.0
 40
6.0
 40
6.0
 10
2.957601314173593
 20
-0.270962499999996
 30
0.0
 10
2.946004092244341
 20
-0.2760208333333291
 30
0.0
 10
2.931844370379824
 20
-0.267558333333328
 30
0.0
 10
2.926038814970929
 20
-0.2520541666666657
 30
0.0
 10
2.92026103733911
 20
-0.2365652777777743
 30
0.0
 10
2.924954092776109
 20
-0.2198888888888935
 30
0.0
 10
2.936604092481805
 20
-0.2147833333333311
 30
0.0
 10
2.936604092481805
 20
-0.2147833333333311
 30
0.0
 10
2.947102703327699
 20
-0.2102249999999988
 30
0.0
 10
2.947102703327699
 20
-0.2102249999999988
 30
0.0
 10
2.958699925256964
 20
-0.2050986111111115
 30
0.0
 10
2.972831869344393
 20
-0.2135888888888833
 30
0.0
 10
2.978691591418586
 20
-0.2291263888888832
 30
0.0
 10
2.984469369050405
 20
-0.2445944444444497
 30
0.0
 10
2.979750000000005
 20
-0.2612847222222222
 30
0.0
 10
2.968126313907709
 20
-0.2664319444444471
 30
0.0
 10
2.968126313907709
 20
-0.2664319444444471
 30
0.0
 10
2.957601314173593
 20
-0.270962499999996
 30
0.0
 10
2.957601314173593
 20
-0.270962499999996
 30
0.0
  0
HATCH
  5
12F
330
12A
100
AcDbEntity
  8
Nails
 62
   254
420
 13358815
100
AcDbHatch
 10
0.0
 20
0.0
 30
0.0
210
0.0
220
0.0
230
1.0
  2
SOLID
 70
     1
 71
     0
 91
        1
 92
        1
 93
        1
 72
     4
 94
        3
 73
     0
 74
     1
 95
       23
 96
       19
 40
0.0
 40
0.0
 40
0.0
 40
0.0
 40
1.0
 40
1.0
 40
1.0
 40
2.0
 40
2.0
 40
2.0
 40
3.0
 40
3.0
 40
3.0
 40
4.0
 40
4.0
 40
4.0
 40
5.0
 40
5.0
 40
5.0
 40
6.0
 40
6.0
 40
6.0
 40
6.0
 10
2.957601314173593
 20
-0.270962499999996
 10
2.946004092244341
 20
-0.2760208333333291
 10
2.931844370379824
 20
-0.267558333333328
 10
2.926038814970929
 20
-0.2520541666666657
 10
2.92026103733911
 20
-0.2365652777777743
 10
2.924954092776109
 20
-0.2198888888888935
 10
2.936604092481805
 20
-0.2147833333333311
 10
2.936604092481805
 20
-0.2147833333333311
 10
2.947102703327699
 20
-0.2102249999999988
 10
2.947102703327699
 20
-0.2102249999999988
 10
2.958699925256964
 20
-0.2050986111111115
 10
2.972831869344393
 20
-0.2135888888888833
 10
2.978691591418586
 20
-0.2291263888888832
 10
2.984469369050405
 20
-0.2445944444444497
 10
2.979750000000005
 20
-0.2612847222222222
 10
2.968126313907709
 20
-0.2664319444444471
 10
2.968126313907709
 20
-0.2664319444444471
 10
2.957601314173593
 20
-0.270962499999996
 10
2.957601314173593
 20
-0.270962499999996
 97
        0
 97
        0
 75
     2
 76
     1
 98
        0
  0
SPLINE
  5
130
330
12A
100
AcDbEntity
  8
Nails
 62
   250
420
  2301728
370
    20
100
AcDbSpline
210
0.0
220
0.0
230
1.0
 70
    11
 71
     3
 72
    17
 73
    13
 74
     0
 42
0.0000000001
 43
0.0000000001
 12
1.0
 22
0.0
 32
0.0
 13
1.0
 23
0.0
 33
0.0
 40
0.0
 40
0.0
 40
0.0
 40
0.0
 40
1.0
 40
1.0
 40
1.0
 40
2.0
 40
2.0
 40
2.0
 40
3.0
 40
3.0
 40
3.0
 40
4.0
 40
4.0
 40
4.0
 40
4.0
 10
2.957166666666669
 20
-0.271151388888888
 30
0.0
 10
2.968844369445125
 20
-0.2661069444444466
 30
0.0
 10
2.973551313770662
 20
-0.2493958333333366
 30
0.0
 10
2.967719369473545
 20
-0.2338805555555533
 30
0.0
 10
2.961899925176112
 20
-0.2183833333333369
 30
0.0
 10
2.947794369976893
 20
-0.2098999999999983
 30
0.0
 10
2.936156870270881
 20
-0.2149722222222231
 30
0.0
 10
2.924547148341945
 20
-0.2200527777777729
 30
0.0
 10
2.919840204016408
 20
-0.2367277777777745
 30
0.0
 10
2.925605481648543
 20
-0.2522791666666661
 30
0.0
 10
2.931409648168584
 20
-0.2677541666666659
 30
0.0
 10
2.945570758921955
 20
-0.2762388888888836
 30
0.0
 10
2.957166666666669
 20
-0.271151388888888
 30
0.0
  0
ENDBLK
  5
12D
330
12A
100
AcDbEntity
  8
0
100
AcDbBlockEnd
  0
BLOCK
  5
133
330
131
100
AcDbEntity
  8
0
100
AcDbBlockBegin
  2
block 6
 70
     0
 10
0.0
 20
0.0
 30
0.0
  3
block 6
  1

  0
SPLINE
  5
135
330
131
100
AcDbEntity
  8
Nails
 62
   250
420
  2301728
370
    20
100
AcDbSpline
210
0.0
220
0.0
230
1.0
 70
    11
 71
     3
 72
    23
 73
    19
 74
     0
 42
0.0000000001
 43
0.0000000001
 12
1.0
 22
0.0
 32
0.0
 13
1.0
 23
0.0
 33
0.0
 40
0.0
 40
0.0
 40
0.0
 40
0.0
 40
1.0
 40
1.0
 40
1.0
 40
2.0
 40
2.0
 40
2.0
 40
3.0
 40
3.0
 40
3.0
 40
4.0
 40
4.0
 40
4.0
 40
5.0
 40
5.0
 40
5.0
 40
6.0
 40
6.0
 40
6.0
 40
6.0
 10
3.163926308961385
 20
-0.2816430555555547
 30
0.0
 10
3.152344364809526
 20
-0.2867027777777796
 30
0.0
 10
3.138183254056154
 20
-0.2782388888888868
 30
0.0
 10
3.132379087536113
 20
-0.2627361111111163
 30
0.0
 10
3.12659992101544
 20
-0.2472472222222248
 30
0.0
 10
3.131292976452439
 20
-0.2305708333333314
 30
0.0
 10
3.142930555555545
 20
-0.2254638888888899
 30
0.0
 10
3.142930555555545
 20
-0.2254638888888899
 30
0.0
 10
3.153429087004345
 20
-0.2209069444444493
 30
0.0
 10
3.153429087004345
 20
-0.2209069444444493
 30
0.0
 10
3.165038808933281
 20
-0.2157791666666703
 30
0.0
 10
3.179172141909576
 20
-0.2242708333333338
 30
0.0
 10
3.18503186398377
 20
-0.239806944444442
 30
0.0
 10
3.190809641615588
 20
-0.2552763888888876
 30
0.0
 10
3.186088808401514
 20
-0.271965277777781
 30
0.0
 10
3.174451308695502
 20
-0.2771125000000059
 30
0.0
 10
3.174451308695502
 20
-0.2771125000000059
 30
0.0
 10
3.163926308961385
 20
-0.2816430555555547
 30
0.0
 10
3.163926308961385
 20
-0.2816430555555547
 30
0.0
  0
HATCH
  5
136
330
131
100
AcDbEntity
  8
Nails
 62
   254
420
 13358815
100
AcDbHatch
 10
0.0
 20
0.0
 30
0.0
210
0.0
220
0.0
230
1.0
  2
SOLID
 70
     1
 71
     0
 91
        1
 92
        1
 93
        1
 72
     4
 94
        3
 73
     0
 74
     1
 95
       23
 96
       19
 40
0.0
 40
0.0
 40
0.0
 40
0.0
 40
1.0
 40
1.0
 40
1.0
 40
2.0
 40
2.0
 40
2.0
 40
3.0
 40
3.0
 40
3.0
 40
4.0
 40
4.0
 40
4.0
 40
5.0
 40
5.0
 40
5.0
 40
6.0
 40
6.0
 40
6.0
 40
6.0
 10
3.163926308961385
 20
-0.2816430555555547
 10
3.152344364809526
 20
-0.2867027777777796
 10
3.138183254056154
 20
-0.2782388888888868
 10
3.132379087536113
 20
-0.2627361111111163
 10
3.12659992101544
 20
-0.2472472222222248
 10
3.131292976452439
 20
-0.2305708333333314
 10
3.142930555555545
 20
-0.2254638888888899
 10
3.142930555555545
 20
-0.2254638888888899
 10
3.153429087004345
 20
-0.2209069444444493
 10
3.153429087004345
 20
-0.2209069444444493
 10
3.165038808933281
 20
-0.2157791666666703
 10
3.179172141909576
 20
-0.2242708333333338
 10
3.18503186398377
 20
-0.239806944444442
 10
3.190809641615588
 20
-0.2552763888888876
 10
3.186088808401514
 20
-0.271965277777781
 10
3.174451308695502
 20
-0.2771125000000059
 10
3.174451308695502
 20
-0.2771125000000059
 10
3.163926308961385
 20
-0.2816430555555547
 10
3.163926308961385
 20
-0.2816430555555547
 97
        0
 97
        0
 75
     2
 76
     1
 98
        0
  0
SPLINE
  5
137
330
131
100
AcDbEntity
  8
Nails
 62
   250
420
  2301728
370
    20
100
AcDbSpline
210
0.0
220
0.0
230
1.0
 70
    11
 71
     3
 72
    17
 73
    13
 74
     0
 42
0.0000000001
 43
0.0000000001
 12
1.0
 22
0.0
 32
0.0
 13
1.0
 23
0.0
 33
0.0
 40
0.0
 40
0.0
 40
0.0
 40
0.0
 40
1.0
 40
1.0
 40
1.0
 40
2.0
 40
2.0
 40
2.0
 40
3.0
 40
3.0
 40
3.0
 40
4.0
 40
4.0
 40
4.0
 40
4.0
 10
3.163492975638999
 20
-0.2818333333333385
 30
0.0
 10
3.175184642010309
 20
-0.2767875000000054
 30
0.0
 10
3.179877697447308
 20
-0.2600777777777744
 30
0.0
 10
3.174045753150191
 20
-0.2445611111111121
 30
0.0
 10
3.168240197741296
 20
-0.2290652777777748
 30
0.0
 10
3.154134642542077
 20
-0.2205805555555571
 30
0.0
 10
3.142497142836065
 20
-0.225654166666661
 30
0.0
 10
3.130886032018275
 20
-0.2307333333333317
 30
0.0
 10
3.126166666666677
 20
-0.247409722222225
 30
0.0
 10
3.131944444444444
 20
-0.2629597222222249
 30
0.0
 10
3.137749999999995
 20
-0.2784361111111164
 30
0.0
 10
3.151909642598285
 20
-0.2869194444444423
 30
0.0
 10
3.163492975638999
 20
-0.2818333333333385
 30
0.0
  0
ENDBLK
  5
134
330
131
100
AcDbEntity
  8
0
100
AcDbBlockEnd
  0
BLOCK
  5
13A
330
138
100
AcDbEntity
  8
0
100
AcDbBlockBegin
  2
block 7
 70
     0
 10
0.0
 20
0.0
 30
0.0
  3
block 7
  1

  0
SPLINE
  5
13C
330
138
100
AcDbEntity
  8
Nails
 62
   250
420
  2301728
370
    20
100
AcDbSpline
210
0.0
220
0.0
230
1.0
 70
    11
 71
     3
 72
    23
 73
    19
 74
     0
 42
0.0000000001
 43
0.0000000001
 12
1.0
 22
0.0
 32
0.0
 13
1.0
 23
0.0
 33
0.0
 40
0.0
 40
0.0
 40
0.0
 40
0.0
 40
1.0
 40
1.0
 40
1.0
 40
2.0
 40
2.0
 40
2.0
 40
3.0
 40
3.0
 40
3.0
 40
4.0
 40
4.0
 40
4.0
 40
5.0
 40
5.0
 40
5.0
 40
6.0
 40
6.0
 40
6.0
 40
6.0
 10
3.990858232515772
 20
-0.7339277777777826
 30
0.0
 10
3.979248510586836
 20
-0.7389861111111157
 30
0.0
 10
3.965087399833465
 20
-0.7305236111111146
 30
0.0
 10
3.959283233313423
 20
-0.7150194444444398
 30
0.0
 10
3.953504066792751
 20
-0.699530555555561
 30
0.0
 10
3.95819712222975
 20
-0.6828541666666675
 30
0.0
 10
3.969862399712838
 20
-0.6777486111111052
 30
0.0
 10
3.969862399712838
 20
-0.6777486111111052
 30
0.0
 10
3.980359621669878
 20
-0.6731902777777728
 30
0.0
 10
3.980359621669878
 20
-0.6731902777777728
 30
0.0
 10
3.991942954710591
 20
-0.6680638888888855
 30
0.0
 10
4.006076287686887
 20
-0.67655416666667
 30
0.0
 10
4.01193600976108
 20
-0.6920916666666699
 30
0.0
 10
4.017713787392899
 20
-0.7075597222222237
 30
0.0
 10
4.012992954178824
 20
-0.7242499999999962
 30
0.0
 10
4.001383232249887
 20
-0.7293972222222211
 30
0.0
 10
4.001383232249887
 20
-0.7293972222222211
 30
0.0
 10
3.990858232515772
 20
-0.7339277777777826
 30
0.0
 10
3.990858232515772
 20
-0.7339277777777826
 30
0.0
  0
HATCH
  5
13D
330
138
100
AcDbEntity
  8
Nails
 62
   254
420
 13358815
100
AcDbHatch
 10
0.0
 20
0.0
 30
0.0
210
0.0
220
0.0
230
1.0
  2
SOLID
 70
     1
 71
     0
 91
        1
 92
        1
 93
        1
 72
     4
 94
        3
 73
     0
 74
     1
 95
       23
 96
       19
 40
0.0
 40
0.0
 40
0.0
 40
0.0
 40
1.0
 40
1.0
 40
1.0
 40
2.0
 40
2.0
 40
2.0
 40
3.0
 40
3.0
 40
3.0
 40
4.0
 40
4.0
 40
4.0
 40
5.0
 40
5.0
 40
5.0
 40
6.0
 40
6.0
 40
6.0
 40
6.0
 10
3.990858232515772
 20
-0.7339277777777826
 10
3.979248510586836
 20
-0.7389861111111157
 10
3.965087399833465
 20
-0.7305236111111146
 10
3.959283233313423
 20
-0.7150194444444398
 10
3.953504066792751
 20
-0.699530555555561
 10
3.95819712222975
 20
-0.6828541666666675
 10
3.969862399712838
 20
-0.6777486111111052
 10
3.969862399712838
 20
-0.6777486111111052
 10
3.980359621669878
 20
-0.6731902777777728
 10
3.980359621669878
 20
-0.6731902777777728
 10
3.991942954710591
 20
-0.6680638888888855
 10
4.006076287686887
 20
-0.67655416666667
 10
4.01193600976108
 20
-0.6920916666666699
 10
4.017713787392899
 20
-0.7075597222222237
 10
4.012992954178824
 20
-0.7242499999999962
 10
4.001383232249887
 20
-0.7293972222222211
 10
4.001383232249887
 20
-0.7293972222222211
 10
3.990858232515772
 20
-0.7339277777777826
 10
3.990858232515772
 20
-0.7339277777777826
 97
        0
 97
        0
 75
     2
 76
     1
 98
        0
  0
SPLINE
  5
13E
330
138
100
AcDbEntity
  8
Nails
 62
   250
420
  2301728
370
    20
100
AcDbSpline
210
0.0
220
0.0
230
1.0
 70
    11
 71
     3
 72
    17
 73
    13
 74
     0
 42
0.0000000001
 43
0.0000000001
 12
1.0
 22
0.0
 32
0.0
 13
1.0
 23
0.0
 33
0.0
 40
0.0
 40
0.0
 40
0.0
 40
0.0
 40
1.0
 40
1.0
 40
1.0
 40
2.0
 40
2.0
 40
2.0
 40
3.0
 40
3.0
 40
3.0
 40
4.0
 40
4.0
 40
4.0
 40
4.0
 10
3.990423510304531
 20
-0.734116666666662
 30
0.0
 10
4.00208878778762
 20
-0.7290722222222207
 30
0.0
 10
4.00680823211284
 20
-0.7123611111111106
 30
0.0
 10
4.000976287815724
 20
-0.6968458333333274
 30
0.0
 10
3.995144343518607
 20
-0.681348611111111
 30
0.0
 10
3.981038788319387
 20
-0.6728652777777723
 30
0.0
 10
3.969401288613375
 20
-0.6779374999999971
 30
0.0
 10
3.957790177795586
 20
-0.6830166666666678
 30
0.0
 10
3.953097222222216
 20
-0.6996930555555612
 30
0.0
 10
3.958848511102183
 20
-0.7152444444444401
 30
0.0
 10
3.964654066511078
 20
-0.7307194444444399
 30
0.0
 10
3.978813788375596
 20
-0.7392041666666702
 30
0.0
 10
3.990423510304531
 20
-0.734116666666662
 30
0.0
  0
ENDBLK
  5
13B
330
138
100
AcDbEntity
  8
0
100
AcDbBlockEnd
  0
BLOCK
  5
141
330
13F
100
AcDbEntity
  8
0
100
AcDbBlockBegin
  2
block 8
 70
     0
 10
0.0
 20
0.0
 30
0.0
  3
block 8
  1

  0
SPLINE
  5
143
330
13F
100
AcDbEntity
  8
Nails
 62
   250
420
  2301728
370
    20
100
AcDbSpline
210
0.0
220
0.0
230
1.0
 70
    11
 71
     3
 72
    23
 73
    19
 74
     0
 42
0.0000000001
 43
0.0000000001
 12
1.0
 22
0.0
 32
0.0
 13
1.0
 23
0.0
 33
0.0
 40
0.0
 40
0.0
 40
0.0
 40
0.0
 40
1.0
 40
1.0
 40
1.0
 40
2.0
 40
2.0
 40
2.0
 40
3.0
 40
3.0
 40
3.0
 40
4.0
 40
4.0
 40
4.0
 40
5.0
 40
5.0
 40
5.0
 40
6.0
 40
6.0
 40
6.0
 40
6.0
 10
3.990858232515772
 20
-0.8890180555555515
 30
0.0
 10
3.979248510586836
 20
-0.8940763888888846
 30
0.0
 10
3.965087399833465
 20
-0.8856138888888836
 30
0.0
 10
3.959283233313423
 20
-0.8701097222222213
 30
0.0
 10
3.953504066792751
 20
-0.8546208333333298
 30
0.0
 10
3.95819712222975
 20
-0.837944444444449
 30
0.0
 10
3.969862399712838
 20
-0.8328388888888867
 30
0.0
 10
3.969862399712838
 20
-0.8328388888888867
 30
0.0
 10
3.980359621669878
 20
-0.8282805555555544
 30
0.0
 10
3.980359621669878
 20
-0.8282805555555544
 30
0.0
 10
3.991942954710591
 20
-0.823154166666667
 30
0.0
 10
4.006076287686887
 20
-0.8316444444444389
 30
0.0
 10
4.01193600976108
 20
-0.8471819444444387
 30
0.0
 10
4.017713787392899
 20
-0.8626500000000052
 30
0.0
 10
4.012992954178824
 20
-0.8793402777777777
 30
0.0
 10
4.001383232249887
 20
-0.8844875000000026
 30
0.0
 10
4.001383232249887
 20
-0.8844875000000026
 30
0.0
 10
3.990858232515772
 20
-0.8890180555555515
 30
0.0
 10
3.990858232515772
 20
-0.8890180555555515
 30
0.0
  0
HATCH
  5
144
330
13F
100
AcDbEntity
  8
Nails
 62
   254
420
 13358815
100
AcDbHatch
 10
0.0
 20
0.0
 30
0.0
210
0.0
220
0.0
230
1.0
  2
SOLID
 70
     1
 71
     0
 91
        1
 92
        1
 93
        1
 72
     4
 94
        3
 73
     0
 74
     1
 95
       23
 96
       19
 40
0.0
 40
0.0
 40
0.0
 40
0.0
 40
1.0
 40
1.0
 40
1.0
 40
2.0
 40
2.0
 40
2.0
 40
3.0
 40
3.0
 40
3.0
 40
4.0
 40
4.0
 40
4.0
 40
5.0
 40
5.0
 40
5.0
 40
6.0
 40
6.0
 40
6.0
 40
6.0
 10
3.990858232515772
 20
-0.8890180555555515
 10
3.979248510586836
 20
-0.8940763888888846
 10
3.965087399833465
 20
-0.8856138888888836
 10
3.959283233313423
 20
-0.8701097222222213
 10
3.953504066792751
 20
-0.8546208333333298
 10
3.95819712222975
 20
-0.837944444444449
 10
3.969862399712838
 20
-0.8328388888888867
 10
3.969862399712838
 20
-0.8328388888888867
 10
3.980359621669878
 20
-0.8282805555555544
 10
3.980359621669878
 20
-0.8282805555555544
 10
3.991942954710591
 20
-0.823154166666667
 10
4.006076287686887
 20
-0.8316444444444389
 10
4.01193600976108
 20
-0.8471819444444387
 10
4.017713787392899
 20
-0.8626500000000052
 10
4.012992954178824
 20
-0.8793402777777777
 10
4.001383232249887
 20
-0.8844875000000026
 10
4.001383232249887
 20
-0.8844875000000026
 10
3.990858232515772
 20
-0.8890180555555515
 10
3.990858232515772
 20
-0.8890180555555515
 97
        0
 97
        0
 75
     2
 76
     1
 98
        0
  0
SPLINE
  5
145
330
13F
100
AcDbEntity
  8
Nails
 62
   250
420
  2301728
370
    20
100
AcDbSpline
210
0.0
220
0.0
230
1.0
 70
    11
 71
     3
 72
    17
 73
    13
 74
     0
 42
0.0000000001
 43
0.0000000001
 12
1.0
 22
0.0
 32
0.0
 13
1.0
 23
0.0
 33
0.0
 40
0.0
 40
0.0
 40
0.0
 40
0.0
 40
1.0
 40
1.0
 40
1.0
 40
2.0
 40
2.0
 40
2.0
 40
3.0
 40
3.0
 40
3.0
 40
4.0
 40
4.0
 40
4.0
 40
4.0
 10
3.990423510304531
 20
-0.8892069444444435
 30
0.0
 10
4.00208878778762
 20
-0.8841625000000022
 30
0.0
 10
4.00680823211284
 20
-0.8674513888888921
 30
0.0
 10
4.000976287815724
 20
-0.8519361111111089
 30
0.0
 10
3.995144343518607
 20
-0.8364388888888925
 30
0.0
 10
3.981038788319387
 20
-0.8279555555555538
 30
0.0
 10
3.969401288613375
 20
-0.8330277777777786
 30
0.0
 10
3.957790177795586
 20
-0.8381083333333283
 30
0.0
 10
3.953097222222216
 20
-0.8547833333333301
 30
0.0
 10
3.958848511102183
 20
-0.8703347222222216
 30
0.0
 10
3.964654066511078
 20
-0.8858097222222214
 30
0.0
 10
3.978813788375596
 20
-0.8942944444444391
 30
0.0
 10
3.990423510304531
 20
-0.8892069444444435
 30
0.0
  0
ENDBLK
  5
142
330
13F
100
AcDbEntity
  8
0
100
AcDbBlockEnd
  0
BLOCK
  5
148
330
146
100
AcDbEntity
  8
0
100
AcDbBlockBegin
  2
block 9
 70
     0
 10
0.0
 20
0.0
 30
0.0
  3
block 9
  1

  0
SPLINE
  5
14A
330
146
100
AcDbEntity
  8
Nails
 62
   250
420
  2301728
370
    20
100
AcDbSpline
210
0.0
220
0.0
230
1.0
 70
    11
 71
     3
 72
    23
 73
    19
 74
     0
 42
0.0000000001
 43
0.0000000001
 12
1.0
 22
0.0
 32
0.0
 13
1.0
 23
0.0
 33
0.0
 40
0.0
 40
0.0
 40
0.0
 40
0.0
 40
1.0
 40
1.0
 40
1.0
 40
2.0
 40
2.0
 40
2.0
 40
3.0
 40
3.0
 40
3.0
 40
4.0
 40
4.0
 40
4.0
 40
5.0
 40
5.0
 40
5.0
 40
6.0
 40
6.0
 40
6.0
 40
6.0
 10
3.990858232515772
 20
-1.034851388888885
 30
0.0
 10
3.979248510586836
 20
-1.039909722222218
 30
0.0
 10
3.965087399833465
 20
-1.031447222222217
 30
0.0
 10
3.959283233313423
 20
-1.015943055555555
 30
0.0
 10
3.953504066792751
 20
-1.000454166666663
 30
0.0
 10
3.95819712222975
 20
-0.9837777777777824
 30
0.0
 10
3.969862399712838
 20
-0.97867222222222
 30
0.0
 10
3.969862399712838
 20
-0.97867222222222
 30
0.0
 10
3.980359621669878
 20
-0.9741138888888877
 30
0.0
 10
3.980359621669878
 20
-0.9741138888888877
 30
0.0
 10
3.991942954710591
 20
-0.9689875000000003
 30
0.0
 10
4.006076287686887
 20
-0.9774777777777722
 30
0.0
 10
4.01193600976108
 20
-0.9930152777777721
 30
0.0
 10
4.017713787392899
 20
-1.008483333333339
 30
0.0
 10
4.012992954178824
 20
-1.025173611111111
 30
0.0
 10
4.001383232249887
 20
-1.030320833333336
 30
0.0
 10
4.001383232249887
 20
-1.030320833333336
 30
0.0
 10
3.990858232515772
 20
-1.034851388888885
 30
0.0
 10
3.990858232515772
 20
-1.034851388888885
 30
0.0
  0
HATCH
  5
14B
330
146
100
AcDbEntity
  8
Nails
 62
   254
420
 13358815
100
AcDbHatch
 10
0.0
 20
0.0
 30
0.0
210
0.0
220
0.0
230
1.0
  2
SOLID
 70
     1
 71
     0
 91
        1
 92
        1
 93
        1
 72
     4
 94
        3
 73
     0
 74
     1
 95
       23
 96
       19
 40
0.0
 40
0.0
 40
0.0
 40
0.0
 40
1.0
 40
1.0
 40
1.0
 40
2.0
 40
2.0
 40
2.0
 40
3.0
 40
3.0
 40
3.0
 40
4.0
 40
4.0
 40
4.0
 40
5.0
 40
5.0
 40
5.0
 40
6.0
 40
6.0
 40
6.0
 40
6.0
 10
3.990858232515772
 20
-1.034851388888885
 10
3.979248510586836
 20
-1.039909722222218
 10
3.965087399833465
 20
-1.031447222222217
 10
3.959283233313423
 20
-1.015943055555555
 10
3.953504066792751
 20
-1.000454166666663
 10
3.95819712222975
 20
-0.9837777777777824
 10
3.969862399712838
 20
-0.97867222222222
 10
3.969862399712838
 20
-0.97867222222222
 10
3.980359621669878
 20
-0.9741138888888877
 10
3.980359621669878
 20
-0.9741138888888877
 10
3.991942954710591
 20
-0.9689875000000003
 10
4.006076287686887
 20
-0.9774777777777722
 10
4.01193600976108
 20
-0.9930152777777721
 10
4.017713787392899
 20
-1.008483333333339
 10
4.012992954178824
 20
-1.025173611111111
 10
4.001383232249887
 20
-1.030320833333336
 10
4.001383232249887
 20
-1.030320833333336
 10
3.990858232515772
 20
-1.034851388888885
 10
3.990858232515772
 20
-1.034851388888885
 97
        0
 97
        0
 75
     2
 76
     1
 98
        0
  0
SPLINE
  5
14C
330
146
100
AcDbEntity
  8
Nails
 62
   250
420
  2301728
370
    20
100
AcDbSpline
210
0.0
220
0.0
230
1.0
 70
    11
 71
     3
 72
    17
 73
    13
 74
     0
 42
0.0000000001
 43
0.0000000001
 12
1.0
 22
0.0
 32
0.0
 13
1.0
 23
0.0
 33
0.0
 40
0.0
 40
0.0
 40
0.0
 40
0.0
 40
1.0
 40
1.0
 40
1.0
 40
2.0
 40
2.0
 40
2.0
 40
3.0
 40
3.0
 40
3.0
 40
4.0
 40
4.0
 40
4.0
 40
4.0
 10
3.990423510304531
 20
-1.035040277777777
 30
0.0
 10
4.00208878778762
 20
-1.029995833333335
 30
0.0
 10
4.00680823211284
 20
-1.013284722222225
 30
0.0
 10
4.000976287815724
 20
-0.9977694444444422
 30
0.0
 10
3.995144343518607
 20
-0.9822722222222258
 30
0.0
 10
3.981038788319387
 20
-0.9737888888888871
 30
0.0
 10
3.969401288613375
 20
-0.978861111111112
 30
0.0
 10
3.957790177795586
 20
-0.9839416666666617
 30
0.0
 10
3.953097222222216
 20
-1.000616666666663
 30
0.0
 10
3.958848511102183
 20
-1.016168055555555
 30
0.0
 10
3.964654066511078
 20
-1.031643055555555
 30
0.0
 10
3.978813788375596
 20
-1.040127777777772
 30
0.0
 10
3.990423510304531
 20
-1.035040277777777
 30
0.0
  0
ENDBLK
  5
149
330
146
100
AcDbEntity
  8
0
100
AcDbBlockEnd
  0
BLOCK
  5
14F
330
14D
100
AcDbEntity
  8
0
100
AcDbBlockBegin
  2
block 10
 70
     0
 10
0.0
 20
0.0
 30
0.0
  3
block 10
  1

  0
SPLINE
  5
151
330
14D
100
AcDbEntity
  8
Nails
 62
   250
420
  2301728
370
    20
100
AcDbSpline
210
0.0
220
0.0
230
1.0
 70
    11
 71
     3
 72
    23
 73
    19
 74
     0
 42
0.0000000001
 43
0.0000000001
 12
1.0
 22
0.0
 32
0.0
 13
1.0
 23
0.0
 33
0.0
 40
0.0
 40
0.0
 40
0.0
 40
0.0
 40
1.0
 40
1.0
 40
1.0
 40
2.0
 40
2.0
 40
2.0
 40
3.0
 40
3.0
 40
3.0
 40
4.0
 40
4.0
 40
4.0
 40
5.0
 40
5.0
 40
5.0
 40
6.0
 40
6.0
 40
6.0
 40
6.0
 10
3.990858232515772
 20
-1.178365277777781
 30
0.0
 10
3.979248510586836
 20
-1.183423611111114
 30
0.0
 10
3.965087399833465
 20
-1.174961111111113
 30
0.0
 10
3.959283233313423
 20
-1.15945833333333
 30
0.0
 10
3.953504066792751
 20
-1.14396805555556
 30
0.0
 10
3.95819712222975
 20
-1.127291666666666
 30
0.0
 10
3.969862399712838
 20
-1.122186111111116
 30
0.0
 10
3.969862399712838
 20
-1.122186111111116
 30
0.0
 10
3.980359621669878
 20
-1.117627777777771
 30
0.0
 10
3.980359621669878
 20
-1.117627777777771
 30
0.0
 10
3.991942954710591
 20
-1.112501388888884
 30
0.0
 10
4.006076287686887
 20
-1.120991666666669
 30
0.0
 10
4.01193600976108
 20
-1.136529166666668
 30
0.0
 10
4.017713787392899
 20
-1.151997222222222
 30
0.0
 10
4.012992954178824
 20
-1.168687499999995
 30
0.0
 10
4.001383232249887
 20
-1.17383472222222
 30
0.0
 10
4.001383232249887
 20
-1.17383472222222
 30
0.0
 10
3.990858232515772
 20
-1.178365277777781
 30
0.0
 10
3.990858232515772
 20
-1.178365277777781
 30
0.0
  0
HATCH
  5
152
330
14D
100
AcDbEntity
  8
Nails
 62
   254
420
 13358815
100
AcDbHatch
 10
0.0
 20
0.0
 30
0.0
210
0.0
220
0.0
230
1.0
  2
SOLID
 70
     1
 71
     0
 91
        1
 92
        1
 93
        1
 72
     4
 94
        3
 73
     0
 74
     1
 95
       23
 96
       19
 40
0.0
 40
0.0
 40
0.0
 40
0.0
 40
1.0
 40
1.0
 40
1.0
 40
2.0
 40
2.0
 40
2.0
 40
3.0
 40
3.0
 40
3.0
 40
4.0
 40
4.0
 40
4.0
 40
5.0
 40
5.0
 40
5.0
 40
6.0
 40
6.0
 40
6.0
 40
6.0
 10
3.990858232515772
 20
-1.178365277777781
 10
3.979248510586836
 20
-1.183423611111114
 10
3.965087399833465
 20
-1.174961111111113
 10
3.959283233313423
 20
-1.15945833333333
 10
3.953504066792751
 20
-1.14396805555556
 10
3.95819712222975
 20
-1.127291666666666
 10
3.969862399712838
 20
-1.122186111111116
 10
3.969862399712838
 20
-1.122186111111116
 10
3.980359621669878
 20
-1.117627777777771
 10
3.980359621669878
 20
-1.117627777777771
 10
3.991942954710591
 20
-1.112501388888884
 10
4.006076287686887
 20
-1.120991666666669
 10
4.01193600976108
 20
-1.136529166666668
 10
4.017713787392899
 20
-1.151997222222222
 10
4.012992954178824
 20
-1.168687499999995
 10
4.001383232249887
 20
-1.17383472222222
 10
4.001383232249887
 20
-1.17383472222222
 10
3.990858232515772
 20
-1.178365277777781
 10
3.990858232515772
 20
-1.178365277777781
 97
        0
 97
        0
 75
     2
 76
     1
 98
        0
  0
SPLINE
  5
153
330
14D
100
AcDbEntity
  8
Nails
 62
   250
420
  2301728
370
    20
100
AcDbSpline
210
0.0
220
0.0
230
1.0
 70
    11
 71
     3
 72
    17
 73
    13
 74
     0
 42
0.0000000001
 43
0.0000000001
 12
1.0
 22
0.0
 32
0.0
 13
1.0
 23
0.0
 33
0.0
 40
0.0
 40
0.0
 40
0.0
 40
0.0
 40
1.0
 40
1.0
 40
1.0
 40
2.0
 40
2.0
 40
2.0
 40
3.0
 40
3.0
 40
3.0
 40
4.0
 40
4.0
 40
4.0
 40
4.0
 10
3.990423510304531
 20
-1.178555555555552
 30
0.0
 10
4.00208878778762
 20
-1.173509722222219
 30
0.0
 10
4.00680823211284
 20
-1.156800000000001
 30
0.0
 10
4.000976287815724
 20
-1.141283333333339
 30
0.0
 10
3.995144343518607
 20
-1.12578611111111
 30
0.0
 10
3.981038788319387
 20
-1.117302777777784
 30
0.0
 10
3.969401288613375
 20
-1.122374999999996
 30
0.0
 10
3.957790177795586
 20
-1.127455555555558
 30
0.0
 10
3.953097222222216
 20
-1.14413055555556
 30
0.0
 10
3.958848511102183
 20
-1.159681944444439
 30
0.0
 10
3.964654066511078
 20
-1.175156944444439
 30
0.0
 10
3.978813788375596
 20
-1.183641666666669
 30
0.0
 10
3.990423510304531
 20
-1.178555555555552
 30
0.0
  0
ENDBLK
  5
150
330
14D
100
AcDbEntity
  8
0
100
AcDbBlockEnd
  0
BLOCK
  5
156
330
154
100
AcDbEntity
  8
0
100
AcDbBlockBegin
  2
block 11
 70
     0
 10
0.0
 20
0.0
 30
0.0
  3
block 11
  1

  0
SPLINE
  5
158
330
154
100
AcDbEntity
  8
Nails
 62
   250
420
  2301728
370
    20
100
AcDbSpline
210
0.0
220
0.0
230
1.0
 70
    11
 71
     3
 72
    23
 73
    19
 74
     0
 42
0.0000000001
 43
0.0000000001
 12
1.0
 22
0.0
 32
0.0
 13
1.0
 23
0.0
 33
0.0
 40
0.0
 40
0.0
 40
0.0
 40
0.0
 40
1.0
 40
1.0
 40
1.0
 40
2.0
 40
2.0
 40
2.0
 40
3.0
 40
3.0
 40
3.0
 40
4.0
 40
4.0
 40
4.0
 40
5.0
 40
5.0
 40
5.0
 40
6.0
 40
6.0
 40
6.0
 40
6.0
 10
4.185302672048136
 20
-0.7246638888888886
 30
0.0
 10
4.1736929501192
 20
-0.7297222222222217
 30
0.0
 10
4.159531839365829
 20
-0.7212597222222207
 30
0.0
 10
4.153727672845788
 20
-0.70575694444445
 30
0.0
 10
4.147948506325116
 20
-0.6902666666666669
 30
0.0
 10
4.152641561762114
 20
-0.6735902777777735
 30
0.0
 10
4.164306839245202
 20
-0.6684847222222238
 30
0.0
 10
4.164306839245202
 20
-0.6684847222222238
 30
0.0
 10
4.174804061202242
 20
-0.6639263888888914
 30
0.0
 10
4.174804061202242
 20
-0.6639263888888914
 30
0.0
 10
4.186387394242956
 20
-0.658800000000004
 30
0.0
 10
4.200520727219251
 20
-0.6672902777777759
 30
0.0
 10
4.206380449293444
 20
-0.6828277777777758
 30
0.0
 10
4.212158226925263
 20
-0.6982958333333297
 30
0.0
 10
4.207437393711189
 20
-0.7149861111111148
 30
0.0
 10
4.195827671782252
 20
-0.7201333333333271
 30
0.0
 10
4.195827671782252
 20
-0.7201333333333271
 30
0.0
 10
4.185302672048136
 20
-0.7246638888888886
 30
0.0
 10
4.185302672048136
 20
-0.7246638888888886
 30
0.0
  0
HATCH
  5
159
330
154
100
AcDbEntity
  8
Nails
 62
   254
420
 13358815
100
AcDbHatch
 10
0.0
 20
0.0
 30
0.0
210
0.0
220
0.0
230
1.0
  2
SOLID
 70
     1
 71
     0
 91
        1
 92
        1
 93
        1
 72
     4
 94
        3
 73
     0
 74
     1
 95
       23
 96
       19
 40
0.0
 40
0.0
 40
0.0
 40
0.0
 40
1.0
 40
1.0
 40
1.0
 40
2.0
 40
2.0
 40
2.0
 40
3.0
 40
3.0
 40
3.0
 40
4.0
 40
4.0
 40
4.0
 40
5.0
 40
5.0
 40
5.0
 40
6.0
 40
6.0
 40
6.0
 40
6.0
 10
4.185302672048136
 20
-0.7246638888888886
 10
4.1736929501192
 20
-0.7297222222222217
 10
4.159531839365829
 20
-0.7212597222222207
 10
4.153727672845788
 20
-0.70575694444445
 10
4.147948506325116
 20
-0.6902666666666669
 10
4.152641561762114
 20
-0.6735902777777735
 10
4.164306839245202
 20
-0.6684847222222238
 10
4.164306839245202
 20
-0.6684847222222238
 10
4.174804061202242
 20
-0.6639263888888914
 10
4.174804061202242
 20
-0.6639263888888914
 10
4.186387394242956
 20
-0.658800000000004
 10
4.200520727219251
 20
-0.6672902777777759
 10
4.206380449293444
 20
-0.6828277777777758
 10
4.212158226925263
 20
-0.6982958333333297
 10
4.207437393711189
 20
-0.7149861111111148
 10
4.195827671782252
 20
-0.7201333333333271
 10
4.195827671782252
 20
-0.7201333333333271
 10
4.185302672048136
 20
-0.7246638888888886
 10
4.185302672048136
 20
-0.7246638888888886
 97
        0
 97
        0
 75
     2
 76
     1
 98
        0
  0
SPLINE
  5
15A
330
154
100
AcDbEntity
  8
Nails
 62
   250
420
  2301728
370
    20
100
AcDbSpline
210
0.0
220
0.0
230
1.0
 70
    11
 71
     3
 72
    17
 73
    13
 74
     0
 42
0.0000000001
 43
0.0000000001
 12
1.0
 22
0.0
 32
0.0
 13
1.0
 23
0.0
 33
0.0
 40
0.0
 40
0.0
 40
0.0
 40
0.0
 40
1.0
 40
1.0
 40
1.0
 40
2.0
 40
2.0
 40
2.0
 40
3.0
 40
3.0
 40
3.0
 40
4.0
 40
4.0
 40
4.0
 40
4.0
 10
4.184867949836896
 20
-0.7248541666666722
 30
0.0
 10
4.196533227319984
 20
-0.7198083333333393
 30
0.0
 10
4.201252671645205
 20
-0.7030972222222165
 30
0.0
 10
4.195420727348088
 20
-0.687581944444446
 30
0.0
 10
4.189588783050971
 20
-0.6720847222222169
 30
0.0
 10
4.175483227851752
 20
-0.6636013888888909
 30
0.0
 10
4.163845728145739
 20
-0.6686736111111157
 30
0.0
 10
4.152234617327951
 20
-0.6737541666666654
 30
0.0
 10
4.147541666666661
 20
-0.6904291666666672
 30
0.0
 10
4.153292950634548
 20
-0.7059805555555587
 30
0.0
 10
4.159098506043443
 20
-0.7214555555555585
 30
0.0
 10
4.17325822790796
 20
-0.7299402777777761
 30
0.0
 10
4.184867949836896
 20
-0.7248541666666722
 30
0.0
  0
ENDBLK
  5
157
330
154
100
AcDbEntity
  8
0
100
AcDbBlockEnd
  0
BLOCK
  5
15D
330
15B
100
AcDbEntity
  8
0
100
AcDbBlockBegin
  2
block 12
 70
     0
 10
0.0
 20
0.0
 30
0.0
  3
block 12
  1

  0
SPLINE
  5
15F
330
15B
100
AcDbEntity
  8
Nails
 62
   250
420
  2301728
370
    20
100
AcDbSpline
210
0.0
220
0.0
230
1.0
 70
    11
 71
     3
 72
    23
 73
    19
 74
     0
 42
0.0000000001
 43
0.0000000001
 12
1.0
 22
0.0
 32
0.0
 13
1.0
 23
0.0
 33
0.0
 40
0.0
 40
0.0
 40
0.0
 40
0.0
 40
1.0
 40
1.0
 40
1.0
 40
2.0
 40
2.0
 40
2.0
 40
3.0
 40
3.0
 40
3.0
 40
4.0
 40
4.0
 40
4.0
 40
5.0
 40
5.0
 40
5.0
 40
6.0
 40
6.0
 40
6.0
 40
6.0
 10
4.185302672048136
 20
-0.8751291666666626
 30
0.0
 10
4.1736929501192
 20
-0.8801874999999957
 30
0.0
 10
4.159531839365829
 20
-0.8717249999999946
 30
0.0
 10
4.153727672845788
 20
-0.8562208333333324
 30
0.0
 10
4.147948506325116
 20
-0.8407319444444409
 30
0.0
 10
4.152641561762114
 20
-0.8240555555555602
 30
0.0
 10
4.164306839245202
 20
-0.8189499999999977
 30
0.0
 10
4.164306839245202
 20
-0.8189499999999977
 30
0.0
 10
4.174804061202242
 20
-0.8143916666666655
 30
0.0
 10
4.174804061202242
 20
-0.8143916666666655
 30
0.0
 10
4.186387394242956
 20
-0.8092652777777781
 30
0.0
 10
4.200520727219251
 20
-0.81775555555555
 30
0.0
 10
4.206380449293444
 20
-0.8332930555555498
 30
0.0
 10
4.212158226925263
 20
-0.8487611111111164
 30
0.0
 10
4.207437393711189
 20
-0.8654513888888888
 30
0.0
 10
4.195827671782252
 20
-0.8705986111111138
 30
0.0
 10
4.195827671782252
 20
-0.8705986111111138
 30
0.0
 10
4.185302672048136
 20
-0.8751291666666626
 30
0.0
 10
4.185302672048136
 20
-0.8751291666666626
 30
0.0
  0
HATCH
  5
160
330
15B
100
AcDbEntity
  8
Nails
 62
   254
420
 13358815
100
AcDbHatch
 10
0.0
 20
0.0
 30
0.0
210
0.0
220
0.0
230
1.0
  2
SOLID
 70
     1
 71
     0
 91
        1
 92
        1
 93
        1
 72
     4
 94
        3
 73
     0
 74
     1
 95
       23
 96
       19
 40
0.0
 40
0.0
 40
0.0
 40
0.0
 40
1.0
 40
1.0
 40
1.0
 40
2.0
 40
2.0
 40
2.0
 40
3.0
 40
3.0
 40
3.0
 40
4.0
 40
4.0
 40
4.0
 40
5.0
 40
5.0
 40
5.0
 40
6.0
 40
6.0
 40
6.0
 40
6.0
 10
4.185302672048136
 20
-0.8751291666666626
 10
4.1736929501192
 20
-0.8801874999999957
 10
4.159531839365829
 20
-0.8717249999999946
 10
4.153727672845788
 20
-0.8562208333333324
 10
4.147948506325116
 20
-0.8407319444444409
 10
4.152641561762114
 20
-0.8240555555555602
 10
4.164306839245202
 20
-0.8189499999999977
 10
4.164306839245202
 20
-0.8189499999999977
 10
4.174804061202242
 20
-0.8143916666666655
 10
4.174804061202242
 20
-0.8143916666666655
 10
4.186387394242956
 20
-0.8092652777777781
 10
4.200520727219251
 20
-0.81775555555555
 10
4.206380449293444
 20
-0.8332930555555498
 10
4.212158226925263
 20
-0.8487611111111164
 10
4.207437393711189
 20
-0.8654513888888888
 10
4.195827671782252
 20
-0.8705986111111138
 10
4.195827671782252
 20
-0.8705986111111138
 10
4.185302672048136
 20
-0.8751291666666626
 10
4.185302672048136
 20
-0.8751291666666626
 97
        0
 97
        0
 75
     2
 76
     1
 98
        0
  0
SPLINE
  5
161
330
15B
100
AcDbEntity
  8
Nails
 62
   250
420
  2301728
370
    20
100
AcDbSpline
210
0.0
220
0.0
230
1.0
 70
    11
 71
     3
 72
    17
 73
    13
 74
     0
 42
0.0000000001
 43
0.0000000001
 12
1.0
 22
0.0
 32
0.0
 13
1.0
 23
0.0
 33
0.0
 40
0.0
 40
0.0
 40
0.0
 40
0.0
 40
1.0
 40
1.0
 40
1.0
 40
2.0
 40
2.0
 40
2.0
 40
3.0
 40
3.0
 40
3.0
 40
4.0
 40
4.0
 40
4.0
 40
4.0
 10
4.184867949836896
 20
-0.8753180555555546
 30
0.0
 10
4.196533227319984
 20
-0.8702736111111132
 30
0.0
 10
4.201252671645205
 20
-0.8535625000000032
 30
0.0
 10
4.195420727348088
 20
-0.83804722222222
 30
0.0
 10
4.189588783050971
 20
-0.8225500000000036
 30
0.0
 10
4.175483227851752
 20
-0.8140666666666649
 30
0.0
 10
4.163845728145739
 20
-0.8191388888888897
 30
0.0
 10
4.152234617327951
 20
-0.8242194444444395
 30
0.0
 10
4.147541666666661
 20
-0.8408944444444412
 30
0.0
 10
4.153292950634548
 20
-0.8564458333333328
 30
0.0
 10
4.159098506043443
 20
-0.8719208333333325
 30
0.0
 10
4.17325822790796
 20
-0.8804055555555502
 30
0.0
 10
4.184867949836896
 20
-0.8753180555555546
 30
0.0
  0
ENDBLK
  5
15E
330
15B
100
AcDbEntity
  8
0
100
AcDbBlockEnd
  0
BLOCK
  5
164
330
162
100
AcDbEntity
  8
0
100
AcDbBlockBegin
  2
block 13
 70
     0
 10
0.0
 20
0.0
 30
0.0
  3
block 13
  1

  0
SPLINE
  5
166
330
162
100
AcDbEntity
  8
Nails
 62
   250
420
  2301728
370
    20
100
AcDbSpline
210
0.0
220
0.0
230
1.0
 70
    11
 71
     3
 72
    23
 73
    19
 74
     0
 42
0.0000000001
 43
0.0000000001
 12
1.0
 22
0.0
 32
0.0
 13
1.0
 23
0.0
 33
0.0
 40
0.0
 40
0.0
 40
0.0
 40
0.0
 40
1.0
 40
1.0
 40
1.0
 40
2.0
 40
2.0
 40
2.0
 40
3.0
 40
3.0
 40
3.0
 40
4.0
 40
4.0
 40
4.0
 40
5.0
 40
5.0
 40
5.0
 40
6.0
 40
6.0
 40
6.0
 40
6.0
 10
4.185302672048136
 20
-1.030219444444444
 30
0.0
 10
4.1736929501192
 20
-1.035277777777777
 30
0.0
 10
4.159531839365829
 20
-1.026815277777776
 30
0.0
 10
4.153727672845788
 20
-1.011312500000006
 30
0.0
 10
4.147948506325116
 20
-0.9958222222222224
 30
0.0
 10
4.152641561762114
 20
-0.979145833333329
 30
0.0
 10
4.164306839245202
 20
-0.9740402777777792
 30
0.0
 10
4.164306839245202
 20
-0.9740402777777792
 30
0.0
 10
4.174804061202242
 20
-0.969481944444447
 30
0.0
 10
4.174804061202242
 20
-0.969481944444447
 30
0.0
 10
4.186387394242956
 20
-0.9643555555555596
 30
0.0
 10
4.200520727219251
 20
-0.9728458333333315
 30
0.0
 10
4.206380449293444
 20
-0.9883833333333314
 30
0.0
 10
4.212158226925263
 20
-1.003851388888885
 30
0.0
 10
4.207437393711189
 20
-1.02054166666667
 30
0.0
 10
4.195827671782252
 20
-1.025688888888883
 30
0.0
 10
4.195827671782252
 20
-1.025688888888883
 30
0.0
 10
4.185302672048136
 20
-1.030219444444444
 30
0.0
 10
4.185302672048136
 20
-1.030219444444444
 30
0.0
  0
HATCH
  5
167
330
162
100
AcDbEntity
  8
Nails
 62
   254
420
 13358815
100
AcDbHatch
 10
0.0
 20
0.0
 30
0.0
210
0.0
220
0.0
230
1.0
  2
SOLID
 70
     1
 71
     0
 91
        1
 92
        1
 93
        1
 72
     4
 94
        3
 73
     0
 74
     1
 95
       23
 96
       19
 40
0.0
 40
0.0
 40
0.0
 40
0.0
 40
1.0
 40
1.0
 40
1.0
 40
2.0
 40
2.0
 40
2.0
 40
3.0
 40
3.0
 40
3.0
 40
4.0
 40
4.0
 40
4.0
 40
5.0
 40
5.0
 40
5.0
 40
6.0
 40
6.0
 40
6.0
 40
6.0
 10
4.185302672048136
 20
-1.030219444444444
 10
4.1736929501192
 20
-1.035277777777777
 10
4.159531839365829
 20
-1.026815277777776
 10
4.153727672845788
 20
-1.011312500000006
 10
4.147948506325116
 20
-0.9958222222222224
 10
4.152641561762114
 20
-0.979145833333329
 10
4.164306839245202
 20
-0.9740402777777792
 10
4.164306839245202
 20
-0.9740402777777792
 10
4.174804061202242
 20
-0.969481944444447
 10
4.174804061202242
 20
-0.969481944444447
 10
4.186387394242956
 20
-0.9643555555555596
 10
4.200520727219251
 20
-0.9728458333333315
 10
4.206380449293444
 20
-0.9883833333333314
 10
4.212158226925263
 20
-1.003851388888885
 10
4.207437393711189
 20
-1.02054166666667
 10
4.195827671782252
 20
-1.025688888888883
 10
4.195827671782252
 20
-1.025688888888883
 10
4.185302672048136
 20
-1.030219444444444
 10
4.185302672048136
 20
-1.030219444444444
 97
        0
 97
        0
 75
     2
 76
     1
 98
        0
  0
SPLINE
  5
168
330
162
100
AcDbEntity
  8
Nails
 62
   250
420
  2301728
370
    20
100
AcDbSpline
210
0.0
220
0.0
230
1.0
 70
    11
 71
     3
 72
    17
 73
    13
 74
     0
 42
0.0000000001
 43
0.0000000001
 12
1.0
 22
0.0
 32
0.0
 13
1.0
 23
0.0
 33
0.0
 40
0.0
 40
0.0
 40
0.0
 40
0.0
 40
1.0
 40
1.0
 40
1.0
 40
2.0
 40
2.0
 40
2.0
 40
3.0
 40
3.0
 40
3.0
 40
4.0
 40
4.0
 40
4.0
 40
4.0
 10
4.184867949836896
 20
-1.030409722222228
 30
0.0
 10
4.196533227319984
 20
-1.025363888888895
 30
0.0
 10
4.201252671645205
 20
-1.008652777777772
 30
0.0
 10
4.195420727348088
 20
-0.9931375000000014
 30
0.0
 10
4.189588783050971
 20
-0.9776402777777724
 30
0.0
 10
4.175483227851752
 20
-0.9691569444444464
 30
0.0
 10
4.163845728145739
 20
-0.9742291666666713
 30
0.0
 10
4.152234617327951
 20
-0.979309722222221
 30
0.0
 10
4.147541666666661
 20
-0.9959847222222227
 30
0.0
 10
4.153292950634548
 20
-1.011536111111114
 30
0.0
 10
4.159098506043443
 20
-1.027011111111114
 30
0.0
 10
4.17325822790796
 20
-1.035495833333332
 30
0.0
 10
4.184867949836896
 20
-1.030409722222228
 30
0.0
  0
ENDBLK
  5
165
330
162
100
AcDbEntity
  8
0
100
AcDbBlockEnd
  0
BLOCK
  5
16B
330
169
100
AcDbEntity
  8
0
100
AcDbBlockBegin
  2
block 14
 70
     0
 10
0.0
 20
0.0
 30
0.0
  3
block 14
  1

  0
SPLINE
  5
16D
330
169
100
AcDbEntity
  8
Nails
 62
   250
420
  2301728
370
    20
100
AcDbSpline
210
0.0
220
0.0
230
1.0
 70
    11
 71
     3
 72
    23
 73
    19
 74
     0
 42
0.0000000001
 43
0.0000000001
 12
1.0
 22
0.0
 32
0.0
 13
1.0
 23
0.0
 33
0.0
 40
0.0
 40
0.0
 40
0.0
 40
0.0
 40
1.0
 40
1.0
 40
1.0
 40
2.0
 40
2.0
 40
2.0
 40
3.0
 40
3.0
 40
3.0
 40
4.0
 40
4.0
 40
4.0
 40
5.0
 40
5.0
 40
5.0
 40
6.0
 40
6.0
 40
6.0
 40
6.0
 10
4.185302672048136
 20
-1.176052777777777
 30
0.0
 10
4.1736929501192
 20
-1.181111111111111
 30
0.0
 10
4.159531839365829
 20
-1.172648611111109
 30
0.0
 10
4.153727672845788
 20
-1.157145833333339
 30
0.0
 10
4.147948506325116
 20
-1.141655555555556
 30
0.0
 10
4.152641561762114
 20
-1.124979166666662
 30
0.0
 10
4.164306839245202
 20
-1.119873611111112
 30
0.0
 10
4.164306839245202
 20
-1.119873611111112
 30
0.0
 10
4.174804061202242
 20
-1.11531527777778
 30
0.0
 10
4.174804061202242
 20
-1.11531527777778
 30
0.0
 10
4.186387394242956
 20
-1.110188888888893
 30
0.0
 10
4.200520727219251
 20
-1.118679166666665
 30
0.0
 10
4.206380449293444
 20
-1.134216666666665
 30
0.0
 10
4.212158226925263
 20
-1.149684722222219
 30
0.0
 10
4.207437393711189
 20
-1.166375000000004
 30
0.0
 10
4.195827671782252
 20
-1.171522222222216
 30
0.0
 10
4.195827671782252
 20
-1.171522222222216
 30
0.0
 10
4.185302672048136
 20
-1.176052777777777
 30
0.0
 10
4.185302672048136
 20
-1.176052777777777
 30
0.0
  0
HATCH
  5
16E
330
169
100
AcDbEntity
  8
Nails
 62
   254
420
 13358815
100
AcDbHatch
 10
0.0
 20
0.0
 30
0.0
210
0.0
220
0.0
230
1.0
  2
SOLID
 70
     1
 71
     0
 91
        1
 92
        1
 93
        1
 72
     4
 94
        3
 73
     0
 74
     1
 95
       23
 96
       19
 40
0.0
 40
0.0
 40
0.0
 40
0.0
 40
1.0
 40
1.0
 40
1.0
 40
2.0
 40
2.0
 40
2.0
 40
3.0
 40
3.0
 40
3.0
 40
4.0
 40
4.0
 40
4.0
 40
5.0
 40
5.0
 40
5.0
 40
6.0
 40
6.0
 40
6.0
 40
6.0
 10
4.185302672048136
 20
-1.176052777777777
 10
4.1736929501192
 20
-1.181111111111111
 10
4.159531839365829
 20
-1.172648611111109
 10
4.153727672845788
 20
-1.157145833333339
 10
4.147948506325116
 20
-1.141655555555556
 10
4.152641561762114
 20
-1.124979166666662
 10
4.164306839245202
 20
-1.119873611111112
 10
4.164306839245202
 20
-1.119873611111112
 10
4.174804061202242
 20
-1.11531527777778
 10
4.174804061202242
 20
-1.11531527777778
 10
4.186387394242956
 20
-1.110188888888893
 10
4.200520727219251
 20
-1.118679166666665
 10
4.206380449293444
 20
-1.134216666666665
 10
4.212158226925263
 20
-1.149684722222219
 10
4.207437393711189
 20
-1.166375000000004
 10
4.195827671782252
 20
-1.171522222222216
 10
4.195827671782252
 20
-1.171522222222216
 10
4.185302672048136
 20
-1.176052777777777
 10
4.185302672048136
 20
-1.176052777777777
 97
        0
 97
        0
 75
     2
 76
     1
 98
        0
  0
SPLINE
  5
16F
330
169
100
AcDbEntity
  8
Nails
 62
   250
420
  2301728
370
    20
100
AcDbSpline
210
0.0
220
0.0
230
1.0
 70
    11
 71
     3
 72
    17
 73
    13
 74
     0
 42
0.0000000001
 43
0.0000000001
 12
1.0
 22
0.0
 32
0.0
 13
1.0
 23
0.0
 33
0.0
 40
0.0
 40
0.0
 40
0.0
 40
0.0
 40
1.0
 40
1.0
 40
1.0
 40
2.0
 40
2.0
 40
2.0
 40
3.0
 40
3.0
 40
3.0
 40
4.0
 40
4.0
 40
4.0
 40
4.0
 10
4.184867949836896
 20
-1.176243055555561
 30
0.0
 10
4.196533227319984
 20
-1.171197222222228
 30
0.0
 10
4.201252671645205
 20
-1.154486111111105
 30
0.0
 10
4.195420727348088
 20
-1.138970833333335
 30
0.0
 10
4.189588783050971
 20
-1.123473611111106
 30
0.0
 10
4.175483227851752
 20
-1.11499027777778
 30
0.0
 10
4.163845728145739
 20
-1.120062500000005
 30
0.0
 10
4.152234617327951
 20
-1.125143055555554
 30
0.0
 10
4.147541666666661
 20
-1.141818055555556
 30
0.0
 10
4.153292950634548
 20
-1.157369444444448
 30
0.0
 10
4.159098506043443
 20
-1.172844444444447
 30
0.0
 10
4.17325822790796
 20
-1.181329166666665
 30
0.0
 10
4.184867949836896
 20
-1.176243055555561
 30
0.0
  0
ENDBLK
  5
16C
330
169
100
AcDbEntity
  8
0
100
AcDbBlockEnd
  0
BLOCK
  5
172
330
170
100
AcDbEntity
  8
0
100
AcDbBlockBegin
  2
block 15
 70
     0
 10
0.0
 20
0.0
 30
0.0
  3
block 15
  1

  0
SPLINE
  5
174
330
170
100
AcDbEntity
  8
Nails
 62
   250
420
  2301728
370
    20
100
AcDbSpline
210
0.0
220
0.0
230
1.0
 70
    11
 71
     3
 72
    23
 73
    19
 74
     0
 42
0.0000000001
 43
0.0000000001
 12
1.0
 22
0.0
 32
0.0
 13
1.0
 23
0.0
 33
0.0
 40
0.0
 40
0.0
 40
0.0
 40
0.0
 40
1.0
 40
1.0
 40
1.0
 40
2.0
 40
2.0
 40
2.0
 40
3.0
 40
3.0
 40
3.0
 40
4.0
 40
4.0
 40
4.0
 40
5.0
 40
5.0
 40
5.0
 40
6.0
 40
6.0
 40
6.0
 40
6.0
 10
4.185302672048136
 20
-1.319566666666661
 30
0.0
 10
4.1736929501192
 20
-1.324624999999994
 30
0.0
 10
4.159531839365829
 20
-1.316162500000006
 30
0.0
 10
4.153727672845788
 20
-1.300659722222223
 30
0.0
 10
4.147948506325116
 20
-1.285169444444439
 30
0.0
 10
4.152641561762114
 20
-1.268493055555559
 30
0.0
 10
4.164306839245202
 20
-1.263387499999996
 30
0.0
 10
4.164306839245202
 20
-1.263387499999996
 30
0.0
 10
4.174804061202242
 20
-1.258829166666664
 30
0.0
 10
4.174804061202242
 20
-1.258829166666664
 30
0.0
 10
4.186387394242956
 20
-1.253702777777777
 30
0.0
 10
4.200520727219251
 20
-1.262193055555561
 30
0.0
 10
4.206380449293444
 20
-1.277730555555561
 30
0.0
 10
4.212158226925263
 20
-1.293199999999994
 30
0.0
 10
4.207437393711189
 20
-1.309888888888887
 30
0.0
 10
4.195827671782252
 20
-1.315036111111112
 30
0.0
 10
4.195827671782252
 20
-1.315036111111112
 30
0.0
 10
4.185302672048136
 20
-1.319566666666661
 30
0.0
 10
4.185302672048136
 20
-1.319566666666661
 30
0.0
  0
HATCH
  5
175
330
170
100
AcDbEntity
  8
Nails
 62
   254
420
 13358815
100
AcDbHatch
 10
0.0
 20
0.0
 30
0.0
210
0.0
220
0.0
230
1.0
  2
SOLID
 70
     1
 71
     0
 91
        1
 92
        1
 93
        1
 72
     4
 94
        3
 73
     0
 74
     1
 95
       23
 96
       19
 40
0.0
 40
0.0
 40
0.0
 40
0.0
 40
1.0
 40
1.0
 40
1.0
 40
2.0
 40
2.0
 40
2.0
 40
3.0
 40
3.0
 40
3.0
 40
4.0
 40
4.0
 40
4.0
 40
5.0
 40
5.0
 40
5.0
 40
6.0
 40
6.0
 40
6.0
 40
6.0
 10
4.185302672048136
 20
-1.319566666666661
 10
4.1736929501192
 20
-1.324624999999994
 10
4.159531839365829
 20
-1.316162500000006
 10
4.153727672845788
 20
-1.300659722222223
 10
4.147948506325116
 20
-1.285169444444439
 10
4.152641561762114
 20
-1.268493055555559
 10
4.164306839245202
 20
-1.263387499999996
 10
4.164306839245202
 20
-1.263387499999996
 10
4.174804061202242
 20
-1.258829166666664
 10
4.174804061202242
 20
-1.258829166666664
 10
4.186387394242956
 20
-1.253702777777777
 10
4.200520727219251
 20
-1.262193055555561
 10
4.206380449293444
 20
-1.277730555555561
 10
4.212158226925263
 20
-1.293199999999994
 10
4.207437393711189
 20
-1.309888888888887
 10
4.195827671782252
 20
-1.315036111111112
 10
4.195827671782252
 20
-1.315036111111112
 10
4.185302672048136
 20
-1.319566666666661
 10
4.185302672048136
 20
-1.319566666666661
 97
        0
 97
        0
 75
     2
 76
     1
 98
        0
  0
SPLINE
  5
176
330
170
100
AcDbEntity
  8
Nails
 62
   250
420
  2301728
370
    20
100
AcDbSpline
210
0.0
220
0.0
230
1.0
 70
    11
 71
     3
 72
    17
 73
    13
 74
     0
 42
0.0000000001
 43
0.0000000001
 12
1.0
 22
0.0
 32
0.0
 13
1.0
 23
0.0
 33
0.0
 40
0.0
 40
0.0
 40
0.0
 40
0.0
 40
1.0
 40
1.0
 40
1.0
 40
2.0
 40
2.0
 40
2.0
 40
3.0
 40
3.0
 40
3.0
 40
4.0
 40
4.0
 40
4.0
 40
4.0
 10
4.184867949836896
 20
-1.319756944444445
 30
0.0
 10
4.196533227319984
 20
-1.314711111111112
 30
0.0
 10
4.201252671645205
 20
-1.298001388888893
 30
0.0
 10
4.195420727348088
 20
-1.282484722222218
 30
0.0
 10
4.189588783050971
 20
-1.266987500000002
 30
0.0
 10
4.175483227851752
 20
-1.258504166666663
 30
0.0
 10
4.163845728145739
 20
-1.263576388888888
 30
0.0
 10
4.152234617327951
 20
-1.268656944444451
 30
0.0
 10
4.147541666666661
 20
-1.28533194444444
 30
0.0
 10
4.153292950634548
 20
-1.300883333333331
 30
0.0
 10
4.159098506043443
 20
-1.316358333333331
 30
0.0
 10
4.17325822790796
 20
-1.324843055555561
 30
0.0
 10
4.184867949836896
 20
-1.319756944444445
 30
0.0
  0
ENDBLK
  5
173
330
170
100
AcDbEntity
  8
0
100
AcDbBlockEnd
  0
BLOCK
  5
179
330
177
100
AcDbEntity
  8
0
100
AcDbBlockBegin
  2
block 16
 70
     0
 10
0.0
 20
0.0
 30
0.0
  3
block 16
  1

  0
SPLINE
  5
17B
330
177
100
AcDbEntity
  8
Nails
 62
   250
420
  2301728
370
    20
100
AcDbSpline
210
0.0
220
0.0
230
1.0
 70
    11
 71
     3
 72
    23
 73
    19
 74
     0
 42
0.0000000001
 43
0.0000000001
 12
1.0
 22
0.0
 32
0.0
 13
1.0
 23
0.0
 33
0.0
 40
0.0
 40
0.0
 40
0.0
 40
0.0
 40
1.0
 40
1.0
 40
1.0
 40
2.0
 40
2.0
 40
2.0
 40
3.0
 40
3.0
 40
3.0
 40
4.0
 40
4.0
 40
4.0
 40
5.0
 40
5.0
 40
5.0
 40
6.0
 40
6.0
 40
6.0
 40
6.0
 10
3.765191571549924
 20
-0.7000458333333325
 30
0.0
 10
3.776773515701784
 20
-0.7051055555555573
 30
0.0
 10
3.787761015424217
 20
-0.6966416666666646
 30
0.0
 10
3.793538793056036
 20
-0.681138888888894
 30
0.0
 10
3.799342959576077
 20
-0.6656500000000025
 30
0.0
 10
3.797824904058871
 20
-0.6489736111111092
 30
0.0
 10
3.786187404352859
 20
-0.6438666666666677
 30
0.0
 10
3.786187404352859
 20
-0.6438666666666677
 30
0.0
 10
3.775688793506965
 20
-0.639309722222227
 30
0.0
 10
3.775688793506965
 20
-0.639309722222227
 30
0.0
 10
3.764079071578029
 20
-0.634181944444448
 30
0.0
 10
3.751545738561314
 20
-0.6426736111111115
 30
0.0
 10
3.745687405375975
 20
-0.6582097222222197
 30
0.0
 10
3.739908238855302
 20
-0.6736791666666654
 30
0.0
 10
3.743027777777772
 20
-0.6903680555555588
 30
0.0
 10
3.754665182926955
 20
-0.6955152777777837
 30
0.0
 10
3.754665182926955
 20
-0.6955152777777837
 30
0.0
 10
3.765191571549924
 20
-0.7000458333333325
 30
0.0
 10
3.765191571549924
 20
-0.7000458333333325
 30
0.0
  0
HATCH
  5
17C
330
177
100
AcDbEntity
  8
Nails
 62
   254
420
 13358815
100
AcDbHatch
 10
0.0
 20
0.0
 30
0.0
210
0.0
220
0.0
230
1.0
  2
SOLID
 70
     1
 71
     0
 91
        1
 92
        1
 93
        1
 72
     4
 94
        3
 73
     0
 74
     1
 95
       23
 96
       19
 40
0.0
 40
0.0
 40
0.0
 40
0.0
 40
1.0
 40
1.0
 40
1.0
 40
2.0
 40
2.0
 40
2.0
 40
3.0
 40
3.0
 40
3.0
 40
4.0
 40
4.0
 40
4.0
 40
5.0
 40
5.0
 40
5.0
 40
6.0
 40
6.0
 40
6.0
 40
6.0
 10
3.765191571549924
 20
-0.7000458333333325
 10
3.776773515701784
 20
-0.7051055555555573
 10
3.787761015424217
 20
-0.6966416666666646
 10
3.793538793056036
 20
-0.681138888888894
 10
3.799342959576077
 20
-0.6656500000000025
 10
3.797824904058871
 20
-0.6489736111111092
 10
3.786187404352859
 20
-0.6438666666666677
 10
3.786187404352859
 20
-0.6438666666666677
 10
3.775688793506965
 20
-0.639309722222227
 10
3.775688793506965
 20
-0.639309722222227
 10
3.764079071578029
 20
-0.634181944444448
 10
3.751545738561314
 20
-0.6426736111111115
 10
3.745687405375975
 20
-0.6582097222222197
 10
3.739908238855302
 20
-0.6736791666666654
 10
3.743027777777772
 20
-0.6903680555555588
 10
3.754665182926955
 20
-0.6955152777777837
 10
3.754665182926955
 20
-0.6955152777777837
 10
3.765191571549924
 20
-0.7000458333333325
 10
3.765191571549924
 20
-0.7000458333333325
 97
        0
 97
        0
 75
     2
 76
     1
 98
        0
  0
SPLINE
  5
17D
330
177
100
AcDbEntity
  8
Nails
 62
   250
420
  2301728
370
    20
100
AcDbSpline
210
0.0
220
0.0
230
1.0
 70
    11
 71
     3
 72
    17
 73
    13
 74
     0
 42
0.0000000001
 43
0.0000000001
 12
1.0
 22
0.0
 32
0.0
 13
1.0
 23
0.0
 33
0.0
 40
0.0
 40
0.0
 40
0.0
 40
0.0
 40
1.0
 40
1.0
 40
1.0
 40
2.0
 40
2.0
 40
2.0
 40
3.0
 40
3.0
 40
3.0
 40
4.0
 40
4.0
 40
4.0
 40
4.0
 10
3.765625
 20
-0.7002361111111163
 30
0.0
 10
3.753933238501001
 20
-0.6951902777777832
 30
0.0
 10
3.752413794094941
 20
-0.6784805555555522
 30
0.0
 10
3.758247127280911
 20
-0.6629638888888899
 30
0.0
 10
3.764079071578029
 20
-0.6474680555555525
 30
0.0
 10
3.774983237969233
 20
-0.6389833333333349
 30
0.0
 10
3.786620737675245
 20
-0.6440569444444387
 30
0.0
 10
3.798231848493035
 20
-0.6491361111111094
 30
0.0
 10
3.799750000000004
 20
-0.6658125000000028
 30
0.0
 10
3.793972222222212
 20
-0.6813625000000026
 30
0.0
 10
3.788194444444444
 20
-0.6968388888888941
 30
0.0
 10
3.777208333333343
 20
-0.7053222222222201
 30
0.0
 10
3.765625
 20
-0.7002361111111163
 30
0.0
  0
ENDBLK
  5
17A
330
177
100
AcDbEntity
  8
0
100
AcDbBlockEnd
  0
BLOCK
  5
180
330
17E
100
AcDbEntity
  8
0
100
AcDbBlockBegin
  2
block 17
 70
     0
 10
0.0
 20
0.0
 30
0.0
  3
block 17
  1

  0
SPLINE
  5
182
330
17E
100
AcDbEntity
  8
Nails
 62
   250
420
  2301728
370
    20
100
AcDbSpline
210
0.0
220
0.0
230
1.0
 70
    11
 71
     3
 72
    23
 73
    19
 74
     0
 42
0.0000000001
 43
0.0000000001
 12
1.0
 22
0.0
 32
0.0
 13
1.0
 23
0.0
 33
0.0
 40
0.0
 40
0.0
 40
0.0
 40
0.0
 40
1.0
 40
1.0
 40
1.0
 40
2.0
 40
2.0
 40
2.0
 40
3.0
 40
3.0
 40
3.0
 40
4.0
 40
4.0
 40
4.0
 40
5.0
 40
5.0
 40
5.0
 40
6.0
 40
6.0
 40
6.0
 40
6.0
 10
3.765191571549924
 20
-0.8510874999999992
 30
0.0
 10
3.776773515701784
 20
-0.856147222222224
 30
0.0
 10
3.787761015424217
 20
-0.8476833333333312
 30
0.0
 10
3.793538793056036
 20
-0.8321805555555607
 30
0.0
 10
3.799342959576077
 20
-0.8166916666666691
 30
0.0
 10
3.797824904058871
 20
-0.8000152777777758
 30
0.0
 10
3.786187404352859
 20
-0.7949083333333343
 30
0.0
 10
3.786187404352859
 20
-0.7949083333333343
 30
0.0
 10
3.775688793506965
 20
-0.7903513888888938
 30
0.0
 10
3.775688793506965
 20
-0.7903513888888938
 30
0.0
 10
3.764079071578029
 20
-0.7852236111111147
 30
0.0
 10
3.751545738561314
 20
-0.7937152777777783
 30
0.0
 10
3.745687405375975
 20
-0.8092513888888864
 30
0.0
 10
3.739908238855302
 20
-0.824720833333332
 30
0.0
 10
3.743027777777772
 20
-0.8414097222222254
 30
0.0
 10
3.754665182926955
 20
-0.8465569444444503
 30
0.0
 10
3.754665182926955
 20
-0.8465569444444503
 30
0.0
 10
3.765191571549924
 20
-0.8510874999999992
 30
0.0
 10
3.765191571549924
 20
-0.8510874999999992
 30
0.0
  0
HATCH
  5
183
330
17E
100
AcDbEntity
  8
Nails
 62
   254
420
 13358815
100
AcDbHatch
 10
0.0
 20
0.0
 30
0.0
210
0.0
220
0.0
230
1.0
  2
SOLID
 70
     1
 71
     0
 91
        1
 92
        1
 93
        1
 72
     4
 94
        3
 73
     0
 74
     1
 95
       23
 96
       19
 40
0.0
 40
0.0
 40
0.0
 40
0.0
 40
1.0
 40
1.0
 40
1.0
 40
2.0
 40
2.0
 40
2.0
 40
3.0
 40
3.0
 40
3.0
 40
4.0
 40
4.0
 40
4.0
 40
5.0
 40
5.0
 40
5.0
 40
6.0
 40
6.0
 40
6.0
 40
6.0
 10
3.765191571549924
 20
-0.8510874999999992
 10
3.776773515701784
 20
-0.856147222222224
 10
3.787761015424217
 20
-0.8476833333333312
 10
3.793538793056036
 20
-0.8321805555555607
 10
3.799342959576077
 20
-0.8166916666666691
 10
3.797824904058871
 20
-0.8000152777777758
 10
3.786187404352859
 20
-0.7949083333333343
 10
3.786187404352859
 20
-0.7949083333333343
 10
3.775688793506965
 20
-0.7903513888888938
 10
3.775688793506965
 20
-0.7903513888888938
 10
3.764079071578029
 20
-0.7852236111111147
 10
3.751545738561314
 20
-0.7937152777777783
 10
3.745687405375975
 20
-0.8092513888888864
 10
3.739908238855302
 20
-0.824720833333332
 10
3.743027777777772
 20
-0.8414097222222254
 10
3.754665182926955
 20
-0.8465569444444503
 10
3.754665182926955
 20
-0.8465569444444503
 10
3.765191571549924
 20
-0.8510874999999992
 10
3.765191571549924
 20
-0.8510874999999992
 97
        0
 97
        0
 75
     2
 76
     1
 98
        0
  0
SPLINE
  5
184
330
17E
100
AcDbEntity
  8
Nails
 62
   250
420
  2301728
370
    20
100
AcDbSpline
210
0.0
220
0.0
230
1.0
 70
    11
 71
     3
 72
    17
 73
    13
 74
     0
 42
0.0000000001
 43
0.0000000001
 12
1.0
 22
0.0
 32
0.0
 13
1.0
 23
0.0
 33
0.0
 40
0.0
 40
0.0
 40
0.0
 40
0.0
 40
1.0
 40
1.0
 40
1.0
 40
2.0
 40
2.0
 40
2.0
 40
3.0
 40
3.0
 40
3.0
 40
4.0
 40
4.0
 40
4.0
 40
4.0
 10
3.765625
 20
-0.8512777777777829
 30
0.0
 10
3.753933238501001
 20
-0.8462319444444498
 30
0.0
 10
3.752413794094941
 20
-0.8295222222222188
 30
0.0
 10
3.758247127280911
 20
-0.8140055555555565
 30
0.0
 10
3.764079071578029
 20
-0.7985097222222192
 30
0.0
 10
3.774983237969233
 20
-0.7900250000000015
 30
0.0
 10
3.786620737675245
 20
-0.7950986111111054
 30
0.0
 10
3.798231848493035
 20
-0.8001777777777761
 30
0.0
 10
3.799750000000004
 20
-0.8168541666666694
 30
0.0
 10
3.793972222222212
 20
-0.8324041666666693
 30
0.0
 10
3.788194444444444
 20
-0.8478805555555607
 30
0.0
 10
3.777208333333343
 20
-0.8563638888888868
 30
0.0
 10
3.765625
 20
-0.8512777777777829
 30
0.0
  0
ENDBLK
  5
181
330
17E
100
AcDbEntity
  8
0
100
AcDbBlockEnd
  0
BLOCK
  5
187
330
185
100
AcDbEntity
  8
0
100
AcDbBlockBegin
  2
block 18
 70
     0
 10
0.0
 20
0.0
 30
0.0
  3
block 18
  1

  0
SPLINE
  5
189
330
185
100
AcDbEntity
  8
Nails
 62
   250
420
  2301728
370
    20
100
AcDbSpline
210
0.0
220
0.0
230
1.0
 70
    11
 71
     3
 72
    23
 73
    19
 74
     0
 42
0.0000000001
 43
0.0000000001
 12
1.0
 22
0.0
 32
0.0
 13
1.0
 23
0.0
 33
0.0
 40
0.0
 40
0.0
 40
0.0
 40
0.0
 40
1.0
 40
1.0
 40
1.0
 40
2.0
 40
2.0
 40
2.0
 40
3.0
 40
3.0
 40
3.0
 40
4.0
 40
4.0
 40
4.0
 40
5.0
 40
5.0
 40
5.0
 40
6.0
 40
6.0
 40
6.0
 40
6.0
 10
3.765191571549924
 20
-1.005601388888888
 30
0.0
 10
3.776773515701784
 20
-1.010661111111113
 30
0.0
 10
3.787761015424217
 20
-1.00219722222222
 30
0.0
 10
3.793538793056036
 20
-0.9866944444444495
 30
0.0
 10
3.799342959576077
 20
-0.9712055555555581
 30
0.0
 10
3.797824904058871
 20
-0.9545291666666647
 30
0.0
 10
3.786187404352859
 20
-0.9494222222222232
 30
0.0
 10
3.786187404352859
 20
-0.9494222222222232
 30
0.0
 10
3.775688793506965
 20
-0.9448652777777826
 30
0.0
 10
3.775688793506965
 20
-0.9448652777777826
 30
0.0
 10
3.764079071578029
 20
-0.9397375000000036
 30
0.0
 10
3.751545738561314
 20
-0.9482291666666671
 30
0.0
 10
3.745687405375975
 20
-0.9637652777777753
 30
0.0
 10
3.739908238855302
 20
-0.9792347222222209
 30
0.0
 10
3.743027777777772
 20
-0.9959236111111143
 30
0.0
 10
3.754665182926955
 20
-1.001070833333339
 30
0.0
 10
3.754665182926955
 20
-1.001070833333339
 30
0.0
 10
3.765191571549924
 20
-1.005601388888888
 30
0.0
 10
3.765191571549924
 20
-1.005601388888888
 30
0.0
  0
HATCH
  5
18A
330
185
100
AcDbEntity
  8
Nails
 62
   254
420
 13358815
100
AcDbHatch
 10
0.0
 20
0.0
 30
0.0
210
0.0
220
0.0
230
1.0
  2
SOLID
 70
     1
 71
     0
 91
        1
 92
        1
 93
        1
 72
     4
 94
        3
 73
     0
 74
     1
 95
       23
 96
       19
 40
0.0
 40
0.0
 40
0.0
 40
0.0
 40
1.0
 40
1.0
 40
1.0
 40
2.0
 40
2.0
 40
2.0
 40
3.0
 40
3.0
 40
3.0
 40
4.0
 40
4.0
 40
4.0
 40
5.0
 40
5.0
 40
5.0
 40
6.0
 40
6.0
 40
6.0
 40
6.0
 10
3.765191571549924
 20
-1.005601388888888
 10
3.776773515701784
 20
-1.010661111111113
 10
3.787761015424217
 20
-1.00219722222222
 10
3.793538793056036
 20
-0.9866944444444495
 10
3.799342959576077
 20
-0.9712055555555581
 10
3.797824904058871
 20
-0.9545291666666647
 10
3.786187404352859
 20
-0.9494222222222232
 10
3.786187404352859
 20
-0.9494222222222232
 10
3.775688793506965
 20
-0.9448652777777826
 10
3.775688793506965
 20
-0.9448652777777826
 10
3.764079071578029
 20
-0.9397375000000036
 10
3.751545738561314
 20
-0.9482291666666671
 10
3.745687405375975
 20
-0.9637652777777753
 10
3.739908238855302
 20
-0.9792347222222209
 10
3.743027777777772
 20
-0.9959236111111143
 10
3.754665182926955
 20
-1.001070833333339
 10
3.754665182926955
 20
-1.001070833333339
 10
3.765191571549924
 20
-1.005601388888888
 10
3.765191571549924
 20
-1.005601388888888
 97
        0
 97
        0
 75
     2
 76
     1
 98
        0
  0
SPLINE
  5
18B
330
185
100
AcDbEntity
  8
Nails
 62
   250
420
  2301728
370
    20
100
AcDbSpline
210
0.0
220
0.0
230
1.0
 70
    11
 71
     3
 72
    17
 73
    13
 74
     0
 42
0.0000000001
 43
0.0000000001
 12
1.0
 22
0.0
 32
0.0
 13
1.0
 23
0.0
 33
0.0
 40
0.0
 40
0.0
 40
0.0
 40
0.0
 40
1.0
 40
1.0
 40
1.0
 40
2.0
 40
2.0
 40
2.0
 40
3.0
 40
3.0
 40
3.0
 40
4.0
 40
4.0
 40
4.0
 40
4.0
 10
3.765625
 20
-1.005791666666672
 30
0.0
 10
3.753933238501001
 20
-1.000745833333339
 30
0.0
 10
3.752413794094941
 20
-0.9840361111111077
 30
0.0
 10
3.758247127280911
 20
-0.9685194444444454
 30
0.0
 10
3.764079071578029
 20
-0.9530236111111081
 30
0.0
 10
3.774983237969233
 20
-0.9445388888888904
 30
0.0
 10
3.786620737675245
 20
-0.9496124999999943
 30
0.0
 10
3.798231848493035
 20
-0.9546916666666649
 30
0.0
 10
3.799750000000004
 20
-0.9713680555555584
 30
0.0
 10
3.793972222222212
 20
-0.9869180555555582
 30
0.0
 10
3.788194444444444
 20
-1.00239444444445
 30
0.0
 10
3.777208333333343
 20
-1.010877777777776
 30
0.0
 10
3.765625
 20
-1.005791666666672
 30
0.0
  0
ENDBLK
  5
188
330
185
100
AcDbEntity
  8
0
100
AcDbBlockEnd
  0
BLOCK
  5
18E
330
18C
100
AcDbEntity
  8
0
100
AcDbBlockBegin
  2
block 19
 70
     0
 10
0.0
 20
0.0
 30
0.0
  3
block 19
  1

  0
SPLINE
  5
190
330
18C
100
AcDbEntity
  8
Nails
 62
   250
420
  2301728
370
    20
100
AcDbSpline
210
0.0
220
0.0
230
1.0
 70
    11
 71
     3
 72
    23
 73
    19
 74
     0
 42
0.0000000001
 43
0.0000000001
 12
1.0
 22
0.0
 32
0.0
 13
1.0
 23
0.0
 33
0.0
 40
0.0
 40
0.0
 40
0.0
 40
0.0
 40
1.0
 40
1.0
 40
1.0
 40
2.0
 40
2.0
 40
2.0
 40
3.0
 40
3.0
 40
3.0
 40
4.0
 40
4.0
 40
4.0
 40
5.0
 40
5.0
 40
5.0
 40
6.0
 40
6.0
 40
6.0
 40
6.0
 10
3.765191571549924
 20
-1.161627777777779
 30
0.0
 10
3.776773515701784
 20
-1.166687500000004
 30
0.0
 10
3.787761015424217
 20
-1.158223611111111
 30
0.0
 10
3.793538793056036
 20
-1.142720833333328
 30
0.0
 10
3.799342959576077
 20
-1.127230555555558
 30
0.0
 10
3.797824904058871
 20
-1.110555555555556
 30
0.0
 10
3.786187404352859
 20
-1.105448611111115
 30
0.0
 10
3.786187404352859
 20
-1.105448611111115
 30
0.0
 10
3.775688793506965
 20
-1.100891666666661
 30
0.0
 10
3.775688793506965
 20
-1.100891666666661
 30
0.0
 10
3.764079071578029
 20
-1.095763888888895
 30
0.0
 10
3.751545738561314
 20
-1.104254166666667
 30
0.0
 10
3.745687405375975
 20
-1.119791666666667
 30
0.0
 10
3.739908238855302
 20
-1.135261111111112
 30
0.0
 10
3.743027777777772
 20
-1.151950000000006
 30
0.0
 10
3.754665182926955
 20
-1.157097222222218
 30
0.0
 10
3.754665182926955
 20
-1.157097222222218
 30
0.0
 10
3.765191571549924
 20
-1.161627777777779
 30
0.0
 10
3.765191571549924
 20
-1.161627777777779
 30
0.0
  0
HATCH
  5
191
330
18C
100
AcDbEntity
  8
Nails
 62
   254
420
 13358815
100
AcDbHatch
 10
0.0
 20
0.0
 30
0.0
210
0.0
220
0.0
230
1.0
  2
SOLID
 70
     1
 71
     0
 91
        1
 92
        1
 93
        1
 72
     4
 94
        3
 73
     0
 74
     1
 95
       23
 96
       19
 40
0.0
 40
0.0
 40
0.0
 40
0.0
 40
1.0
 40
1.0
 40
1.0
 40
2.0
 40
2.0
 40
2.0
 40
3.0
 40
3.0
 40
3.0
 40
4.0
 40
4.0
 40
4.0
 40
5.0
 40
5.0
 40
5.0
 40
6.0
 40
6.0
 40
6.0
 40
6.0
 10
3.765191571549924
 20
-1.161627777777779
 10
3.776773515701784
 20
-1.166687500000004
 10
3.787761015424217
 20
-1.158223611111111
 10
3.793538793056036
 20
-1.142720833333328
 10
3.799342959576077
 20
-1.127230555555558
 10
3.797824904058871
 20
-1.110555555555556
 10
3.786187404352859
 20
-1.105448611111115
 10
3.786187404352859
 20
-1.105448611111115
 10
3.775688793506965
 20
-1.100891666666661
 10
3.775688793506965
 20
-1.100891666666661
 10
3.764079071578029
 20
-1.095763888888895
 10
3.751545738561314
 20
-1.104254166666667
 10
3.745687405375975
 20
-1.119791666666667
 10
3.739908238855302
 20
-1.135261111111112
 10
3.743027777777772
 20
-1.151950000000006
 10
3.754665182926955
 20
-1.157097222222218
 10
3.754665182926955
 20
-1.157097222222218
 10
3.765191571549924
 20
-1.161627777777779
 10
3.765191571549924
 20
-1.161627777777779
 97
        0
 97
        0
 75
     2
 76
     1
 98
        0
  0
SPLINE
  5
192
330
18C
100
AcDbEntity
  8
Nails
 62
   250
420
  2301728
370
    20
100
AcDbSpline
210
0.0
220
0.0
230
1.0
 70
    11
 71
     3
 72
    17
 73
    13
 74
     0
 42
0.0000000001
 43
0.0000000001
 12
1.0
 22
0.0
 32
0.0
 13
1.0
 23
0.0
 33
0.0
 40
0.0
 40
0.0
 40
0.0
 40
0.0
 40
1.0
 40
1.0
 40
1.0
 40
2.0
 40
2.0
 40
2.0
 40
3.0
 40
3.0
 40
3.0
 40
4.0
 40
4.0
 40
4.0
 40
4.0
 10
3.765625
 20
-1.16181805555555
 30
0.0
 10
3.753933238501001
 20
-1.156772222222217
 30
0.0
 10
3.752413794094941
 20
-1.140062499999999
 30
0.0
 10
3.758247127280911
 20
-1.124545833333337
 30
0.0
 10
3.764079071578029
 20
-1.109049999999999
 30
0.0
 10
3.774983237969233
 20
-1.100565277777782
 30
0.0
 10
3.786620737675245
 20
-1.105638888888886
 30
0.0
 10
3.798231848493035
 20
-1.110718055555556
 30
0.0
 10
3.799750000000004
 20
-1.12739444444445
 30
0.0
 10
3.793972222222212
 20
-1.142944444444449
 30
0.0
 10
3.788194444444444
 20
-1.158420833333328
 30
0.0
 10
3.777208333333343
 20
-1.166904166666667
 30
0.0
 10
3.765625
 20
-1.16181805555555
 30
0.0
  0
ENDBLK
  5
18F
330
18C
100
AcDbEntity
  8
0
100
AcDbBlockEnd
  0
BLOCK
  5
195
330
193
100
AcDbEntity
  8
0
100
AcDbBlockBegin
  2
block 20
 70
     0
 10
0.0
 20
0.0
 30
0.0
  3
block 20
  1

  0
SPLINE
  5
197
330
193
100
AcDbEntity
  8
Nails
 62
   250
420
  2301728
370
    20
100
AcDbSpline
210
0.0
220
0.0
230
1.0
 70
    11
 71
     3
 72
    23
 73
    19
 74
     0
 42
0.0000000001
 43
0.0000000001
 12
1.0
 22
0.0
 32
0.0
 13
1.0
 23
0.0
 33
0.0
 40
0.0
 40
0.0
 40
0.0
 40
0.0
 40
1.0
 40
1.0
 40
1.0
 40
2.0
 40
2.0
 40
2.0
 40
3.0
 40
3.0
 40
3.0
 40
4.0
 40
4.0
 40
4.0
 40
5.0
 40
5.0
 40
5.0
 40
6.0
 40
6.0
 40
6.0
 40
6.0
 10
3.765191571549924
 20
-1.316141666666668
 30
0.0
 10
3.776773515701784
 20
-1.321201388888893
 30
0.0
 10
3.787761015424217
 20
-1.3127375
 30
0.0
 10
3.793538793056036
 20
-1.297234722222217
 30
0.0
 10
3.799342959576077
 20
-1.281744444444447
 30
0.0
 10
3.797824904058871
 20
-1.265069444444445
 30
0.0
 10
3.786187404352859
 20
-1.259962500000003
 30
0.0
 10
3.786187404352859
 20
-1.259962500000003
 30
0.0
 10
3.775688793506965
 20
-1.25540555555555
 30
0.0
 10
3.775688793506965
 20
-1.25540555555555
 30
0.0
 10
3.764079071578029
 20
-1.250277777777784
 30
0.0
 10
3.751545738561314
 20
-1.258768055555556
 30
0.0
 10
3.745687405375975
 20
-1.274305555555556
 30
0.0
 10
3.739908238855302
 20
-1.289775000000001
 30
0.0
 10
3.743027777777772
 20
-1.306463888888894
 30
0.0
 10
3.754665182926955
 20
-1.311611111111107
 30
0.0
 10
3.754665182926955
 20
-1.311611111111107
 30
0.0
 10
3.765191571549924
 20
-1.316141666666668
 30
0.0
 10
3.765191571549924
 20
-1.316141666666668
 30
0.0
  0
HATCH
  5
198
330
193
100
AcDbEntity
  8
Nails
 62
   254
420
 13358815
100
AcDbHatch
 10
0.0
 20
0.0
 30
0.0
210
0.0
220
0.0
230
1.0
  2
SOLID
 70
     1
 71
     0
 91
        1
 92
        1
 93
        1
 72
     4
 94
        3
 73
     0
 74
     1
 95
       23
 96
       19
 40
0.0
 40
0.0
 40
0.0
 40
0.0
 40
1.0
 40
1.0
 40
1.0
 40
2.0
 40
2.0
 40
2.0
 40
3.0
 40
3.0
 40
3.0
 40
4.0
 40
4.0
 40
4.0
 40
5.0
 40
5.0
 40
5.0
 40
6.0
 40
6.0
 40
6.0
 40
6.0
 10
3.765191571549924
 20
-1.316141666666668
 10
3.776773515701784
 20
-1.321201388888893
 10
3.787761015424217
 20
-1.3127375
 10
3.793538793056036
 20
-1.297234722222217
 10
3.799342959576077
 20
-1.281744444444447
 10
3.797824904058871
 20
-1.265069444444445
 10
3.786187404352859
 20
-1.259962500000003
 10
3.786187404352859
 20
-1.259962500000003
 10
3.775688793506965
 20
-1.25540555555555
 10
3.775688793506965
 20
-1.25540555555555
 10
3.764079071578029
 20
-1.250277777777784
 10
3.751545738561314
 20
-1.258768055555556
 10
3.745687405375975
 20
-1.274305555555556
 10
3.739908238855302
 20
-1.289775000000001
 10
3.743027777777772
 20
-1.306463888888894
 10
3.754665182926955
 20
-1.311611111111107
 10
3.754665182926955
 20
-1.311611111111107
 10
3.765191571549924
 20
-1.316141666666668
 10
3.765191571549924
 20
-1.316141666666668
 97
        0
 97
        0
 75
     2
 76
     1
 98
        0
  0
SPLINE
  5
199
330
193
100
AcDbEntity
  8
Nails
 62
   250
420
  2301728
370
    20
100
AcDbSpline
210
0.0
220
0.0
230
1.0
 70
    11
 71
     3
 72
    17
 73
    13
 74
     0
 42
0.0000000001
 43
0.0000000001
 12
1.0
 22
0.0
 32
0.0
 13
1.0
 23
0.0
 33
0.0
 40
0.0
 40
0.0
 40
0.0
 40
0.0
 40
1.0
 40
1.0
 40
1.0
 40
2.0
 40
2.0
 40
2.0
 40
3.0
 40
3.0
 40
3.0
 40
4.0
 40
4.0
 40
4.0
 40
4.0
 10
3.765625
 20
-1.316331944444439
 30
0.0
 10
3.753933238501001
 20
-1.311286111111106
 30
0.0
 10
3.752413794094941
 20
-1.294576388888888
 30
0.0
 10
3.758247127280911
 20
-1.279059722222226
 30
0.0
 10
3.764079071578029
 20
-1.263563888888888
 30
0.0
 10
3.774983237969233
 20
-1.255079166666671
 30
0.0
 10
3.786620737675245
 20
-1.260152777777775
 30
0.0
 10
3.798231848493035
 20
-1.265231944444445
 30
0.0
 10
3.799750000000004
 20
-1.281908333333339
 30
0.0
 10
3.793972222222212
 20
-1.297458333333338
 30
0.0
 10
3.788194444444444
 20
-1.312934722222217
 30
0.0
 10
3.777208333333343
 20
-1.321418055555556
 30
0.0
 10
3.765625
 20
-1.316331944444439
 30
0.0
  0
ENDBLK
  5
196
330
193
100
AcDbEntity
  8
0
100
AcDbBlockEnd
  0
BLOCK
  5
19C
330
19A
100
AcDbEntity
  8
0
100
AcDbBlockBegin
  2
block 21
 70
     0
 10
0.0
 20
0.0
 30
0.0
  3
block 21
  1

  0
SPLINE
  5
19E
330
19A
100
AcDbEntity
  8
Nails
 62
   250
420
  2301728
370
    20
100
AcDbSpline
210
0.0
220
0.0
230
1.0
 70
    11
 71
     3
 72
    23
 73
    19
 74
     0
 42
0.0000000001
 43
0.0000000001
 12
1.0
 22
0.0
 32
0.0
 13
1.0
 23
0.0
 33
0.0
 40
0.0
 40
0.0
 40
0.0
 40
0.0
 40
1.0
 40
1.0
 40
1.0
 40
2.0
 40
2.0
 40
2.0
 40
3.0
 40
3.0
 40
3.0
 40
4.0
 40
4.0
 40
4.0
 40
5.0
 40
5.0
 40
5.0
 40
6.0
 40
6.0
 40
6.0
 40
6.0
 10
3.765191571549924
 20
-1.470655555555557
 30
0.0
 10
3.776773515701784
 20
-1.475715277777782
 30
0.0
 10
3.787761015424217
 20
-1.467251388888889
 30
0.0
 10
3.793538793056036
 20
-1.451748611111106
 30
0.0
 10
3.799342959576077
 20
-1.436258333333335
 30
0.0
 10
3.797824904058871
 20
-1.419583333333334
 30
0.0
 10
3.786187404352859
 20
-1.414476388888892
 30
0.0
 10
3.786187404352859
 20
-1.414476388888892
 30
0.0
 10
3.775688793506965
 20
-1.409919444444439
 30
0.0
 10
3.775688793506965
 20
-1.409919444444439
 30
0.0
 10
3.764079071578029
 20
-1.404791666666673
 30
0.0
 10
3.751545738561314
 20
-1.413281944444444
 30
0.0
 10
3.745687405375975
 20
-1.428819444444444
 30
0.0
 10
3.739908238855302
 20
-1.44428888888889
 30
0.0
 10
3.743027777777772
 20
-1.460977777777783
 30
0.0
 10
3.754665182926955
 20
-1.466124999999996
 30
0.0
 10
3.754665182926955
 20
-1.466124999999996
 30
0.0
 10
3.765191571549924
 20
-1.470655555555557
 30
0.0
 10
3.765191571549924
 20
-1.470655555555557
 30
0.0
  0
HATCH
  5
19F
330
19A
100
AcDbEntity
  8
Nails
 62
   254
420
 13358815
100
AcDbHatch
 10
0.0
 20
0.0
 30
0.0
210
0.0
220
0.0
230
1.0
  2
SOLID
 70
     1
 71
     0
 91
        1
 92
        1
 93
        1
 72
     4
 94
        3
 73
     0
 74
     1
 95
       23
 96
       19
 40
0.0
 40
0.0
 40
0.0
 40
0.0
 40
1.0
 40
1.0
 40
1.0
 40
2.0
 40
2.0
 40
2.0
 40
3.0
 40
3.0
 40
3.0
 40
4.0
 40
4.0
 40
4.0
 40
5.0
 40
5.0
 40
5.0
 40
6.0
 40
6.0
 40
6.0
 40
6.0
 10
3.765191571549924
 20
-1.470655555555557
 10
3.776773515701784
 20
-1.475715277777782
 10
3.787761015424217
 20
-1.467251388888889
 10
3.793538793056036
 20
-1.451748611111106
 10
3.799342959576077
 20
-1.436258333333335
 10
3.797824904058871
 20
-1.419583333333334
 10
3.786187404352859
 20
-1.414476388888892
 10
3.786187404352859
 20
-1.414476388888892
 10
3.775688793506965
 20
-1.409919444444439
 10
3.775688793506965
 20
-1.409919444444439
 10
3.764079071578029
 20
-1.404791666666673
 10
3.751545738561314
 20
-1.413281944444444
 10
3.745687405375975
 20
-1.428819444444444
 10
3.739908238855302
 20
-1.44428888888889
 10
3.743027777777772
 20
-1.460977777777783
 10
3.754665182926955
 20
-1.466124999999996
 10
3.754665182926955
 20
-1.466124999999996
 10
3.765191571549924
 20
-1.470655555555557
 10
3.765191571549924
 20
-1.470655555555557
 97
        0
 97
        0
 75
     2
 76
     1
 98
        0
  0
SPLINE
  5
1A0
330
19A
100
AcDbEntity
  8
Nails
 62
   250
420
  2301728
370
    20
100
AcDbSpline
210
0.0
220
0.0
230
1.0
 70
    11
 71
     3
 72
    17
 73
    13
 74
     0
 42
0.0000000001
 43
0.0000000001
 12
1.0
 22
0.0
 32
0.0
 13
1.0
 23
0.0
 33
0.0
 40
0.0
 40
0.0
 40
0.0
 40
0.0
 40
1.0
 40
1.0
 40
1.0
 40
2.0
 40
2.0
 40
2.0
 40
3.0
 40
3.0
 40
3.0
 40
4.0
 40
4.0
 40
4.0
 40
4.0
 10
3.765625
 20
-1.470845833333328
 30
0.0
 10
3.753933238501001
 20
-1.465799999999995
 30
0.0
 10
3.752413794094941
 20
-1.449090277777777
 30
0.0
 10
3.758247127280911
 20
-1.433573611111115
 30
0.0
 10
3.764079071578029
 20
-1.418077777777777
 30
0.0
 10
3.774983237969233
 20
-1.40959305555556
 30
0.0
 10
3.786620737675245
 20
-1.414666666666663
 30
0.0
 10
3.798231848493035
 20
-1.419745833333334
 30
0.0
 10
3.799750000000004
 20
-1.436422222222227
 30
0.0
 10
3.793972222222212
 20
-1.451972222222227
 30
0.0
 10
3.788194444444444
 20
-1.467448611111106
 30
0.0
 10
3.777208333333343
 20
-1.475931944444445
 30
0.0
 10
3.765625
 20
-1.470845833333328
 30
0.0
  0
ENDBLK
  5
19D
330
19A
100
AcDbEntity
  8
0
100
AcDbBlockEnd
  0
ENDSEC
  0
SECTION
  2
ENTITIES
  0
INSERT
  5
42
330
1F
100
AcDbEntity
  8
Wood
100
AcDbBlockReference
  2
block 2
 10
0.0
 20
0.0
 30
0.0
  0
INSERT
  5
48
330
1F
100
AcDbEntity
  8
Wood
100
AcDbBlockReference
  2
block 3
 10
0.0
 20
0.0
 30
0.0
  0
POLYLINE
  5
58
330
1F
100
AcDbEntity
  8
Wood
 62
   250
420
  2301728
370
    20
100
AcDb2dPolyline
 66
     1
 10
0.0
 20
0.0
 30
0.0
  0
VERTEX
  5
59
330
58
100
AcDbEntity
  8
Wood
 62
   250
420
  2301728
370
    20
100
AcDbVertex
100
AcDb2dVertex
 10
5.123779037229117
 20
-1.342780555555553
 30
0.0
  0
VERTEX
  5
5A
330
58
100
AcDbEntity
  8
Wood
 62
   250
420
  2301728
370
    20
100
AcDbVertex
100
AcDb2dVertex
 10
5.121202648405314
 20
-0.8289791666666638
 30
0.0
  0
VERTEX
  5
5B
330
58
100
AcDbEntity
  8
Wood
 62
   250
420
  2301728
370
    20
100
AcDbVertex
100
AcDb2dVertex
 10
1.379672222222224
 20
0.542751388888885
 30
0.0
  0
SEQEND
  5
5C
330
58
100
AcDbEntity
  8
Wood
 62
   250
420
  2301728
370
    20
  0
POLYLINE
  5
5D
330
1F
100
AcDbEntity
  8
Wood
 62
   250
420
  2301728
370
    20
100
AcDb2dPolyline
 66
     1
 10
0.0
 20
0.0
 30
0.0
  0
VERTEX
  5
5E
330
5D
100
AcDbEntity
  8
Wood
 62
   250
420
  2301728
370
    20
100
AcDbVertex
100
AcDb2dVertex
 10
5.069119316387716
 20
-1.527499999999994
 30
0.0
  0
VERTEX
  5
5F
330
5D
100
AcDbEntity
  8
Wood
 62
   250
420
  2301728
370
    20
100
AcDbVertex
100
AcDb2dVertex
 10
5.380967919620868
 20
-1.242580555555555
 30
0.0
  0
SEQEND
  5
60
330
5D
100
AcDbEntity
  8
Wood
 62
   250
420
  2301728
370
    20
  0
POLYLINE
  5
61
330
1F
100
AcDbEntity
  8
Wood
 62
   250
420
  2301728
370
    20
100
AcDb2dPolyline
 66
     1
 10
0.0
 20
0.0
 30
0.0
  0
VERTEX
  5
62
330
61
100
AcDbEntity
  8
Wood
 62
   250
420
  2301728
370
    20
100
AcDbVertex
100
AcDb2dVertex
 10
5.135552648042802
 20
-1.59256388888889
 30
0.0
  0
VERTEX
  5
63
330
61
100
AcDbEntity
  8
Wood
 62
   250
420
  2301728
370
    20
100
AcDbVertex
100
AcDb2dVertex
 10
5.440972222222222
 20
-1.300401388888885
 30
0.0
  0
SEQEND
  5
64
330
61
100
AcDbEntity
  8
Wood
 62
   250
420
  2301728
370
    20
  0
POLYLINE
  5
65
330
1F
100
AcDbEntity
  8
Wood
 62
   250
420
  2301728
370
    20
100
AcDb2dPolyline
 66
     1
 10
0.0
 20
0.0
 30
0.0
  0
VERTEX
  5
66
330
65
100
AcDbEntity
  8
Wood
 62
   250
420
  2301728
370
    20
100
AcDbVertex
100
AcDb2dVertex
 10
5.125922092730534
 20
-1.343295833333337
 30
0.0
  0
VERTEX
  5
67
330
65
100
AcDbEntity
  8
Wood
 62
   250
420
  2301728
370
    20
100
AcDbVertex
100
AcDb2dVertex
 10
5.4375
 20
-1.078708333333338
 30
0.0
  0
SEQEND
  5
68
330
65
100
AcDbEntity
  8
Wood
 62
   250
420
  2301728
370
    20
  0
POLYLINE
  5
69
330
1F
100
AcDbEntity
  8
Wood
 62
   250
420
  2301728
370
    20
100
AcDb2dPolyline
 66
     1
 10
0.0
 20
0.0
 30
0.0
  0
VERTEX
  5
6A
330
69
100
AcDbEntity
  8
Wood
 62
   250
420
  2301728
370
    20
100
AcDbVertex
100
AcDb2dVertex
 10
4.208794338121353
 20
-0.513420833333334
 30
0.0
  0
VERTEX
  5
1B3
330
69
100
AcDbEntity
  8
0
100
AcDbVertex
100
AcDb2dVertex
 10
4.208794338121353
 20
-0.513420833333334
 30
0.0
  0
SEQEND
  5
6B
330
69
100
AcDbEntity
  8
Wood
 62
   250
420
  2301728
370
    20
  0
POLYLINE
  5
6C
330
1F
100
AcDbEntity
  8
Wood
 62
   250
420
  2301728
370
    20
100
AcDb2dPolyline
 66
     1
 10
0.0
 20
0.0
 30
0.0
  0
VERTEX
  5
6D
330
6C
100
AcDbEntity
  8
Wood
 62
   250
420
  2301728
370
    20
100
AcDbVertex
100
AcDb2dVertex
 10
5.437120695980107
 20
-0.5982333333333322
 30
0.0
  0
VERTEX
  5
6E
330
6C
100
AcDbEntity
  8
Wood
 62
   250
420
  2301728
370
    20
100
AcDbVertex
100
AcDb2dVertex
 10
5.121174870628238
 20
-0.8289527777777721
 30
0.0
  0
SEQEND
  5
6F
330
6C
100
AcDbEntity
  8
Wood
 62
   250
420
  2301728
370
    20
  0
POLYLINE
  5
70
330
1F
100
AcDbEntity
  8
Wood
 62
   250
420
  2301728
370
    20
100
AcDb2dPolyline
 66
     1
 10
0.0
 20
0.0
 30
0.0
  0
VERTEX
  5
71
330
70
100
AcDbEntity
  8
Wood
 62
   250
420
  2301728
370
    20
100
AcDbVertex
100
AcDb2dVertex
 10
5.139756814603262
 20
-2.109198611111108
 30
0.0
  0
VERTEX
  5
72
330
70
100
AcDbEntity
  8
Wood
 62
   250
420
  2301728
370
    20
100
AcDbVertex
100
AcDb2dVertex
 10
5.135579036931024
 20
-1.59257638888889
 30
0.0
  0
VERTEX
  5
73
330
70
100
AcDbEntity
  8
Wood
 62
   250
420
  2301728
370
    20
100
AcDbVertex
100
AcDb2dVertex
 10
5.069119316387716
 20
-1.523498611111108
 30
0.0
  0
SEQEND
  5
74
330
70
100
AcDbEntity
  8
Wood
 62
   250
420
  2301728
370
    20
  0
POLYLINE
  5
75
330
1F
100
AcDbEntity
  8
Wood
 62
   250
420
  2301728
370
    20
100
AcDb2dPolyline
 66
     1
 10
0.0
 20
0.0
 30
0.0
  0
VERTEX
  5
76
330
75
100
AcDbEntity
  8
Wood
 62
   250
420
  2301728
370
    20
100
AcDbVertex
100
AcDb2dVertex
 10
5.194444444444444
 20
-1.408569444444449
 30
0.0
  0
VERTEX
  5
77
330
75
100
AcDbEntity
  8
Wood
 62
   250
420
  2301728
370
    20
100
AcDbVertex
100
AcDb2dVertex
 10
5.124348481659177
 20
-1.340284722222224
 30
0.0
  0
SEQEND
  5
78
330
75
100
AcDbEntity
  8
Wood
 62
   250
420
  2301728
370
    20
  0
POLYLINE
  5
79
330
1F
100
AcDbEntity
  8
Wood
 62
   250
420
  2301728
370
    15
100
AcDb2dPolyline
 66
     1
 10
0.0
 20
0.0
 30
0.0
  0
VERTEX
  5
7A
330
79
100
AcDbEntity
  8
Wood
 62
   250
420
  2301728
370
    15
100
AcDbVertex
100
AcDb2dVertex
 10
5.152398480950574
 20
-0.8085125000000062
 30
0.0
  0
VERTEX
  5
7B
330
79
100
AcDbEntity
  8
Wood
 62
   250
420
  2301728
370
    15
100
AcDbVertex
100
AcDb2dVertex
 10
5.171277777777783
 20
-1.027784722222224
 30
0.0
  0
VERTEX
  5
7C
330
79
100
AcDbEntity
  8
Wood
 62
   250
420
  2301728
370
    15
100
AcDbVertex
100
AcDb2dVertex
 10
5.152777777777778
 20
-1.166673611111112
 30
0.0
  0
VERTEX
  5
7D
330
79
100
AcDbEntity
  8
Wood
 62
   250
420
  2301728
370
    15
100
AcDbVertex
100
AcDb2dVertex
 10
5.1606443140756
 20
-1.311829166666661
 30
0.0
  0
VERTEX
  5
7E
330
79
100
AcDbEntity
  8
Wood
 62
   250
420
  2301728
370
    15
100
AcDbVertex
100
AcDb2dVertex
 10
5.231472222222211
 20
-1.377319444444449
 30
0.0
  0
SEQEND
  5
7F
330
79
100
AcDbEntity
  8
Wood
 62
   250
420
  2301728
370
    15
  0
POLYLINE
  5
80
330
1F
100
AcDbEntity
  8
Wood
 62
   250
420
  2301728
370
    15
100
AcDb2dPolyline
 66
     1
 10
0.0
 20
0.0
 30
0.0
  0
VERTEX
  5
81
330
80
100
AcDbEntity
  8
Wood
 62
   250
420
  2301728
370
    15
100
AcDbVertex
100
AcDb2dVertex
 10
5.188720702255219
 20
-0.7800569444444438
 30
0.0
  0
VERTEX
  5
82
330
80
100
AcDbEntity
  8
Wood
 62
   250
420
  2301728
370
    15
100
AcDbVertex
100
AcDb2dVertex
 10
5.217665145968466
 20
-0.9628097222222196
 30
0.0
  0
VERTEX
  5
83
330
80
100
AcDbEntity
  8
Wood
 62
   250
420
  2301728
370
    15
100
AcDbVertex
100
AcDb2dVertex
 10
5.223144312496717
 20
-1.057155555555558
 30
0.0
  0
VERTEX
  5
84
330
80
100
AcDbEntity
  8
Wood
 62
   250
420
  2301728
370
    15
100
AcDbVertex
100
AcDb2dVertex
 10
5.206000000000004
 20
-1.168986111111116
 30
0.0
  0
VERTEX
  5
85
330
80
100
AcDbEntity
  8
Wood
 62
   250
420
  2301728
370
    15
100
AcDbVertex
100
AcDb2dVertex
 10
5.206108201815974
 20
-1.272115277777781
 30
0.0
  0
VERTEX
  5
86
330
80
100
AcDbEntity
  8
Wood
 62
   250
420
  2301728
370
    15
100
AcDbVertex
100
AcDb2dVertex
 10
5.275010977853122
 20
-1.33874444444445
 30
0.0
  0
SEQEND
  5
87
330
80
100
AcDbEntity
  8
Wood
 62
   250
420
  2301728
370
    15
  0
POLYLINE
  5
88
330
1F
100
AcDbEntity
  8
Wood
 62
   250
420
  2301728
370
    15
100
AcDb2dPolyline
 66
     1
 10
0.0
 20
0.0
 30
0.0
  0
VERTEX
  5
89
330
88
100
AcDbEntity
  8
Wood
 62
   250
420
  2301728
370
    15
100
AcDbVertex
100
AcDb2dVertex
 10
5.325304032138168
 20
-0.6805222222222179
 30
0.0
  0
VERTEX
  5
8A
330
88
100
AcDbEntity
  8
Wood
 62
   250
420
  2301728
370
    15
100
AcDbVertex
100
AcDb2dVertex
 10
5.354248475851414
 20
-0.8632750000000062
 30
0.0
  0
VERTEX
  5
8B
330
88
100
AcDbEntity
  8
Wood
 62
   250
420
  2301728
370
    15
100
AcDbVertex
100
AcDb2dVertex
 10
5.359727642379665
 20
-0.9576208333333321
 30
0.0
  0
VERTEX
  5
8C
330
88
100
AcDbEntity
  8
Wood
 62
   250
420
  2301728
370
    15
100
AcDbVertex
100
AcDb2dVertex
 10
5.344888888888893
 20
-1.06945138888889
 30
0.0
  0
VERTEX
  5
8D
330
88
100
AcDbEntity
  8
Wood
 62
   250
420
  2301728
370
    15
100
AcDbVertex
100
AcDb2dVertex
 10
5.347330420470623
 20
-1.158691666666666
 30
0.0
  0
VERTEX
  5
8E
330
88
100
AcDbEntity
  8
Wood
 62
   250
420
  2301728
370
    15
100
AcDbVertex
100
AcDb2dVertex
 10
5.407388888888893
 20
-1.219909722222218
 30
0.0
  0
SEQEND
  5
8F
330
88
100
AcDbEntity
  8
Wood
 62
   250
420
  2301728
370
    15
  0
POLYLINE
  5
90
330
1F
100
AcDbEntity
  8
Wood
 62
   250
420
  2301728
370
    15
100
AcDb2dPolyline
 66
     1
 10
0.0
 20
0.0
 30
0.0
  0
VERTEX
  5
91
330
90
100
AcDbEntity
  8
Wood
 62
   250
420
  2301728
370
    15
100
AcDbVertex
100
AcDb2dVertex
 10
5.37158180874687
 20
-0.6504250000000031
 30
0.0
  0
VERTEX
  5
92
330
90
100
AcDbEntity
  8
Wood
 62
   250
420
  2301728
370
    15
100
AcDbVertex
100
AcDb2dVertex
 10
5.400526252460117
 20
-0.8331777777777789
 30
0.0
  0
VERTEX
  5
93
330
90
100
AcDbEntity
  8
Wood
 62
   250
420
  2301728
370
    15
100
AcDbVertex
100
AcDb2dVertex
 10
5.406005418988368
 20
-0.9275236111111047
 30
0.0
  0
VERTEX
  5
94
330
90
100
AcDbEntity
  8
Wood
 62
   250
420
  2301728
370
    15
100
AcDbVertex
100
AcDb2dVertex
 10
5.391194444444434
 20
-1.039354166666663
 30
0.0
  0
VERTEX
  5
95
330
90
100
AcDbEntity
  8
Wood
 62
   250
420
  2301728
370
    15
100
AcDbVertex
100
AcDb2dVertex
 10
5.398247085851026
 20
-1.117018055555554
 30
0.0
  0
VERTEX
  5
96
330
90
100
AcDbEntity
  8
Wood
 62
   250
420
  2301728
370
    15
100
AcDbVertex
100
AcDb2dVertex
 10
5.44905555555556
 20
-1.173618055555557
 30
0.0
  0
SEQEND
  5
97
330
90
100
AcDbEntity
  8
Wood
 62
   250
420
  2301728
370
    15
  0
POLYLINE
  5
98
330
1F
100
AcDbEntity
  8
Wood
 62
   250
420
  2301728
370
    15
100
AcDb2dPolyline
 66
     1
 10
0.0
 20
0.0
 30
0.0
  0
VERTEX
  5
99
330
98
100
AcDbEntity
  8
Wood
 62
   250
420
  2301728
370
    15
100
AcDbVertex
100
AcDb2dVertex
 10
5.236654034377655
 20
-0.7442083333333281
 30
0.0
  0
VERTEX
  5
9A
330
98
100
AcDbEntity
  8
Wood
 62
   250
420
  2301728
370
    15
100
AcDbVertex
100
AcDb2dVertex
 10
5.270833333333333
 20
-1.013895833333335
 30
0.0
  0
VERTEX
  5
9B
330
98
100
AcDbEntity
  8
Wood
 62
   250
420
  2301728
370
    15
100
AcDbVertex
100
AcDb2dVertex
 10
5.252305555555545
 20
-1.162041666666672
 30
0.0
  0
VERTEX
  5
9C
330
98
100
AcDbEntity
  8
Wood
 62
   250
420
  2301728
370
    15
100
AcDbVertex
100
AcDb2dVertex
 10
5.262423478171109
 20
-1.228501388888895
 30
0.0
  0
VERTEX
  5
9D
330
98
100
AcDbEntity
  8
Wood
 62
   250
420
  2301728
370
    15
100
AcDbVertex
100
AcDb2dVertex
 10
5.322184587772527
 20
-1.288452777777782
 30
0.0
  0
SEQEND
  5
9E
330
98
100
AcDbEntity
  8
Wood
 62
   250
420
  2301728
370
    15
  0
POLYLINE
  5
9F
330
1F
100
AcDbEntity
  8
Wood
 62
   250
420
  2301728
370
    15
100
AcDb2dPolyline
 66
     1
 10
0.0
 20
0.0
 30
0.0
  0
VERTEX
  5
A0
330
9F
100
AcDbEntity
  8
Wood
 62
   250
420
  2301728
370
    15
100
AcDbVertex
100
AcDb2dVertex
 10
5.283854033185283
 20
-0.7115472222222176
 30
0.0
  0
VERTEX
  5
A1
330
9F
100
AcDbEntity
  8
Wood
 62
   250
420
  2301728
370
    15
100
AcDbVertex
100
AcDb2dVertex
 10
5.317111111111116
 20
-0.9305625000000014
 30
0.0
  0
VERTEX
  5
A2
330
9F
100
AcDbEntity
  8
Wood
 62
   250
420
  2301728
370
    15
100
AcDbVertex
100
AcDb2dVertex
 10
5.3125
 20
-1.180562500000001
 30
0.0
  0
VERTEX
  5
A3
330
9F
100
AcDbEntity
  8
Wood
 62
   250
420
  2301728
370
    15
100
AcDbVertex
100
AcDb2dVertex
 10
5.375
 20
-1.245375000000005
 30
0.0
  0
SEQEND
  5
A4
330
9F
100
AcDbEntity
  8
Wood
 62
   250
420
  2301728
370
    15
  0
POLYLINE
  5
A5
330
1F
100
AcDbEntity
  8
Wood
 62
   250
420
  2301728
370
    15
100
AcDb2dPolyline
 66
     1
 10
0.0
 20
0.0
 30
0.0
  0
VERTEX
  5
A6
330
A5
100
AcDbEntity
  8
Wood
 62
   250
420
  2301728
370
    15
100
AcDbVertex
100
AcDb2dVertex
 10
5.100477648928871
 20
-1.502780555555559
 30
0.0
  0
VERTEX
  5
A7
330
A5
100
AcDbEntity
  8
Wood
 62
   250
420
  2301728
370
    15
100
AcDbVertex
100
AcDb2dVertex
 10
5.170463758271985
 20
-1.561659722222228
 30
0.0
  0
VERTEX
  5
A8
330
A5
100
AcDbEntity
  8
Wood
 62
   250
420
  2301728
370
    15
100
AcDbVertex
100
AcDb2dVertex
 10
5.175591535920224
 20
-1.805562500000001
 30
0.0
  0
VERTEX
  5
A9
330
A5
100
AcDbEntity
  8
Wood
 62
   250
420
  2301728
370
    15
100
AcDbVertex
100
AcDb2dVertex
 10
5.198756813112797
 20
-1.907416666666664
 30
0.0
  0
VERTEX
  5
AA
330
A5
100
AcDbEntity
  8
Wood
 62
   250
420
  2301728
370
    15
100
AcDbVertex
100
AcDb2dVertex
 10
5.240423478726876
 20
-2.020840277777779
 30
0.0
  0
SEQEND
  5
AB
330
A5
100
AcDbEntity
  8
Wood
 62
   250
420
  2301728
370
    15
  0
POLYLINE
  5
AC
330
1F
100
AcDbEntity
  8
Wood
 62
   250
420
  2301728
370
    15
100
AcDb2dPolyline
 66
     1
 10
0.0
 20
0.0
 30
0.0
  0
VERTEX
  5
AD
330
AC
100
AcDbEntity
  8
Wood
 62
   250
420
  2301728
370
    15
100
AcDbVertex
100
AcDb2dVertex
 10
5.138888888888888
 20
-1.902784722222224
 30
0.0
  0
VERTEX
  5
AE
330
AC
100
AcDbEntity
  8
Wood
 62
   250
420
  2301728
370
    15
100
AcDbVertex
100
AcDb2dVertex
 10
5.178656813620566
 20
-2.064656944444449
 30
0.0
  0
SEQEND
  5
AF
330
AC
100
AcDbEntity
  8
Wood
 62
   250
420
  2301728
370
    15
  0
POLYLINE
  5
B0
330
1F
100
AcDbEntity
  8
Wood
 62
   250
420
  2301728
370
    15
100
AcDb2dPolyline
 66
     1
 10
0.0
 20
0.0
 30
0.0
  0
VERTEX
  5
B1
330
B0
100
AcDbEntity
  8
Wood
 62
   250
420
  2301728
370
    15
100
AcDbVertex
100
AcDb2dVertex
 10
5.145833333333333
 20
-1.460652777777783
 30
0.0
  0
VERTEX
  5
B2
330
B0
100
AcDbEntity
  8
Wood
 62
   250
420
  2301728
370
    15
100
AcDbVertex
100
AcDb2dVertex
 10
5.216634590438944
 20
-1.518784722222222
 30
0.0
  0
VERTEX
  5
B3
330
B0
100
AcDbEntity
  8
Wood
 62
   250
420
  2301728
370
    15
100
AcDbVertex
100
AcDb2dVertex
 10
5.212645701650823
 20
-1.782416666666664
 30
0.0
  0
VERTEX
  5
B4
330
B0
100
AcDbEntity
  8
Wood
 62
   250
420
  2301728
370
    15
100
AcDbVertex
100
AcDb2dVertex
 10
5.235785978844029
 20
-1.872694444444442
 30
0.0
  0
VERTEX
  5
B5
330
B0
100
AcDbEntity
  8
Wood
 62
   250
420
  2301728
370
    15
100
AcDbVertex
100
AcDb2dVertex
 10
5.282090144340954
 20
-1.979173611111112
 30
0.0
  0
SEQEND
  5
B6
330
B0
100
AcDbEntity
  8
Wood
 62
   250
420
  2301728
370
    15
  0
POLYLINE
  5
B7
330
1F
100
AcDbEntity
  8
Wood
 62
   250
420
  2301728
370
    15
100
AcDb2dPolyline
 66
     1
 10
0.0
 20
0.0
 30
0.0
  0
VERTEX
  5
B8
330
B7
100
AcDbEntity
  8
Wood
 62
   250
420
  2301728
370
    15
100
AcDbVertex
100
AcDb2dVertex
 10
5.188042924494564
 20
-1.419188888888887
 30
0.0
  0
VERTEX
  5
B9
330
B7
100
AcDbEntity
  8
Wood
 62
   250
420
  2301728
370
    15
100
AcDbVertex
100
AcDb2dVertex
 10
5.256944444444444
 20
-1.481486111111116
 30
0.0
  0
VERTEX
  5
BA
330
B7
100
AcDbEntity
  8
Wood
 62
   250
420
  2301728
370
    15
100
AcDbVertex
100
AcDb2dVertex
 10
5.256619311651067
 20
-1.682875000000005
 30
0.0
  0
VERTEX
  5
BB
330
B7
100
AcDbEntity
  8
Wood
 62
   250
420
  2301728
370
    15
100
AcDbVertex
100
AcDb2dVertex
 10
5.279758199955419
 20
-1.821763888888894
 30
0.0
  0
VERTEX
  5
BC
330
B7
100
AcDbEntity
  8
Wood
 62
   250
420
  2301728
370
    15
100
AcDbVertex
100
AcDb2dVertex
 10
5.32836930983851
 20
-1.939819444444449
 30
0.0
  0
SEQEND
  5
BD
330
B7
100
AcDbEntity
  8
Wood
 62
   250
420
  2301728
370
    15
  0
POLYLINE
  5
BE
330
1F
100
AcDbEntity
  8
Wood
 62
   250
420
  2301728
370
    15
100
AcDb2dPolyline
 66
     1
 10
0.0
 20
0.0
 30
0.0
  0
VERTEX
  5
BF
330
BE
100
AcDbEntity
  8
Wood
 62
   250
420
  2301728
370
    15
100
AcDbVertex
100
AcDb2dVertex
 10
5.23657208993528
 20
-1.373983333333336
 30
0.0
  0
VERTEX
  5
C0
330
BE
100
AcDbEntity
  8
Wood
 62
   250
420
  2301728
370
    15
100
AcDbVertex
100
AcDb2dVertex
 10
5.308512365895695
 20
-1.426561111111116
 30
0.0
  0
VERTEX
  5
C1
330
BE
100
AcDbEntity
  8
Wood
 62
   250
420
  2301728
370
    15
100
AcDbVertex
100
AcDb2dVertex
 10
5.314480421300484
 20
-1.673618055555557
 30
0.0
  0
VERTEX
  5
C2
330
BE
100
AcDbEntity
  8
Wood
 62
   250
420
  2301728
370
    15
100
AcDbVertex
100
AcDb2dVertex
 10
5.32836930983851
 20
-1.787041666666672
 30
0.0
  0
VERTEX
  5
C3
330
BE
100
AcDbEntity
  8
Wood
 62
   250
420
  2301728
370
    15
100
AcDbVertex
100
AcDb2dVertex
 10
5.370035975452589
 20
-1.90047222222222
 30
0.0
  0
SEQEND
  5
C4
330
BE
100
AcDbEntity
  8
Wood
 62
   250
420
  2301728
370
    15
  0
POLYLINE
  5
C5
330
1F
100
AcDbEntity
  8
Wood
 62
   250
420
  2301728
370
    15
100
AcDb2dPolyline
 66
     1
 10
0.0
 20
0.0
 30
0.0
  0
VERTEX
  5
C6
330
C5
100
AcDbEntity
  8
Wood
 62
   250
420
  2301728
370
    15
100
AcDbVertex
100
AcDb2dVertex
 10
5.280572088823747
 20
-1.334994444444444
 30
0.0
  0
VERTEX
  5
C7
330
C5
100
AcDbEntity
  8
Wood
 62
   250
420
  2301728
370
    15
100
AcDbVertex
100
AcDb2dVertex
 10
5.352159587015294
 20
-1.382894444444446
 30
0.0
  0
VERTEX
  5
C8
330
C5
100
AcDbEntity
  8
Wood
 62
   250
420
  2301728
370
    15
100
AcDbVertex
100
AcDb2dVertex
 10
5.358479031300097
 20
-1.65047222222222
 30
0.0
  0
VERTEX
  5
C9
330
C5
100
AcDbEntity
  8
Wood
 62
   250
420
  2301728
370
    15
100
AcDbVertex
100
AcDb2dVertex
 10
5.379312364107136
 20
-1.768527777777775
 30
0.0
  0
VERTEX
  5
CA
330
C5
100
AcDbEntity
  8
Wood
 62
   250
420
  2301728
370
    15
100
AcDbVertex
100
AcDb2dVertex
 10
5.414034585452201
 20
-1.861118055555557
 30
0.0
  0
SEQEND
  5
CB
330
C5
100
AcDbEntity
  8
Wood
 62
   250
420
  2301728
370
    15
  0
POLYLINE
  5
CC
330
1F
100
AcDbEntity
  8
Wood
 62
   250
420
  2301728
370
    15
100
AcDb2dPolyline
 66
     1
 10
0.0
 20
0.0
 30
0.0
  0
VERTEX
  5
CD
330
CC
100
AcDbEntity
  8
Wood
 62
   250
420
  2301728
370
    15
100
AcDbVertex
100
AcDb2dVertex
 10
5.326877643209526
 20
-1.291015277777774
 30
0.0
  0
VERTEX
  5
CE
330
CC
100
AcDbEntity
  8
Wood
 62
   250
420
  2301728
370
    15
100
AcDbVertex
100
AcDb2dVertex
 10
5.398465141401074
 20
-1.344916666666664
 30
0.0
  0
VERTEX
  5
CF
330
CC
100
AcDbEntity
  8
Wood
 62
   250
420
  2301728
370
    15
100
AcDbVertex
100
AcDb2dVertex
 10
5.407388888888893
 20
-1.597229166666668
 30
0.0
  0
VERTEX
  5
D0
330
CC
100
AcDbEntity
  8
Wood
 62
   250
420
  2301728
370
    15
100
AcDbVertex
100
AcDb2dVertex
 10
5.423611111111111
 20
-1.70602083333333
 30
0.0
  0
VERTEX
  5
D1
330
CC
100
AcDbEntity
  8
Wood
 62
   250
420
  2301728
370
    15
100
AcDbVertex
100
AcDb2dVertex
 10
5.442111111111116
 20
-1.793986111111116
 30
0.0
  0
SEQEND
  5
D2
330
CC
100
AcDbEntity
  8
Wood
 62
   250
420
  2301728
370
    15
  0
POLYLINE
  5
D3
330
1F
100
AcDbEntity
  8
Wood
 62
   250
420
  2301728
370
    30
100
AcDb2dPolyline
 66
     1
 10
0.0
 20
0.0
 30
0.0
  0
VERTEX
  5
D4
330
D3
100
AcDbEntity
  8
Wood
 62
   250
420
  2301728
370
    30
100
AcDbVertex
100
AcDb2dVertex
 10
3.934705456156532
 20
-0.410658333333332
 30
0.0
  0
VERTEX
  5
1B4
330
D3
100
AcDbEntity
  8
0
100
AcDbVertex
100
AcDb2dVertex
 10
3.934705456156532
 20
-0.410658333333332
 30
0.0
  0
SEQEND
  5
D5
330
D3
100
AcDbEntity
  8
Wood
 62
   250
420
  2301728
370
    30
  0
POLYLINE
  5
D6
330
1F
100
AcDbEntity
  8
Wood
 62
   250
420
  2301728
370
    30
100
AcDb2dPolyline
 66
     1
 10
0.0
 20
0.0
 30
0.0
  0
VERTEX
  5
D7
330
D6
100
AcDbEntity
  8
Wood
 62
   250
420
  2301728
370
    30
100
AcDbVertex
100
AcDb2dVertex
 10
3.660888888888899
 20
-0.3043486111111077
 30
0.0
  0
VERTEX
  5
1B5
330
D6
100
AcDbEntity
  8
0
100
AcDbVertex
100
AcDb2dVertex
 10
3.660888888888899
 20
-0.3043486111111077
 30
0.0
  0
SEQEND
  5
D8
330
D6
100
AcDbEntity
  8
Wood
 62
   250
420
  2301728
370
    30
  0
POLYLINE
  5
D9
330
1F
100
AcDbEntity
  8
Wood
 62
   250
420
  2301728
370
    15
100
AcDb2dPolyline
 66
     1
 10
0.0
 20
0.0
 30
0.0
  0
VERTEX
  5
DA
330
D9
100
AcDbEntity
  8
Wood
 62
   250
420
  2301728
370
    15
100
AcDbVertex
100
AcDb2dVertex
 10
5.402777777777778
 20
-0.6226874999999962
 30
0.0
  0
VERTEX
  5
DB
330
D9
100
AcDbEntity
  8
Wood
 62
   250
420
  2301728
370
    15
100
AcDbVertex
100
AcDb2dVertex
 10
5.432861111111101
 20
-0.7916736111111125
 30
0.0
  0
SEQEND
  5
DC
330
D9
100
AcDbEntity
  8
Wood
 62
   250
420
  2301728
370
    15
  0
POLYLINE
  5
DE
330
1F
100
AcDbEntity
  8
Wood-Front
370
     0
100
AcDb2dPolyline
 66
     1
 10
0.0
 20
0.0
 30
0.0
  0
VERTEX
  5
DF
330
DE
100
AcDbEntity
  8
Wood-Front
370
     0
100
AcDbVertex
100
AcDb2dVertex
 10
3.308811027523511
 20
-0.1672972222222218
 30
0.0
  0
VERTEX
  5
E0
330
DE
100
AcDbEntity
  8
Wood-Front
370
     0
100
AcDbVertex
100
AcDb2dVertex
 10
3.905219345790303
 20
-0.3895333333333357
 30
0.0
  0
VERTEX
  5
E1
330
DE
100
AcDbEntity
  8
Wood-Front
370
     0
100
AcDbVertex
100
AcDb2dVertex
 10
3.908583333333329
 20
-0.6908097222222219
 30
0.0
  0
VERTEX
  5
E2
330
DE
100
AcDbEntity
  8
Wood-Front
370
     0
100
AcDbVertex
100
AcDb2dVertex
 10
3.908583333333329
 20
-1.553541666666661
 30
0.0
  0
VERTEX
  5
E3
330
DE
100
AcDbEntity
  8
Wood-Front
370
     0
100
AcDbVertex
100
AcDb2dVertex
 10
2.84556798367046
 20
-2.611741666666666
 30
0.0
  0
VERTEX
  5
E4
330
DE
100
AcDbEntity
  8
Wood-Front
370
     0
100
AcDbVertex
100
AcDb2dVertex
 10
0.4801291666666682
 20
-2.611741666666666
 30
0.0
  0
VERTEX
  5
E5
330
DE
100
AcDbEntity
  8
Wood-Front
370
     0
100
AcDbVertex
100
AcDb2dVertex
 10
0.662224999999997
 20
-2.459404166666673
 30
0.0
  0
VERTEX
  5
E6
330
DE
100
AcDbEntity
  8
Wood-Front
370
     0
100
AcDbVertex
100
AcDb2dVertex
 10
3.308811027523511
 20
-0.1672972222222218
 30
0.0
  0
SEQEND
  5
E8
330
DE
100
AcDbEntity
  8
Wood-Front
370
     0
  0
HATCH
  5
E7
330
1F
100
AcDbEntity
  8
Wood-Front
 62
    43
420
 15510365
100
AcDbHatch
 10
0.0
 20
0.0
 30
0.0
210
0.0
220
0.0
230
1.0
  2
SOLID
 70
     1
 71
     0
 91
        1
 92
        1
 93
        7
 72
     1
 10
3.308811027523511
 20
-0.1672972222222218
 11
3.905219345790303
 21
-0.3895333333333357
 72
     1
 10
3.905219345790303
 20
-0.3895333333333357
 11
3.908583333333329
 21
-0.6908097222222219
 72
     1
 10
3.908583333333329
 20
-0.6908097222222219
 11
3.908583333333329
 21
-1.553541666666661
 72
     1
 10
3.908583333333329
 20
-1.553541666666661
 11
2.84556798367046
 21
-2.611741666666666
 72
     1
 10
2.84556798367046
 20
-2.611741666666666
 11
0.4801291666666683
 21
-2.611741666666666
 72
     1
 10
0.4801291666666682
 20
-2.611741666666666
 11
0.662224999999997
 21
-2.459404166666673
 72
     1
 10
0.662224999999997
 20
-2.459404166666673
 11
3.308811027523511
 21
-0.167297222222222
 97
        0
 75
     2
 76
     1
 98
        0
  0
POLYLINE
  5
E9
330
1F
100
AcDbEntity
  8
Wood-Front
 62
   250
420
  2301728
370
    20
100
AcDb2dPolyline
 66
     1
 10
0.0
 20
0.0
 30
0.0
  0
VERTEX
  5
EA
330
E9
100
AcDbEntity
  8
Wood-Front
 62
   250
420
  2301728
370
    20
100
AcDbVertex
100
AcDb2dVertex
 10
1.601249999999999
 20
-2.60835138888889
 30
0.0
  0
VERTEX
  5
EB
330
E9
100
AcDbEntity
  8
Wood-Front
 62
   250
420
  2301728
370
    20
100
AcDbVertex
100
AcDb2dVertex
 10
3.909559623458436
 20
-0.3904888888888914
 30
0.0
  0
SEQEND
  5
EC
330
E9
100
AcDbEntity
  8
Wood-Front
 62
   250
420
  2301728
370
    20
  0
POLYLINE
  5
ED
330
1F
100
AcDbEntity
  8
Wood-Front
 62
   250
420
  2301728
370
    30
100
AcDb2dPolyline
 66
     1
 10
0.0
 20
0.0
 30
0.0
  0
VERTEX
  5
EE
330
ED
100
AcDbEntity
  8
Wood-Front
 62
   250
420
  2301728
370
    30
100
AcDbVertex
100
AcDb2dVertex
 10
3.305880472041988
 20
-0.1663541666666662
 30
0.0
  0
VERTEX
  5
EF
330
ED
100
AcDbEntity
  8
Wood-Front
 62
   250
420
  2301728
370
    30
100
AcDbVertex
100
AcDb2dVertex
 10
3.906331845762199
 20
-0.3885152777777799
 30
0.0
  0
VERTEX
  5
F0
330
ED
100
AcDbEntity
  8
Wood-Front
 62
   250
420
  2301728
370
    30
100
AcDbVertex
100
AcDb2dVertex
 10
3.908583333333329
 20
-1.556280555555557
 30
0.0
  0
VERTEX
  5
F1
330
ED
100
AcDbEntity
  8
Wood-Front
 62
   250
420
  2301728
370
    30
100
AcDbVertex
100
AcDb2dVertex
 10
2.848144372494264
 20
-2.610195833333339
 30
0.0
  0
VERTEX
  5
F2
330
ED
100
AcDbEntity
  8
Wood-Front
 62
   250
420
  2301728
370
    30
100
AcDbVertex
100
AcDb2dVertex
 10
0.4814791666666704
 20
-2.610195833333339
 30
0.0
  0
VERTEX
  5
F3
330
ED
100
AcDbEntity
  8
Wood-Front
 62
   250
420
  2301728
370
    30
100
AcDbVertex
100
AcDb2dVertex
 10
0.6653583333333396
 20
-2.457152777777777
 30
0.0
  0
VERTEX
  5
F4
330
ED
100
AcDbEntity
  8
Wood-Front
 62
   250
420
  2301728
370
    30
100
AcDbVertex
100
AcDb2dVertex
 10
3.305880472041988
 20
-0.1663541666666662
 30
0.0
  0
SEQEND
  5
F5
330
ED
100
AcDbEntity
  8
Wood-Front
 62
   250
420
  2301728
370
    30
  0
POLYLINE
  5
F6
330
1F
100
AcDbEntity
  8
Wood-Front
 62
   250
420
  2301728
370
    50
100
AcDb2dPolyline
 66
     1
 10
0.0
 20
0.0
 30
0.0
  0
VERTEX
  5
F7
330
F6
100
AcDbEntity
  8
Wood-Front
 62
   250
420
  2301728
370
    50
100
AcDbVertex
100
AcDb2dVertex
 10
0.3958263888888874
 20
-2.60835138888889
 30
0.0
  0
VERTEX
  5
F8
330
F6
100
AcDbEntity
  8
Wood-Front
 62
   250
420
  2301728
370
    50
100
AcDbVertex
100
AcDb2dVertex
 10
2.960638888888891
 20
-2.60835138888889
 30
0.0
  0
SEQEND
  5
F9
330
F6
100
AcDbEntity
  8
Wood-Front
 62
   250
420
  2301728
370
    50
  0
SPLINE
  5
FB
330
1F
100
AcDbEntity
  8
SDEG
 62
     7
420
 16777215
370
    30
100
AcDbSpline
210
0.0
220
0.0
230
1.0
 70
     8
 71
     3
 72
    14
 73
    10
 74
     0
 42
0.0000000001
 43
0.0000000001
 12
1.0
 22
0.0
 32
0.0
 13
1.0
 23
0.0
 33
0.0
 40
0.0
 40
0.0
 40
0.0
 40
0.0
 40
1.0
 40
1.0
 40
1.0
 40
2.0
 40
2.0
 40
2.0
 40
3.0
 40
3.0
 40
3.0
 40
3.0
 10
2.901747148917921
 20
-0.5102611111111123
 30
0.0
 10
2.901747148917921
 20
-0.5102611111111123
 30
0.0
 10
2.901747148917921
 20
-0.1009181944444385
 30
0.0
 10
2.901747148917921
 20
-0.1009181944444385
 30
0.0
 10
2.901747148917921
 20
-0.1009181944444385
 30
0.0
 10
2.917317981857903
 20
-0.0937838888888917
 30
0.0
 10
2.917317981857903
 20
-0.0937838888888917
 30
0.0
 10
2.917317981857903
 20
-0.0937838888888917
 30
0.0
 10
3.180012419666127
 20
-0.1890930555555567
 30
0.0
 10
3.243354084732649
 20
-0.2124361111111107
 30
0.0
  0
SPLINE
  5
FC
330
1F
100
AcDbEntity
  8
SDEG
 62
     7
420
 16777215
370
    30
100
AcDbSpline
210
0.0
220
0.0
230
1.0
 70
     8
 71
     3
 72
    20
 73
    16
 74
     0
 42
0.0000000001
 43
0.0000000001
 12
1.0
 22
0.0
 32
0.0
 13
1.0
 23
0.0
 33
0.0
 40
0.0
 40
0.0
 40
0.0
 40
0.0
 40
1.0
 40
1.0
 40
1.0
 40
2.0
 40
2.0
 40
2.0
 40
3.0
 40
3.0
 40
3.0
 40
4.0
 40
4.0
 40
4.0
 40
5.0
 40
5.0
 40
5.0
 40
5.0
 10
3.118652777777773
 20
-0.321763888888894
 30
0.0
 10
3.117756865683279
 20
-0.3083833333333308
 30
0.0
 10
3.112861111111114
 20
-0.3024083333333338
 30
0.0
 10
3.112861111111114
 20
-0.3024083333333338
 30
0.0
 10
3.098713810608792
 20
-0.2701208333333321
 30
0.0
 10
3.066704089195203
 20
-0.2500277777777834
 30
0.0
 10
3.044637423085987
 20
-0.2562527777777809
 30
0.0
 10
3.023545756952141
 20
-0.2622069444444403
 30
0.0
 10
3.009127701760816
 20
-0.300998611111115
 30
0.0
 10
3.023301312513872
 20
-0.3332861111111166
 30
0.0
 10
3.028794367930661
 20
-0.3458250000000033
 30
0.0
 10
3.037340201048108
 20
-0.3568930555555501
 30
0.0
 10
3.047199923021253
 20
-0.3653222222222262
 30
0.0
 10
3.047199923021253
 20
-0.3653222222222262
 30
0.0
 10
3.054842978383716
 20
-0.3708569444444391
 30
0.0
 10
3.060492978240998
 20
-0.3721111111111162
 30
0.0
  0
HATCH
  5
FD
330
1F
100
AcDbEntity
  8
SDEG
 62
   254
420
 13358815
100
AcDbHatch
 10
0.0
 20
0.0
 30
0.0
210
0.0
220
0.0
230
1.0
  2
SOLID
 70
     1
 71
     0
 91
        2
 92
        1
 93
        2
 72
     4
 94
        3
 73
     0
 74
     0
 95
       14
 96
       10
 40
0.0
 40
0.0
 40
0.0
 40
0.0
 40
0.0138888888888889
 40
0.0138888888888889
 40
0.0138888888888889
 40
0.0277777777777778
 40
0.0277777777777778
 40
0.0277777777777778
 40
0.0416666666666667
 40
0.0416666666666667
 40
0.0416666666666667
 40
0.0416666666666667
 10
2.901747148917921
 20
-0.5102611111111123
 10
2.901747148917921
 20
-0.5102611111111123
 10
2.901747148917921
 20
-0.1009181944444385
 10
2.901747148917921
 20
-0.1009181944444385
 10
2.901747148917921
 20
-0.1009181944444385
 10
2.917317981857903
 20
-0.0937838888888917
 10
2.917317981857903
 20
-0.0937838888888917
 10
2.917317981857903
 20
-0.0937838888888917
 10
3.180012419666127
 20
-0.1890930555555567
 10
3.243354084732649
 20
-0.2124361111111107
 97
        0
 72
     1
 10
3.243354084732649
 20
-0.2124361111111107
 11
2.901747148917921
 21
-0.5102611111111123
 97
        0
 92
        1
 93
        2
 72
     4
 94
        3
 73
     0
 74
     0
 95
       20
 96
       16
 40
0.0
 40
0.0
 40
0.0
 40
0.0
 40
0.0138888888888889
 40
0.0138888888888889
 40
0.0138888888888889
 40
0.0277777777777778
 40
0.0277777777777778
 40
0.0277777777777778
 40
0.0416666666666667
 40
0.0416666666666667
 40
0.0416666666666667
 40
0.0555555555555556
 40
0.0555555555555556
 40
0.0555555555555556
 40
0.0694444444444444
 40
0.0694444444444444
 40
0.0694444444444444
 40
0.0694444444444444
 10
3.118652777777773
 20
-0.321763888888894
 10
3.117756865683279
 20
-0.3083833333333308
 10
3.112861111111114
 20
-0.3024083333333338
 10
3.112861111111114
 20
-0.3024083333333338
 10
3.098713810608792
 20
-0.2701208333333321
 10
3.066704089195203
 20
-0.2500277777777834
 10
3.044637423085987
 20
-0.2562527777777809
 10
3.023545756952141
 20
-0.2622069444444403
 10
3.009127701760816
 20
-0.300998611111115
 10
3.023301312513872
 20
-0.3332861111111166
 10
3.028794367930661
 20
-0.3458250000000033
 10
3.037340201048108
 20
-0.3568930555555501
 10
3.047199923021253
 20
-0.3653222222222262
 10
3.047199923021253
 20
-0.3653222222222262
 10
3.054842978383716
 20
-0.3708569444444391
 10
3.060492978240998
 20
-0.3721111111111162
 97
        0
 72
     1
 10
3.060492978240998
 20
-0.3721111111111162
 11
3.118652777777773
 21
-0.321763888888894
 97
        0
 75
     2
 76
     1
 98
        0
  0
SPLINE
  5
FE
330
1F
100
AcDbEntity
  8
SDEG
 62
     7
420
 16777215
370
    30
100
AcDbSpline
210
0.0
220
0.0
230
1.0
 70
     8
 71
     3
 72
    47
 73
    43
 74
     0
 42
0.0000000001
 43
0.0000000001
 12
1.0
 22
0.0
 32
0.0
 13
1.0
 23
0.0
 33
0.0
 40
0.0
 40
0.0
 40
0.0
 40
0.0
 40
1.0
 40
1.0
 40
1.0
 40
2.0
 40
2.0
 40
2.0
 40
3.0
 40
3.0
 40
3.0
 40
4.0
 40
4.0
 40
4.0
 40
5.0
 40
5.0
 40
5.0
 40
6.0
 40
6.0
 40
6.0
 40
7.0
 40
7.0
 40
7.0
 40
8.0
 40
8.0
 40
8.0
 40
9.0
 40
9.0
 40
9.0
 40
10.0
 40
10.0
 40
10.0
 40
11.0
 40
11.0
 40
11.0
 40
12.0
 40
12.0
 40
12.0
 40
13.0
 40
13.0
 40
13.0
 40
14.0
 40
14.0
 40
14.0
 40
14.0
 10
3.600965186809743
 20
-1.867770833333338
 30
0.0
 10
3.609022131050652
 20
-1.865329166666672
 30
0.0
 10
3.609456853261892
 20
-1.85367222222222
 30
0.0
 10
3.609456853261892
 20
-1.85367222222222
 30
0.0
 10
3.609456853261892
 20
-1.85367222222222
 30
0.0
 10
3.60951101992719
 20
-1.70600694444445
 30
0.0
 10
3.60951101992719
 20
-1.70600694444445
 30
0.0
 10
3.60951101992719
 20
-1.70600694444445
 30
0.0
 10
3.70950000000001
 20
-1.387423611111116
 30
0.0
 10
3.70950000000001
 20
-1.387423611111116
 30
0.0
 10
3.70950000000001
 20
-1.387423611111116
 30
0.0
 10
3.709770739616639
 20
-0.6449791666666694
 30
0.0
 10
3.709770739616639
 20
-0.6449791666666694
 30
0.0
 10
3.709770739616639
 20
-0.6449791666666694
 30
0.0
 10
3.867105457864252
 20
-0.4900847222222258
 30
0.0
 10
3.87768601315252
 20
-0.4802722222222226
 30
0.0
 10
3.89491101271738
 20
-0.4642611111111137
 30
0.0
 10
3.912761012266451
 20
-0.4624361111111107
 30
0.0
 10
3.933105456196952
 20
-0.4703027777777732
 30
0.0
 10
3.953395733462154
 20
-0.4781555555555567
 30
0.0
 10
4.24834572601109
 20
-0.5851444444444446
 30
0.0
 10
4.24834572601109
 20
-0.5851444444444446
 30
0.0
 10
4.24834572601109
 20
-0.5851444444444446
 30
0.0
 10
4.24834572601109
 20
-1.320326388888892
 30
0.0
 10
4.24834572601109
 20
-1.320326388888892
 30
0.0
 10
4.24834572601109
 20
-1.320326388888892
 30
0.0
 10
3.932536011766893
 20
-1.474059722222225
 30
0.0
 10
3.916748512165718
 20
-1.4847
 30
0.0
 10
3.904758234690841
 20
-1.492797222222217
 30
0.0
 10
3.90106944444445
 20
-1.513543055555551
 30
0.0
 10
3.90106944444445
 20
-1.513543055555551
 30
0.0
 10
3.90106944444445
 20
-1.513543055555551
 30
0.0
 10
3.90106944444445
 20
-1.540581944444448
 30
0.0
 10
3.90106944444445
 20
-1.540581944444448
 30
0.0
 10
3.90106944444445
 20
-1.540581944444448
 30
0.0
 10
3.902913790292991
 20
-1.587525000000003
 30
0.0
 10
3.893663790526666
 20
-1.602301388888893
 30
0.0
 10
3.884440179648562
 20
-1.617072222222216
 30
0.0
 10
3.649223518923968
 20
-1.852640277777772
 30
0.0
 10
3.634386019298795
 20
-1.867526388888892
 30
0.0
 10
3.618787408581738
 20
-1.883172222222217
 30
0.0
 10
3.612195742081591
 20
-1.897766666666661
 30
0.0
 10
3.583902777777767
 20
-1.886548611111114
 30
0.0
  0
SPLINE
  5
FF
330
1F
100
AcDbEntity
  8
SDEG
 62
     7
420
 16777215
370
    30
100
AcDbSpline
210
0.0
220
0.0
230
1.0
 70
    11
 71
     3
 72
    17
 73
    13
 74
     0
 42
0.0000000001
 43
0.0000000001
 12
1.0
 22
0.0
 32
0.0
 13
1.0
 23
0.0
 33
0.0
 40
0.0
 40
0.0
 40
0.0
 40
0.0
 40
1.0
 40
1.0
 40
1.0
 40
2.0
 40
2.0
 40
2.0
 40
3.0
 40
3.0
 40
3.0
 40
4.0
 40
4.0
 40
4.0
 40
4.0
 10
4.066595730602481
 20
-0.634630555555557
 30
0.0
 10
4.046766564436742
 20
-0.6402999999999994
 30
0.0
 10
4.033256842555804
 20
-0.676744444444441
 30
0.0
 10
4.046549897775549
 20
-0.7069763888888853
 30
0.0
 10
4.059813786329364
 20
-0.7372236111111129
 30
0.0
 10
4.091959618850625
 20
-0.758165277777784
 30
0.0
 10
4.115722222222226
 20
-0.7515875000000025
 30
0.0
 10
4.139458333333323
 20
-0.7449944444444504
 30
0.0
 10
4.143880450872327
 20
-0.7079402777777785
 30
0.0
 10
4.130587395652583
 20
-0.6777069444444426
 30
0.0
 10
4.117295729321691
 20
-0.6474611111111067
 30
0.0
 10
4.087294341190701
 20
-0.6287166666666685
 30
0.0
 10
4.066595730602481
 20
-0.634630555555557
 30
0.0
  0
SPLINE
  5
100
330
1F
100
AcDbEntity
  8
SDEG
 62
     7
420
 16777215
370
    30
100
AcDbSpline
210
0.0
220
0.0
230
1.0
 70
    11
 71
     3
 72
    17
 73
    13
 74
     0
 42
0.0000000001
 43
0.0000000001
 12
1.0
 22
0.0
 32
0.0
 13
1.0
 23
0.0
 33
0.0
 40
0.0
 40
0.0
 40
0.0
 40
0.0
 40
1.0
 40
1.0
 40
1.0
 40
2.0
 40
2.0
 40
2.0
 40
3.0
 40
3.0
 40
3.0
 40
4.0
 40
4.0
 40
4.0
 40
4.0
 10
4.066595730602481
 20
-1.172634722222218
 30
0.0
 10
4.046766564436742
 20
-1.178290277777781
 30
0.0
 10
4.033256842555804
 20
-1.214748611111114
 30
0.0
 10
4.046549897775549
 20
-1.244968055555559
 30
0.0
 10
4.059813786329364
 20
-1.275227777777774
 30
0.0
 10
4.091959618850625
 20
-1.296169444444445
 30
0.0
 10
4.115722222222226
 20
-1.289577777777771
 30
0.0
 10
4.139458333333323
 20
-1.282986111111111
 30
0.0
 10
4.143880450872327
 20
-1.245944444444439
 30
0.0
 10
4.130587395652583
 20
-1.215698611111116
 30
0.0
 10
4.117295729321691
 20
-1.185451388888888
 30
0.0
 10
4.087294341190701
 20
-1.166720833333329
 30
0.0
 10
4.066595730602481
 20
-1.172634722222218
 30
0.0
  0
HATCH
  5
101
330
1F
100
AcDbEntity
  8
SDEG
 62
   254
420
 13358815
100
AcDbHatch
 10
0.0
 20
0.0
 30
0.0
210
0.0
220
0.0
230
1.0
  2
SOLID
 70
     1
 71
     0
 91
        3
 92
        1
 93
        1
 72
     4
 94
        3
 73
     0
 74
     1
 95
       17
 96
       13
 40
0.0
 40
0.0
 40
0.0
 40
0.0
 40
1.0
 40
1.0
 40
1.0
 40
2.0
 40
2.0
 40
2.0
 40
3.0
 40
3.0
 40
3.0
 40
4.0
 40
4.0
 40
4.0
 40
4.0
 10
4.066595730602481
 20
-0.634630555555557
 10
4.046766564436742
 20
-0.6402999999999994
 10
4.033256842555804
 20
-0.676744444444441
 10
4.046549897775549
 20
-0.7069763888888853
 10
4.059813786329364
 20
-0.7372236111111129
 10
4.091959618850625
 20
-0.758165277777784
 10
4.115722222222226
 20
-0.7515875000000025
 10
4.139458333333323
 20
-0.7449944444444504
 10
4.143880450872327
 20
-0.7079402777777785
 10
4.130587395652583
 20
-0.6777069444444426
 10
4.117295729321691
 20
-0.6474611111111067
 10
4.087294341190701
 20
-0.6287166666666685
 10
4.066595730602481
 20
-0.634630555555557
 97
        0
 97
        0
 92
        1
 93
        1
 72
     4
 94
        3
 73
     0
 74
     1
 95
       17
 96
       13
 40
0.0
 40
0.0
 40
0.0
 40
0.0
 40
1.0
 40
1.0
 40
1.0
 40
2.0
 40
2.0
 40
2.0
 40
3.0
 40
3.0
 40
3.0
 40
4.0
 40
4.0
 40
4.0
 40
4.0
 10
4.066595730602481
 20
-1.172634722222218
 10
4.046766564436742
 20
-1.178290277777781
 10
4.033256842555804
 20
-1.214748611111114
 10
4.046549897775549
 20
-1.244968055555559
 10
4.059813786329364
 20
-1.275227777777774
 10
4.091959618850625
 20
-1.296169444444445
 10
4.115722222222226
 20
-1.289577777777771
 10
4.139458333333323
 20
-1.282986111111111
 10
4.143880450872327
 20
-1.245944444444439
 10
4.130587395652583
 20
-1.215698611111116
 10
4.117295729321691
 20
-1.185451388888888
 10
4.087294341190701
 20
-1.166720833333329
 10
4.066595730602481
 20
-1.172634722222218
 97
        0
 97
        0
 92
        1
 93
        2
 72
     4
 94
        3
 73
     0
 74
     0
 95
       47
 96
       43
 40
0.0
 40
0.0
 40
0.0
 40
0.0
 40
0.0138888888888889
 40
0.0138888888888889
 40
0.0138888888888889
 40
0.0277777777777778
 40
0.0277777777777778
 40
0.0277777777777778
 40
0.0416666666666667
 40
0.0416666666666667
 40
0.0416666666666667
 40
0.0555555555555556
 40
0.0555555555555556
 40
0.0555555555555556
 40
0.0694444444444444
 40
0.0694444444444444
 40
0.0694444444444444
 40
0.0833333333333333
 40
0.0833333333333333
 40
0.0833333333333333
 40
0.0972222222222222
 40
0.0972222222222222
 40
0.0972222222222222
 40
0.1111111111111111
 40
0.1111111111111111
 40
0.1111111111111111
 40
0.125
 40
0.125
 40
0.125
 40
0.1388888888888889
 40
0.1388888888888889
 40
0.1388888888888889
 40
0.1527777777777778
 40
0.1527777777777778
 40
0.1527777777777778
 40
0.1666666666666667
 40
0.1666666666666667
 40
0.1666666666666667
 40
0.1805555555555556
 40
0.1805555555555556
 40
0.1805555555555556
 40
0.1944444444444444
 40
0.1944444444444444
 40
0.1944444444444444
 40
0.1944444444444444
 10
3.600965186809743
 20
-1.867770833333338
 10
3.609022131050652
 20
-1.865329166666672
 10
3.609456853261892
 20
-1.85367222222222
 10
3.609456853261892
 20
-1.85367222222222
 10
3.609456853261892
 20
-1.85367222222222
 10
3.60951101992719
 20
-1.70600694444445
 10
3.60951101992719
 20
-1.70600694444445
 10
3.60951101992719
 20
-1.70600694444445
 10
3.70950000000001
 20
-1.387423611111116
 10
3.70950000000001
 20
-1.387423611111116
 10
3.70950000000001
 20
-1.387423611111116
 10
3.709770739616639
 20
-0.6449791666666694
 10
3.709770739616639
 20
-0.6449791666666694
 10
3.709770739616639
 20
-0.6449791666666694
 10
3.867105457864252
 20
-0.4900847222222258
 10
3.87768601315252
 20
-0.4802722222222226
 10
3.89491101271738
 20
-0.4642611111111137
 10
3.912761012266451
 20
-0.4624361111111107
 10
3.933105456196952
 20
-0.4703027777777732
 10
3.953395733462154
 20
-0.4781555555555567
 10
4.24834572601109
 20
-0.5851444444444446
 10
4.24834572601109
 20
-0.5851444444444446
 10
4.24834572601109
 20
-0.5851444444444446
 10
4.24834572601109
 20
-1.320326388888892
 10
4.24834572601109
 20
-1.320326388888892
 10
4.24834572601109
 20
-1.320326388888892
 10
3.932536011766893
 20
-1.474059722222225
 10
3.916748512165718
 20
-1.4847
 10
3.904758234690841
 20
-1.492797222222217
 10
3.90106944444445
 20
-1.513543055555551
 10
3.90106944444445
 20
-1.513543055555551
 10
3.90106944444445
 20
-1.513543055555551
 10
3.90106944444445
 20
-1.540581944444448
 10
3.90106944444445
 20
-1.540581944444448
 10
3.90106944444445
 20
-1.540581944444448
 10
3.902913790292991
 20
-1.587525000000003
 10
3.893663790526666
 20
-1.602301388888893
 10
3.884440179648562
 20
-1.617072222222216
 10
3.649223518923968
 20
-1.852640277777772
 10
3.634386019298795
 20
-1.867526388888892
 10
3.618787408581738
 20
-1.883172222222217
 10
3.612195742081591
 20
-1.897766666666661
 10
3.583902777777767
 20
-1.886548611111114
 97
        0
 72
     1
 10
3.583902777777767
 20
-1.886548611111114
 11
3.600965186809743
 21
-1.867770833333338
 97
        0
 75
     2
 76
     1
 98
        0
  0
POLYLINE
  5
102
330
1F
100
AcDbEntity
  8
SDEG
 62
     7
420
 16777215
370
    18
100
AcDb2dPolyline
 66
     1
 10
0.0
 20
0.0
 30
0.0
  0
VERTEX
  5
103
330
102
100
AcDbEntity
  8
SDEG
 62
     7
420
 16777215
370
    18
100
AcDbVertex
100
AcDb2dVertex
 10
3.911648512294555
 20
-1.42545555555556
 30
0.0
  0
VERTEX
  5
104
330
102
100
AcDbEntity
  8
SDEG
 62
     7
420
 16777215
370
    18
100
AcDbVertex
100
AcDb2dVertex
 10
3.911648512294555
 20
-1.459940277777782
 30
0.0
  0
SEQEND
  5
105
330
102
100
AcDbEntity
  8
SDEG
 62
     7
420
 16777215
370
    18
  0
POLYLINE
  5
106
330
1F
100
AcDbEntity
  8
SDEG
 62
     7
420
 16777215
370
    18
100
AcDb2dPolyline
 66
     1
 10
0.0
 20
0.0
 30
0.0
  0
VERTEX
  5
107
330
106
100
AcDbEntity
  8
SDEG
 62
     7
420
 16777215
370
    18
100
AcDbVertex
100
AcDb2dVertex
 10
3.911648512294555
 20
-0.5512902777777778
 30
0.0
  0
VERTEX
  5
108
330
106
100
AcDbEntity
  8
SDEG
 62
     7
420
 16777215
370
    18
100
AcDbVertex
100
AcDb2dVertex
 10
3.911648512294555
 20
-1.405449999999999
 30
0.0
  0
SEQEND
  5
109
330
106
100
AcDbEntity
  8
SDEG
 62
     7
420
 16777215
370
    18
  0
POLYLINE
  5
10A
330
1F
100
AcDbEntity
  8
SDEG
 62
     7
420
 16777215
370
    18
100
AcDb2dPolyline
 66
     1
 10
0.0
 20
0.0
 30
0.0
  0
VERTEX
  5
10B
330
10A
100
AcDbEntity
  8
SDEG
 62
     7
420
 16777215
370
    18
100
AcDbVertex
100
AcDb2dVertex
 10
3.911648512294555
 20
-0.4978972222222258
 30
0.0
  0
VERTEX
  5
10C
330
10A
100
AcDbEntity
  8
SDEG
 62
     7
420
 16777215
370
    18
100
AcDbVertex
100
AcDb2dVertex
 10
3.911648512294555
 20
-0.5334000000000034
 30
0.0
  0
SEQEND
  5
10D
330
10A
100
AcDbEntity
  8
SDEG
 62
     7
420
 16777215
370
    18
  0
SPLINE
  5
10E
330
1F
100
AcDbEntity
  8
SDEG
 62
     7
420
 16777215
370
    18
100
AcDbSpline
210
0.0
220
0.0
230
1.0
 70
     8
 71
     3
 72
    29
 73
    25
 74
     0
 42
0.0000000001
 43
0.0000000001
 12
1.0
 22
0.0
 32
0.0
 13
1.0
 23
0.0
 33
0.0
 40
0.0
 40
0.0
 40
0.0
 40
0.0
 40
1.0
 40
1.0
 40
1.0
 40
2.0
 40
2.0
 40
2.0
 40
3.0
 40
3.0
 40
3.0
 40
4.0
 40
4.0
 40
4.0
 40
5.0
 40
5.0
 40
5.0
 40
6.0
 40
6.0
 40
6.0
 40
7.0
 40
7.0
 40
7.0
 40
8.0
 40
8.0
 40
8.0
 40
8.0
 10
3.60487213115549
 20
-1.889234722222227
 30
0.0
 10
3.60487213115549
 20
-1.889234722222227
 30
0.0
 10
3.629394352758229
 20
-1.881429166666673
 30
0.0
 10
3.629394352758229
 20
-1.856234722222224
 30
0.0
 10
3.629394352758229
 20
-1.830023611111111
 30
0.0
 10
3.629422130535305
 20
-1.81859027777778
 30
0.0
 10
3.629448519423527
 20
-1.71305972222222
 30
0.0
 10
3.629448519423527
 20
-1.71305972222222
 30
0.0
 10
3.729952683551245
 20
-1.388461111111105
 30
0.0
 10
3.729952683551245
 20
-1.388461111111105
 30
0.0
 10
3.729952683551245
 20
-1.388461111111105
 30
0.0
 10
3.73022490576659
 20
-0.6520930555555601
 30
0.0
 10
3.73022490576659
 20
-0.6520930555555601
 30
0.0
 10
3.73022490576659
 20
-0.6520930555555601
 30
0.0
 10
3.878742957570264
 20
-0.5022791666666662
 30
0.0
 10
3.89078740171044
 20
-0.4921194444444457
 30
0.0
 10
3.902777777777778
 20
-0.4819680555555502
 30
0.0
 10
3.912923512262346
 20
-0.4821097222222255
 30
0.0
 10
3.937852678299249
 20
-0.4909263888888896
 30
0.0
 10
3.962809622113228
 20
-0.499741666666662
 30
0.0
 10
4.229709615370767
 20
-0.598890277777779
 30
0.0
 10
4.229709615370767
 20
-0.598890277777779
 30
0.0
 10
4.229709615370767
 20
-0.598890277777779
 30
0.0
 10
4.229709615370767
 20
-1.328254166666663
 30
0.0
 10
4.229709615370767
 20
-1.328254166666663
 30
0.0
  0
POLYLINE
  5
10F
330
1F
100
AcDbEntity
  8
SDEG
 62
     7
420
 16777215
370
    18
100
AcDb2dPolyline
 66
     1
 10
0.0
 20
0.0
 30
0.0
  0
VERTEX
  5
110
330
10F
100
AcDbEntity
  8
SDEG
 62
     7
420
 16777215
370
    18
100
AcDbVertex
100
AcDb2dVertex
 10
3.708902777777767
 20
-1.386597222222223
 30
0.0
  0
VERTEX
  5
111
330
10F
100
AcDbEntity
  8
SDEG
 62
     7
420
 16777215
370
    18
100
AcDbVertex
100
AcDb2dVertex
 10
3.723633239266443
 20
-1.386962499999994
 30
0.0
  0
SEQEND
  5
112
330
10F
100
AcDbEntity
  8
SDEG
 62
     7
420
 16777215
370
    18
  0
POLYLINE
  5
113
330
1F
100
AcDbEntity
  8
SDEG
 62
     7
420
 16777215
370
    18
100
AcDb2dPolyline
 66
     1
 10
0.0
 20
0.0
 30
0.0
  0
VERTEX
  5
114
330
113
100
AcDbEntity
  8
SDEG
 62
     7
420
 16777215
370
    18
100
AcDbVertex
100
AcDb2dVertex
 10
3.709173517409504
 20
-0.6462263888888881
 30
0.0
  0
VERTEX
  5
115
330
113
100
AcDbEntity
  8
SDEG
 62
     7
420
 16777215
370
    18
100
AcDbVertex
100
AcDb2dVertex
 10
3.727891572492202
 20
-0.6525805555555608
 30
0.0
  0
SEQEND
  5
116
330
113
100
AcDbEntity
  8
SDEG
 62
     7
420
 16777215
370
    18
  0
POLYLINE
  5
117
330
1F
100
AcDbEntity
  8
SDEG
 62
     7
420
 16777215
370
    18
100
AcDb2dPolyline
 66
     1
 10
0.0
 20
0.0
 30
0.0
  0
VERTEX
  5
118
330
117
100
AcDbEntity
  8
SDEG
 62
     7
420
 16777215
370
    18
100
AcDbVertex
100
AcDb2dVertex
 10
4.229573504263095
 20
-0.5973097222222223
 30
0.0
  0
VERTEX
  5
119
330
117
100
AcDbEntity
  8
SDEG
 62
     7
420
 16777215
370
    18
100
AcDbVertex
100
AcDb2dVertex
 10
4.245876281629029
 20
-0.5872055555555562
 30
0.0
  0
SEQEND
  5
11A
330
117
100
AcDbEntity
  8
SDEG
 62
     7
420
 16777215
370
    18
  0
SPLINE
  5
11B
330
1F
100
AcDbEntity
  8
SDEG
 62
     7
420
 16777215
370
    18
100
AcDbSpline
210
0.0
220
0.0
230
1.0
 70
     8
 71
     3
 72
    14
 73
    10
 74
     0
 42
0.0000000001
 43
0.0000000001
 12
1.0
 22
0.0
 32
0.0
 13
1.0
 23
0.0
 33
0.0
 40
0.0
 40
0.0
 40
0.0
 40
0.0
 40
1.0
 40
1.0
 40
1.0
 40
2.0
 40
2.0
 40
2.0
 40
3.0
 40
3.0
 40
3.0
 40
3.0
 10
4.135362395531956
 20
-0.7106527777777829
 30
0.0
 10
4.135362395531956
 20
-0.7456458333333305
 30
0.0
 10
4.114312396063724
 20
-0.7722847222222273
 30
0.0
 10
4.082627674641925
 20
-0.7625319444444408
 30
0.0
 10
4.052572119845637
 20
-0.7532958333333302
 30
0.0
 10
4.025580453860837
 20
-0.7208527777777741
 30
0.0
 10
4.025580453860837
 20
-0.6858583333333349
 30
0.0
 10
4.025580453860837
 20
-0.6508652777777747
 30
0.0
 10
4.047091564428531
 20
-0.6278750000000046
 30
0.0
 10
4.080701285801701
 20
-0.6371805555555612
 30
0.0
  0
SPLINE
  5
11C
330
1F
100
AcDbEntity
  8
SDEG
 62
     7
420
 16777215
370
    18
100
AcDbSpline
210
0.0
220
0.0
230
1.0
 70
     8
 71
     3
 72
    14
 73
    10
 74
     0
 42
0.0000000001
 43
0.0000000001
 12
1.0
 22
0.0
 32
0.0
 13
1.0
 23
0.0
 33
0.0
 40
0.0
 40
0.0
 40
0.0
 40
0.0
 40
1.0
 40
1.0
 40
1.0
 40
2.0
 40
2.0
 40
2.0
 40
3.0
 40
3.0
 40
3.0
 40
3.0
 10
4.139349895431224
 20
-1.244655555555558
 30
0.0
 10
4.139349895431224
 20
-1.279649999999997
 30
0.0
 10
4.118299895962991
 20
-1.306287500000002
 30
0.0
 10
4.086615174541192
 20
-1.296549999999999
 30
0.0
 10
4.056559619744904
 20
-1.287312499999997
 30
0.0
 10
4.029567953760104
 20
-1.254855555555549
 30
0.0
 10
4.029567953760104
 20
-1.21984861111111
 30
0.0
 10
4.029567953760104
 20
-1.18486805555555
 30
0.0
 10
4.051079064327799
 20
-1.16186527777778
 30
0.0
 10
4.084690174589822
 20
-1.171183333333336
 30
0.0
  0
POLYLINE
  5
11D
330
1F
100
AcDbEntity
  8
SDEG
 62
     7
420
 16777215
370
    18
100
AcDb2dPolyline
 66
     1
 10
0.0
 20
0.0
 30
0.0
  0
VERTEX
  5
11E
330
11D
100
AcDbEntity
  8
SDEG
 62
     7
420
 16777215
370
    18
100
AcDbVertex
100
AcDb2dVertex
 10
2.901747148917921
 20
-0.1063231944444472
 30
0.0
  0
VERTEX
  5
11F
330
11D
100
AcDbEntity
  8
SDEG
 62
     7
420
 16777215
370
    18
100
AcDbVertex
100
AcDb2dVertex
 10
3.232638888888889
 20
-0.2277555555555561
 30
0.0
  0
SEQEND
  5
120
330
11D
100
AcDbEntity
  8
SDEG
 62
     7
420
 16777215
370
    18
  0
SPLINE
  5
121
330
1F
100
AcDbEntity
  8
SDEG
 62
     7
420
 16777215
370
    18
100
AcDbSpline
210
0.0
220
0.0
230
1.0
 70
     8
 71
     3
 72
    14
 73
    10
 74
     0
 42
0.0000000001
 43
0.0000000001
 12
1.0
 22
0.0
 32
0.0
 13
1.0
 23
0.0
 33
0.0
 40
0.0
 40
0.0
 40
0.0
 40
0.0
 40
1.0
 40
1.0
 40
1.0
 40
2.0
 40
2.0
 40
2.0
 40
3.0
 40
3.0
 40
3.0
 40
3.0
 10
3.059949922699161
 20
-0.2567277777777816
 30
0.0
 10
3.024102701382516
 20
-0.2466638888888863
 30
0.0
 10
3.001192979739042
 20
-0.2711041666666713
 30
0.0
 10
3.001192979739042
 20
-0.3083902777777767
 30
0.0
 10
3.001180555555556
 20
-0.3376458333333276
 30
0.0
 10
3.01890686818044
 20
-0.3653027777777803
 30
0.0
 10
3.042005478708032
 20
-0.3806694444444423
 30
0.0
 10
3.042005478708032
 20
-0.3806694444444423
 30
0.0
 10
3.05038742294073
 20
-0.384263888888894
 30
0.0
 10
3.05038742294073
 20
-0.384263888888894
 30
0.0
  0
INSERT
  5
124
330
1F
100
AcDbEntity
  8
Nails
100
AcDbBlockReference
  2
block 4
 10
0.0
 20
0.0
 30
0.0
  0
INSERT
  5
12B
330
1F
100
AcDbEntity
  8
Nails
100
AcDbBlockReference
  2
block 5
 10
0.0
 20
0.0
 30
0.0
  0
INSERT
  5
132
330
1F
100
AcDbEntity
  8
Nails
100
AcDbBlockReference
  2
block 6
 10
0.0
 20
0.0
 30
0.0
  0
INSERT
  5
139
330
1F
100
AcDbEntity
  8
Nails
100
AcDbBlockReference
  2
block 7
 10
0.0
 20
0.0
 30
0.0
  0
INSERT
  5
140
330
1F
100
AcDbEntity
  8
Nails
100
AcDbBlockReference
  2
block 8
 10
0.0
 20
0.0
 30
0.0
  0
INSERT
  5
147
330
1F
100
AcDbEntity
  8
Nails
100
AcDbBlockReference
  2
block 9
 10
0.0
 20
0.0
 30
0.0
  0
INSERT
  5
14E
330
1F
100
AcDbEntity
  8
Nails
100
AcDbBlockReference
  2
block 10
 10
0.0
 20
0.0
 30
0.0
  0
INSERT
  5
155
330
1F
100
AcDbEntity
  8
Nails
100
AcDbBlockReference
  2
block 11
 10
0.0
 20
0.0
 30
0.0
  0
INSERT
  5
15C
330
1F
100
AcDbEntity
  8
Nails
100
AcDbBlockReference
  2
block 12
 10
0.0
 20
0.0
 30
0.0
  0
INSERT
  5
163
330
1F
100
AcDbEntity
  8
Nails
100
AcDbBlockReference
  2
block 13
 10
0.0
 20
0.0
 30
0.0
  0
INSERT
  5
16A
330
1F
100
AcDbEntity
  8
Nails
100
AcDbBlockReference
  2
block 14
 10
0.0
 20
0.0
 30
0.0
  0
INSERT
  5
171
330
1F
100
AcDbEntity
  8
Nails
100
AcDbBlockReference
  2
block 15
 10
0.0
 20
0.0
 30
0.0
  0
INSERT
  5
178
330
1F
100
AcDbEntity
  8
Nails
100
AcDbBlockReference
  2
block 16
 10
0.0
 20
0.0
 30
0.0
  0
INSERT
  5
17F
330
1F
100
AcDbEntity
  8
Nails
100
AcDbBlockReference
  2
block 17
 10
0.0
 20
0.0
 30
0.0
  0
INSERT
  5
186
330
1F
100
AcDbEntity
  8
Nails
100
AcDbBlockReference
  2
block 18
 10
0.0
 20
0.0
 30
0.0
  0
INSERT
  5
18D
330
1F
100
AcDbEntity
  8
Nails
100
AcDbBlockReference
  2
block 19
 10
0.0
 20
0.0
 30
0.0
  0
INSERT
  5
194
330
1F
100
AcDbEntity
  8
Nails
100
AcDbBlockReference
  2
block 20
 10
0.0
 20
0.0
 30
0.0
  0
INSERT
  5
19B
330
1F
100
AcDbEntity
  8
Nails
100
AcDbBlockReference
  2
block 21
 10
0.0
 20
0.0
 30
0.0
  0
MTEXT
  5
1A2
330
1F
100
AcDbEntity
  8
callout
 62
   250
420
  2301728
100
AcDbMText
 10
2.08987638176811
 20
-3.226503796047634
 30
0.0
 40
0.118
 41
0.0
 46
0.0
 71
     7
 72
     1
  1
\fHelvetica Neue LT Std 55 Roman|b0|i0|c0|p34;\W1;SIMPSON Strong-Tie\H0.068794;®\H0.118; ^C
 73
     1
 44
1.0
  0
MTEXT
  5
1A3
330
1F
100
AcDbEntity
  8
callout
 62
   250
420
  2301728
100
AcDbMText
 10
2.335576794094499
 20
-3.426509221394856
 30
0.0
 40
0.118
 41
0.0
 46
0.0
 71
     7
 72
     1
  1
\fHelvetica Neue LT Std 55 Roman|b0|i0|c0|p34;\W1;SDE Installation 
 73
     1
 44
1.0
  0
MTEXT
  5
1A4
330
1F
100
AcDbEntity
  8
callout
 62
   250
420
  2236191
100
AcDbMText
 10
4.040608718872059
 20
-2.293745358784993
 30
0.0
 40
0.118
 41
0.0
 46
0.0
 71
     7
 72
     1
  1
\fHelvetica Neue LT Std 57 Condensed|b0|i0|c0|p34;\W1;SDE
 73
     1
 44
1.0
  0
POLYLINE
  5
1A5
330
1F
100
AcDbEntity
  8
callout
 62
   250
420
  2236191
370
    18
100
AcDb2dPolyline
 66
     1
 10
0.0
 20
0.0
 30
0.0
  0
VERTEX
  5
1A6
330
1A5
100
AcDbEntity
  8
callout
 62
   250
420
  2236191
370
    18
100
AcDbVertex
100
AcDb2dVertex
 10
4.099332157999722
 20
-2.117001166449654
 30
0.0
  0
VERTEX
  5
1A7
330
1A5
100
AcDbEntity
  8
callout
 62
   250
420
  2236191
370
    18
100
AcDbVertex
100
AcDb2dVertex
 10
3.770078754313368
 20
-1.747937546377974
 30
0.0
  0
SEQEND
  5
1A8
330
1A5
100
AcDbEntity
  8
callout
 62
   250
420
  2236191
370
    18
  0
MTEXT
  5
1A9
330
1F
100
AcDbEntity
  8
callout
 62
   250
420
  2236191
100
AcDbMText
 10
3.375958543565527
 20
-2.456460687849257
 30
0.0
 40
0.118
 41
0.0
 46
0.0
 71
     7
 72
     1
  1
\fHelvetica Neue LT Std 57 Condensed|b0|i0|c0|p34;\W1;Joist
 73
     1
 44
1.0
  0
POLYLINE
  5
1AA
330
1F
100
AcDbEntity
  8
callout
 62
   250
420
  2236191
370
    18
100
AcDb2dPolyline
 66
     1
 10
0.0
 20
0.0
 30
0.0
  0
VERTEX
  5
1AB
330
1AA
100
AcDbEntity
  8
callout
 62
   250
420
  2236191
370
    18
100
AcDbVertex
100
AcDb2dVertex
 10
3.465220944562917
 20
-2.290013916525772
 30
0.0
  0
VERTEX
  5
1AC
330
1AA
100
AcDbEntity
  8
callout
 62
   250
420
  2236191
370
    18
100
AcDbVertex
100
AcDb2dVertex
 10
3.3884243991307
 20
-2.076766280591957
 30
0.0
  0
SEQEND
  5
1AD
330
1AA
100
AcDbEntity
  8
callout
 62
   250
420
  2236191
370
    18
  0
MTEXT
  5
1AE
330
1F
100
AcDbEntity
  8
callout
 62
   250
420
  2236191
100
AcDbMText
 10
4.822708336724165
 20
-2.373239199320475
 30
0.0
 40
0.118
 41
0.0
 46
0.0
 71
     7
 72
     1
  1
\fHelvetica Neue LT Std 57 Condensed|b0|i0|c0|p34;\W1;Beam
 73
     1
 44
1.0
  0
POLYLINE
  5
1AF
330
1F
100
AcDbEntity
  8
callout
 62
   250
420
  2236191
370
    18
100
AcDb2dPolyline
 66
     1
 10
0.0
 20
0.0
 30
0.0
  0
VERTEX
  5
1B0
330
1AF
100
AcDbEntity
  8
callout
 62
   250
420
  2236191
370
    18
100
AcDbVertex
100
AcDb2dVertex
 10
4.916461159497455
 20
-2.206790080517824
 30
0.0
  0
VERTEX
  5
1B1
330
1AF
100
AcDbEntity
  8
callout
 62
   250
420
  2236191
370
    18
100
AcDbVertex
100
AcDb2dVertex
 10
4.833431679876488
 20
-1.973264666806244
 30
0.0
  0
SEQEND
  5
1B2
330
1AF
100
AcDbEntity
  8
callout
 62
   250
420
  2236191
370
    18
  0
ENDSEC
  0
SECTION
  2
OBJECTS
  0
DICTIONARY
  5
C
330
0
100
AcDbDictionary
281
     1
  3
ACAD_GROUP
350
D
  3
ACAD_LAYOUT
350
1A
  3
ACAD_MATERIAL
350
3B
  3
ACAD_MLEADERSTYLE
350
1B7
  3
ACAD_MLINESTYLE
350
17
  3
ACAD_PLOTSETTINGS
350
19
  3
ACAD_PLOTSTYLENAME
350
E
  3
ACAD_TABLESTYLE
350
1B6
  3
ACAD_VISUALSTYLE
350
2A
  0
SUN
  5
3F
330
29
100
AcDbSun
 90
        1
290
     0
 63
     7
421
 16777215
 40
1.0
291
     1
 91
  2455826
 92
 54000000
292
     0
 70
     2
 71
   256
280
     1
  0
DICTIONARY
  5
D
102
{ACAD_REACTORS
330
C
102
}
330
C
100
AcDbDictionary
281
     1
  0
DICTIONARY
  5
1A
102
{ACAD_REACTORS
330
C
102
}
330
C
100
AcDbDictionary
281
     1
  3
Layout1
350
1E
  3
Layout2
350
26
  3
Model
350
22
  0
DICTIONARY
  5
3B
102
{ACAD_REACTORS
330
C
102
}
330
C
100
AcDbDictionary
281
     1
  3
ByBlock
350
3D
  3
ByLayer
350
3C
  3
Global
350
3E
  0
DICTIONARY
  5
1B7
102
{ACAD_REACTORS
330
C
102
}
330
C
100
AcDbDictionary
281
     1
  0
DICTIONARY
  5
17
102
{ACAD_REACTORS
330
C
102
}
330
C
100
AcDbDictionary
281
     1
  3
Standard
350
18
  0
DICTIONARY
  5
19
102
{ACAD_REACTORS
330
C
102
}
330
C
100
AcDbDictionary
281
     1
  0
ACDBDICTIONARYWDFLT
  5
E
102
{ACAD_REACTORS
330
C
102
}
330
C
100
AcDbDictionary
281
     1
  3
Normal
350
F
100
AcDbDictionaryWithDefault
340
F
  0
DICTIONARY
  5
1B6
102
{ACAD_REACTORS
330
C
102
}
330
C
100
AcDbDictionary
281
     1
  0
DICTIONARY
  5
2A
102
{ACAD_REACTORS
330
C
102
}
330
C
100
AcDbDictionary
281
     1
  3
2dWireframe
350
2F
  3
3D Hidden
350
31
  3
3dWireframe
350
30
  3
Basic
350
32
  3
Brighten
350
36
  3
ColorChange
350
3A
  3
Conceptual
350
34
  3
Dim
350
35
  3
Facepattern
350
39
  3
Flat
350
2B
  3
FlatWithEdges
350
2C
  3
Gouraud
350
2D
  3
GouraudWithEdges
350
2E
  3
Linepattern
350
38
  3
Realistic
350
33
  3
Thicken
350
37
  0
LAYOUT
  5
1E
102
{ACAD_REACTORS
330
1A
102
}
330
1A
100
AcDbPlotSettings
  1

  2
none_device
  4

  6

 40
0.0
 41
0.0
 42
0.0
 43
0.0
 44
0.0
 45
0.0
 46
0.0
 47
0.0
 48
0.0
 49
0.0
140
0.0
141
0.0
142
1.0
143
1.0
 70
   688
 72
     0
 73
     0
 74
     5
  7

 75
    16
 76
     0
 77
     2
 78
   300
147
1.0
148
0.0
149
0.0
100
AcDbLayout
  1
Layout1
 70
     1
 71
     1
 10
0.0
 20
0.0
 11
12.0
 21
9.0
 12
0.0
 22
0.0
 32
0.0
 14
1.000000000000000E+20
 24
1.000000000000000E+20
 34
1.000000000000000E+20
 15
-1.000000000000000E+20
 25
-1.000000000000000E+20
 35
-1.000000000000000E+20
146
0.0
 13
0.0
 23
0.0
 33
0.0
 16
1.0
 26
0.0
 36
0.0
 17
0.0
 27
1.0
 37
0.0
 76
     0
330
1B
  0
LAYOUT
  5
26
102
{ACAD_REACTORS
330
1A
102
}
330
1A
100
AcDbPlotSettings
  1

  2
none_device
  4

  6

 40
0.0
 41
0.0
 42
0.0
 43
0.0
 44
0.0
 45
0.0
 46
0.0
 47
0.0
 48
0.0
 49
0.0
140
0.0
141
0.0
142
1.0
143
1.0
 70
   688
 72
     0
 73
     0
 74
     5
  7

 75
    16
 76
     0
 77
     2
 78
   300
147
1.0
148
0.0
149
0.0
100
AcDbLayout
  1
Layout2
 70
     1
 71
     2
 10
0.0
 20
0.0
 11
0.0
 21
0.0
 12
0.0
 22
0.0
 32
0.0
 14
0.0
 24
0.0
 34
0.0
 15
0.0
 25
0.0
 35
0.0
146
0.0
 13
0.0
 23
0.0
 33
0.0
 16
1.0
 26
0.0
 36
0.0
 17
0.0
 27
1.0
 37
0.0
 76
     0
330
23
  0
LAYOUT
  5
22
102
{ACAD_REACTORS
330
1A
102
}
330
1A
100
AcDbPlotSettings
  1

  2
none_device
  4

  6

 40
0.0
 41
0.0
 42
0.0
 43
0.0
 44
0.0
 45
0.0
 46
0.0
 47
0.0
 48
0.0
 49
0.0
140
0.0
141
0.0
142
1.0
143
1.0
 70
  1712
 72
     0
 73
     0
 74
     0
  7

 75
     0
 76
     0
 77
     2
 78
   300
147
1.0
148
0.0
149
0.0
100
AcDbLayout
  1
Model
 70
     1
 71
     0
 10
0.0
 20
0.0
 11
12.0
 21
9.0
 12
0.0
 22
0.0
 32
0.0
 14
1.000000000000000E+20
 24
1.000000000000000E+20
 34
1.000000000000000E+20
 15
-1.000000000000000E+20
 25
-1.000000000000000E+20
 35
-1.000000000000000E+20
146
0.0
 13
0.0
 23
0.0
 33
0.0
 16
1.0
 26
0.0
 36
0.0
 17
0.0
 27
1.0
 37
0.0
 76
     0
330
1F
331
29
  0
MATERIAL
  5
3D
102
{ACAD_REACTORS
330
3B
102
}
330
3B
100
AcDbMaterial
  1
ByBlock
 72
     1
 94
      127
  0
MATERIAL
  5
3C
102
{ACAD_REACTORS
330
3B
102
}
330
3B
100
AcDbMaterial
  1
ByLayer
 72
     1
 94
      127
  0
MATERIAL
  5
3E
102
{ACAD_REACTORS
330
3B
102
}
330
3B
100
AcDbMaterial
  1
Global
 72
     1
 94
      127
  0
MLINESTYLE
  5
18
102
{ACAD_REACTORS
330
17
102
}
330
17
100
AcDbMlineStyle
  2
Standard
 70
     0
  3

 62
   256
 51
90.0
 52
90.0
 71
     2
 49
0.5
 62
   256
  6
BYLAYER
 49
-0.5
 62
   256
  6
BYLAYER
  0
ACDBPLACEHOLDER
  5
F
102
{ACAD_REACTORS
330
E
102
}
330
E
  0
VISUALSTYLE
  5
2F
102
{ACAD_REACTORS
330
2A
102
}
330
2A
100
AcDbVisualStyle
  2
2dWireframe
 70
     4
177
     2
291
     0
 71
     0
176
     1
 72
     2
176
     1
 73
     0
176
     1
 90
        0
176
     1
 40
-0.6
176
     1
 41
-30.0
176
     1
 62
     5
 63
     7
421
 16777215
176
     1
 74
     1
176
     1
 91
        4
176
     1
 64
     7
176
     1
 65
   257
176
     1
 75
     1
176
     1
175
     1
176
     1
 42
1.0
176
     1
 92
        0
176
     1
 66
   257
176
     1
 43
1.0
176
     1
 76
     1
176
     1
 77
     6
176
     1
 78
     2
176
     1
 67
     7
176
     1
 79
     5
176
     1
170
     0
176
     1
171
     0
176
     1
290
     0
176
     1
 93
        1
176
     1
 44
0.0
176
     1
173
     0
176
     1
  0
VISUALSTYLE
  5
31
102
{ACAD_REACTORS
330
2A
102
}
330
2A
100
AcDbVisualStyle
  2
3D Hidden
 70
     6
177
     2
291
     0
 71
     1
176
     1
 72
     2
176
     1
 73
     2
176
     1
 90
        0
176
     1
 40
-0.6
176
     1
 41
-30.0
176
     1
 62
     5
 63
     7
421
 16777215
176
     1
 74
     2
176
     1
 91
        2
176
     1
 64
     7
176
     1
 65
   257
176
     1
 75
     2
176
     1
175
     1
176
     1
 42
40.0
176
     1
 92
        0
176
     1
 66
   257
176
     1
 43
1.0
176
     1
 76
     1
176
     1
 77
     6
176
     1
 78
     2
176
     1
 67
     7
176
     1
 79
     3
176
     1
170
     0
176
     1
171
     0
176
     1
290
     0
176
     1
 93
        1
176
     1
 44
0.0
176
     1
173
     0
176
     1
  0
VISUALSTYLE
  5
30
102
{ACAD_REACTORS
330
2A
102
}
330
2A
100
AcDbVisualStyle
  2
3dWireframe
 70
     5
177
     2
291
     0
 71
     0
176
     1
 72
     2
176
     1
 73
     0
176
     1
 90
        0
176
     1
 40
-0.6
176
     1
 41
-30.0
176
     1
 62
     5
 63
     7
421
 16777215
176
     1
 74
     1
176
     1
 91
        4
176
     1
 64
     7
176
     1
 65
   257
176
     1
 75
     1
176
     1
175
     1
176
     1
 42
1.0
176
     1
 92
        0
176
     1
 66
   257
176
     1
 43
1.0
176
     1
 76
     1
176
     1
 77
     6
176
     1
 78
     2
176
     1
 67
     7
176
     1
 79
     5
176
     1
170
     0
176
     1
171
     0
176
     1
290
     0
176
     1
 93
        1
176
     1
 44
0.0
176
     1
173
     0
176
     1
  0
VISUALSTYLE
  5
32
102
{ACAD_REACTORS
330
2A
102
}
330
2A
100
AcDbVisualStyle
  2
Basic
 70
     7
177
     2
291
     1
 71
     1
176
     1
 72
     0
176
     1
 73
     1
176
     1
 90
        0
176
     1
 40
-0.6
176
     1
 41
-30.0
176
     1
 62
     5
 63
     7
421
 16777215
176
     1
 74
     0
176
     1
 91
        4
176
     1
 64
     7
176
     1
 65
   257
176
     1
 75
     1
176
     1
175
     1
176
     1
 42
1.0
176
     1
 92
        8
176
     1
 66
     7
176
     1
 43
1.0
176
     1
 76
     1
176
     1
 77
     6
176
     1
 78
     2
176
     1
 67
     7
176
     1
 79
     5
176
     1
170
     0
176
     1
171
     0
176
     1
290
     0
176
     1
 93
        1
176
     1
 44
0.0
176
     1
173
     0
176
     1
  0
VISUALSTYLE
  5
36
102
{ACAD_REACTORS
330
2A
102
}
330
2A
100
AcDbVisualStyle
  2
Brighten
 70
    12
177
     2
291
     1
 71
     2
176
     1
 72
     2
176
     1
 73
     0
176
     1
 90
        0
176
     1
 40
-0.6
176
     1
 41
-30.0
176
     1
 62
     5
 63
     7
421
 16777215
176
     1
 74
     1
176
     1
 91
        4
176
     1
 64
     7
176
     1
 65
   257
176
     1
 75
     1
176
     1
175
     1
176
     1
 42
1.0
176
     1
 92
        8
176
     1
 66
     7
176
     1
 43
1.0
176
     1
 76
     1
176
     1
 77
     6
176
     1
 78
     2
176
     1
 67
     7
176
     1
 79
     5
176
     1
170
     0
176
     1
171
     0
176
     1
290
     0
176
     1
 93
        1
176
     1
 44
50.0
176
     1
173
     0
176
     1
  0
VISUALSTYLE
  5
3A
102
{ACAD_REACTORS
330
2A
102
}
330
2A
100
AcDbVisualStyle
  2
ColorChange
 70
    16
177
     2
291
     1
 71
     2
176
     1
 72
     2
176
     1
 73
     3
176
     1
 90
        0
176
     1
 40
-0.6
176
     1
 41
-30.0
176
     1
 62
     5
 63
     8
421
  8421504
176
     1
 74
     1
176
     1
 91
        4
176
     1
 64
     7
176
     1
 65
   257
176
     1
 75
     1
176
     1
175
     1
176
     1
 42
1.0
176
     1
 92
        8
176
     1
 66
     8
424
  8421504
176
     1
 43
1.0
176
     1
 76
     1
176
     1
 77
     6
176
     1
 78
     2
176
     1
 67
     7
176
     1
 79
     5
176
     1
170
     0
176
     1
171
     0
176
     1
290
     0
176
     1
 93
        1
176
     1
 44
0.0
176
     1
173
     0
176
     1
  0
VISUALSTYLE
  5
34
102
{ACAD_REACTORS
330
2A
102
}
330
2A
100
AcDbVisualStyle
  2
Conceptual
 70
     9
177
     2
291
     0
 71
     3
176
     1
 72
     2
176
     1
 73
     0
176
     1
 90
        0
176
     1
 40
-0.6
176
     1
 41
-30.0
176
     1
 62
     5
 63
     7
421
 16777215
176
     1
 74
     2
176
     1
 91
        2
176
     1
 64
     7
176
     1
 65
   257
176
     1
 75
     1
176
     1
175
     1
176
     1
 42
40.0
176
     1
 92
        8
176
     1
 66
     7
176
     1
 43
1.0
176
     1
 76
     1
176
     1
 77
     6
176
     1
 78
     2
176
     1
 67
     7
176
     1
 79
     3
176
     1
170
     0
176
     1
171
     0
176
     1
290
     0
176
     1
 93
        1
176
     1
 44
0.0
176
     1
173
     0
176
     1
  0
VISUALSTYLE
  5
35
102
{ACAD_REACTORS
330
2A
102
}
330
2A
100
AcDbVisualStyle
  2
Dim
 70
    11
177
     2
291
     1
 71
     2
176
     1
 72
     2
176
     1
 73
     0
176
     1
 90
        0
176
     1
 40
-0.6
176
     1
 41
-30.0
176
     1
 62
     5
 63
     7
421
 16777215
176
     1
 74
     1
176
     1
 91
        4
176
     1
 64
     7
176
     1
 65
   257
176
     1
 75
     1
176
     1
175
     1
176
     1
 42
1.0
176
     1
 92
        8
176
     1
 66
     7
176
     1
 43
1.0
176
     1
 76
     1
176
     1
 77
     6
176
     1
 78
     2
176
     1
 67
     7
176
     1
 79
     5
176
     1
170
     0
176
     1
171
     0
176
     1
290
     0
176
     1
 93
        1
176
     1
 44
-50.0
176
     1
173
     0
176
     1
  0
VISUALSTYLE
  5
39
102
{ACAD_REACTORS
330
2A
102
}
330
2A
100
AcDbVisualStyle
  2
Facepattern
 70
    15
177
     2
291
     1
 71
     2
176
     1
 72
     2
176
     1
 73
     0
176
     1
 90
        0
176
     1
 40
-0.6
176
     1
 41
-30.0
176
     1
 62
     5
 63
     7
421
 16777215
176
     1
 74
     1
176
     1
 91
        4
176
     1
 64
     7
176
     1
 65
   257
176
     1
 75
     1
176
     1
175
     1
176
     1
 42
1.0
176
     1
 92
        8
176
     1
 66
     7
176
     1
 43
1.0
176
     1
 76
     1
176
     1
 77
     6
176
     1
 78
     2
176
     1
 67
     7
176
     1
 79
     5
176
     1
170
     0
176
     1
171
     0
176
     1
290
     0
176
     1
 93
        1
176
     1
 44
0.0
176
     1
173
     0
176
     1
  0
VISUALSTYLE
  5
2B
102
{ACAD_REACTORS
330
2A
102
}
330
2A
100
AcDbVisualStyle
  2
Flat
 70
     0
177
     2
291
     1
 71
     2
176
     1
 72
     1
176
     1
 73
     1
176
     1
 90
        2
176
     1
 40
-0.6
176
     1
 41
30.0
176
     1
 62
     5
 63
     7
421
 16777215
176
     1
 74
     0
176
     1
 91
        4
176
     1
 64
     7
176
     1
 65
   257
176
     1
 75
     1
176
     1
175
     1
176
     1
 42
1.0
176
     1
 92
        8
176
     1
 66
     7
176
     1
 43
1.0
176
     1
 76
     1
176
     1
 77
     6
176
     1
 78
     2
176
     1
 67
     7
176
     1
 79
     5
176
     1
170
     0
176
     1
171
     0
176
     1
290
     0
176
     1
 93
       13
176
     1
 44
0.0
176
     1
173
     0
176
     1
  0
VISUALSTYLE
  5
2C
102
{ACAD_REACTORS
330
2A
102
}
330
2A
100
AcDbVisualStyle
  2
FlatWithEdges
 70
     1
177
     2
291
     1
 71
     2
176
     1
 72
     1
176
     1
 73
     1
176
     1
 90
        2
176
     1
 40
-0.6
176
     1
 41
30.0
176
     1
 62
     5
 63
     7
421
 16777215
176
     1
 74
     1
176
     1
 91
        4
176
     1
 64
     7
176
     1
 65
   257
176
     1
 75
     1
176
     1
175
     1
176
     1
 42
1.0
176
     1
 92
        0
176
     1
 66
   257
176
     1
 43
1.0
176
     1
 76
     1
176
     1
 77
     6
176
     1
 78
     2
176
     1
 67
     7
176
     1
 79
     5
176
     1
170
     0
176
     1
171
     0
176
     1
290
     0
176
     1
 93
       13
176
     1
 44
0.0
176
     1
173
     0
176
     1
  0
VISUALSTYLE
  5
2D
102
{ACAD_REACTORS
330
2A
102
}
330
2A
100
AcDbVisualStyle
  2
Gouraud
 70
     2
177
     2
291
     1
 71
     2
176
     1
 72
     2
176
     1
 73
     1
176
     1
 90
        2
176
     1
 40
-0.6
176
     1
 41
30.0
176
     1
 62
     5
 63
     7
421
 16777215
176
     1
 74
     0
176
     1
 91
        4
176
     1
 64
     7
176
     1
 65
   257
176
     1
 75
     1
176
     1
175
     1
176
     1
 42
1.0
176
     1
 92
        0
176
     1
 66
     7
176
     1
 43
1.0
176
     1
 76
     1
176
     1
 77
     6
176
     1
 78
     2
176
     1
 67
     7
176
     1
 79
     5
176
     1
170
     0
176
     1
171
     0
176
     1
290
     0
176
     1
 93
       13
176
     1
 44
0.0
176
     1
173
     0
176
     1
  0
VISUALSTYLE
  5
2E
102
{ACAD_REACTORS
330
2A
102
}
330
2A
100
AcDbVisualStyle
  2
GouraudWithEdges
 70
     3
177
     2
291
     1
 71
     2
176
     1
 72
     2
176
     1
 73
     1
176
     1
 90
        2
176
     1
 40
-0.6
176
     1
 41
30.0
176
     1
 62
     5
 63
     7
421
 16777215
176
     1
 74
     1
176
     1
 91
        4
176
     1
 64
     7
176
     1
 65
   257
176
     1
 75
     1
176
     1
175
     1
176
     1
 42
1.0
176
     1
 92
        0
176
     1
 66
   257
176
     1
 43
1.0
176
     1
 76
     1
176
     1
 77
     6
176
     1
 78
     2
176
     1
 67
     7
176
     1
 79
     5
176
     1
170
     0
176
     1
171
     0
176
     1
290
     0
176
     1
 93
       13
176
     1
 44
0.0
176
     1
173
     0
176
     1
  0
VISUALSTYLE
  5
38
102
{ACAD_REACTORS
330
2A
102
}
330
2A
100
AcDbVisualStyle
  2
Linepattern
 70
    14
177
     2
291
     1
 71
     2
176
     1
 72
     2
176
     1
 73
     0
176
     1
 90
        0
176
     1
 40
-0.6
176
     1
 41
-30.0
176
     1
 62
     5
 63
     7
421
 16777215
176
     1
 74
     1
176
     1
 91
        4
176
     1
 64
     7
176
     1
 65
   257
176
     1
 75
     7
176
     1
175
     7
176
     1
 42
1.0
176
     1
 92
        8
176
     1
 66
     7
176
     1
 43
1.0
176
     1
 76
     1
176
     1
 77
     6
176
     1
 78
     2
176
     1
 67
     7
176
     1
 79
     5
176
     1
170
     0
176
     1
171
     0
176
     1
290
     0
176
     1
 93
        1
176
     1
 44
0.0
176
     1
173
     0
176
     1
  0
VISUALSTYLE
  5
33
102
{ACAD_REACTORS
330
2A
102
}
330
2A
100
AcDbVisualStyle
  2
Realistic
 70
     8
177
     2
291
     0
 71
     2
176
     1
 72
     2
176
     1
 73
     0
176
     1
 90
        0
176
     1
 40
-0.6
176
     1
 41
-30.0
176
     1
 62
     5
 63
     7
421
 16777215
176
     1
 74
     1
176
     1
 91
        0
176
     1
 64
     7
176
     1
 65
   257
176
     1
 75
     1
176
     1
175
     1
176
     1
 42
1.0
176
     1
 92
        8
176
     1
 66
     8
424
  7895160
176
     1
 43
1.0
176
     1
 76
     1
176
     1
 77
     6
176
     1
 78
     2
176
     1
 67
     7
176
     1
 79
     5
176
     1
170
     0
176
     1
171
     0
176
     1
290
     0
176
     1
 93
       13
176
     1
 44
0.0
176
     1
173
     0
176
     1
  0
VISUALSTYLE
  5
37
102
{ACAD_REACTORS
330
2A
102
}
330
2A
100
AcDbVisualStyle
  2
Thicken
 70
    13
177
     2
291
     1
 71
     2
176
     1
 72
     2
176
     1
 73
     0
176
     1
 90
        0
176
     1
 40
-0.6
176
     1
 41
-30.0
176
     1
 62
     5
 63
     7
421
 16777215
176
     1
 74
     1
176
     1
 91
        4
176
     1
 64
     7
176
     1
 65
   257
176
     1
 75
     1
176
     1
175
     1
176
     1
 42
1.0
176
     1
 92
       12
176
     1
 66
     7
176
     1
 43
1.0
176
     1
 76
     1
176
     1
 77
     6
176
     1
 78
     2
176
     1
 67
     7
176
     1
 79
     5
176
     1
170
     0
176
     1
171
     0
176
     1
290
     0
176
     1
 93
        1
176
     1
 44
0.0
176
     1
173
     0
176
     1
  0
ENDSEC
  0
EOF
