  0
SECTION
  2
HEADER
  9
$ACADVER
  1
AC1032
  9
$ACADMAINTVER
 90
      228
  9
$DWGCODEPAGE
  3
ANSI_1252
  9
$REQUIREDVERSIONS
160
                 0
  9
$INSBASE
 10
0.0
 20
0.0
 30
0.0
  9
$EXTMIN
 10
1.000000000000000E+20
 20
1.000000000000000E+20
 30
1.000000000000000E+20
  9
$EXTMAX
 10
-1.000000000000000E+20
 20
-1.000000000000000E+20
 30
-1.000000000000000E+20
  9
$LIMMIN
 10
0.0
 20
0.0
  9
$LIMMAX
 10
12.0
 20
9.0
  9
$ORTHOMODE
 70
     0
  9
$REGENMODE
 70
     1
  9
$FILLMODE
 70
     1
  9
$QTEXTMODE
 70
     0
  9
$MIRRTEXT
 70
     0
  9
$LTSCALE
 40
1.0
  9
$ATTMODE
 70
     1
  9
$TEXTSIZE
 40
0.2
  9
$TRACEWID
 40
0.05
  9
$TEXTSTYLE
  7
Standard
  9
$CLAYER
  8
0
  9
$CELTYPE
  6
ByLayer
  9
$CECOLOR
 62
   256
  9
$CELTSCALE
 40
1.0
  9
$DISPSILH
 70
     0
  9
$DIMSCALE
 40
1.0
  9
$DIMASZ
 40
0.18
  9
$DIMEXO
 40
0.0625
  9
$DIMDLI
 40
0.38
  9
$DIMRND
 40
0.0
  9
$DIMDLE
 40
0.0
  9
$DIMEXE
 40
0.18
  9
$DIMTP
 40
0.0
  9
$DIMTM
 40
0.0
  9
$DIMTXT
 40
0.18
  9
$DIMCEN
 40
0.09
  9
$DIMTSZ
 40
0.0
  9
$DIMTOL
 70
     0
  9
$DIMLIM
 70
     0
  9
$DIMTIH
 70
     1
  9
$DIMTOH
 70
     1
  9
$DIMSE1
 70
     0
  9
$DIMSE2
 70
     0
  9
$DIMTAD
 70
     0
  9
$DIMZIN
 70
     0
  9
$DIMBLK
  1

  9
$DIMASO
 70
     1
  9
$DIMSHO
 70
     1
  9
$DIMPOST
  1

  9
$DIMAPOST
  1

  9
$DIMALT
 70
     0
  9
$DIMALTD
 70
     2
  9
$DIMALTF
 40
25.4
  9
$DIMLFAC
 40
1.0
  9
$DIMTOFL
 70
     0
  9
$DIMTVP
 40
0.0
  9
$DIMTIX
 70
     0
  9
$DIMSOXD
 70
     0
  9
$DIMSAH
 70
     0
  9
$DIMBLK1
  1

  9
$DIMBLK2
  1

  9
$DIMSTYLE
  2
Standard
  9
$DIMCLRD
 70
     0
  9
$DIMCLRE
 70
     0
  9
$DIMCLRT
 70
     0
  9
$DIMTFAC
 40
1.0
  9
$DIMGAP
 40
0.09
  9
$DIMJUST
 70
     0
  9
$DIMSD1
 70
     0
  9
$DIMSD2
 70
     0
  9
$DIMTOLJ
 70
     1
  9
$DIMTZIN
 70
     0
  9
$DIMALTZ
 70
     0
  9
$DIMALTTZ
 70
     0
  9
$DIMUPT
 70
     0
  9
$DIMDEC
 70
     4
  9
$DIMTDEC
 70
     4
  9
$DIMALTU
 70
     2
  9
$DIMALTTD
 70
     2
  9
$DIMTXSTY
  7
Standard
  9
$DIMAUNIT
 70
     0
  9
$DIMADEC
 70
     0
  9
$DIMALTRND
 40
0.0
  9
$DIMAZIN
 70
     0
  9
$DIMDSEP
 70
    46
  9
$DIMATFIT
 70
     3
  9
$DIMFRAC
 70
     0
  9
$DIMLDRBLK
  1

  9
$DIMLUNIT
 70
     2
  9
$DIMLWD
 70
    -2
  9
$DIMLWE
 70
    -2
  9
$DIMTMOVE
 70
     0
  9
$DIMFXL
 40
1.0
  9
$DIMFXLON
 70
     0
  9
$DIMJOGANG
 40
0.7853981633974483
  9
$DIMTFILL
 70
     0
  9
$DIMTFILLCLR
 70
     0
  9
$DIMARCSYM
 70
     0
  9
$DIMLTYPE
  6

  9
$DIMLTEX1
  6

  9
$DIMLTEX2
  6

  9
$DIMTXTDIRECTION
 70
     0
  9
$LUNITS
 70
     2
  9
$LUPREC
 70
     4
  9
$SKETCHINC
 40
0.1
  9
$FILLETRAD
 40
0.0
  9
$AUNITS
 70
     0
  9
$AUPREC
 70
     0
  9
$MENU
  1
.
  9
$ELEVATION
 40
0.0
  9
$PELEVATION
 40
0.0
  9
$THICKNESS
 40
0.0
  9
$LIMCHECK
 70
     0
  9
$CHAMFERA
 40
0.0
  9
$CHAMFERB
 40
0.0
  9
$CHAMFERC
 40
0.0
  9
$CHAMFERD
 40
0.0
  9
$SKPOLY
 70
     0
  9
$TDCREATE
 40
2459843.627175926
  9
$TDUCREATE
 40
2459843.127175926
  9
$TDUPDATE
 40
2459843.627175926
  9
$TDUUPDATE
 40
2459843.127175926
  9
$TDINDWG
 40
0.0000000000
  9
$TDUSRTIMER
 40
0.0000000000
  9
$USRTIMER
 70
     1
  9
$ANGBASE
 50
0.0
  9
$ANGDIR
 70
     0
  9
$PDMODE
 70
     0
  9
$PDSIZE
 40
0.0
  9
$PLINEWID
 40
0.0
  9
$SPLFRAME
 70
     0
  9
$SPLINETYPE
 70
     6
  9
$SPLINESEGS
 70
     8
  9
$HANDSEED
  5
D2
  9
$SURFTAB1
 70
     6
  9
$SURFTAB2
 70
     6
  9
$SURFTYPE
 70
     6
  9
$SURFU
 70
     6
  9
$SURFV
 70
     6
  9
$UCSBASE
  2

  9
$UCSNAME
  2

  9
$UCSORG
 10
0.0
 20
0.0
 30
0.0
  9
$UCSXDIR
 10
1.0
 20
0.0
 30
0.0
  9
$UCSYDIR
 10
0.0
 20
1.0
 30
0.0
  9
$UCSORTHOREF
  2

  9
$UCSORTHOVIEW
 70
     0
  9
$UCSORGTOP
 10
0.0
 20
0.0
 30
0.0
  9
$UCSORGBOTTOM
 10
0.0
 20
0.0
 30
0.0
  9
$UCSORGLEFT
 10
0.0
 20
0.0
 30
0.0
  9
$UCSORGRIGHT
 10
0.0
 20
0.0
 30
0.0
  9
$UCSORGFRONT
 10
0.0
 20
0.0
 30
0.0
  9
$UCSORGBACK
 10
0.0
 20
0.0
 30
0.0
  9
$PUCSBASE
  2

  9
$PUCSNAME
  2

  9
$PUCSORG
 10
0.0
 20
0.0
 30
0.0
  9
$PUCSXDIR
 10
1.0
 20
0.0
 30
0.0
  9
$PUCSYDIR
 10
0.0
 20
1.0
 30
0.0
  9
$PUCSORTHOREF
  2

  9
$PUCSORTHOVIEW
 70
     0
  9
$PUCSORGTOP
 10
0.0
 20
0.0
 30
0.0
  9
$PUCSORGBOTTOM
 10
0.0
 20
0.0
 30
0.0
  9
$PUCSORGLEFT
 10
0.0
 20
0.0
 30
0.0
  9
$PUCSORGRIGHT
 10
0.0
 20
0.0
 30
0.0
  9
$PUCSORGFRONT
 10
0.0
 20
0.0
 30
0.0
  9
$PUCSORGBACK
 10
0.0
 20
0.0
 30
0.0
  9
$USERI1
 70
     0
  9
$USERI2
 70
     0
  9
$USERI3
 70
     0
  9
$USERI4
 70
     0
  9
$USERI5
 70
     0
  9
$USERR1
 40
0.0
  9
$USERR2
 40
0.0
  9
$USERR3
 40
0.0
  9
$USERR4
 40
0.0
  9
$USERR5
 40
0.0
  9
$WORLDVIEW
 70
     1
  9
$SHADEDGE
 70
     3
  9
$SHADEDIF
 70
    70
  9
$TILEMODE
 70
     1
  9
$MAXACTVP
 70
    64
  9
$PINSBASE
 10
0.0
 20
0.0
 30
0.0
  9
$PLIMCHECK
 70
     0
  9
$PEXTMIN
 10
1.000000000000000E+20
 20
1.000000000000000E+20
 30
1.000000000000000E+20
  9
$PEXTMAX
 10
-1.000000000000000E+20
 20
-1.000000000000000E+20
 30
-1.000000000000000E+20
  9
$PLIMMIN
 10
0.0
 20
0.0
  9
$PLIMMAX
 10
12.0
 20
9.0
  9
$UNITMODE
 70
     0
  9
$VISRETAIN
 70
     1
  9
$PLINEGEN
 70
     0
  9
$PSLTSCALE
 70
     1
  9
$TREEDEPTH
 70
  3020
  9
$CMLSTYLE
  2
Standard
  9
$CMLJUST
 70
     0
  9
$CMLSCALE
 40
1.0
  9
$PROXYGRAPHICS
 70
     1
  9
$MEASUREMENT
 70
     0
  9
$CELWEIGHT
370
    -1
  9
$ENDCAPS
280
     0
  9
$JOINSTYLE
280
     0
  9
$LWDISPLAY
290
     1
  9
$INSUNITS
 70
     1
  9
$HYPERLINKBASE
  1

  9
$STYLESHEET
  1

  9
$XEDIT
290
     1
  9
$CEPSNTYPE
380
     0
  9
$PSTYLEMODE
290
     1
  9
$FINGERPRINTGUID
  2
{87C00136-1B80-C64C-8543-B6A5552F0716}
  9
$VERSIONGUID
  2
{D5EDBD04-AB4F-8A4A-A013-B3D91220B56C}
  9
$EXTNAMES
290
     1
  9
$PSVPSCALE
 40
0.0
  9
$OLESTARTUP
290
     0
  9
$SORTENTS
280
   127
  9
$INDEXCTL
280
     0
  9
$HIDETEXT
280
     1
  9
$XCLIPFRAME
280
     2
  9
$HALOGAP
280
     0
  9
$OBSCOLOR
 70
   257
  9
$OBSLTYPE
280
     0
  9
$INTERSECTIONDISPLAY
280
     0
  9
$INTERSECTIONCOLOR
 70
   257
  9
$DIMASSOC
280
     2
  9
$PROJECTNAME
  1

  9
$CAMERADISPLAY
290
     0
  9
$LENSLENGTH
 40
50.0
  9
$CAMERAHEIGHT
 40
0.0
  9
$STEPSPERSEC
 40
2.0
  9
$STEPSIZE
 40
6.0
  9
$3DDWFPREC
 40
2.0
  9
$PSOLWIDTH
 40
0.25
  9
$PSOLHEIGHT
 40
4.0
  9
$LOFTANG1
 40
1.570796326794896
  9
$LOFTANG2
 40
1.570796326794896
  9
$LOFTMAG1
 40
0.0
  9
$LOFTMAG2
 40
0.0
  9
$LOFTPARAM
 70
     7
  9
$LOFTNORMALS
280
     1
  9
$LATITUDE
 40
37.795
  9
$LONGITUDE
 40
-122.394
  9
$NORTHDIRECTION
 40
0.0
  9
$TIMEZONE
 70
 -8000
  9
$LIGHTGLYPHDISPLAY
280
     1
  9
$TILEMODELIGHTSYNCH
280
     1
  9
$CMATERIAL
347
11
  9
$SOLIDHIST
280
     0
  9
$SHOWHIST
280
     1
  9
$DWFFRAME
280
     2
  9
$DGNFRAME
280
     0
  9
$REALWORLDSCALE
290
     1
  9
$INTERFERECOLOR
 62
     1
  9
$INTERFEREOBJVS
345
33
  9
$INTERFEREVPVS
346
30
  9
$CSHADOW
280
     0
  9
$SHADOWPLANELOCATION
 40
0.0
  0
ENDSEC
  0
SECTION
  2
CLASSES
  0
CLASS
  1
ACDBDICTIONARYWDFLT
  2
AcDbDictionaryWithDefault
  3
ObjectDBX Classes
 90
        0
 91
        1
280
     0
281
     0
  0
CLASS
  1
MATERIAL
  2
AcDbMaterial
  3
ObjectDBX Classes
 90
     1153
 91
        3
280
     0
281
     0
  0
CLASS
  1
VISUALSTYLE
  2
AcDbVisualStyle
  3
ObjectDBX Classes
 90
     4095
 91
       24
280
     0
281
     0
  0
CLASS
  1
SCALE
  2
AcDbScale
  3
ObjectDBX Classes
 90
     1153
 91
       17
280
     0
281
     0
  0
CLASS
  1
TABLESTYLE
  2
AcDbTableStyle
  3
ObjectDBX Classes
 90
     4095
 91
        1
280
     0
281
     0
  0
CLASS
  1
MLEADERSTYLE
  2
AcDbMLeaderStyle
  3
ACDB_MLEADERSTYLE_CLASS
 90
     4095
 91
        1
280
     0
281
     0
  0
CLASS
  1
ACDBSECTIONVIEWSTYLE
  2
AcDbSectionViewStyle
  3
ObjectDBX Classes
 90
     1025
 91
        1
280
     0
281
     0
  0
CLASS
  1
ACDBDETAILVIEWSTYLE
  2
AcDbDetailViewStyle
  3
ObjectDBX Classes
 90
     1025
 91
        1
280
     0
281
     0
  0
CLASS
  1
DICTIONARYVAR
  2
AcDbDictionaryVar
  3
ObjectDBX Classes
 90
        0
 91
        5
280
     0
281
     0
  0
CLASS
  1
CELLSTYLEMAP
  2
AcDbCellStyleMap
  3
ObjectDBX Classes
 90
     1152
 91
        1
280
     0
281
     0
  0
ENDSEC
  0
SECTION
  2
TABLES
  0
TABLE
  2
VPORT
  5
8
330
0
100
AcDbSymbolTable
 70
     1
  0
VPORT
  5
57
330
8
100
AcDbSymbolTableRecord
100
AcDbViewportTableRecord
  2
*Active
 70
     0
 10
0.0
 20
0.0
 11
1.0
 21
1.0
 12
0.0
 22
0.0
 13
0.0
 23
0.0
 14
1.0
 24
1.0
 15
0.0
 25
0.0
 16
0.0
 26
0.0
 36
1.0
 17
2.22857009735601
 27
3.909920622002074
 37
0.0
 40
11.92677165354331
 41
0.7070707070707068
 42
50.0
 43
0.0
 44
0.0
 50
0.0
 51
0.0
 71
     0
 72
   100
 73
     1
 74
     1
 75
     0
 76
     0
 77
     0
 78
     0
281
     0
 65
     1
110
0.0
120
0.0
130
0.0
111
1.0
121
0.0
131
0.0
112
0.0
122
1.0
132
0.0
 79
     0
146
0.0
 60
     3
 61
     5
292
     1
282
     1
141
0.0
142
0.0
 63
   250
421
  3355443
  0
ENDTAB
  0
TABLE
  2
LTYPE
  5
5
330
0
100
AcDbSymbolTable
 70
     1
  0
LTYPE
  5
5B
330
5
100
AcDbSymbolTableRecord
100
AcDbLinetypeTableRecord
  2
ByBlock
 70
     0
  3

 72
    65
 73
     0
 40
0.0
  0
LTYPE
  5
5C
330
5
100
AcDbSymbolTableRecord
100
AcDbLinetypeTableRecord
  2
ByLayer
 70
     0
  3

 72
    65
 73
     0
 40
0.0
  0
LTYPE
  5
5D
330
5
100
AcDbSymbolTableRecord
100
AcDbLinetypeTableRecord
  2
Continuous
 70
     0
  3
Solid line
 72
    65
 73
     0
 40
0.0
  0
ENDTAB
  0
TABLE
  2
LAYER
  5
2
330
0
100
AcDbSymbolTable
 70
     3
  0
LAYER
  5
54
330
2
100
AcDbSymbolTableRecord
100
AcDbLayerTableRecord
  2
0
 70
     0
 62
     7
  6
Continuous
370
    -3
390
F
347
21
348
0
  0
LAYER
  5
78
330
2
100
AcDbSymbolTableRecord
100
AcDbLayerTableRecord
  2
Layer 1
 70
     0
 62
     7
  6
Continuous
370
     0
390
F
347
21
348
0
  0
LAYER
  5
BE
330
2
100
AcDbSymbolTableRecord
100
AcDbLayerTableRecord
  2
Layer 2
 70
     0
 62
     7
  6
Continuous
370
     0
390
F
347
21
348
0
  0
ENDTAB
  0
TABLE
  2
STYLE
  5
3
330
0
100
AcDbSymbolTable
 70
     2
  0
STYLE
  5
55
330
3
100
AcDbSymbolTableRecord
100
AcDbTextStyleTableRecord
  2
Standard
 70
     0
 40
0.0
 41
1.0
 50
0.0
 71
     0
 42
0.2
  3
txt
  4

  0
STYLE
  5
5A
330
3
100
AcDbSymbolTableRecord
100
AcDbTextStyleTableRecord
  2
Annotative
 70
     0
 40
0.0
 41
1.0
 50
0.0
 71
     0
 42
0.2
  3
txt
  4

1001
AcadAnnotative
1000
AnnotativeData
1002
{
1070
     1
1070
     1
1002
}
  0
ENDTAB
  0
TABLE
  2
VIEW
  5
6
330
0
100
AcDbSymbolTable
 70
     0
  0
ENDTAB
  0
TABLE
  2
UCS
  5
7
330
0
100
AcDbSymbolTable
 70
     0
  0
ENDTAB
  0
TABLE
  2
APPID
  5
9
330
0
100
AcDbSymbolTable
 70
     2
  0
APPID
  5
56
330
9
100
AcDbSymbolTableRecord
100
AcDbRegAppTableRecord
  2
ACAD
 70
     0
  0
APPID
  5
5E
330
9
100
AcDbSymbolTableRecord
100
AcDbRegAppTableRecord
  2
AcadAnnotative
 70
     0
  0
ENDTAB
  0
TABLE
  2
DIMSTYLE
  5
A
330
0
100
AcDbSymbolTable
 70
     2
100
AcDbDimStyleTable
 71
     0
  0
DIMSTYLE
105
58
330
A
100
AcDbSymbolTableRecord
100
AcDbDimStyleTableRecord
  2
Standard
 70
     0
340
55
  0
DIMSTYLE
105
59
330
A
100
AcDbSymbolTableRecord
100
AcDbDimStyleTableRecord
  2
Annotative
 70
     0
340
55
1001
AcadAnnotative
1000
AnnotativeData
1002
{
1070
     1
1070
     1
1002
}
  0
ENDTAB
  0
TABLE
  2
BLOCK_RECORD
  5
1
330
0
100
AcDbSymbolTable
 70
     1
  0
BLOCK_RECORD
  5
70
330
1
100
AcDbSymbolTableRecord
100
AcDbBlockTableRecord
  2
*Model_Space
340
73
 70
     0
280
     1
281
     0
  0
BLOCK_RECORD
  5
6C
330
1
100
AcDbSymbolTableRecord
100
AcDbBlockTableRecord
  2
*Paper_Space
340
6F
 70
     0
280
     1
281
     0
  0
BLOCK_RECORD
  5
74
330
1
100
AcDbSymbolTableRecord
100
AcDbBlockTableRecord
  2
*Paper_Space0
340
77
 70
     0
280
     1
281
     0
  0
ENDTAB
  0
ENDSEC
  0
SECTION
  2
BLOCKS
  0
BLOCK
  5
71
330
70
100
AcDbEntity
  8
0
100
AcDbBlockBegin
  2
*Model_Space
 70
     0
 10
0.0
 20
0.0
 30
0.0
  3
*Model_Space
  1

  0
ENDBLK
  5
72
330
70
100
AcDbEntity
  8
0
100
AcDbBlockEnd
  0
BLOCK
  5
6D
330
6C
100
AcDbEntity
 67
     1
  8
0
100
AcDbBlockBegin
  2
*Paper_Space
 70
     0
 10
0.0
 20
0.0
 30
0.0
  3
*Paper_Space
  1

  0
ENDBLK
  5
6E
330
6C
100
AcDbEntity
 67
     1
  8
0
100
AcDbBlockEnd
  0
BLOCK
  5
75
330
74
100
AcDbEntity
 67
     1
  8
0
100
AcDbBlockBegin
  2
*Paper_Space0
 70
     0
 10
0.0
 20
0.0
 30
0.0
  3
*Paper_Space0
  1

  0
ENDBLK
  5
76
330
74
100
AcDbEntity
 67
     1
  8
0
100
AcDbBlockEnd
  0
ENDSEC
  0
SECTION
  2
ENTITIES
  0
SPLINE
  5
79
330
70
100
AcDbEntity
  8
Layer 1
 62
   250
420
  2301728
370
    40
100
AcDbSpline
210
0.0
220
0.0
230
1.0
 70
     9
 71
     3
 72
    44
 73
    40
 74
     0
 42
0.0000000001
 43
0.0000000001
 40
0.0
 40
0.0
 40
0.0
 40
0.0
 40
1.0
 40
1.0
 40
1.0
 40
2.0
 40
2.0
 40
2.0
 40
3.0
 40
3.0
 40
3.0
 40
4.0
 40
4.0
 40
4.0
 40
5.0
 40
5.0
 40
5.0
 40
6.0
 40
6.0
 40
6.0
 40
7.0
 40
7.0
 40
7.0
 40
8.0
 40
8.0
 40
8.0
 40
9.0
 40
9.0
 40
9.0
 40
10.0
 40
10.0
 40
10.0
 40
11.0
 40
11.0
 40
11.0
 40
12.0
 40
12.0
 40
12.0
 40
13.0
 40
13.0
 40
13.0
 40
13.0
 10
2.152205556273151
 20
3.606224559225615
 30
0.0
 10
2.152205556273151
 20
3.606224559225615
 30
0.0
 10
2.152205556273151
 20
2.950757985655905
 30
0.0
 10
2.152205556273151
 20
2.950757985655905
 30
0.0
 10
2.152205556273151
 20
2.950757985655905
 30
0.0
 10
2.152205556273151
 20
2.947993114887897
 30
0.0
 10
2.152205556273151
 20
2.947993114887897
 30
0.0
 10
2.150824693625648
 20
2.929192933352851
 30
0.0
 10
2.174506959851365
 20
2.921269176270041
 30
0.0
 10
2.188054512067361
 20
2.916415711429256
 30
0.0
 10
2.192845067448135
 20
2.914572464250593
 30
0.0
 10
2.356878338985577
 20
2.840235500814186
 30
0.0
 10
2.356878338985577
 20
2.840235500814186
 30
0.0
 10
2.356878338985577
 20
2.840235500814186
 30
0.0
 10
2.407253089099135
 20
2.737793736112431
 30
0.0
 10
2.407253089099135
 20
2.737793736112431
 30
0.0
 10
2.407253089099135
 20
2.737793736112431
 30
0.0
 10
2.541489294896614
 20
2.846133262691359
 30
0.0
 10
2.541489294896614
 20
2.846133262691359
 30
0.0
 10
2.541489294896614
 20
2.846133262691359
 30
0.0
 10
2.582037587354559
 20
2.737793736112431
 30
0.0
 10
2.582037587354559
 20
2.737793736112431
 30
0.0
 10
2.582037587354559
 20
2.737793736112431
 30
0.0
 10
2.771564917566391
 20
2.651692703651709
 30
0.0
 10
2.77792191850176
 20
2.649113415790755
 30
0.0
 10
2.798842459432459
 20
2.640510547132584
 30
0.0
 10
2.82716429833489
 20
2.642938852289464
 30
0.0
 10
2.835795476250066
 20
2.652859674135116
 30
0.0
 10
2.844426654165267
 20
2.662689277263754
 30
0.0
 10
3.000810135363887
 20
2.813942799678948
 30
0.0
 10
3.012174729317065
 20
2.827364225293447
 30
0.0
 10
3.023507868540238
 20
2.840852013522408
 30
0.0
 10
3.027779420875832
 20
2.85147742132032
 30
0.0
 10
3.027779420875832
 20
2.862845160746524
 30
0.0
 10
3.027779420875832
 20
2.872951874671343
 30
0.0
 10
3.027779420875832
 20
3.998945972143196
 30
0.0
 10
3.027779420875832
 20
4.246054331114262
 30
0.0
 10
2.668692223063493
 20
3.98363380957355
 30
0.0
 10
2.328342607919062
 20
3.734930695790896
 30
0.0
 10
2.152205556273151
 20
3.606224559225615
 30
0.0
  0
HATCH
  5
7A
330
70
100
AcDbEntity
  8
Layer 1
 62
   253
420
 10987948
440
 33554687
100
AcDbHatch
 10
0.0
 20
0.0
 30
0.0
210
0.0
220
0.0
230
1.0
  2
SOLID
 70
     1
 71
     1
 91
        1
 92
        1
 93
        1
 72
     4
 94
        3
 73
     0
 74
     0
 95
       44
 96
       40
 40
0.0
 40
0.0
 40
0.0
 40
0.0
 40
1.0
 40
1.0
 40
1.0
 40
2.0
 40
2.0
 40
2.0
 40
3.0
 40
3.0
 40
3.0
 40
4.0
 40
4.0
 40
4.0
 40
5.0
 40
5.0
 40
5.0
 40
6.0
 40
6.0
 40
6.0
 40
7.0
 40
7.0
 40
7.0
 40
8.0
 40
8.0
 40
8.0
 40
9.0
 40
9.0
 40
9.0
 40
10.0
 40
10.0
 40
10.0
 40
11.0
 40
11.0
 40
11.0
 40
12.0
 40
12.0
 40
12.0
 40
13.0
 40
13.0
 40
13.0
 40
13.0
 10
2.152205556273151
 20
3.606224559225615
 10
2.152205556273151
 20
3.606224559225615
 10
2.152205556273151
 20
2.950757985655905
 10
2.152205556273151
 20
2.950757985655905
 10
2.152205556273151
 20
2.950757985655905
 10
2.152205556273151
 20
2.947993114887897
 10
2.152205556273151
 20
2.947993114887897
 10
2.150824693625648
 20
2.929192933352851
 10
2.174506959851365
 20
2.921269176270041
 10
2.188054512067361
 20
2.916415711429256
 10
2.192845067448135
 20
2.914572464250593
 10
2.356878338985577
 20
2.840235500814186
 10
2.356878338985577
 20
2.840235500814186
 10
2.356878338985577
 20
2.840235500814186
 10
2.407253089099135
 20
2.737793736112431
 10
2.407253089099135
 20
2.737793736112431
 10
2.407253089099135
 20
2.737793736112431
 10
2.541489294896614
 20
2.846133262691359
 10
2.541489294896614
 20
2.846133262691359
 10
2.541489294896614
 20
2.846133262691359
 10
2.582037587354559
 20
2.737793736112431
 10
2.582037587354559
 20
2.737793736112431
 10
2.582037587354559
 20
2.737793736112431
 10
2.771564917566391
 20
2.651692703651709
 10
2.77792191850176
 20
2.649113415790755
 10
2.798842459432459
 20
2.640510547132584
 10
2.82716429833489
 20
2.642938852289464
 10
2.835795476250066
 20
2.652859674135116
 10
2.844426654165267
 20
2.662689277263754
 10
3.000810135363887
 20
2.813942799678948
 10
3.012174729317065
 20
2.827364225293447
 10
3.023507868540238
 20
2.840852013522408
 10
3.027779420875832
 20
2.85147742132032
 10
3.027779420875832
 20
2.862845160746524
 10
3.027779420875832
 20
2.872951874671343
 10
3.027779420875832
 20
3.998945972143196
 10
3.027779420875832
 20
4.246054331114262
 10
2.668692223063493
 20
3.98363380957355
 10
2.328342607919062
 20
3.734930695790896
 10
2.152205556273151
 20
3.606224559225615
 97
        0
 97
        1
330
79
 75
     2
 76
     1
 98
        1
 10
0.0
 20
0.0
450
        0
451
        0
460
0.0
461
0.0
452
        0
462
0.0
453
        0
470

  0
SPLINE
  5
7B
330
70
100
AcDbEntity
  8
Layer 1
 62
   250
420
  2301728
370
    40
100
AcDbSpline
210
0.0
220
0.0
230
1.0
 70
    11
 71
     3
 72
    77
 73
    73
 74
     0
 42
0.0000000001
 43
0.0000000001
 40
0.0
 40
0.0
 40
0.0
 40
0.0
 40
1.0
 40
1.0
 40
1.0
 40
2.0
 40
2.0
 40
2.0
 40
3.0
 40
3.0
 40
3.0
 40
4.0
 40
4.0
 40
4.0
 40
5.0
 40
5.0
 40
5.0
 40
6.0
 40
6.0
 40
6.0
 40
7.0
 40
7.0
 40
7.0
 40
8.0
 40
8.0
 40
8.0
 40
9.0
 40
9.0
 40
9.0
 40
10.0
 40
10.0
 40
10.0
 40
11.0
 40
11.0
 40
11.0
 40
12.0
 40
12.0
 40
12.0
 40
13.0
 40
13.0
 40
13.0
 40
14.0
 40
14.0
 40
14.0
 40
15.0
 40
15.0
 40
15.0
 40
16.0
 40
16.0
 40
16.0
 40
17.0
 40
17.0
 40
17.0
 40
18.0
 40
18.0
 40
18.0
 40
19.0
 40
19.0
 40
19.0
 40
20.0
 40
20.0
 40
20.0
 40
21.0
 40
21.0
 40
21.0
 40
22.0
 40
22.0
 40
22.0
 40
23.0
 40
23.0
 40
23.0
 40
24.0
 40
24.0
 40
24.0
 40
24.0
 10
1.251524526175229
 20
3.828665791225451
 30
0.0
 10
1.251524526175229
 20
3.828665791225451
 30
0.0
 10
1.216043590722152
 20
3.837878881645842
 30
0.0
 10
1.216043590722152
 20
3.837878881645842
 30
0.0
 10
1.216043590722152
 20
3.837878881645842
 30
0.0
 10
1.216043590722152
 20
4.042781283887342
 30
0.0
 10
1.216043590722152
 20
4.062808510485726
 30
0.0
 10
1.216043590722152
 20
4.082820009719108
 30
0.0
 10
1.23298510830639
 20
4.102878691047496
 30
0.0
 10
1.25302806226979
 20
4.113661372495471
 30
0.0
 10
1.273071016233176
 20
4.124444053943471
 30
0.0
 10
3.66307689386594
 20
5.518218868122099
 30
0.0
 10
3.677423684966849
 20
5.526865773402264
 30
0.0
 10
3.691829951676102
 20
5.535512678682455
 30
0.0
 10
3.713363570735484
 20
5.538368768167515
 30
0.0
 10
3.724913747595716
 20
5.534053555607126
 30
0.0
 10
3.72890535283419
 20
5.532549643115367
 30
0.0
 10
3.885257379302806
 20
5.49399872601316
 30
0.0
 10
3.885257379302806
 20
5.49399872601316
 30
0.0
 10
3.885257379302806
 20
5.49399872601316
 30
0.0
 10
3.884857904231668
 20
5.42018391109496
 30
0.0
 10
3.884857904231668
 20
5.42018391109496
 30
0.0
 10
3.884857904231668
 20
5.42018391109496
 30
0.0
 10
4.120554487154524
 20
5.50465873401409
 30
0.0
 10
4.120554487154524
 20
5.50465873401409
 30
0.0
 10
4.120554487154524
 20
5.50465873401409
 30
0.0
 10
4.120677160601593
 20
5.436357933266927
 30
0.0
 10
4.120677160601593
 20
5.436357933266927
 30
0.0
 10
4.120677160601593
 20
5.436357933266927
 30
0.0
 10
4.284955779033124
 20
5.396102169798078
 30
0.0
 10
4.290082900025001
 20
5.394567178973513
 30
0.0
 10
4.304489166370305
 20
5.390220135285921
 30
0.0
 10
4.315240393088262
 20
5.3888078179084
 30
0.0
 10
4.315240393088262
 20
5.369393958545237
 30
0.0
 10
4.315240393088262
 20
5.349964371817072
 30
0.0
 10
4.315240393088262
 20
5.223421992980433
 30
0.0
 10
4.315240393088262
 20
5.210459498742667
 30
0.0
 10
4.315240393088262
 20
5.197528459234907
 30
0.0
 10
4.315979579243528
 20
5.188913008684734
 30
0.0
 10
4.307285491868343
 20
5.181709875512069
 30
0.0
 10
4.298686073120203
 20
5.174535051596421
 30
0.0
 10
2.027339961604121
 20
3.514977205238841
 30
0.0
 10
2.027339961604121
 20
3.514977205238841
 30
0.0
 10
2.027339961604121
 20
3.514977205238841
 30
0.0
 10
1.98719089715933
 20
3.528370629277787
 30
0.0
 10
1.98719089715933
 20
3.528370629277787
 30
0.0
 10
1.98719089715933
 20
3.528370629277787
 30
0.0
 10
1.98719089715933
 20
3.717574306279591
 30
0.0
 10
1.98719089715933
 20
3.730891908457414
 30
0.0
 10
1.98719089715933
 20
3.744266459658344
 30
0.0
 10
1.98049733061287
 20
3.773189083904008
 30
0.0
 10
1.960498658640934
 20
3.782112790808279
 30
0.0
 10
1.951222413391077
 20
3.786183032871778
 30
0.0
 10
1.734801289019325
 20
3.867430600491729
 30
0.0
 10
1.734801289019325
 20
3.867430600491729
 30
0.0
 10
1.734801289019325
 20
3.867430600491729
 30
0.0
 10
1.734618851585259
 20
3.90654770273415
 30
0.0
 10
1.734618851585259
 20
3.90654770273415
 30
0.0
 10
1.734618851585259
 20
3.90654770273415
 30
0.0
 10
1.752312137216765
 20
3.933180422634968
 30
0.0
 10
1.752312137216765
 20
3.933180422634968
 30
0.0
 10
1.752312137216765
 20
3.933180422634968
 30
0.0
 10
1.515171782186383
 20
3.887366943171489
 30
0.0
 10
1.515171782186383
 20
3.887366943171489
 30
0.0
 10
1.515171782186383
 20
3.887366943171489
 30
0.0
 10
1.514265885962054
 20
3.953040939164275
 30
0.0
 10
1.514265885962054
 20
3.953040939164275
 30
0.0
 10
1.514265885962054
 20
3.953040939164275
 30
0.0
 10
1.473365300527979
 20
3.970271840264634
 30
0.0
 10
1.473365300527979
 20
3.970271840264634
 30
0.0
 10
1.473365300527979
 20
3.970271840264634
 30
0.0
 10
1.251524526175229
 20
3.828665791225451
 30
0.0
 10
1.251524526175229
 20
3.828665791225451
 30
0.0
  0
HATCH
  5
7C
330
70
100
AcDbEntity
  8
Layer 1
 62
   253
420
 10987948
440
 33554687
100
AcDbHatch
 10
0.0
 20
0.0
 30
0.0
210
0.0
220
0.0
230
1.0
  2
SOLID
 70
     1
 71
     1
 91
        1
 92
        1
 93
        1
 72
     4
 94
        3
 73
     0
 74
     0
 95
       77
 96
       73
 40
0.0
 40
0.0
 40
0.0
 40
0.0
 40
1.0
 40
1.0
 40
1.0
 40
2.0
 40
2.0
 40
2.0
 40
3.0
 40
3.0
 40
3.0
 40
4.0
 40
4.0
 40
4.0
 40
5.0
 40
5.0
 40
5.0
 40
6.0
 40
6.0
 40
6.0
 40
7.0
 40
7.0
 40
7.0
 40
8.0
 40
8.0
 40
8.0
 40
9.0
 40
9.0
 40
9.0
 40
10.0
 40
10.0
 40
10.0
 40
11.0
 40
11.0
 40
11.0
 40
12.0
 40
12.0
 40
12.0
 40
13.0
 40
13.0
 40
13.0
 40
14.0
 40
14.0
 40
14.0
 40
15.0
 40
15.0
 40
15.0
 40
16.0
 40
16.0
 40
16.0
 40
17.0
 40
17.0
 40
17.0
 40
18.0
 40
18.0
 40
18.0
 40
19.0
 40
19.0
 40
19.0
 40
20.0
 40
20.0
 40
20.0
 40
21.0
 40
21.0
 40
21.0
 40
22.0
 40
22.0
 40
22.0
 40
23.0
 40
23.0
 40
23.0
 40
24.0
 40
24.0
 40
24.0
 40
24.0
 10
1.251524526175229
 20
3.828665791225451
 10
1.251524526175229
 20
3.828665791225451
 10
1.216043590722152
 20
3.837878881645842
 10
1.216043590722152
 20
3.837878881645842
 10
1.216043590722152
 20
3.837878881645842
 10
1.216043590722152
 20
4.042781283887342
 10
1.216043590722152
 20
4.062808510485726
 10
1.216043590722152
 20
4.082820009719108
 10
1.23298510830639
 20
4.102878691047496
 10
1.25302806226979
 20
4.113661372495471
 10
1.273071016233176
 20
4.124444053943471
 10
3.66307689386594
 20
5.518218868122099
 10
3.677423684966849
 20
5.526865773402264
 10
3.691829951676102
 20
5.535512678682455
 10
3.713363570735484
 20
5.538368768167515
 10
3.724913747595716
 20
5.534053555607126
 10
3.72890535283419
 20
5.532549643115367
 10
3.885257379302806
 20
5.49399872601316
 10
3.885257379302806
 20
5.49399872601316
 10
3.885257379302806
 20
5.49399872601316
 10
3.884857904231668
 20
5.42018391109496
 10
3.884857904231668
 20
5.42018391109496
 10
3.884857904231668
 20
5.42018391109496
 10
4.120554487154524
 20
5.50465873401409
 10
4.120554487154524
 20
5.50465873401409
 10
4.120554487154524
 20
5.50465873401409
 10
4.120677160601593
 20
5.436357933266927
 10
4.120677160601593
 20
5.436357933266927
 10
4.120677160601593
 20
5.436357933266927
 10
4.284955779033124
 20
5.396102169798078
 10
4.290082900025001
 20
5.394567178973513
 10
4.304489166370305
 20
5.390220135285921
 10
4.315240393088262
 20
5.3888078179084
 10
4.315240393088262
 20
5.369393958545237
 10
4.315240393088262
 20
5.349964371817072
 10
4.315240393088262
 20
5.223421992980433
 10
4.315240393088262
 20
5.210459498742667
 10
4.315240393088262
 20
5.197528459234907
 10
4.315979579243528
 20
5.188913008684734
 10
4.307285491868343
 20
5.181709875512069
 10
4.298686073120203
 20
5.174535051596421
 10
2.027339961604121
 20
3.514977205238841
 10
2.027339961604121
 20
3.514977205238841
 10
2.027339961604121
 20
3.514977205238841
 10
1.98719089715933
 20
3.528370629277787
 10
1.98719089715933
 20
3.528370629277787
 10
1.98719089715933
 20
3.528370629277787
 10
1.98719089715933
 20
3.717574306279591
 10
1.98719089715933
 20
3.730891908457414
 10
1.98719089715933
 20
3.744266459658344
 10
1.98049733061287
 20
3.773189083904008
 10
1.960498658640934
 20
3.782112790808279
 10
1.951222413391077
 20
3.786183032871778
 10
1.734801289019325
 20
3.867430600491729
 10
1.734801289019325
 20
3.867430600491729
 10
1.734801289019325
 20
3.867430600491729
 10
1.734618851585259
 20
3.90654770273415
 10
1.734618851585259
 20
3.90654770273415
 10
1.734618851585259
 20
3.90654770273415
 10
1.752312137216765
 20
3.933180422634968
 10
1.752312137216765
 20
3.933180422634968
 10
1.752312137216765
 20
3.933180422634968
 10
1.515171782186383
 20
3.887366943171489
 10
1.515171782186383
 20
3.887366943171489
 10
1.515171782186383
 20
3.887366943171489
 10
1.514265885962054
 20
3.953040939164275
 10
1.514265885962054
 20
3.953040939164275
 10
1.514265885962054
 20
3.953040939164275
 10
1.473365300527979
 20
3.970271840264634
 10
1.473365300527979
 20
3.970271840264634
 10
1.473365300527979
 20
3.970271840264634
 10
1.251524526175229
 20
3.828665791225451
 10
1.251524526175229
 20
3.828665791225451
 97
        0
 97
        1
330
7B
 75
     2
 76
     1
 98
        1
 10
0.0
 20
0.0
450
        0
451
        0
460
0.0
461
0.0
452
        0
462
0.0
453
        0
470

  0
SPLINE
  5
7D
330
70
100
AcDbEntity
  8
Layer 1
 62
   250
420
  2301728
370
    40
100
AcDbSpline
210
0.0
220
0.0
230
1.0
 70
     9
 71
     3
 72
    83
 73
    79
 74
     0
 42
0.0000000001
 43
0.0000000001
 40
0.0
 40
0.0
 40
0.0
 40
0.0
 40
1.0
 40
1.0
 40
1.0
 40
2.0
 40
2.0
 40
2.0
 40
3.0
 40
3.0
 40
3.0
 40
4.0
 40
4.0
 40
4.0
 40
5.0
 40
5.0
 40
5.0
 40
6.0
 40
6.0
 40
6.0
 40
7.0
 40
7.0
 40
7.0
 40
8.0
 40
8.0
 40
8.0
 40
9.0
 40
9.0
 40
9.0
 40
10.0
 40
10.0
 40
10.0
 40
11.0
 40
11.0
 40
11.0
 40
12.0
 40
12.0
 40
12.0
 40
13.0
 40
13.0
 40
13.0
 40
14.0
 40
14.0
 40
14.0
 40
15.0
 40
15.0
 40
15.0
 40
16.0
 40
16.0
 40
16.0
 40
17.0
 40
17.0
 40
17.0
 40
18.0
 40
18.0
 40
18.0
 40
19.0
 40
19.0
 40
19.0
 40
20.0
 40
20.0
 40
20.0
 40
21.0
 40
21.0
 40
21.0
 40
22.0
 40
22.0
 40
22.0
 40
23.0
 40
23.0
 40
23.0
 40
24.0
 40
24.0
 40
24.0
 40
25.0
 40
25.0
 40
25.0
 40
26.0
 40
26.0
 40
26.0
 40
26.0
 10
1.084587983057695
 20
6.667776418055204
 30
0.0
 10
1.074805562024102
 20
6.678436021018645
 30
0.0
 10
1.064315409565223
 20
6.69311908898808
 30
0.0
 10
1.078029671850294
 20
6.70529836044856
 30
0.0
 10
1.078029671850294
 20
6.70529836044856
 30
0.0
 10
1.149403599719587
 20
6.791016053353902
 30
0.0
 10
1.149403599719587
 20
6.791016053353902
 30
0.0
 10
1.149403599719587
 20
6.791016053353902
 30
0.0
 10
1.129175062849134
 20
6.853019209001987
 30
0.0
 10
1.129175062849134
 20
6.853019209001987
 30
0.0
 10
1.129175062849134
 20
6.853019209001987
 30
0.0
 10
1.263395541281599
 20
6.849008730925523
 30
0.0
 10
1.263395541281599
 20
6.849008730925523
 30
0.0
 10
1.263395541281599
 20
6.849008730925523
 30
0.0
 10
1.246778007416486
 20
6.907942313075231
 30
0.0
 10
1.246778007416486
 20
6.907942313075231
 30
0.0
 10
1.246778007416486
 20
6.907942313075231
 30
0.0
 10
1.288766926508969
 20
6.958364245283809
 30
0.0
 10
1.288766926508969
 20
6.958364245283809
 30
0.0
 10
1.288766926508969
 20
6.958364245283809
 30
0.0
 10
1.216015281465135
 20
7.035050877052071
 30
0.0
 10
1.211621055682523
 20
7.039687304255784
 30
0.0
 10
1.207229975372898
 20
7.044311149567483
 30
0.0
 10
1.20530809136921
 20
7.05252712504653
 30
0.0
 10
1.211683965142545
 20
7.059868659031216
 30
0.0
 10
1.217412098075164
 20
7.066565371050702
 30
0.0
 10
1.237502007536047
 20
7.090096654572372
 30
0.0
 10
1.243261368601173
 20
7.096101362531574
 30
0.0
 10
1.248328725606067
 20
7.101398339065528
 30
0.0
 10
1.259249807866101
 20
7.105638436671116
 30
0.0
 10
1.265883838247507
 20
7.10712939087365
 30
0.0
 10
1.272564595079971
 20
7.108664381698215
 30
0.0
 10
1.372644109557856
 20
7.132840487185123
 30
0.0
 10
1.383977248781042
 20
7.137369968306781
 30
0.0
 10
1.395326115369218
 20
7.141899449428453
 30
0.0
 10
1.417936006964724
 20
7.144173626408283
 30
0.0
 10
1.427013610382901
 20
7.133976002938525
 30
0.0
 10
1.436075718099244
 20
7.123778379468767
 30
0.0
 10
4.118896822882939
 20
4.361565536135824
 30
0.0
 10
4.127987239856287
 20
4.351399367396071
 30
0.0
 10
4.137017892842625
 20
4.34121747129134
 30
0.0
 10
4.14261054383865
 20
4.336700572061658
 30
0.0
 10
4.133608200109342
 20
4.318623538723992
 30
0.0
 10
4.124577547123004
 20
4.300546505386352
 30
0.0
 10
4.078225856977951
 20
4.232752125792368
 30
0.0
 10
4.072636351454876
 20
4.223705745441027
 30
0.0
 10
4.066921027011757
 20
4.214675092454702
 30
0.0
 10
4.057953283485454
 20
4.209145350918662
 30
0.0
 10
4.053958532774004
 20
4.205858331632486
 30
0.0
 10
4.049658969327512
 20
4.202511891118862
 30
0.0
 10
4.027693833214319
 20
4.18641616301228
 30
0.0
 10
4.023057406010618
 20
4.183236089808107
 30
0.0
 10
4.01636069399112
 20
4.178643699226414
 30
0.0
 10
4.003675001377461
 20
4.168354857039629
 30
0.0
 10
3.998054041124381
 20
4.157034299708458
 30
0.0
 10
3.998054041124381
 20
4.157034299708458
 30
0.0
 10
3.882586872724838
 20
3.983847701737633
 30
0.0
 10
3.882586872724838
 20
3.983847701737633
 30
0.0
 10
3.882586872724838
 20
3.983847701737633
 30
0.0
 10
3.890727356851862
 20
3.975955709977723
 30
0.0
 10
3.896071515480823
 20
3.971684157642142
 30
0.0
 10
3.901352764649775
 20
3.967415750779574
 30
0.0
 10
3.909188137895625
 20
3.96171615370147
 30
0.0
 10
3.898219873540609
 20
3.947234396004141
 30
0.0
 10
3.884798140244659
 20
3.929710965914674
 30
0.0
 10
3.84784541647486
 20
3.8705949463309
 30
0.0
 10
3.841208468274796
 20
3.860670979012247
 30
0.0
 10
3.834574372835125
 20
3.850718702436564
 30
0.0
 10
3.828613701497943
 20
3.843377168451866
 30
0.0
 10
3.819337701617516
 20
3.836098543927176
 30
0.0
 10
3.810061701737115
 20
3.828788464672495
 30
0.0
 10
3.760976595554034
 20
3.78905484972184
 30
0.0
 10
3.75433964752157
 20
3.784384154511952
 30
0.0
 10
3.747737299692162
 20
3.779715940381391
 30
0.0
 10
3.739779252999217
 20
3.773094719713968
 30
0.0
 10
3.727829601067797
 20
3.785689193610614
 30
0.0
 10
3.715883094609428
 20
3.798315122237264
 30
0.0
 10
1.094342094834296
 20
6.657100277651807
 30
0.0
 10
1.084587983057695
 20
6.667776418055204
 30
0.0
  0
HATCH
  5
7E
330
70
100
AcDbEntity
  8
Layer 1
 62
   253
420
 10987948
440
 33554687
100
AcDbHatch
 10
0.0
 20
0.0
 30
0.0
210
0.0
220
0.0
230
1.0
  2
SOLID
 70
     1
 71
     1
 91
        1
 92
        1
 93
        1
 72
     4
 94
        3
 73
     0
 74
     0
 95
       83
 96
       79
 40
0.0
 40
0.0
 40
0.0
 40
0.0
 40
1.0
 40
1.0
 40
1.0
 40
2.0
 40
2.0
 40
2.0
 40
3.0
 40
3.0
 40
3.0
 40
4.0
 40
4.0
 40
4.0
 40
5.0
 40
5.0
 40
5.0
 40
6.0
 40
6.0
 40
6.0
 40
7.0
 40
7.0
 40
7.0
 40
8.0
 40
8.0
 40
8.0
 40
9.0
 40
9.0
 40
9.0
 40
10.0
 40
10.0
 40
10.0
 40
11.0
 40
11.0
 40
11.0
 40
12.0
 40
12.0
 40
12.0
 40
13.0
 40
13.0
 40
13.0
 40
14.0
 40
14.0
 40
14.0
 40
15.0
 40
15.0
 40
15.0
 40
16.0
 40
16.0
 40
16.0
 40
17.0
 40
17.0
 40
17.0
 40
18.0
 40
18.0
 40
18.0
 40
19.0
 40
19.0
 40
19.0
 40
20.0
 40
20.0
 40
20.0
 40
21.0
 40
21.0
 40
21.0
 40
22.0
 40
22.0
 40
22.0
 40
23.0
 40
23.0
 40
23.0
 40
24.0
 40
24.0
 40
24.0
 40
25.0
 40
25.0
 40
25.0
 40
26.0
 40
26.0
 40
26.0
 40
26.0
 10
1.084587983057695
 20
6.667776418055204
 10
1.074805562024102
 20
6.678436021018645
 10
1.064315409565223
 20
6.69311908898808
 10
1.078029671850294
 20
6.70529836044856
 10
1.078029671850294
 20
6.70529836044856
 10
1.149403599719587
 20
6.791016053353902
 10
1.149403599719587
 20
6.791016053353902
 10
1.149403599719587
 20
6.791016053353902
 10
1.129175062849134
 20
6.853019209001987
 10
1.129175062849134
 20
6.853019209001987
 10
1.129175062849134
 20
6.853019209001987
 10
1.263395541281599
 20
6.849008730925523
 10
1.263395541281599
 20
6.849008730925523
 10
1.263395541281599
 20
6.849008730925523
 10
1.246778007416486
 20
6.907942313075231
 10
1.246778007416486
 20
6.907942313075231
 10
1.246778007416486
 20
6.907942313075231
 10
1.288766926508969
 20
6.958364245283809
 10
1.288766926508969
 20
6.958364245283809
 10
1.288766926508969
 20
6.958364245283809
 10
1.216015281465135
 20
7.035050877052071
 10
1.211621055682523
 20
7.039687304255784
 10
1.207229975372898
 20
7.044311149567483
 10
1.20530809136921
 20
7.05252712504653
 10
1.211683965142545
 20
7.059868659031216
 10
1.217412098075164
 20
7.066565371050702
 10
1.237502007536047
 20
7.090096654572372
 10
1.243261368601173
 20
7.096101362531574
 10
1.248328725606067
 20
7.101398339065528
 10
1.259249807866101
 20
7.105638436671116
 10
1.265883838247507
 20
7.10712939087365
 10
1.272564595079971
 20
7.108664381698215
 10
1.372644109557856
 20
7.132840487185123
 10
1.383977248781042
 20
7.137369968306781
 10
1.395326115369218
 20
7.141899449428453
 10
1.417936006964724
 20
7.144173626408283
 10
1.427013610382901
 20
7.133976002938525
 10
1.436075718099244
 20
7.123778379468767
 10
4.118896822882939
 20
4.361565536135824
 10
4.127987239856287
 20
4.351399367396071
 10
4.137017892842625
 20
4.34121747129134
 10
4.14261054383865
 20
4.336700572061658
 10
4.133608200109342
 20
4.318623538723992
 10
4.124577547123004
 20
4.300546505386352
 10
4.078225856977951
 20
4.232752125792368
 10
4.072636351454876
 20
4.223705745441027
 10
4.066921027011757
 20
4.214675092454702
 10
4.057953283485454
 20
4.209145350918662
 10
4.053958532774004
 20
4.205858331632486
 10
4.049658969327512
 20
4.202511891118862
 10
4.027693833214319
 20
4.18641616301228
 10
4.023057406010618
 20
4.183236089808107
 10
4.01636069399112
 20
4.178643699226414
 10
4.003675001377461
 20
4.168354857039629
 10
3.998054041124381
 20
4.157034299708458
 10
3.998054041124381
 20
4.157034299708458
 10
3.882586872724838
 20
3.983847701737633
 10
3.882586872724838
 20
3.983847701737633
 10
3.882586872724838
 20
3.983847701737633
 10
3.890727356851862
 20
3.975955709977723
 10
3.896071515480823
 20
3.971684157642142
 10
3.901352764649775
 20
3.967415750779574
 10
3.909188137895625
 20
3.96171615370147
 10
3.898219873540609
 20
3.947234396004141
 10
3.884798140244659
 20
3.929710965914674
 10
3.84784541647486
 20
3.8705949463309
 10
3.841208468274796
 20
3.860670979012247
 10
3.834574372835125
 20
3.850718702436564
 10
3.828613701497943
 20
3.843377168451866
 10
3.819337701617516
 20
3.836098543927176
 10
3.810061701737115
 20
3.828788464672495
 10
3.760976595554034
 20
3.78905484972184
 10
3.75433964752157
 20
3.784384154511952
 10
3.747737299692162
 20
3.779715940381391
 10
3.739779252999217
 20
3.773094719713968
 10
3.727829601067797
 20
3.785689193610614
 10
3.715883094609428
 20
3.798315122237264
 10
1.094342094834296
 20
6.657100277651807
 10
1.084587983057695
 20
6.667776418055204
 97
        0
 97
        1
330
7D
 75
     2
 76
     1
 98
        1
 10
0.0
 20
0.0
450
        0
451
        0
460
0.0
461
0.0
452
        0
462
0.0
453
        0
470

  0
SPLINE
  5
7F
330
70
100
AcDbEntity
  8
Layer 1
 62
   250
420
  2301728
370
    40
100
AcDbSpline
210
0.0
220
0.0
230
1.0
 70
    11
 71
     3
 72
    68
 73
    64
 74
     0
 42
0.0000000001
 43
0.0000000001
 40
0.0
 40
0.0
 40
0.0
 40
0.0
 40
1.0
 40
1.0
 40
1.0
 40
2.0
 40
2.0
 40
2.0
 40
3.0
 40
3.0
 40
3.0
 40
4.0
 40
4.0
 40
4.0
 40
5.0
 40
5.0
 40
5.0
 40
6.0
 40
6.0
 40
6.0
 40
7.0
 40
7.0
 40
7.0
 40
8.0
 40
8.0
 40
8.0
 40
9.0
 40
9.0
 40
9.0
 40
10.0
 40
10.0
 40
10.0
 40
11.0
 40
11.0
 40
11.0
 40
12.0
 40
12.0
 40
12.0
 40
13.0
 40
13.0
 40
13.0
 40
14.0
 40
14.0
 40
14.0
 40
15.0
 40
15.0
 40
15.0
 40
16.0
 40
16.0
 40
16.0
 40
17.0
 40
17.0
 40
17.0
 40
18.0
 40
18.0
 40
18.0
 40
19.0
 40
19.0
 40
19.0
 40
20.0
 40
20.0
 40
20.0
 40
21.0
 40
21.0
 40
21.0
 40
21.0
 10
2.962904040226931
 20
4.570277106181745
 30
0.0
 10
2.962904040226931
 20
4.570277106181745
 30
0.0
 10
2.766343432384473
 20
4.75395385661146
 30
0.0
 10
2.766343432384473
 20
4.75395385661146
 30
0.0
 10
2.766343432384473
 20
4.75395385661146
 30
0.0
 10
2.766343432384473
 20
4.833908634827909
 30
0.0
 10
2.766343432384473
 20
4.833908634827909
 30
0.0
 10
2.591804281023137
 20
5.024206605925024
 30
0.0
 10
2.408360295595532
 20
5.224252397852763
 30
0.0
 10
2.229153514456748
 20
5.419661762576765
 30
0.0
 10
1.869053222181807
 20
5.517605500886866
 30
0.0
 10
0.8977972143568674
 20
5.781806360146232
 30
0.0
 10
0.8859545085075017
 20
5.785017888080409
 30
0.0
 10
0.8714100592069119
 20
5.788962694060627
 30
0.0
 10
0.8595830804237669
 20
5.782850657182607
 30
0.0
 10
0.8501684621733147
 20
5.779425237084347
 30
0.0
 10
0.8407697888458566
 20
5.776015544351088
 30
0.0
 10
0.7538698062428213
 20
5.743809046292236
 30
0.0
 10
0.7538698062428213
 20
5.743809046292236
 30
0.0
 10
0.7397686507786273
 20
5.738540760578277
 30
0.0
 10
0.7333959224782928
 20
5.727959007839381
 30
0.0
 10
0.7333959224782928
 20
5.712077514656521
 30
0.0
 10
0.7333959224782928
 20
5.706915793461626
 30
0.0
 10
0.7333959224782928
 20
5.613705992018266
 30
0.0
 10
0.7333959224782928
 20
5.613705992018266
 30
0.0
 10
0.7333959224782928
 20
5.613705992018266
 30
0.0
 10
0.7913292442136202
 20
5.561346448440972
 30
0.0
 10
0.7913292442136202
 20
5.561346448440972
 30
0.0
 10
0.7913292442136202
 20
5.561346448440972
 30
0.0
 10
0.6777808143447903
 20
5.481589835023592
 30
0.0
 10
0.6777808143447903
 20
5.481589835023592
 30
0.0
 10
0.6777808143447903
 20
5.481589835023592
 30
0.0
 10
0.7333959224782928
 20
5.43804705226853
 30
0.0
 10
0.7333959224782928
 20
5.43804705226853
 30
0.0
 10
0.7333959224782928
 20
5.43804705226853
 30
0.0
 10
0.7333959224782928
 20
5.344264774738992
 30
0.0
 10
0.7333959224782928
 20
5.344264774738992
 30
0.0
 10
0.7333959224782928
 20
5.344264774738992
 30
0.0
 10
0.8487718721608088
 20
5.308142162793665
 30
0.0
 10
0.8487718721608088
 20
5.308142162793665
 30
0.0
 10
0.8487718721608088
 20
5.294443627873621
 30
0.0
 10
0.8472966453232654
 20
5.283969202779758
 30
0.0
 10
0.8350701917677522
 20
5.277747457183472
 30
0.0
 10
0.8270240718307933
 20
5.273661487754957
 30
0.0
 10
0.7482173912597495
 20
5.237598639796664
 30
0.0
 10
0.7482173912597495
 20
5.237598639796664
 30
0.0
 10
0.7482173912597495
 20
5.237598639796664
 30
0.0
 10
0.6604712764194069
 20
5.265766350522047
 30
0.0
 10
0.6604712764194069
 20
5.265766350522047
 30
0.0
 10
0.6604712764194069
 20
5.265766350522047
 30
0.0
 10
0.6232571853426963
 20
5.253879608050675
 30
0.0
 10
0.6232571853426963
 20
5.253879608050675
 30
0.0
 10
0.6232571853426963
 20
5.253879608050675
 30
0.0
 10
0.6232571853426963
 20
5.196009563632856
 30
0.0
 10
0.6232571853426963
 20
5.196009563632856
 30
0.0
 10
0.6229206197315686
 20
5.187330835765148
 30
0.0
 10
0.6283119604555497
 20
5.185978282374636
 30
0.0
 10
0.6356534944402609
 20
5.183537395325755
 30
0.0
 10
0.6422715696346965
 20
5.181326127805934
 30
0.0
 10
2.521675960462314
 20
4.581412080605862
 30
0.0
 10
2.893511760348347
 20
4.462705424347796
 30
0.0
 10
2.893511760348347
 20
4.462705424347796
 30
0.0
 10
2.962904040226931
 20
4.570277106181745
 30
0.0
 10
2.962904040226931
 20
4.570277106181745
 30
0.0
  0
HATCH
  5
80
330
70
100
AcDbEntity
  8
Layer 1
 62
   253
420
 10987948
440
 33554687
100
AcDbHatch
 10
0.0
 20
0.0
 30
0.0
210
0.0
220
0.0
230
1.0
  2
SOLID
 70
     1
 71
     1
 91
        1
 92
        1
 93
        1
 72
     4
 94
        3
 73
     0
 74
     0
 95
       68
 96
       64
 40
0.0
 40
0.0
 40
0.0
 40
0.0
 40
1.0
 40
1.0
 40
1.0
 40
2.0
 40
2.0
 40
2.0
 40
3.0
 40
3.0
 40
3.0
 40
4.0
 40
4.0
 40
4.0
 40
5.0
 40
5.0
 40
5.0
 40
6.0
 40
6.0
 40
6.0
 40
7.0
 40
7.0
 40
7.0
 40
8.0
 40
8.0
 40
8.0
 40
9.0
 40
9.0
 40
9.0
 40
10.0
 40
10.0
 40
10.0
 40
11.0
 40
11.0
 40
11.0
 40
12.0
 40
12.0
 40
12.0
 40
13.0
 40
13.0
 40
13.0
 40
14.0
 40
14.0
 40
14.0
 40
15.0
 40
15.0
 40
15.0
 40
16.0
 40
16.0
 40
16.0
 40
17.0
 40
17.0
 40
17.0
 40
18.0
 40
18.0
 40
18.0
 40
19.0
 40
19.0
 40
19.0
 40
20.0
 40
20.0
 40
20.0
 40
21.0
 40
21.0
 40
21.0
 40
21.0
 10
2.962904040226931
 20
4.570277106181745
 10
2.962904040226931
 20
4.570277106181745
 10
2.766343432384473
 20
4.75395385661146
 10
2.766343432384473
 20
4.75395385661146
 10
2.766343432384473
 20
4.75395385661146
 10
2.766343432384473
 20
4.833908634827909
 10
2.766343432384473
 20
4.833908634827909
 10
2.591804281023137
 20
5.024206605925024
 10
2.408360295595532
 20
5.224252397852763
 10
2.229153514456748
 20
5.419661762576765
 10
1.869053222181807
 20
5.517605500886866
 10
0.8977972143568674
 20
5.781806360146232
 10
0.8859545085075017
 20
5.785017888080409
 10
0.8714100592069119
 20
5.788962694060627
 10
0.8595830804237669
 20
5.782850657182607
 10
0.8501684621733147
 20
5.779425237084347
 10
0.8407697888458566
 20
5.776015544351088
 10
0.7538698062428213
 20
5.743809046292236
 10
0.7538698062428213
 20
5.743809046292236
 10
0.7397686507786273
 20
5.738540760578277
 10
0.7333959224782928
 20
5.727959007839381
 10
0.7333959224782928
 20
5.712077514656521
 10
0.7333959224782928
 20
5.706915793461626
 10
0.7333959224782928
 20
5.613705992018266
 10
0.7333959224782928
 20
5.613705992018266
 10
0.7333959224782928
 20
5.613705992018266
 10
0.7913292442136202
 20
5.561346448440972
 10
0.7913292442136202
 20
5.561346448440972
 10
0.7913292442136202
 20
5.561346448440972
 10
0.6777808143447903
 20
5.481589835023592
 10
0.6777808143447903
 20
5.481589835023592
 10
0.6777808143447903
 20
5.481589835023592
 10
0.7333959224782928
 20
5.43804705226853
 10
0.7333959224782928
 20
5.43804705226853
 10
0.7333959224782928
 20
5.43804705226853
 10
0.7333959224782928
 20
5.344264774738992
 10
0.7333959224782928
 20
5.344264774738992
 10
0.7333959224782928
 20
5.344264774738992
 10
0.8487718721608088
 20
5.308142162793665
 10
0.8487718721608088
 20
5.308142162793665
 10
0.8487718721608088
 20
5.294443627873621
 10
0.8472966453232654
 20
5.283969202779758
 10
0.8350701917677522
 20
5.277747457183472
 10
0.8270240718307933
 20
5.273661487754957
 10
0.7482173912597495
 20
5.237598639796664
 10
0.7482173912597495
 20
5.237598639796664
 10
0.7482173912597495
 20
5.237598639796664
 10
0.6604712764194069
 20
5.265766350522047
 10
0.6604712764194069
 20
5.265766350522047
 10
0.6604712764194069
 20
5.265766350522047
 10
0.6232571853426963
 20
5.253879608050675
 10
0.6232571853426963
 20
5.253879608050675
 10
0.6232571853426963
 20
5.253879608050675
 10
0.6232571853426963
 20
5.196009563632856
 10
0.6232571853426963
 20
5.196009563632856
 10
0.6229206197315686
 20
5.187330835765148
 10
0.6283119604555497
 20
5.185978282374636
 10
0.6356534944402609
 20
5.183537395325755
 10
0.6422715696346965
 20
5.181326127805934
 10
2.521675960462314
 20
4.581412080605862
 10
2.893511760348347
 20
4.462705424347796
 10
2.893511760348347
 20
4.462705424347796
 10
2.962904040226931
 20
4.570277106181745
 10
2.962904040226931
 20
4.570277106181745
 97
        0
 97
        1
330
7F
 75
     2
 76
     1
 98
        1
 10
0.0
 20
0.0
450
        0
451
        0
460
0.0
461
0.0
452
        0
462
0.0
453
        0
470

  0
LINE
  5
81
330
70
100
AcDbEntity
  8
Layer 1
 62
   250
420
  2301728
370
    15
100
AcDbLine
 10
2.832967696022024
 20
3.884938303216194
 30
0.0
 11
2.832967696022024
 21
2.693068255508958
 31
0.0
  0
LINE
  5
82
330
70
100
AcDbEntity
  8
Layer 1
 62
   250
420
  2301728
370
    20
100
AcDbLine
 10
3.615036084719248
 20
4.882735812224887
 30
0.0
 11
4.286922003798685
 21
5.348397926262501
 31
0.0
  0
LINE
  5
83
330
70
100
AcDbEntity
  8
Layer 1
 62
   250
420
  2301728
370
    20
100
AcDbLine
 10
2.056061028519719
 20
3.802262690853707
 30
0.0
 11
2.834779488470682
 21
4.341906329878598
 31
0.0
  0
SPLINE
  5
84
330
70
100
AcDbEntity
  8
Layer 1
 62
   250
420
  2301728
370
    40
100
AcDbSpline
210
0.0
220
0.0
230
1.0
 70
     8
 71
     3
 72
    23
 73
    19
 74
     0
 42
0.0000000001
 43
0.0000000001
 40
0.0
 40
0.0
 40
0.0
 40
0.0
 40
1.0
 40
1.0
 40
1.0
 40
2.0
 40
2.0
 40
2.0
 40
3.0
 40
3.0
 40
3.0
 40
4.0
 40
4.0
 40
4.0
 40
5.0
 40
5.0
 40
5.0
 40
6.0
 40
6.0
 40
6.0
 40
6.0
 10
4.137757078997891
 20
4.333029805069309
 30
0.0
 10
4.138924049481298
 20
4.339113149853548
 30
0.0
 10
4.131673734213639
 20
4.350540653266774
 30
0.0
 10
4.120000883906312
 20
4.342045076975182
 30
0.0
 10
4.10832803359901
 20
4.333567680952506
 30
0.0
 10
4.016668950345243
 20
4.260781435705691
 30
0.0
 10
4.010372010550503
 20
4.255468731806735
 30
0.0
 10
4.003951803001553
 20
4.250184337164784
 30
0.0
 10
3.993260636991938
 20
4.242260890674868
 30
0.0
 10
3.9869945580523
 20
4.230018709754353
 30
0.0
 10
3.98060610238695
 20
4.217732492211831
 30
0.0
 10
3.959408759832159
 20
4.178505298414367
 30
0.0
 10
3.954064601203172
 20
4.168430348391654
 30
0.0
 10
3.951394390288871
 20
4.163394446116803
 30
0.0
 10
3.946386501607346
 20
4.157496684239617
 30
0.0
 10
3.936003295230496
 20
4.168461803121671
 30
0.0
 10
3.936003295230496
 20
4.168461803121671
 30
0.0
 10
1.288766926508969
 20
6.958364245283809
 30
0.0
 10
1.288766926508969
 20
6.958364245283809
 30
0.0
  0
LWPOLYLINE
  5
85
330
70
100
AcDbEntity
  8
Layer 1
 62
   250
420
  2301728
370
    40
100
AcDbPolyline
 90
        5
 70
     1
 43
0.0
 10
1.53596650419705
 20
5.022407395368367
 10
1.53596650419705
 20
5.457643349065758
 10
1.57318059527376
 20
5.476258258286621
 10
3.065069003304567
 20
5.059653305587958
 10
3.065069003304567
 20
4.538300227651967
  0
HATCH
  5
86
330
70
100
AcDbEntity
  8
Layer 1
 62
   253
420
 10987948
440
 33554687
100
AcDbHatch
 10
0.0
 20
0.0
 30
0.0
210
0.0
220
0.0
230
1.0
  2
SOLID
 70
     1
 71
     1
 91
        1
 92
        1
 93
        5
 72
     1
 10
1.53596650419705
 20
5.022407395368367
 11
1.53596650419705
 21
5.457643349065758
 72
     1
 10
1.53596650419705
 20
5.457643349065758
 11
1.57318059527376
 21
5.476258258286621
 72
     1
 10
1.57318059527376
 20
5.476258258286621
 11
3.065069003304567
 21
5.059653305587958
 72
     1
 10
3.065069003304567
 20
5.059653305587958
 11
3.065069003304567
 21
4.538300227651967
 72
     1
 10
3.065069003304567
 20
4.538300227651967
 11
1.53596650419705
 21
5.022407395368367
 97
        1
330
85
 75
     2
 76
     1
 98
        1
 10
0.0
 20
0.0
450
        0
451
        0
460
0.0
461
0.0
452
        0
462
0.0
453
        0
470

  0
LINE
  5
87
330
70
100
AcDbEntity
  8
Layer 1
 62
   250
420
  2301728
370
    15
100
AcDbLine
 10
0.7911593886715815
 20
5.721309477914928
 30
0.0
 11
2.201570609553351
 21
5.319462720124849
 31
0.0
  0
SPLINE
  5
88
330
70
100
AcDbEntity
  8
Layer 1
 62
   250
420
  2301728
370
    40
100
AcDbSpline
210
0.0
220
0.0
230
1.0
 70
     8
 71
     3
 72
    14
 73
    10
 74
     0
 42
0.0000000001
 43
0.0000000001
 40
0.0
 40
0.0
 40
0.0
 40
0.0
 40
1.0
 40
1.0
 40
1.0
 40
2.0
 40
2.0
 40
2.0
 40
3.0
 40
3.0
 40
3.0
 40
3.0
 10
1.251584290162238
 20
3.828665791225451
 30
0.0
 10
1.251584290162238
 20
3.828665791225451
 30
0.0
 10
1.251584290162238
 20
4.015642142833345
 30
0.0
 10
1.251584290162238
 20
4.02883425660021
 30
0.0
 10
1.251584290162238
 20
4.042073552462094
 30
0.0
 10
1.265836428330506
 20
4.050459722401683
 30
0.0
 10
1.279075724192378
 20
4.045376299113311
 30
0.0
 10
1.292302438162247
 20
4.040293214743428
 30
0.0
 10
1.473365300527979
 20
3.970271840264634
 30
0.0
 10
1.473365300527979
 20
3.970271840264634
 30
0.0
  0
SPLINE
  5
89
330
70
100
AcDbEntity
  8
Layer 1
 62
   250
420
  2301728
370
    25
100
AcDbSpline
210
0.0
220
0.0
230
1.0
 70
     8
 71
     3
 72
    14
 73
    10
 74
     0
 42
0.0000000001
 43
0.0000000001
 40
0.0
 40
0.0
 40
0.0
 40
0.0
 40
1.0
 40
1.0
 40
1.0
 40
2.0
 40
2.0
 40
2.0
 40
3.0
 40
3.0
 40
3.0
 40
3.0
 10
1.73523221882048
 20
3.907670636595563
 30
0.0
 10
1.73523221882048
 20
3.907670636595563
 30
0.0
 10
1.997728231713229
 20
3.804074815996651
 30
0.0
 10
2.003780368230271
 20
3.801416558616412
 30
0.0
 10
2.018922428795033
 20
3.794952944062856
 30
0.0
 10
2.026971694204992
 20
3.793892587197622
 30
0.0
 10
2.026971694204992
 20
3.766385425802506
 30
0.0
 10
2.026971694204992
 20
3.738890846299366
 30
0.0
 10
2.026971694204992
 20
3.516634869510451
 30
0.0
 10
2.026971694204992
 20
3.516634869510451
 30
0.0
  0
SPLINE
  5
8A
330
70
100
AcDbEntity
  8
Layer 1
 62
   250
420
  2301728
370
    25
100
AcDbSpline
210
0.0
220
0.0
230
1.0
 70
     8
 71
     3
 72
    14
 73
    10
 74
     0
 42
0.0000000001
 43
0.0000000001
 40
0.0
 40
0.0
 40
0.0
 40
0.0
 40
1.0
 40
1.0
 40
1.0
 40
2.0
 40
2.0
 40
2.0
 40
3.0
 40
3.0
 40
3.0
 40
3.0
 10
1.227027582442196
 20
4.083820270133502
 30
0.0
 10
1.23186531991799
 20
4.088963118490369
 30
0.0
 10
1.252197657397472
 20
4.098994372035639
 30
0.0
 10
1.263518214728643
 20
4.093511472450042
 30
0.0
 10
1.266575842325247
 20
4.092020518247497
 30
0.0
 10
1.514420014139103
 20
3.994124299527748
 30
0.0
 10
1.514420014139103
 20
3.994124299527748
 30
0.0
 10
1.514420014139103
 20
3.994124299527748
 30
0.0
 10
1.514265885962054
 20
3.953040939164275
 30
0.0
 10
1.514265885962054
 20
3.953040939164275
 30
0.0
  0
LWPOLYLINE
  5
8B
330
70
100
AcDbEntity
  8
Layer 1
 62
   250
420
  2301728
370
    25
100
AcDbPolyline
 90
        3
 70
     0
 43
0.0
 10
1.515325910363432
 20
3.921001151174461
 10
1.778281403080578
 20
3.970963844324917
 10
1.752035335592684
 20
3.932935075740866
  0
SPLINE
  5
8C
330
70
100
AcDbEntity
  8
Layer 1
 62
   250
420
  2301728
370
    40
100
AcDbSpline
210
0.0
220
0.0
230
1.0
 70
    11
 71
     3
 72
    41
 73
    37
 74
     0
 42
0.0000000001
 43
0.0000000001
 40
0.0
 40
0.0
 40
0.0
 40
0.0
 40
1.0
 40
1.0
 40
1.0
 40
2.0
 40
2.0
 40
2.0
 40
3.0
 40
3.0
 40
3.0
 40
4.0
 40
4.0
 40
4.0
 40
5.0
 40
5.0
 40
5.0
 40
6.0
 40
6.0
 40
6.0
 40
7.0
 40
7.0
 40
7.0
 40
8.0
 40
8.0
 40
8.0
 40
9.0
 40
9.0
 40
9.0
 40
10.0
 40
10.0
 40
10.0
 40
11.0
 40
11.0
 40
11.0
 40
12.0
 40
12.0
 40
12.0
 40
12.0
 10
3.068418932050816
 20
4.044731477148072
 30
0.0
 10
3.068418932050816
 20
4.044731477148072
 30
0.0
 10
2.869738275405577
 20
3.898086380361039
 30
0.0
 10
2.869738275405577
 20
3.898086380361039
 30
0.0
 10
2.869738275405577
 20
3.898086380361039
 30
0.0
 10
2.833980538328407
 20
3.910847564326723
 30
0.0
 10
2.833980538328407
 20
3.910847564326723
 30
0.0
 10
2.833980538328407
 20
3.910847564326723
 30
0.0
 10
2.833980538328407
 20
4.370473515675118
 30
0.0
 10
2.833980538328407
 20
4.370473515675118
 30
0.0
 10
2.833980538328407
 20
4.370473515675118
 30
0.0
 10
2.962904040226931
 20
4.570277106181745
 30
0.0
 10
2.962904040226931
 20
4.570277106181745
 30
0.0
 10
2.962904040226931
 20
4.570277106181745
 30
0.0
 10
2.766343432384473
 20
4.75395385661146
 30
0.0
 10
2.766343432384473
 20
4.75395385661146
 30
0.0
 10
2.766343432384473
 20
4.75395385661146
 30
0.0
 10
2.766343432384473
 20
5.088849221571851
 30
0.0
 10
2.766343432384473
 20
5.088849221571851
 30
0.0
 10
2.766343432384473
 20
5.088849221571851
 30
0.0
 10
2.804954113473715
 20
5.10654250720337
 30
0.0
 10
2.804954113473715
 20
5.10654250720337
 30
0.0
 10
2.804954113473715
 20
5.10654250720337
 30
0.0
 10
3.038653321040833
 20
5.041607362567447
 30
0.0
 10
3.038653321040833
 20
5.041607362567447
 30
0.0
 10
3.038653321040833
 20
5.041607362567447
 30
0.0
 10
3.038653321040833
 20
4.760402076263807
 30
0.0
 10
3.038653321040833
 20
4.739453226076092
 30
0.0
 10
3.038653321040833
 20
4.73501496367146
 30
0.0
 10
3.043167074797489
 20
4.726720351367399
 30
0.0
 10
3.047347408416044
 20
4.723096766470058
 30
0.0
 10
3.051461687101537
 20
4.719457454207738
 30
0.0
 10
3.067280270824362
 20
4.698077674218843
 30
0.0
 10
3.067280270824362
 20
4.674194097721042
 30
0.0
 10
3.067280270824362
 20
4.633202293569929
 30
0.0
 10
3.068418932050816
 20
4.044731477148072
 30
0.0
 10
3.068418932050816
 20
4.044731477148072
 30
0.0
  0
HATCH
  5
8D
330
70
100
AcDbEntity
  8
Layer 1
 62
   254
420
 13358815
440
 33554687
100
AcDbHatch
 10
0.0
 20
0.0
 30
0.0
210
0.0
220
0.0
230
1.0
  2
SOLID
 70
     1
 71
     1
 91
        1
 92
        1
 93
        1
 72
     4
 94
        3
 73
     0
 74
     0
 95
       41
 96
       37
 40
0.0
 40
0.0
 40
0.0
 40
0.0
 40
1.0
 40
1.0
 40
1.0
 40
2.0
 40
2.0
 40
2.0
 40
3.0
 40
3.0
 40
3.0
 40
4.0
 40
4.0
 40
4.0
 40
5.0
 40
5.0
 40
5.0
 40
6.0
 40
6.0
 40
6.0
 40
7.0
 40
7.0
 40
7.0
 40
8.0
 40
8.0
 40
8.0
 40
9.0
 40
9.0
 40
9.0
 40
10.0
 40
10.0
 40
10.0
 40
11.0
 40
11.0
 40
11.0
 40
12.0
 40
12.0
 40
12.0
 40
12.0
 10
3.068418932050816
 20
4.044731477148072
 10
3.068418932050816
 20
4.044731477148072
 10
2.869738275405577
 20
3.898086380361039
 10
2.869738275405577
 20
3.898086380361039
 10
2.869738275405577
 20
3.898086380361039
 10
2.833980538328407
 20
3.910847564326723
 10
2.833980538328407
 20
3.910847564326723
 10
2.833980538328407
 20
3.910847564326723
 10
2.833980538328407
 20
4.370473515675118
 10
2.833980538328407
 20
4.370473515675118
 10
2.833980538328407
 20
4.370473515675118
 10
2.962904040226931
 20
4.570277106181745
 10
2.962904040226931
 20
4.570277106181745
 10
2.962904040226931
 20
4.570277106181745
 10
2.766343432384473
 20
4.75395385661146
 10
2.766343432384473
 20
4.75395385661146
 10
2.766343432384473
 20
4.75395385661146
 10
2.766343432384473
 20
5.088849221571851
 10
2.766343432384473
 20
5.088849221571851
 10
2.766343432384473
 20
5.088849221571851
 10
2.804954113473715
 20
5.10654250720337
 10
2.804954113473715
 20
5.10654250720337
 10
2.804954113473715
 20
5.10654250720337
 10
3.038653321040833
 20
5.041607362567447
 10
3.038653321040833
 20
5.041607362567447
 10
3.038653321040833
 20
5.041607362567447
 10
3.038653321040833
 20
4.760402076263807
 10
3.038653321040833
 20
4.739453226076092
 10
3.038653321040833
 20
4.73501496367146
 10
3.043167074797489
 20
4.726720351367399
 10
3.047347408416044
 20
4.723096766470058
 10
3.051461687101537
 20
4.719457454207738
 10
3.067280270824362
 20
4.698077674218843
 10
3.067280270824362
 20
4.674194097721042
 10
3.067280270824362
 20
4.633202293569929
 10
3.068418932050816
 20
4.044731477148072
 10
3.068418932050816
 20
4.044731477148072
 97
        0
 97
        1
330
8C
 75
     2
 76
     1
 98
        1
 10
0.0
 20
0.0
450
        0
451
        0
460
0.0
461
0.0
452
        0
462
0.0
453
        0
470

  0
SPLINE
  5
8E
330
70
100
AcDbEntity
  8
Layer 1
 62
   250
420
  2301728
370
    40
100
AcDbSpline
210
0.0
220
0.0
230
1.0
 70
     8
 71
     3
 72
    14
 73
    10
 74
     0
 42
0.0000000001
 43
0.0000000001
 40
0.0
 40
0.0
 40
0.0
 40
0.0
 40
1.0
 40
1.0
 40
1.0
 40
2.0
 40
2.0
 40
2.0
 40
3.0
 40
3.0
 40
3.0
 40
3.0
 10
2.869738275405577
 20
3.89840755368444
 30
0.0
 10
2.869738275405577
 20
3.89840755368444
 30
0.0
 10
2.869738275405577
 20
4.349955595288545
 30
0.0
 10
2.869738275405577
 20
4.349955595288545
 30
0.0
 10
2.869738275405577
 20
4.349955595288545
 30
0.0
 10
3.044519628188001
 20
4.631912649639464
 30
0.0
 10
3.051370468384523
 20
4.643629536568785
 30
0.0
 10
3.061354199690185
 20
4.660618590580421
 30
0.0
 10
3.066298883248009
 20
4.687741649937025
 30
0.0
 10
3.059878972852655
 20
4.704173600895083
 30
0.0
  0
LINE
  5
8F
330
70
100
AcDbEntity
  8
Layer 1
 62
   250
420
  2301728
370
    25
100
AcDbLine
 10
2.834902161917751
 20
4.370473515675118
 30
0.0
 11
2.868539850192139
 21
4.350169487452628
 31
0.0
  0
SPLINE
  5
90
330
70
100
AcDbEntity
  8
Layer 1
 62
   250
420
  2301728
370
    25
100
AcDbSpline
210
0.0
220
0.0
230
1.0
 70
     8
 71
     3
 72
    20
 73
    16
 74
     0
 42
0.0000000001
 43
0.0000000001
 40
0.0
 40
0.0
 40
0.0
 40
0.0
 40
1.0
 40
1.0
 40
1.0
 40
2.0
 40
2.0
 40
2.0
 40
3.0
 40
3.0
 40
3.0
 40
4.0
 40
4.0
 40
4.0
 40
5.0
 40
5.0
 40
5.0
 40
5.0
 10
2.962904040226931
 20
4.570277106181745
 30
0.0
 10
2.97092185090686
 20
4.58417695137387
 30
0.0
 10
3.0152761656962
 20
4.655397105266615
 30
0.0
 10
3.020806179387338
 20
4.663688217897174
 30
0.0
 10
3.027071689450571
 20
4.673102618589634
 30
0.0
 10
3.025414025178936
 20
4.680859355010498
 30
0.0
 10
3.021513638657526
 20
4.68806248818315
 30
0.0
 10
3.019393589854719
 20
4.691887383352561
 30
0.0
 10
3.007230045759241
 20
4.714157332200758
 30
0.0
 10
3.007230045759241
 20
4.714157332200758
 30
0.0
 10
3.007230045759241
 20
4.714157332200758
 30
0.0
 10
3.007230045759241
 20
5.019875289602446
 30
0.0
 10
3.007230045759241
 20
5.019875289602446
 30
0.0
 10
3.007230045759241
 20
5.019875289602446
 30
0.0
 10
2.766771216712641
 20
5.088481201230731
 30
0.0
 10
2.766771216712641
 20
5.088481201230731
 30
0.0
  0
LINE
  5
91
330
70
100
AcDbEntity
  8
Layer 1
 62
   250
420
  2301728
370
    25
100
AcDbLine
 10
3.007230045759241
 20
5.019875289602446
 30
0.0
 11
3.038653321040833
 21
5.041607362567447
 31
0.0
  0
SPLINE
  5
92
330
70
100
AcDbEntity
  8
Layer 1
 62
   250
420
  2301728
370
    25
100
AcDbSpline
210
0.0
220
0.0
230
1.0
 70
     9
 71
     3
 72
    17
 73
    13
 74
     0
 42
0.0000000001
 43
0.0000000001
 40
0.0
 40
0.0
 40
0.0
 40
0.0
 40
1.0
 40
1.0
 40
1.0
 40
2.0
 40
2.0
 40
2.0
 40
3.0
 40
3.0
 40
3.0
 40
4.0
 40
4.0
 40
4.0
 40
4.0
 10
2.864699227657713
 20
4.9695728853679
 30
0.0
 10
2.865252830905925
 20
4.947733866320845
 30
0.0
 10
2.853149050797481
 20
4.930056308054341
 30
0.0
 10
2.837638723428754
 20
4.930040580689339
 30
0.0
 10
2.822093795857022
 20
4.930040580689339
 30
0.0
 10
2.809040082902204
 20
4.947733866320845
 30
0.0
 10
2.808486746445421
 20
4.9695728853679
 30
0.0
 10
2.807873112418772
 20
4.991383595157937
 30
0.0
 10
2.81997374705424
 20
5.009076880789481
 30
0.0
 10
2.835518674625948
 20
5.009076880789481
 30
0.0
 10
2.851060456724705
 20
5.009092608154459
 30
0.0
 10
2.864117315152498
 20
4.991383595157937
 30
0.0
 10
2.864699227657713
 20
4.9695728853679
 30
0.0
  0
HATCH
  5
93
330
70
100
AcDbEntity
  8
Layer 1
 62
   253
420
 10987948
440
 33554687
100
AcDbHatch
 10
0.0
 20
0.0
 30
0.0
210
0.0
220
0.0
230
1.0
  2
SOLID
 70
     1
 71
     1
 91
        1
 92
        1
 93
        1
 72
     4
 94
        3
 73
     0
 74
     0
 95
       17
 96
       13
 40
0.0
 40
0.0
 40
0.0
 40
0.0
 40
1.0
 40
1.0
 40
1.0
 40
2.0
 40
2.0
 40
2.0
 40
3.0
 40
3.0
 40
3.0
 40
4.0
 40
4.0
 40
4.0
 40
4.0
 10
2.864699227657713
 20
4.9695728853679
 10
2.865252830905925
 20
4.947733866320845
 10
2.853149050797481
 20
4.930056308054341
 10
2.837638723428754
 20
4.930040580689339
 10
2.822093795857022
 20
4.930040580689339
 10
2.809040082902204
 20
4.947733866320845
 10
2.808486746445421
 20
4.9695728853679
 10
2.807873112418772
 20
4.991383595157937
 10
2.81997374705424
 20
5.009076880789481
 10
2.835518674625948
 20
5.009076880789481
 10
2.851060456724705
 20
5.009092608154459
 10
2.864117315152498
 20
4.991383595157937
 10
2.864699227657713
 20
4.9695728853679
 97
        0
 97
        1
330
92
 75
     2
 76
     1
 98
        1
 10
0.0
 20
0.0
450
        0
451
        0
460
0.0
461
0.0
452
        0
462
0.0
453
        0
470

  0
SPLINE
  5
94
330
70
100
AcDbEntity
  8
Layer 1
100
AcDbSpline
210
0.0
220
0.0
230
1.0
 70
     9
 71
     3
 72
    47
 73
    43
 74
     0
 42
0.0000000001
 43
0.0000000001
 40
0.0
 40
0.0
 40
0.0
 40
0.0
 40
1.0
 40
1.0
 40
1.0
 40
2.0
 40
2.0
 40
2.0
 40
3.0
 40
3.0
 40
3.0
 40
4.0
 40
4.0
 40
4.0
 40
5.0
 40
5.0
 40
5.0
 40
6.0
 40
6.0
 40
6.0
 40
7.0
 40
7.0
 40
7.0
 40
8.0
 40
8.0
 40
8.0
 40
9.0
 40
9.0
 40
9.0
 40
10.0
 40
10.0
 40
10.0
 40
11.0
 40
11.0
 40
11.0
 40
12.0
 40
12.0
 40
12.0
 40
13.0
 40
13.0
 40
13.0
 40
14.0
 40
14.0
 40
14.0
 40
14.0
 10
2.851000692737695
 20
4.935000991612152
 30
0.0
 10
2.84854093285076
 20
4.941128373018411
 30
0.0
 10
2.84470345578936
 20
4.948117614027018
 30
0.0
 10
2.839941477251613
 20
4.954675925234406
 30
0.0
 10
2.844885893223413
 20
4.96051077765157
 30
0.0
 10
2.850447357340954
 20
4.965688226211467
 30
0.0
 10
2.855482991764322
 20
4.968251786707418
 30
0.0
 10
2.858279585311669
 20
4.969667249557927
 30
0.0
 10
2.859355069028752
 20
4.973014032831188
 30
0.0
 10
2.857971060908236
 20
4.975778903599183
 30
0.0
 10
2.85659019826072
 20
4.978543774367204
 30
0.0
 10
2.853180505527486
 20
4.979647835390614
 30
0.0
 10
2.850447357340954
 20
4.978251245378095
 30
0.0
 10
2.844609091599345
 20
4.975303937176009
 30
0.0
 10
2.838465982828059
 20
4.969850049136235
 30
0.0
 10
2.832845022574979
 20
4.963552450043683
 30
0.0
 10
2.828881726593509
 20
4.967931310557054
 30
0.0
 10
2.82470453844798
 20
4.971648897548675
 30
0.0
 10
2.820650023749496
 20
4.974026875137534
 30
0.0
 10
2.817948062441498
 20
4.975580738800102
 30
0.0
 10
2.81453836970824
 20
4.974671697102772
 30
0.0
 10
2.81294046942364
 20
4.972016917889795
 30
0.0
 10
2.811436933329105
 20
4.969343265838814
 30
0.0
 10
2.812295647458414
 20
4.965886753054633
 30
0.0
 10
2.814997875722332
 20
4.964351400185983
 30
0.0
 10
2.81850166568971
 20
4.962247078748191
 30
0.0
 10
2.822247924034071
 20
4.958746529161632
 30
0.0
 10
2.825811744944378
 20
4.954660197869404
 30
0.0
 10
2.822584489645199
 20
4.950190842382337
 30
0.0
 10
2.819851073607196
 20
4.94564527224808
 30
0.0
 10
2.817825388994429
 20
4.941483811467542
 30
0.0
 10
2.820282270497753
 20
4.938074118734284
 30
0.0
 10
2.823201002353446
 20
4.935324975331278
 30
0.0
 10
2.826425112179599
 20
4.933343327340531
 30
0.0
 10
2.827654992123067
 20
4.936658655883761
 30
0.0
 10
2.829926023629898
 20
4.940930208219342
 30
0.0
 10
2.832907932035014
 20
4.945352743258973
 30
0.0
 10
2.836440298215292
 20
4.940115530712041
 30
0.0
 10
2.83917371425332
 20
4.934862590800094
 30
0.0
 10
2.840862833254909
 20
4.930500180897663
 30
0.0
 10
2.844486418152276
 20
4.93111633245572
 30
0.0
 10
2.847927565615539
 20
4.932635595915308
 30
0.0
 10
2.851000692737695
 20
4.935000991612152
 30
0.0
  0
HATCH
  5
95
330
70
100
AcDbEntity
  8
Layer 1
 62
   250
420
  2301728
440
 33554687
100
AcDbHatch
 10
0.0
 20
0.0
 30
0.0
210
0.0
220
0.0
230
1.0
  2
SOLID
 70
     1
 71
     1
 91
        1
 92
        1
 93
        1
 72
     4
 94
        3
 73
     0
 74
     0
 95
       47
 96
       43
 40
0.0
 40
0.0
 40
0.0
 40
0.0
 40
1.0
 40
1.0
 40
1.0
 40
2.0
 40
2.0
 40
2.0
 40
3.0
 40
3.0
 40
3.0
 40
4.0
 40
4.0
 40
4.0
 40
5.0
 40
5.0
 40
5.0
 40
6.0
 40
6.0
 40
6.0
 40
7.0
 40
7.0
 40
7.0
 40
8.0
 40
8.0
 40
8.0
 40
9.0
 40
9.0
 40
9.0
 40
10.0
 40
10.0
 40
10.0
 40
11.0
 40
11.0
 40
11.0
 40
12.0
 40
12.0
 40
12.0
 40
13.0
 40
13.0
 40
13.0
 40
14.0
 40
14.0
 40
14.0
 40
14.0
 10
2.851000692737695
 20
4.935000991612152
 10
2.84854093285076
 20
4.941128373018411
 10
2.84470345578936
 20
4.948117614027018
 10
2.839941477251613
 20
4.954675925234406
 10
2.844885893223413
 20
4.96051077765157
 10
2.850447357340954
 20
4.965688226211467
 10
2.855482991764322
 20
4.968251786707418
 10
2.858279585311669
 20
4.969667249557927
 10
2.859355069028752
 20
4.973014032831188
 10
2.857971060908236
 20
4.975778903599183
 10
2.85659019826072
 20
4.978543774367204
 10
2.853180505527486
 20
4.979647835390614
 10
2.850447357340954
 20
4.978251245378095
 10
2.844609091599345
 20
4.975303937176009
 10
2.838465982828059
 20
4.969850049136235
 10
2.832845022574979
 20
4.963552450043683
 10
2.828881726593509
 20
4.967931310557054
 10
2.82470453844798
 20
4.971648897548675
 10
2.820650023749496
 20
4.974026875137534
 10
2.817948062441498
 20
4.975580738800102
 10
2.81453836970824
 20
4.974671697102772
 10
2.81294046942364
 20
4.972016917889795
 10
2.811436933329105
 20
4.969343265838814
 10
2.812295647458414
 20
4.965886753054633
 10
2.814997875722332
 20
4.964351400185983
 10
2.81850166568971
 20
4.962247078748191
 10
2.822247924034071
 20
4.958746529161632
 10
2.825811744944378
 20
4.954660197869404
 10
2.822584489645199
 20
4.950190842382337
 10
2.819851073607196
 20
4.94564527224808
 10
2.817825388994429
 20
4.941483811467542
 10
2.820282270497753
 20
4.938074118734284
 10
2.823201002353446
 20
4.935324975331278
 10
2.826425112179599
 20
4.933343327340531
 10
2.827654992123067
 20
4.936658655883761
 10
2.829926023629898
 20
4.940930208219342
 10
2.832907932035014
 20
4.945352743258973
 10
2.836440298215292
 20
4.940115530712041
 10
2.83917371425332
 20
4.934862590800094
 10
2.840862833254909
 20
4.930500180897663
 10
2.844486418152276
 20
4.93111633245572
 10
2.847927565615539
 20
4.932635595915308
 10
2.851000692737695
 20
4.935000991612152
 97
        0
 97
        1
330
94
 75
     2
 76
     1
 98
        1
 10
0.0
 20
0.0
450
        0
451
        0
460
0.0
461
0.0
452
        0
462
0.0
453
        0
470

  0
SPLINE
  5
96
330
70
100
AcDbEntity
  8
Layer 1
 62
   250
420
  2301728
370
    25
100
AcDbSpline
210
0.0
220
0.0
230
1.0
 70
     9
 71
     3
 72
    17
 73
    13
 74
     0
 42
0.0000000001
 43
0.0000000001
 40
0.0
 40
0.0
 40
0.0
 40
0.0
 40
1.0
 40
1.0
 40
1.0
 40
2.0
 40
2.0
 40
2.0
 40
3.0
 40
3.0
 40
3.0
 40
4.0
 40
4.0
 40
4.0
 40
4.0
 10
2.979889594433188
 20
4.940577915243212
 30
0.0
 10
2.98047465241138
 20
4.918736111576145
 30
0.0
 10
2.968339688402592
 20
4.901058552863054
 30
0.0
 10
2.952829090204204
 20
4.901042465091639
 30
0.0
 10
2.937315617362501
 20
4.901042465091639
 30
0.0
 10
2.924230449677654
 20
4.918736111576145
 30
0.0
 10
2.923676846429442
 20
4.940577915243212
 30
0.0
 10
2.923123243181255
 20
4.962369752195235
 30
0.0
 10
2.93516411382969
 20
4.980063037826766
 30
0.0
 10
2.950768805388431
 20
4.980063037826766
 30
0.0
 10
2.966250823500154
 20
4.980063037826766
 30
0.0
 10
2.979307681927972
 20
4.962369752195235
 30
0.0
 10
2.979889594433188
 20
4.940577915243212
 30
0.0
  0
HATCH
  5
97
330
70
100
AcDbEntity
  8
Layer 1
 62
   253
420
 10987948
440
 33554687
100
AcDbHatch
 10
0.0
 20
0.0
 30
0.0
210
0.0
220
0.0
230
1.0
  2
SOLID
 70
     1
 71
     1
 91
        1
 92
        1
 93
        1
 72
     4
 94
        3
 73
     0
 74
     0
 95
       17
 96
       13
 40
0.0
 40
0.0
 40
0.0
 40
0.0
 40
1.0
 40
1.0
 40
1.0
 40
2.0
 40
2.0
 40
2.0
 40
3.0
 40
3.0
 40
3.0
 40
4.0
 40
4.0
 40
4.0
 40
4.0
 10
2.979889594433188
 20
4.940577915243212
 10
2.98047465241138
 20
4.918736111576145
 10
2.968339688402592
 20
4.901058552863054
 10
2.952829090204204
 20
4.901042465091639
 10
2.937315617362501
 20
4.901042465091639
 10
2.924230449677654
 20
4.918736111576145
 10
2.923676846429442
 20
4.940577915243212
 10
2.923123243181255
 20
4.962369752195235
 10
2.93516411382969
 20
4.980063037826766
 10
2.950768805388431
 20
4.980063037826766
 10
2.966250823500154
 20
4.980063037826766
 10
2.979307681927972
 20
4.962369752195235
 10
2.979889594433188
 20
4.940577915243212
 97
        0
 97
        1
330
96
 75
     2
 76
     1
 98
        1
 10
0.0
 20
0.0
450
        0
451
        0
460
0.0
461
0.0
452
        0
462
0.0
453
        0
470

  0
SPLINE
  5
98
330
70
100
AcDbEntity
  8
Layer 1
100
AcDbSpline
210
0.0
220
0.0
230
1.0
 70
     9
 71
     3
 72
    47
 73
    43
 74
     0
 42
0.0000000001
 43
0.0000000001
 40
0.0
 40
0.0
 40
0.0
 40
0.0
 40
1.0
 40
1.0
 40
1.0
 40
2.0
 40
2.0
 40
2.0
 40
3.0
 40
3.0
 40
3.0
 40
4.0
 40
4.0
 40
4.0
 40
5.0
 40
5.0
 40
5.0
 40
6.0
 40
6.0
 40
6.0
 40
7.0
 40
7.0
 40
7.0
 40
8.0
 40
8.0
 40
8.0
 40
9.0
 40
9.0
 40
9.0
 40
10.0
 40
10.0
 40
10.0
 40
11.0
 40
11.0
 40
11.0
 40
12.0
 40
12.0
 40
12.0
 40
13.0
 40
13.0
 40
13.0
 40
14.0
 40
14.0
 40
14.0
 40
14.0
 10
2.96619105951312
 20
4.905990294122475
 30
0.0
 10
2.963731299626235
 20
4.912133402893737
 30
0.0
 10
2.959893822564784
 20
4.919103771064302
 30
0.0
 10
2.955131576441039
 20
4.925677809636744
 30
0.0
 10
2.960107714728893
 20
4.93151580752687
 30
0.0
 10
2.965637456264908
 20
4.936690110613779
 30
0.0
 10
2.970736267999806
 20
4.939241089217716
 30
0.0
 10
2.973501138767813
 20
4.940669133960239
 30
0.0
 10
2.974545435804202
 20
4.944015917233488
 30
0.0
 10
2.973164573156686
 20
4.946780788001496
 30
0.0
 10
2.971780565036169
 20
4.949530293035422
 30
0.0
 10
2.968402597864193
 20
4.950652865265914
 30
0.0
 10
2.965637456264908
 20
4.949240547888406
 30
0.0
 10
2.959862367834779
 20
4.946305821578321
 30
0.0
 10
2.953656349603508
 20
4.940851571394318
 30
0.0
 10
2.948066844080459
 20
4.934557841171693
 30
0.0
 10
2.944043784111954
 20
4.93891710549859
 30
0.0
 10
2.93989490522343
 20
4.942650781950987
 30
0.0
 10
2.935840390524946
 20
4.945000811799318
 30
0.0
 10
2.933198193203982
 20
4.946582623202415
 30
0.0
 10
2.929760191213669
 20
4.945676726978098
 30
0.0
 10
2.928162290929119
 20
4.943019163758536
 30
0.0
 10
2.926627300104554
 20
4.940360877606129
 30
0.0
 10
2.927486014233838
 20
4.936891420885848
 30
0.0
 10
2.930187975541861
 20
4.93534070269628
 30
0.0
 10
2.933751796452143
 20
4.933264690515506
 30
0.0
 10
2.937438290809521
 20
4.929748051700218
 30
0.0
 10
2.941002111719828
 20
4.925662082271716
 30
0.0
 10
2.937778001893649
 20
4.921179783245065
 30
0.0
 10
2.935041440382671
 20
4.916647156650393
 30
0.0
 10
2.933016025707198
 20
4.912469968504852
 30
0.0
 10
2.935472370183813
 20
4.909091730501611
 30
0.0
 10
2.9384228238589
 20
4.906311492907712
 30
0.0
 10
2.941615478955049
 20
4.904361299597717
 30
0.0
 10
2.942845358898516
 20
4.907664046332367
 30
0.0
 10
2.945119535878347
 20
4.911916365256653
 30
0.0
 10
2.948129753540468
 20
4.91634204576927
 30
0.0
 10
2.951630664990766
 20
4.911089105857349
 30
0.0
 10
2.954332626298764
 20
4.905851893310416
 30
0.0
 10
2.956053200030383
 20
4.901504849622811
 30
0.0
 10
2.95970823965773
 20
4.90210248949303
 30
0.0
 10
2.963118203088697
 20
4.903624898425593
 30
0.0
 10
2.96619105951312
 20
4.905990294122475
 30
0.0
  0
HATCH
  5
99
330
70
100
AcDbEntity
  8
Layer 1
 62
   250
420
  2301728
440
 33554687
100
AcDbHatch
 10
0.0
 20
0.0
 30
0.0
210
0.0
220
0.0
230
1.0
  2
SOLID
 70
     1
 71
     1
 91
        1
 92
        1
 93
        1
 72
     4
 94
        3
 73
     0
 74
     0
 95
       47
 96
       43
 40
0.0
 40
0.0
 40
0.0
 40
0.0
 40
1.0
 40
1.0
 40
1.0
 40
2.0
 40
2.0
 40
2.0
 40
3.0
 40
3.0
 40
3.0
 40
4.0
 40
4.0
 40
4.0
 40
5.0
 40
5.0
 40
5.0
 40
6.0
 40
6.0
 40
6.0
 40
7.0
 40
7.0
 40
7.0
 40
8.0
 40
8.0
 40
8.0
 40
9.0
 40
9.0
 40
9.0
 40
10.0
 40
10.0
 40
10.0
 40
11.0
 40
11.0
 40
11.0
 40
12.0
 40
12.0
 40
12.0
 40
13.0
 40
13.0
 40
13.0
 40
14.0
 40
14.0
 40
14.0
 40
14.0
 10
2.96619105951312
 20
4.905990294122475
 10
2.963731299626235
 20
4.912133402893737
 10
2.959893822564784
 20
4.919103771064302
 10
2.955131576441039
 20
4.925677809636744
 10
2.960107714728893
 20
4.93151580752687
 10
2.965637456264908
 20
4.936690110613779
 10
2.970736267999806
 20
4.939241089217716
 10
2.973501138767813
 20
4.940669133960239
 10
2.974545435804202
 20
4.944015917233488
 10
2.973164573156686
 20
4.946780788001496
 10
2.971780565036169
 20
4.949530293035422
 10
2.968402597864193
 20
4.950652865265914
 10
2.965637456264908
 20
4.949240547888406
 10
2.959862367834779
 20
4.946305821578321
 10
2.953656349603508
 20
4.940851571394318
 10
2.948066844080459
 20
4.934557841171693
 10
2.944043784111954
 20
4.93891710549859
 10
2.93989490522343
 20
4.942650781950987
 10
2.935840390524946
 20
4.945000811799318
 10
2.933198193203982
 20
4.946582623202415
 10
2.929760191213669
 20
4.945676726978098
 10
2.928162290929119
 20
4.943019163758536
 10
2.926627300104554
 20
4.940360877606129
 10
2.927486014233838
 20
4.936891420885848
 10
2.930187975541861
 20
4.93534070269628
 10
2.933751796452143
 20
4.933264690515506
 10
2.937438290809521
 20
4.929748051700218
 10
2.941002111719828
 20
4.925662082271716
 10
2.937778001893649
 20
4.921179783245065
 10
2.935041440382671
 20
4.916647156650393
 10
2.933016025707198
 20
4.912469968504852
 10
2.935472370183813
 20
4.909091730501611
 10
2.9384228238589
 20
4.906311492907712
 10
2.941615478955049
 20
4.904361299597717
 10
2.942845358898516
 20
4.907664046332367
 10
2.945119535878347
 20
4.911916365256653
 10
2.948129753540468
 20
4.91634204576927
 10
2.951630664990766
 20
4.911089105857349
 10
2.954332626298764
 20
4.905851893310416
 10
2.956053200030383
 20
4.901504849622811
 10
2.95970823965773
 20
4.90210248949303
 10
2.963118203088697
 20
4.903624898425593
 10
2.96619105951312
 20
4.905990294122475
 97
        0
 97
        1
330
98
 75
     2
 76
     1
 98
        1
 10
0.0
 20
0.0
450
        0
451
        0
460
0.0
461
0.0
452
        0
462
0.0
453
        0
470

  0
SPLINE
  5
9A
330
70
100
AcDbEntity
  8
Layer 1
 62
   250
420
  2301728
370
    25
100
AcDbSpline
210
0.0
220
0.0
230
1.0
 70
     9
 71
     3
 72
    17
 73
    13
 74
     0
 42
0.0000000001
 43
0.0000000001
 40
0.0
 40
0.0
 40
0.0
 40
0.0
 40
1.0
 40
1.0
 40
1.0
 40
2.0
 40
2.0
 40
2.0
 40
3.0
 40
3.0
 40
3.0
 40
4.0
 40
4.0
 40
4.0
 40
4.0
 10
2.976080426628767
 20
4.810594747064404
 30
0.0
 10
2.976696939336989
 20
4.788802551991276
 30
0.0
 10
2.964593159228519
 20
4.771109266359744
 30
0.0
 10
2.949079686386817
 20
4.771109266359744
 30
0.0
 10
2.933569359018115
 20
4.771109266359744
 30
0.0
 10
2.920481045860267
 20
4.788786824626273
 30
0.0
 10
2.919899402960986
 20
4.810594747064404
 30
0.0
 10
2.91931407537686
 20
4.832436553463367
 30
0.0
 10
2.931417855485304
 20
4.850129839094872
 30
0.0
 10
2.94695963758401
 20
4.850129839094872
 30
0.0
 10
2.962504565155743
 20
4.850129839094872
 30
0.0
 10
2.975526823380555
 20
4.832436553463367
 30
0.0
 10
2.976080426628767
 20
4.810594747064404
 30
0.0
  0
HATCH
  5
9B
330
70
100
AcDbEntity
  8
Layer 1
 62
   253
420
 10987948
440
 33554687
100
AcDbHatch
 10
0.0
 20
0.0
 30
0.0
210
0.0
220
0.0
230
1.0
  2
SOLID
 70
     1
 71
     1
 91
        1
 92
        1
 93
        1
 72
     4
 94
        3
 73
     0
 74
     0
 95
       17
 96
       13
 40
0.0
 40
0.0
 40
0.0
 40
0.0
 40
1.0
 40
1.0
 40
1.0
 40
2.0
 40
2.0
 40
2.0
 40
3.0
 40
3.0
 40
3.0
 40
4.0
 40
4.0
 40
4.0
 40
4.0
 10
2.976080426628767
 20
4.810594747064404
 10
2.976696939336989
 20
4.788802551991276
 10
2.964593159228519
 20
4.771109266359744
 10
2.949079686386817
 20
4.771109266359744
 10
2.933569359018115
 20
4.771109266359744
 10
2.920481045860267
 20
4.788786824626273
 10
2.919899402960986
 20
4.810594747064404
 10
2.91931407537686
 20
4.832436553463367
 10
2.931417855485304
 20
4.850129839094872
 10
2.94695963758401
 20
4.850129839094872
 10
2.962504565155743
 20
4.850129839094872
 10
2.975526823380555
 20
4.832436553463367
 10
2.976080426628767
 20
4.810594747064404
 97
        0
 97
        1
330
9A
 75
     2
 76
     1
 98
        1
 10
0.0
 20
0.0
450
        0
451
        0
460
0.0
461
0.0
452
        0
462
0.0
453
        0
470

  0
SPLINE
  5
9C
330
70
100
AcDbEntity
  8
Layer 1
100
AcDbSpline
210
0.0
220
0.0
230
1.0
 70
     9
 71
     3
 72
    47
 73
    43
 74
     0
 42
0.0000000001
 43
0.0000000001
 40
0.0
 40
0.0
 40
0.0
 40
0.0
 40
1.0
 40
1.0
 40
1.0
 40
2.0
 40
2.0
 40
2.0
 40
3.0
 40
3.0
 40
3.0
 40
4.0
 40
4.0
 40
4.0
 40
5.0
 40
5.0
 40
5.0
 40
6.0
 40
6.0
 40
6.0
 40
7.0
 40
7.0
 40
7.0
 40
8.0
 40
8.0
 40
8.0
 40
9.0
 40
9.0
 40
9.0
 40
10.0
 40
10.0
 40
10.0
 40
11.0
 40
11.0
 40
11.0
 40
12.0
 40
12.0
 40
12.0
 40
13.0
 40
13.0
 40
13.0
 40
14.0
 40
14.0
 40
14.0
 40
14.0
 10
2.962441655695733
 20
4.776038222552566
 30
0.0
 10
2.959985041281849
 20
4.78218133132384
 30
0.0
 10
2.956116109490418
 20
4.789170572332409
 30
0.0
 10
2.951385588498017
 20
4.795728883539835
 30
0.0
 10
2.956361456384506
 20
4.801563735956973
 30
0.0
 10
2.961860013856519
 20
4.806741184516895
 30
0.0
 10
2.96692710019541
 20
4.809305103101374
 30
0.0
 10
2.969692241827235
 20
4.810704480498353
 30
0.0
 10
2.970799177459841
 20
4.814082718501595
 30
0.0
 10
2.969415169339324
 20
4.816816134539609
 30
0.0
 10
2.968002851961803
 20
4.819581005307617
 30
0.0
 10
2.964593159228519
 20
4.820685066331027
 30
0.0
 10
2.961860013856519
 20
4.819304203683524
 30
0.0
 10
2.956053200030383
 20
4.816341168116435
 30
0.0
 10
2.949910091259147
 20
4.810902645297422
 30
0.0
 10
2.944257676276063
 20
4.804636863079116
 30
0.0
 10
2.940266071037588
 20
4.808968179401706
 30
0.0
 10
2.936148646879044
 20
4.812698710381078
 30
0.0
 10
2.932062677450554
 20
4.815064106077961
 30
0.0
 10
2.929392170872561
 20
4.81663055163253
 30
0.0
 10
2.926010787396333
 20
4.815724655408201
 30
0.0
 10
2.924412887111732
 20
4.813054148830233
 30
0.0
 10
2.922877896287167
 20
4.81039622414423
 30
0.0
 10
2.923739755889477
 20
4.806955076680954
 30
0.0
 10
2.926441986968711
 20
4.805404716481373
 30
0.0
 10
2.929942628647748
 20
4.803315764418622
 30
0.0
 10
2.933692032465134
 20
4.799814852968337
 30
0.0
 10
2.937192943915432
 20
4.795697428809817
 30
0.0
 10
2.934028598076262
 20
4.791227711675181
 30
0.0
 10
2.93126372730828
 20
4.786713957918512
 30
0.0
 10
2.929266351952517
 20
4.78253362429997
 30
0.0
 10
2.931726381744157
 20
4.779123931566712
 30
0.0
 10
2.934613656054478
 20
4.776374788163707
 30
0.0
 10
2.937806311150653
 20
4.774408867537974
 30
0.0
 10
2.939036191094121
 20
4.777727341554193
 30
0.0
 10
2.941370132060986
 20
4.781967439159769
 30
0.0
 10
2.944348894993077
 20
4.786406059074465
 30
0.0
 10
2.947852951916375
 20
4.781137034287464
 30
0.0
 10
2.950586367954378
 20
4.775900178985162
 30
0.0
 10
2.952306941685997
 20
4.771568505417929
 30
0.0
 10
2.955930526583364
 20
4.772169290761149
 30
0.0
 10
2.959371674046628
 20
4.773688554220711
 30
0.0
 10
2.962441655695733
 20
4.776038222552566
 30
0.0
  0
HATCH
  5
9D
330
70
100
AcDbEntity
  8
Layer 1
 62
   250
420
  2301728
440
 33554687
100
AcDbHatch
 10
0.0
 20
0.0
 30
0.0
210
0.0
220
0.0
230
1.0
  2
SOLID
 70
     1
 71
     1
 91
        1
 92
        1
 93
        1
 72
     4
 94
        3
 73
     0
 74
     0
 95
       47
 96
       43
 40
0.0
 40
0.0
 40
0.0
 40
0.0
 40
1.0
 40
1.0
 40
1.0
 40
2.0
 40
2.0
 40
2.0
 40
3.0
 40
3.0
 40
3.0
 40
4.0
 40
4.0
 40
4.0
 40
5.0
 40
5.0
 40
5.0
 40
6.0
 40
6.0
 40
6.0
 40
7.0
 40
7.0
 40
7.0
 40
8.0
 40
8.0
 40
8.0
 40
9.0
 40
9.0
 40
9.0
 40
10.0
 40
10.0
 40
10.0
 40
11.0
 40
11.0
 40
11.0
 40
12.0
 40
12.0
 40
12.0
 40
13.0
 40
13.0
 40
13.0
 40
14.0
 40
14.0
 40
14.0
 40
14.0
 10
2.962441655695733
 20
4.776038222552566
 10
2.959985041281849
 20
4.78218133132384
 10
2.956116109490418
 20
4.789170572332409
 10
2.951385588498017
 20
4.795728883539835
 10
2.956361456384506
 20
4.801563735956973
 10
2.961860013856519
 20
4.806741184516895
 10
2.96692710019541
 20
4.809305103101374
 10
2.969692241827235
 20
4.810704480498353
 10
2.970799177459841
 20
4.814082718501595
 10
2.969415169339324
 20
4.816816134539609
 10
2.968002851961803
 20
4.819581005307617
 10
2.964593159228519
 20
4.820685066331027
 10
2.961860013856519
 20
4.819304203683524
 10
2.956053200030383
 20
4.816341168116435
 10
2.949910091259147
 20
4.810902645297422
 10
2.944257676276063
 20
4.804636863079116
 10
2.940266071037588
 20
4.808968179401706
 10
2.936148646879044
 20
4.812698710381078
 10
2.932062677450554
 20
4.815064106077961
 10
2.929392170872561
 20
4.81663055163253
 10
2.926010787396333
 20
4.815724655408201
 10
2.924412887111732
 20
4.813054148830233
 10
2.922877896287167
 20
4.81039622414423
 10
2.923739755889477
 20
4.806955076680954
 10
2.926441986968711
 20
4.805404716481373
 10
2.929942628647748
 20
4.803315764418622
 10
2.933692032465134
 20
4.799814852968337
 10
2.937192943915432
 20
4.795697428809817
 10
2.934028598076262
 20
4.791227711675181
 10
2.93126372730828
 20
4.786713957918512
 10
2.929266351952517
 20
4.78253362429997
 10
2.931726381744157
 20
4.779123931566712
 10
2.934613656054478
 20
4.776374788163707
 10
2.937806311150653
 20
4.774408867537974
 10
2.939036191094121
 20
4.777727341554193
 10
2.941370132060986
 20
4.781967439159769
 10
2.944348894993077
 20
4.786406059074465
 10
2.947852951916375
 20
4.781137034287464
 10
2.950586367954378
 20
4.775900178985162
 10
2.952306941685997
 20
4.771568505417929
 10
2.955930526583364
 20
4.772169290761149
 10
2.959371674046628
 20
4.773688554220711
 10
2.962441655695733
 20
4.776038222552566
 97
        0
 97
        1
330
9C
 75
     2
 76
     1
 98
        1
 10
0.0
 20
0.0
450
        0
451
        0
460
0.0
461
0.0
452
        0
462
0.0
453
        0
470

  0
SPLINE
  5
9E
330
70
100
AcDbEntity
  8
Layer 1
 62
   250
420
  2301728
370
    25
100
AcDbSpline
210
0.0
220
0.0
230
1.0
 70
     9
 71
     3
 72
    17
 73
    13
 74
     0
 42
0.0000000001
 43
0.0000000001
 40
0.0
 40
0.0
 40
0.0
 40
0.0
 40
1.0
 40
1.0
 40
1.0
 40
2.0
 40
2.0
 40
2.0
 40
3.0
 40
3.0
 40
3.0
 40
4.0
 40
4.0
 40
4.0
 40
4.0
 10
2.863132782103143
 20
4.844521460733807
 30
0.0
 10
2.86371784008136
 20
4.822682441686765
 30
0.0
 10
2.851614059972916
 20
4.805020610785251
 30
0.0
 10
2.836072545362513
 20
4.805004883420249
 30
0.0
 10
2.820527350302452
 20
4.805004883420249
 30
0.0
 10
2.807505092077639
 20
4.82266671432175
 30
0.0
 10
2.806888579369418
 20
4.844508878841805
 30
0.0
 10
2.806306666864202
 20
4.866332530053
 30
0.0
 10
2.818438756229675
 20
4.884010088766103
 30
0.0
 10
2.833980538328407
 20
4.884010088766103
 30
0.0
 10
2.84952546590014
 20
4.884025456155376
 30
0.0
 10
2.862550869597928
 20
4.866332530053
 30
0.0
 10
2.863132782103143
 20
4.844521460733807
 30
0.0
  0
HATCH
  5
9F
330
70
100
AcDbEntity
  8
Layer 1
 62
   253
420
 10987948
440
 33554687
100
AcDbHatch
 10
0.0
 20
0.0
 30
0.0
210
0.0
220
0.0
230
1.0
  2
SOLID
 70
     1
 71
     1
 91
        1
 92
        1
 93
        1
 72
     4
 94
        3
 73
     0
 74
     0
 95
       17
 96
       13
 40
0.0
 40
0.0
 40
0.0
 40
0.0
 40
1.0
 40
1.0
 40
1.0
 40
2.0
 40
2.0
 40
2.0
 40
3.0
 40
3.0
 40
3.0
 40
4.0
 40
4.0
 40
4.0
 40
4.0
 10
2.863132782103143
 20
4.844521460733807
 10
2.86371784008136
 20
4.822682441686765
 10
2.851614059972916
 20
4.805020610785251
 10
2.836072545362513
 20
4.805004883420249
 10
2.820527350302452
 20
4.805004883420249
 10
2.807505092077639
 20
4.82266671432175
 10
2.806888579369418
 20
4.844508878841805
 10
2.806306666864202
 20
4.866332530053
 10
2.818438756229675
 20
4.884010088766103
 10
2.833980538328407
 20
4.884010088766103
 10
2.84952546590014
 20
4.884025456155376
 10
2.862550869597928
 20
4.866332530053
 10
2.863132782103143
 20
4.844521460733807
 97
        0
 97
        1
330
9E
 75
     2
 76
     1
 98
        1
 10
0.0
 20
0.0
450
        0
451
        0
460
0.0
461
0.0
452
        0
462
0.0
453
        0
470

  0
SPLINE
  5
A0
330
70
100
AcDbEntity
  8
Layer 1
100
AcDbSpline
210
0.0
220
0.0
230
1.0
 70
     9
 71
     3
 72
    47
 73
    43
 74
     0
 42
0.0000000001
 43
0.0000000001
 40
0.0
 40
0.0
 40
0.0
 40
0.0
 40
1.0
 40
1.0
 40
1.0
 40
2.0
 40
2.0
 40
2.0
 40
3.0
 40
3.0
 40
3.0
 40
4.0
 40
4.0
 40
4.0
 40
5.0
 40
5.0
 40
5.0
 40
6.0
 40
6.0
 40
6.0
 40
7.0
 40
7.0
 40
7.0
 40
8.0
 40
8.0
 40
8.0
 40
9.0
 40
9.0
 40
9.0
 40
10.0
 40
10.0
 40
10.0
 40
11.0
 40
11.0
 40
11.0
 40
12.0
 40
12.0
 40
12.0
 40
13.0
 40
13.0
 40
13.0
 40
14.0
 40
14.0
 40
14.0
 40
14.0
 10
2.849434247183075
 20
4.809934197717489
 30
0.0
 10
2.846946178039186
 20
4.816080093857332
 30
0.0
 10
2.84313701023479
 20
4.823050820463675
 30
0.0
 10
2.83840621884105
 20
4.829624859202175
 30
0.0
 10
2.843350902398848
 20
4.83547822585548
 30
0.0
 10
2.848849189204884
 20
4.840636801577375
 30
0.0
 10
2.853948000939756
 20
4.843203507546326
 30
0.0
 10
2.856712871707789
 20
4.844615824923872
 30
0.0
 10
2.857788623474182
 20
4.847962967262181
 30
0.0
 10
2.856404615353666
 20
4.850711751600088
 30
0.0
 10
2.854992297976119
 20
4.853508077098126
 30
0.0
 10
2.851645514702921
 20
4.854599915462308
 30
0.0
 10
2.848849189204884
 20
4.853199820744003
 30
0.0
 10
2.843074100774755
 20
4.850252512541929
 30
0.0
 10
2.836868082543459
 20
4.844813989722928
 30
0.0
 10
2.831278577020409
 20
4.83850102540959
 30
0.0
 10
2.827286971781934
 20
4.842863796462197
 30
0.0
 10
2.82313809289341
 20
4.846597472914582
 30
0.0
 10
2.819083578194901
 20
4.848978595976455
 30
0.0
 10
2.816413338608602
 20
4.850529314166035
 30
0.0
 10
2.81297192415367
 20
4.849623417941693
 30
0.0
 10
2.811405478599074
 20
4.846949765890699
 30
0.0
 10
2.809867342301508
 20
4.844307568569736
 30
0.0
 10
2.810760656633849
 20
4.840850693741458
 30
0.0
 10
2.813462617941846
 20
4.83929997555189
 30
0.0
 10
2.816963529392144
 20
4.837211381479126
 30
0.0
 10
2.820681478479501
 20
4.833679015298811
 30
0.0
 10
2.82421411184853
 20
4.829624859202175
 30
0.0
 10
2.821018044090628
 20
4.825123328735659
 30
0.0
 10
2.818284628052626
 20
4.820593847613988
 30
0.0
 10
2.816287519685349
 20
4.816416659468447
 30
0.0
 10
2.818747012583773
 20
4.813038421465218
 30
0.0
 10
2.821634823922421
 20
4.810257823332183
 30
0.0
 10
2.824827211895025
 20
4.808307630071466
 30
0.0
 10
2.826057091838492
 20
4.811626104087697
 30
0.0
 10
2.828391032805332
 20
4.815847687109049
 30
0.0
 10
2.831341486480419
 20
4.820301318624879
 30
0.0
 10
2.834842397930717
 20
4.815048378712945
 30
0.0
 10
2.837607268698724
 20
4.809782856909009
 30
0.0
 10
2.839327842430343
 20
4.805451540586406
 30
0.0
 10
2.842951427327711
 20
4.806049180456637
 30
0.0
 10
2.846361120060969
 20
4.807584171281202
 30
0.0
 10
2.849434247183075
 20
4.809934197717489
 30
0.0
  0
HATCH
  5
A1
330
70
100
AcDbEntity
  8
Layer 1
 62
   250
420
  2301728
440
 33554687
100
AcDbHatch
 10
0.0
 20
0.0
 30
0.0
210
0.0
220
0.0
230
1.0
  2
SOLID
 70
     1
 71
     1
 91
        1
 92
        1
 93
        1
 72
     4
 94
        3
 73
     0
 74
     0
 95
       47
 96
       43
 40
0.0
 40
0.0
 40
0.0
 40
0.0
 40
1.0
 40
1.0
 40
1.0
 40
2.0
 40
2.0
 40
2.0
 40
3.0
 40
3.0
 40
3.0
 40
4.0
 40
4.0
 40
4.0
 40
5.0
 40
5.0
 40
5.0
 40
6.0
 40
6.0
 40
6.0
 40
7.0
 40
7.0
 40
7.0
 40
8.0
 40
8.0
 40
8.0
 40
9.0
 40
9.0
 40
9.0
 40
10.0
 40
10.0
 40
10.0
 40
11.0
 40
11.0
 40
11.0
 40
12.0
 40
12.0
 40
12.0
 40
13.0
 40
13.0
 40
13.0
 40
14.0
 40
14.0
 40
14.0
 40
14.0
 10
2.849434247183075
 20
4.809934197717489
 10
2.846946178039186
 20
4.816080093857332
 10
2.84313701023479
 20
4.823050820463675
 10
2.83840621884105
 20
4.829624859202175
 10
2.843350902398848
 20
4.83547822585548
 10
2.848849189204884
 20
4.840636801577375
 10
2.853948000939756
 20
4.843203507546326
 10
2.856712871707789
 20
4.844615824923872
 10
2.857788623474182
 20
4.847962967262181
 10
2.856404615353666
 20
4.850711751600088
 10
2.854992297976119
 20
4.853508077098126
 10
2.851645514702921
 20
4.854599915462308
 10
2.848849189204884
 20
4.853199820744003
 10
2.843074100774755
 20
4.850252512541929
 10
2.836868082543459
 20
4.844813989722928
 10
2.831278577020409
 20
4.83850102540959
 10
2.827286971781934
 20
4.842863796462197
 10
2.82313809289341
 20
4.846597472914582
 10
2.819083578194901
 20
4.848978595976455
 10
2.816413338608602
 20
4.850529314166035
 10
2.81297192415367
 20
4.849623417941693
 10
2.811405478599074
 20
4.846949765890699
 10
2.809867342301508
 20
4.844307568569736
 10
2.810760656633849
 20
4.840850693741458
 10
2.813462617941846
 20
4.83929997555189
 10
2.816963529392144
 20
4.837211381479126
 10
2.820681478479501
 20
4.833679015298811
 10
2.82421411184853
 20
4.829624859202175
 10
2.821018044090628
 20
4.825123328735659
 10
2.818284628052626
 20
4.820593847613988
 10
2.816287519685349
 20
4.816416659468447
 10
2.818747012583773
 20
4.813038421465218
 10
2.821634823922421
 20
4.810257823332183
 10
2.824827211895025
 20
4.808307630071466
 10
2.826057091838492
 20
4.811626104087697
 10
2.828391032805332
 20
4.815847687109049
 10
2.831341486480419
 20
4.820301318624879
 10
2.834842397930717
 20
4.815048378712945
 10
2.837607268698724
 20
4.809782856909009
 10
2.839327842430343
 20
4.805451540586406
 10
2.842951427327711
 20
4.806049180456637
 10
2.846361120060969
 20
4.807584171281202
 10
2.849434247183075
 20
4.809934197717489
 97
        0
 97
        1
330
A0
 75
     2
 76
     1
 98
        1
 10
0.0
 20
0.0
450
        0
451
        0
460
0.0
461
0.0
452
        0
462
0.0
453
        0
470

  0
SPLINE
  5
A2
330
70
100
AcDbEntity
  8
Layer 1
 62
   250
420
  2301728
370
    25
100
AcDbSpline
210
0.0
220
0.0
230
1.0
 70
     8
 71
     3
 72
    11
 73
     7
 74
     0
 42
0.0000000001
 43
0.0000000001
 40
0.0
 40
0.0
 40
0.0
 40
0.0
 40
1.0
 40
1.0
 40
1.0
 40
2.0
 40
2.0
 40
2.0
 40
2.0
 10
3.748627468551477
 20
3.780713055322773
 30
0.0
 10
3.742484359780215
 20
3.777287635224499
 30
0.0
 10
3.748781596728526
 20
3.784754988129255
 30
0.0
 10
3.750807571937734
 20
3.7878406971434
 30
0.0
 10
3.750807571937734
 20
3.7878406971434
 30
0.0
 10
3.882586872724838
 20
3.983847701737633
 30
0.0
 10
3.882586872724838
 20
3.983847701737633
 30
0.0
  0
LINE
  5
A3
330
70
100
AcDbEntity
  8
Layer 1
 62
   250
420
  2301728
370
    15
100
AcDbLine
 10
1.269186584982169
 20
7.07934542785439
 30
0.0
 11
3.956521511410301
 21
4.263300959579611
 31
0.0
  0
LINE
  5
A4
330
70
100
AcDbEntity
  8
Layer 1
 62
   250
420
  2301728
370
    25
100
AcDbLine
 10
3.968624995725551
 20
4.197519682706418
 30
0.0
 11
4.001863208928776
 21
4.165681204988648
 31
0.0
  0
LINE
  5
A5
330
70
100
AcDbEntity
  8
Layer 1
 62
   250
420
  2301728
370
    25
100
AcDbLine
 10
4.015624950595186
 20
4.258494676833858
 30
0.0
 11
4.060686699523456
 21
4.213508121971269
 31
0.0
  0
SPLINE
  5
A6
330
70
100
AcDbEntity
  8
Layer 1
 62
   250
420
  2301728
370
    25
100
AcDbSpline
210
0.0
220
0.0
230
1.0
 70
     9
 71
     3
 72
    17
 73
    13
 74
     0
 42
0.0000000001
 43
0.0000000001
 40
0.0
 40
0.0
 40
0.0
 40
0.0
 40
1.0
 40
1.0
 40
1.0
 40
2.0
 40
2.0
 40
2.0
 40
3.0
 40
3.0
 40
3.0
 40
4.0
 40
4.0
 40
4.0
 40
4.0
 10
2.958940744245435
 20
4.284174318415314
 30
0.0
 10
2.958940744245435
 20
4.261350766318906
 30
0.0
 10
2.942046408756242
 20
4.242814493923067
 30
0.0
 10
2.929451934859596
 20
4.242814493923067
 30
0.0
 10
2.91685746096295
 20
4.242814493923067
 30
0.0
 10
2.906596928033144
 20
4.261350766318906
 30
0.0
 10
2.906596928033144
 20
4.284174318415314
 30
0.0
 10
2.906596928033144
 20
4.30699787051171
 30
0.0
 10
2.91685746096295
 20
4.325490106285542
 30
0.0
 10
2.929451934859596
 20
4.325490106285542
 30
0.0
 10
2.942046408756242
 20
4.325490106285542
 30
0.0
 10
2.958940744245435
 20
4.311068112575222
 30
0.0
 10
2.958940744245435
 20
4.284174318415314
 30
0.0
  0
HATCH
  5
A7
330
70
100
AcDbEntity
  8
Layer 1
 62
   253
420
 10987948
440
 33554687
100
AcDbHatch
 10
0.0
 20
0.0
 30
0.0
210
0.0
220
0.0
230
1.0
  2
SOLID
 70
     1
 71
     1
 91
        1
 92
        1
 93
        1
 72
     4
 94
        3
 73
     0
 74
     0
 95
       17
 96
       13
 40
0.0
 40
0.0
 40
0.0
 40
0.0
 40
1.0
 40
1.0
 40
1.0
 40
2.0
 40
2.0
 40
2.0
 40
3.0
 40
3.0
 40
3.0
 40
4.0
 40
4.0
 40
4.0
 40
4.0
 10
2.958940744245435
 20
4.284174318415314
 10
2.958940744245435
 20
4.261350766318906
 10
2.942046408756242
 20
4.242814493923067
 10
2.929451934859596
 20
4.242814493923067
 10
2.91685746096295
 20
4.242814493923067
 10
2.906596928033144
 20
4.261350766318906
 10
2.906596928033144
 20
4.284174318415314
 10
2.906596928033144
 20
4.30699787051171
 10
2.91685746096295
 20
4.325490106285542
 10
2.929451934859596
 20
4.325490106285542
 10
2.942046408756242
 20
4.325490106285542
 10
2.958940744245435
 20
4.311068112575222
 10
2.958940744245435
 20
4.284174318415314
 97
        0
 97
        1
330
A6
 75
     2
 76
     1
 98
        1
 10
0.0
 20
0.0
450
        0
451
        0
460
0.0
461
0.0
452
        0
462
0.0
453
        0
470

  0
SPLINE
  5
A8
330
70
100
AcDbEntity
  8
Layer 1
100
AcDbSpline
210
0.0
220
0.0
230
1.0
 70
     9
 71
     3
 72
    53
 73
    49
 74
     0
 42
0.0000000001
 43
0.0000000001
 40
0.0
 40
0.0
 40
0.0
 40
0.0
 40
1.0
 40
1.0
 40
1.0
 40
2.0
 40
2.0
 40
2.0
 40
3.0
 40
3.0
 40
3.0
 40
4.0
 40
4.0
 40
4.0
 40
5.0
 40
5.0
 40
5.0
 40
6.0
 40
6.0
 40
6.0
 40
7.0
 40
7.0
 40
7.0
 40
8.0
 40
8.0
 40
8.0
 40
9.0
 40
9.0
 40
9.0
 40
10.0
 40
10.0
 40
10.0
 40
11.0
 40
11.0
 40
11.0
 40
12.0
 40
12.0
 40
12.0
 40
13.0
 40
13.0
 40
13.0
 40
14.0
 40
14.0
 40
14.0
 40
15.0
 40
15.0
 40
15.0
 40
16.0
 40
16.0
 40
16.0
 40
16.0
 10
2.943304597956688
 20
4.2995182809252
 30
0.0
 10
2.942477338557384
 20
4.302587917364095
 30
0.0
 10
2.941461350778
 20
4.30538424286212
 30
0.0
 10
2.940203161577553
 20
4.307950948831072
 30
0.0
 10
2.93989490522343
 20
4.307781093289021
 30
0.0
 10
2.939495700253296
 20
4.30784085727603
 30
0.0
 10
2.939221774001175
 20
4.307595510381942
 30
0.0
 10
2.93676201411429
 20
4.305324478875111
 30
0.0
 10
2.934613656054478
 20
4.300471014034314
 30
0.0
 10
2.932830172862825
 20
4.294601561414184
 30
0.0
 10
2.929143678505472
 20
4.296168006968729
 30
0.0
 10
2.925674221785205
 20
4.297077048666058
 30
0.0
 10
2.923123243181255
 20
4.296860011028974
 30
0.0
 10
2.9208522116744
 20
4.296677573594921
 30
0.0
 10
2.91919140192979
 20
4.294711652969188
 30
0.0
 10
2.919376984836894
 20
4.292468930719362
 30
0.0
 10
2.919562567743949
 20
4.290241935834552
 30
0.0
 10
2.921528488369656
 20
4.288565398724927
 30
0.0
 10
2.923799789580951
 20
4.28878243636201
 30
0.0
 10
2.925152343005695
 20
4.288889382444052
 30
0.0
 10
2.927822579844991
 20
4.288043250206745
 30
0.0
 10
2.930864252237092
 20
4.286615205464221
 30
0.0
 10
2.928316419106168
 20
4.274190587109627
 30
0.0
 10
2.927548923693873
 20
4.25981577549434
 30
0.0
 10
2.92963751776665
 20
4.252411332049594
 30
0.0
 10
2.929819955200728
 20
4.251750782719353
 30
0.0
 10
2.930373828319488
 20
4.251367035013219
 30
0.0
 10
2.930804488250082
 20
4.250923523320048
 30
0.0
 10
2.933016025707198
 20
4.252965279332
 30
0.0
 10
2.935041440382671
 20
4.25548445917175
 30
0.0
 10
2.936884957596374
 20
4.258233602574756
 30
0.0
 10
2.936148646879044
 20
4.264606330875102
 30
0.0
 10
2.936824923574299
 20
4.273822566768495
 30
0.0
 10
2.938359914398865
 20
4.282315343871624
 30
0.0
 10
2.940571181918686
 20
4.280811807777076
 30
0.0
 10
2.942722685451472
 20
4.279106961410434
 30
0.0
 10
2.94462569661717
 20
4.277263714231771
 30
0.0
 10
2.945056626418338
 20
4.279780092632689
 30
0.0
 10
2.945301973312426
 20
4.282362525966643
 30
0.0
 10
2.945301973312426
 20
4.285020450652622
 30
0.0
 10
2.945301973312426
 20
4.285863437416929
 30
0.0
 10
2.945179299865382
 20
4.286586896207205
 30
0.0
 10
2.945119535878347
 20
4.287429882971498
 30
0.0
 10
2.943521905796463
 20
4.288644035549951
 30
0.0
 10
2.941892280579168
 20
4.289779551303379
 30
0.0
 10
2.940203161577553
 20
4.290808120974753
 30
0.0
 10
2.941187694626907
 20
4.294419123980093
 30
0.0
 10
2.942232261833446
 20
4.297505178153591
 30
0.0
 10
2.943304597956688
 20
4.2995182809252
 30
0.0
  0
HATCH
  5
A9
330
70
100
AcDbEntity
  8
Layer 1
 62
   250
420
  2301728
440
 33554687
100
AcDbHatch
 10
0.0
 20
0.0
 30
0.0
210
0.0
220
0.0
230
1.0
  2
SOLID
 70
     1
 71
     1
 91
        1
 92
        1
 93
        1
 72
     4
 94
        3
 73
     0
 74
     0
 95
       53
 96
       49
 40
0.0
 40
0.0
 40
0.0
 40
0.0
 40
1.0
 40
1.0
 40
1.0
 40
2.0
 40
2.0
 40
2.0
 40
3.0
 40
3.0
 40
3.0
 40
4.0
 40
4.0
 40
4.0
 40
5.0
 40
5.0
 40
5.0
 40
6.0
 40
6.0
 40
6.0
 40
7.0
 40
7.0
 40
7.0
 40
8.0
 40
8.0
 40
8.0
 40
9.0
 40
9.0
 40
9.0
 40
10.0
 40
10.0
 40
10.0
 40
11.0
 40
11.0
 40
11.0
 40
12.0
 40
12.0
 40
12.0
 40
13.0
 40
13.0
 40
13.0
 40
14.0
 40
14.0
 40
14.0
 40
15.0
 40
15.0
 40
15.0
 40
16.0
 40
16.0
 40
16.0
 40
16.0
 10
2.943304597956688
 20
4.2995182809252
 10
2.942477338557384
 20
4.302587917364095
 10
2.941461350778
 20
4.30538424286212
 10
2.940203161577553
 20
4.307950948831072
 10
2.93989490522343
 20
4.307781093289021
 10
2.939495700253296
 20
4.30784085727603
 10
2.939221774001175
 20
4.307595510381942
 10
2.93676201411429
 20
4.305324478875111
 10
2.934613656054478
 20
4.300471014034314
 10
2.932830172862825
 20
4.294601561414184
 10
2.929143678505472
 20
4.296168006968729
 10
2.925674221785205
 20
4.297077048666058
 10
2.923123243181255
 20
4.296860011028974
 10
2.9208522116744
 20
4.296677573594921
 10
2.91919140192979
 20
4.294711652969188
 10
2.919376984836894
 20
4.292468930719362
 10
2.919562567743949
 20
4.290241935834552
 10
2.921528488369656
 20
4.288565398724927
 10
2.923799789580951
 20
4.28878243636201
 10
2.925152343005695
 20
4.288889382444052
 10
2.927822579844991
 20
4.288043250206745
 10
2.930864252237092
 20
4.286615205464221
 10
2.928316419106168
 20
4.274190587109627
 10
2.927548923693873
 20
4.25981577549434
 10
2.92963751776665
 20
4.252411332049594
 10
2.929819955200728
 20
4.251750782719353
 10
2.930373828319488
 20
4.251367035013219
 10
2.930804488250082
 20
4.250923523320048
 10
2.933016025707198
 20
4.252965279332
 10
2.935041440382671
 20
4.25548445917175
 10
2.936884957596374
 20
4.258233602574756
 10
2.936148646879044
 20
4.264606330875102
 10
2.936824923574299
 20
4.273822566768495
 10
2.938359914398865
 20
4.282315343871624
 10
2.940571181918686
 20
4.280811807777076
 10
2.942722685451472
 20
4.279106961410434
 10
2.94462569661717
 20
4.277263714231771
 10
2.945056626418338
 20
4.279780092632689
 10
2.945301973312426
 20
4.282362525966643
 10
2.945301973312426
 20
4.285020450652622
 10
2.945301973312426
 20
4.285863437416929
 10
2.945179299865382
 20
4.286586896207205
 10
2.945119535878347
 20
4.287429882971498
 10
2.943521905796463
 20
4.288644035549951
 10
2.941892280579168
 20
4.289779551303379
 10
2.940203161577553
 20
4.290808120974753
 10
2.941187694626907
 20
4.294419123980093
 10
2.942232261833446
 20
4.297505178153591
 10
2.943304597956688
 20
4.2995182809252
 97
        0
 97
        1
330
A8
 75
     2
 76
     1
 98
        1
 10
0.0
 20
0.0
450
        0
451
        0
460
0.0
461
0.0
452
        0
462
0.0
453
        0
470

  0
SPLINE
  5
AA
330
70
100
AcDbEntity
  8
Layer 1
 62
   250
420
  2301728
370
    25
100
AcDbSpline
210
0.0
220
0.0
230
1.0
 70
     9
 71
     3
 72
    17
 73
    13
 74
     0
 42
0.0000000001
 43
0.0000000001
 40
0.0
 40
0.0
 40
0.0
 40
0.0
 40
1.0
 40
1.0
 40
1.0
 40
2.0
 40
2.0
 40
2.0
 40
3.0
 40
3.0
 40
3.0
 40
4.0
 40
4.0
 40
4.0
 40
4.0
 10
3.055761548694135
 20
4.35107538367697
 30
0.0
 10
3.055761548694135
 20
4.328270704418551
 30
0.0
 10
3.038835758474887
 20
4.309747013914741
 30
0.0
 10
3.026212975321262
 20
4.309747013914741
 30
0.0
 10
3.013649956154621
 20
4.309747013914741
 30
0.0
 10
3.00335796849481
 20
4.328270704418551
 30
0.0
 10
3.00335796849481
 20
4.35107538367697
 30
0.0
 10
3.00335796849481
 20
4.373930390503397
 30
0.0
 10
3.013649956154621
 20
4.392422626277203
 30
0.0
 10
3.026212975321262
 20
4.392422626277203
 30
0.0
 10
3.038835758474887
 20
4.392422626277203
 30
0.0
 10
3.055761548694135
 20
4.377969177836866
 30
0.0
 10
3.055761548694135
 20
4.35107538367697
 30
0.0
  0
HATCH
  5
AB
330
70
100
AcDbEntity
  8
Layer 1
 62
   253
420
 10987948
440
 33554687
100
AcDbHatch
 10
0.0
 20
0.0
 30
0.0
210
0.0
220
0.0
230
1.0
  2
SOLID
 70
     1
 71
     1
 91
        1
 92
        1
 93
        1
 72
     4
 94
        3
 73
     0
 74
     0
 95
       17
 96
       13
 40
0.0
 40
0.0
 40
0.0
 40
0.0
 40
1.0
 40
1.0
 40
1.0
 40
2.0
 40
2.0
 40
2.0
 40
3.0
 40
3.0
 40
3.0
 40
4.0
 40
4.0
 40
4.0
 40
4.0
 10
3.055761548694135
 20
4.35107538367697
 10
3.055761548694135
 20
4.328270704418551
 10
3.038835758474887
 20
4.309747013914741
 10
3.026212975321262
 20
4.309747013914741
 10
3.013649956154621
 20
4.309747013914741
 10
3.00335796849481
 20
4.328270704418551
 10
3.00335796849481
 20
4.35107538367697
 10
3.00335796849481
 20
4.373930390503397
 10
3.013649956154621
 20
4.392422626277203
 10
3.026212975321262
 20
4.392422626277203
 10
3.038835758474887
 20
4.392422626277203
 10
3.055761548694135
 20
4.377969177836866
 10
3.055761548694135
 20
4.35107538367697
 97
        0
 97
        1
330
AA
 75
     2
 76
     1
 98
        1
 10
0.0
 20
0.0
450
        0
451
        0
460
0.0
461
0.0
452
        0
462
0.0
453
        0
470

  0
SPLINE
  5
AC
330
70
100
AcDbEntity
  8
Layer 1
100
AcDbSpline
210
0.0
220
0.0
230
1.0
 70
     9
 71
     3
 72
    53
 73
    49
 74
     0
 42
0.0000000001
 43
0.0000000001
 40
0.0
 40
0.0
 40
0.0
 40
0.0
 40
1.0
 40
1.0
 40
1.0
 40
2.0
 40
2.0
 40
2.0
 40
3.0
 40
3.0
 40
3.0
 40
4.0
 40
4.0
 40
4.0
 40
5.0
 40
5.0
 40
5.0
 40
6.0
 40
6.0
 40
6.0
 40
7.0
 40
7.0
 40
7.0
 40
8.0
 40
8.0
 40
8.0
 40
9.0
 40
9.0
 40
9.0
 40
10.0
 40
10.0
 40
10.0
 40
11.0
 40
11.0
 40
11.0
 40
12.0
 40
12.0
 40
12.0
 40
13.0
 40
13.0
 40
13.0
 40
14.0
 40
14.0
 40
14.0
 40
15.0
 40
15.0
 40
15.0
 40
16.0
 40
16.0
 40
16.0
 40
16.0
 10
3.038653321040833
 20
4.369907330534904
 30
0.0
 10
3.037823188753438
 20
4.37296158481907
 30
0.0
 10
3.036810073862145
 20
4.375757910317057
 30
0.0
 10
3.035520429931668
 20
4.378337198178011
 30
0.0
 10
3.035212446096592
 20
4.378155107940718
 30
0.0
 10
3.034844153236412
 20
4.378230252095969
 30
0.0
 10
3.034598806342323
 20
4.377969177836866
 30
0.0
 10
3.032142191928414
 20
4.375682418965021
 30
0.0
 10
3.029928051321146
 20
4.370844681489251
 30
0.0
 10
3.028210350676974
 20
4.364990956234097
 30
0.0
 10
3.024492401589592
 20
4.366557401788668
 30
0.0
 10
3.021019799396324
 20
4.367450716120995
 30
0.0
 10
3.01844051153537
 20
4.367249405848926
 30
0.0
 10
3.016229244015549
 20
4.367035513684855
 30
0.0
 10
3.014571579743965
 20
4.365085320424125
 30
0.0
 10
3.014754017177993
 20
4.362858325539314
 30
0.0
 10
3.014876690625063
 20
4.360615603289488
 30
0.0
 10
3.016874338036536
 20
4.358954793544878
 30
0.0
 10
3.019148242960631
 20
4.35915645053376
 30
0.0
 10
3.020529105608147
 20
4.359278777264017
 30
0.0
 10
3.023171302929111
 20
4.358416917661669
 30
0.0
 10
3.026244430051267
 20
4.356988872919146
 30
0.0
 10
3.023661996717312
 20
4.344548527199561
 30
0.0
 10
3.022863046574987
 20
4.330189442949277
 30
0.0
 10
3.025014550107799
 20
4.322800726869546
 30
0.0
 10
3.025196987541878
 20
4.32212445017429
 30
0.0
 10
3.025750590790064
 20
4.321756775605194
 30
0.0
 10
3.026181520591232
 20
4.321281463409983
 30
0.0
 10
3.028392788111053
 20
4.32333860275273
 30
0.0
 10
3.03039016346679
 20
4.325873853991677
 30
0.0
 10
3.032264865375484
 20
4.328607270029692
 30
0.0
 10
3.031465915233158
 20
4.334979998330052
 30
0.0
 10
3.032201955915449
 20
4.344180506858429
 30
0.0
 10
3.033677182752979
 20
4.35268901132656
 30
0.0
 10
3.0358884502728
 20
4.351201202597015
 30
0.0
 10
3.038039953805587
 20
4.349480628865371
 30
0.0
 10
3.04000587443132
 20
4.347653109051697
 30
0.0
 10
3.040373894772478
 20
4.350156905560652
 30
0.0
 10
3.040679005653575
 20
4.35273619342158
 30
0.0
 10
3.040679005653575
 20
4.355378390742556
 30
0.0
 10
3.040679005653575
 20
4.356252832236868
 30
0.0
 10
3.040496840872012
 20
4.35697314555413
 30
0.0
 10
3.040465386141199
 20
4.357803897109103
 30
0.0
 10
3.038898667934922
 20
4.359001975639886
 30
0.0
 10
3.037241003663312
 20
4.360168946123318
 30
0.0
 10
3.035580193918702
 20
4.36119751579473
 30
0.0
 10
3.03656499952121
 20
4.364808518800019
 30
0.0
 10
3.03757756927444
 20
4.367862773084147
 30
0.0
 10
3.038653321040833
 20
4.369907330534904
 30
0.0
  0
HATCH
  5
AD
330
70
100
AcDbEntity
  8
Layer 1
 62
   250
420
  2301728
440
 33554687
100
AcDbHatch
 10
0.0
 20
0.0
 30
0.0
210
0.0
220
0.0
230
1.0
  2
SOLID
 70
     1
 71
     1
 91
        1
 92
        1
 93
        1
 72
     4
 94
        3
 73
     0
 74
     0
 95
       53
 96
       49
 40
0.0
 40
0.0
 40
0.0
 40
0.0
 40
1.0
 40
1.0
 40
1.0
 40
2.0
 40
2.0
 40
2.0
 40
3.0
 40
3.0
 40
3.0
 40
4.0
 40
4.0
 40
4.0
 40
5.0
 40
5.0
 40
5.0
 40
6.0
 40
6.0
 40
6.0
 40
7.0
 40
7.0
 40
7.0
 40
8.0
 40
8.0
 40
8.0
 40
9.0
 40
9.0
 40
9.0
 40
10.0
 40
10.0
 40
10.0
 40
11.0
 40
11.0
 40
11.0
 40
12.0
 40
12.0
 40
12.0
 40
13.0
 40
13.0
 40
13.0
 40
14.0
 40
14.0
 40
14.0
 40
15.0
 40
15.0
 40
15.0
 40
16.0
 40
16.0
 40
16.0
 40
16.0
 10
3.038653321040833
 20
4.369907330534904
 10
3.037823188753438
 20
4.37296158481907
 10
3.036810073862145
 20
4.375757910317057
 10
3.035520429931668
 20
4.378337198178011
 10
3.035212446096592
 20
4.378155107940718
 10
3.034844153236412
 20
4.378230252095969
 10
3.034598806342323
 20
4.377969177836866
 10
3.032142191928414
 20
4.375682418965021
 10
3.029928051321146
 20
4.370844681489251
 10
3.028210350676974
 20
4.364990956234097
 10
3.024492401589592
 20
4.366557401788668
 10
3.021019799396324
 20
4.367450716120995
 10
3.01844051153537
 20
4.367249405848926
 10
3.016229244015549
 20
4.367035513684855
 10
3.014571579743965
 20
4.365085320424125
 10
3.014754017177993
 20
4.362858325539314
 10
3.014876690625063
 20
4.360615603289488
 10
3.016874338036536
 20
4.358954793544878
 10
3.019148242960631
 20
4.35915645053376
 10
3.020529105608147
 20
4.359278777264017
 10
3.023171302929111
 20
4.358416917661669
 10
3.026244430051267
 20
4.356988872919146
 10
3.023661996717312
 20
4.344548527199561
 10
3.022863046574987
 20
4.330189442949277
 10
3.025014550107799
 20
4.322800726869546
 10
3.025196987541878
 20
4.32212445017429
 10
3.025750590790064
 20
4.321756775605194
 10
3.026181520591232
 20
4.321281463409983
 10
3.028392788111053
 20
4.32333860275273
 10
3.03039016346679
 20
4.325873853991677
 10
3.032264865375484
 20
4.328607270029692
 10
3.031465915233158
 20
4.334979998330052
 10
3.032201955915449
 20
4.344180506858429
 10
3.033677182752979
 20
4.35268901132656
 10
3.0358884502728
 20
4.351201202597015
 10
3.038039953805587
 20
4.349480628865371
 10
3.04000587443132
 20
4.347653109051697
 10
3.040373894772478
 20
4.350156905560652
 10
3.040679005653575
 20
4.35273619342158
 10
3.040679005653575
 20
4.355378390742556
 10
3.040679005653575
 20
4.356252832236868
 10
3.040496840872012
 20
4.35697314555413
 10
3.040465386141199
 20
4.357803897109103
 10
3.038898667934922
 20
4.359001975639886
 10
3.037241003663312
 20
4.360168946123318
 10
3.035580193918702
 20
4.36119751579473
 10
3.03656499952121
 20
4.364808518800019
 10
3.03757756927444
 20
4.367862773084147
 10
3.038653321040833
 20
4.369907330534904
 97
        0
 97
        1
330
AC
 75
     2
 76
     1
 98
        1
 10
0.0
 20
0.0
450
        0
451
        0
460
0.0
461
0.0
452
        0
462
0.0
453
        0
470

  0
SPLINE
  5
AE
330
70
100
AcDbEntity
  8
Layer 1
 62
   250
420
  2301728
370
    25
100
AcDbSpline
210
0.0
220
0.0
230
1.0
 70
     9
 71
     3
 72
    17
 73
    13
 74
     0
 42
0.0000000001
 43
0.0000000001
 40
0.0
 40
0.0
 40
0.0
 40
0.0
 40
1.0
 40
1.0
 40
1.0
 40
2.0
 40
2.0
 40
2.0
 40
3.0
 40
3.0
 40
3.0
 40
4.0
 40
4.0
 40
4.0
 40
4.0
 10
2.9628725854969
 20
4.030800515647797
 30
0.0
 10
2.9628725854969
 20
4.007976625129534
 30
0.0
 10
2.945915340547647
 20
3.989484389355702
 30
0.0
 10
2.933324012124027
 20
3.989484389355702
 30
0.0
 10
2.920729538227381
 20
3.989484389355702
 30
0.0
 10
2.91050046002758
 20
4.007976625129534
 30
0.0
 10
2.91050046002758
 20
4.030800515647797
 30
0.0
 10
2.91050046002758
 20
4.053592274592334
 30
0.0
 10
2.920729538227381
 20
4.072100577196326
 30
0.0
 10
2.933324012124027
 20
4.072100577196326
 30
0.0
 10
2.945915340547647
 20
4.072100577196326
 30
0.0
 10
2.9628725854969
 20
4.057694310487097
 30
0.0
 10
2.9628725854969
 20
4.030800515647797
 30
0.0
  0
HATCH
  5
AF
330
70
100
AcDbEntity
  8
Layer 1
 62
   253
420
 10987948
440
 33554687
100
AcDbHatch
 10
0.0
 20
0.0
 30
0.0
210
0.0
220
0.0
230
1.0
  2
SOLID
 70
     1
 71
     1
 91
        1
 92
        1
 93
        1
 72
     4
 94
        3
 73
     0
 74
     0
 95
       17
 96
       13
 40
0.0
 40
0.0
 40
0.0
 40
0.0
 40
1.0
 40
1.0
 40
1.0
 40
2.0
 40
2.0
 40
2.0
 40
3.0
 40
3.0
 40
3.0
 40
4.0
 40
4.0
 40
4.0
 40
4.0
 10
2.9628725854969
 20
4.030800515647797
 10
2.9628725854969
 20
4.007976625129534
 10
2.945915340547647
 20
3.989484389355702
 10
2.933324012124027
 20
3.989484389355702
 10
2.920729538227381
 20
3.989484389355702
 10
2.91050046002758
 20
4.007976625129534
 10
2.91050046002758
 20
4.030800515647797
 10
2.91050046002758
 20
4.053592274592334
 10
2.920729538227381
 20
4.072100577196326
 10
2.933324012124027
 20
4.072100577196326
 10
2.945915340547647
 20
4.072100577196326
 10
2.9628725854969
 20
4.057694310487097
 10
2.9628725854969
 20
4.030800515647797
 97
        0
 97
        1
330
AE
 75
     2
 76
     1
 98
        1
 10
0.0
 20
0.0
450
        0
451
        0
460
0.0
461
0.0
452
        0
462
0.0
453
        0
470

  0
SPLINE
  5
B0
330
70
100
AcDbEntity
  8
Layer 1
100
AcDbSpline
210
0.0
220
0.0
230
1.0
 70
     9
 71
     3
 72
    53
 73
    49
 74
     0
 42
0.0000000001
 43
0.0000000001
 40
0.0
 40
0.0
 40
0.0
 40
0.0
 40
1.0
 40
1.0
 40
1.0
 40
2.0
 40
2.0
 40
2.0
 40
3.0
 40
3.0
 40
3.0
 40
4.0
 40
4.0
 40
4.0
 40
5.0
 40
5.0
 40
5.0
 40
6.0
 40
6.0
 40
6.0
 40
7.0
 40
7.0
 40
7.0
 40
8.0
 40
8.0
 40
8.0
 40
9.0
 40
9.0
 40
9.0
 40
10.0
 40
10.0
 40
10.0
 40
11.0
 40
11.0
 40
11.0
 40
12.0
 40
12.0
 40
12.0
 40
13.0
 40
13.0
 40
13.0
 40
14.0
 40
14.0
 40
14.0
 40
15.0
 40
15.0
 40
15.0
 40
16.0
 40
16.0
 40
16.0
 40
16.0
 10
2.946836964136991
 20
4.047449165821072
 30
0.0
 10
2.946009704737687
 20
4.050522631863271
 30
0.0
 10
2.944933952971294
 20
4.053315472968241
 30
0.0
 10
2.943704073027826
 20
4.055866451572165
 30
0.0
 10
2.943398962146728
 20
4.05571266244629
 30
0.0
 10
2.943027796332595
 20
4.055759505490136
 30
0.0
 10
2.942782449438482
 20
4.055514158596047
 30
0.0
 10
2.940266071037588
 20
4.053255708981219
 30
0.0
 10
2.938114567504776
 20
4.048402244140421
 30
0.0
 10
2.936393993773157
 20
4.042551664358269
 30
0.0
 10
2.932647735428771
 20
4.044070927817831
 30
0.0
 10
2.929206587965508
 20
4.044992551407164
 30
0.0
 10
2.926627300104554
 20
4.044791241135081
 30
0.0
 10
2.924384577854702
 20
4.044609142471712
 30
0.0
 10
2.922755222840098
 20
4.042658949161717
 30
0.0
 10
2.922909351017172
 20
4.04040016082547
 30
0.0
 10
2.923063479194221
 20
4.038157438575644
 30
0.0
 10
2.925029399819979
 20
4.036499774304035
 30
0.0
 10
2.927300431326784
 20
4.036697939103115
 30
0.0
 10
2.928684439447301
 20
4.03682061255016
 30
0.0
 10
2.931358091498294
 20
4.035961898420838
 30
0.0
 10
2.934396618417395
 20
4.034533853678314
 30
0.0
 10
2.931848785286471
 20
4.022109235323733
 30
0.0
 10
2.931049835144171
 20
4.007747005600435
 30
0.0
 10
2.933138429216922
 20
4.000329980263712
 30
0.0
 10
2.933352321381006
 20
3.999637976203454
 30
0.0
 10
2.933905924629243
 20
3.999314330110792
 30
0.0
 10
2.934368579131892
 20
3.998854753426156
 30
0.0
 10
2.936516667220176
 20
4.000880438038911
 30
0.0
 10
2.938545497305918
 20
4.003415689277845
 30
0.0
 10
2.940448508471641
 20
4.006180560045865
 30
0.0
 10
2.939649558329342
 20
4.012525317049393
 30
0.0
 10
2.940325835024572
 20
4.021753796874602
 30
0.0
 10
2.941860825849163
 20
4.030234330493284
 30
0.0
 10
2.944072093368959
 20
4.028743037883208
 30
0.0
 10
2.94622359690177
 20
4.027038191516541
 30
0.0
 10
2.948158062797473
 20
4.025179216972863
 30
0.0
 10
2.94855753786861
 20
4.027683013481793
 30
0.0
 10
2.948865794222733
 20
4.030293756072751
 30
0.0
 10
2.948865794222733
 20
4.03295168075873
 30
0.0
 10
2.948865794222733
 20
4.033810394888051
 30
0.0
 10
2.948680481648706
 20
4.034518126313312
 30
0.0
 10
2.94865190205865
 20
4.035361451614676
 30
0.0
 10
2.947022547044045
 20
4.036590993021073
 30
0.0
 10
2.945424646759445
 20
4.037710781409487
 30
0.0
 10
2.943766982487861
 20
4.038711041823843
 30
0.0
 10
2.944688606077205
 20
4.042381808816204
 30
0.0
 10
2.945764357843598
 20
4.045423481208331
 30
0.0
 10
2.946836964136991
 20
4.047449165821072
 30
0.0
  0
HATCH
  5
B1
330
70
100
AcDbEntity
  8
Layer 1
 62
   250
420
  2301728
440
 33554687
100
AcDbHatch
 10
0.0
 20
0.0
 30
0.0
210
0.0
220
0.0
230
1.0
  2
SOLID
 70
     1
 71
     1
 91
        1
 92
        1
 93
        1
 72
     4
 94
        3
 73
     0
 74
     0
 95
       53
 96
       49
 40
0.0
 40
0.0
 40
0.0
 40
0.0
 40
1.0
 40
1.0
 40
1.0
 40
2.0
 40
2.0
 40
2.0
 40
3.0
 40
3.0
 40
3.0
 40
4.0
 40
4.0
 40
4.0
 40
5.0
 40
5.0
 40
5.0
 40
6.0
 40
6.0
 40
6.0
 40
7.0
 40
7.0
 40
7.0
 40
8.0
 40
8.0
 40
8.0
 40
9.0
 40
9.0
 40
9.0
 40
10.0
 40
10.0
 40
10.0
 40
11.0
 40
11.0
 40
11.0
 40
12.0
 40
12.0
 40
12.0
 40
13.0
 40
13.0
 40
13.0
 40
14.0
 40
14.0
 40
14.0
 40
15.0
 40
15.0
 40
15.0
 40
16.0
 40
16.0
 40
16.0
 40
16.0
 10
2.946836964136991
 20
4.047449165821072
 10
2.946009704737687
 20
4.050522631863271
 10
2.944933952971294
 20
4.053315472968241
 10
2.943704073027826
 20
4.055866451572165
 10
2.943398962146728
 20
4.05571266244629
 10
2.943027796332595
 20
4.055759505490136
 10
2.942782449438482
 20
4.055514158596047
 10
2.940266071037588
 20
4.053255708981219
 10
2.938114567504776
 20
4.048402244140421
 10
2.936393993773157
 20
4.042551664358269
 10
2.932647735428771
 20
4.044070927817831
 10
2.929206587965508
 20
4.044992551407164
 10
2.926627300104554
 20
4.044791241135081
 10
2.924384577854702
 20
4.044609142471712
 10
2.922755222840098
 20
4.042658949161717
 10
2.922909351017172
 20
4.04040016082547
 10
2.923063479194221
 20
4.038157438575644
 10
2.925029399819979
 20
4.036499774304035
 10
2.927300431326784
 20
4.036697939103115
 10
2.928684439447301
 20
4.03682061255016
 10
2.931358091498294
 20
4.035961898420838
 10
2.934396618417395
 20
4.034533853678314
 10
2.931848785286471
 20
4.022109235323733
 10
2.931049835144171
 20
4.007747005600435
 10
2.933138429216922
 20
4.000329980263712
 10
2.933352321381006
 20
3.999637976203454
 10
2.933905924629243
 20
3.999314330110792
 10
2.934368579131892
 20
3.998854753426156
 10
2.936516667220176
 20
4.000880438038911
 10
2.938545497305918
 20
4.003415689277845
 10
2.940448508471641
 20
4.006180560045865
 10
2.939649558329342
 20
4.012525317049393
 10
2.940325835024572
 20
4.021753796874602
 10
2.941860825849163
 20
4.030234330493284
 10
2.944072093368959
 20
4.028743037883208
 10
2.94622359690177
 20
4.027038191516541
 10
2.948158062797473
 20
4.025179216972863
 10
2.94855753786861
 20
4.027683013481793
 10
2.948865794222733
 20
4.030293756072751
 10
2.948865794222733
 20
4.03295168075873
 10
2.948865794222733
 20
4.033810394888051
 10
2.948680481648706
 20
4.034518126313312
 10
2.94865190205865
 20
4.035361451614676
 10
2.947022547044045
 20
4.036590993021073
 10
2.945424646759445
 20
4.037710781409487
 10
2.943766982487861
 20
4.038711041823843
 10
2.944688606077205
 20
4.042381808816204
 10
2.945764357843598
 20
4.045423481208331
 10
2.946836964136991
 20
4.047449165821072
 97
        0
 97
        1
330
B0
 75
     2
 76
     1
 98
        1
 10
0.0
 20
0.0
450
        0
451
        0
460
0.0
461
0.0
452
        0
462
0.0
453
        0
470

  0
SPLINE
  5
B2
330
70
100
AcDbEntity
  8
Layer 1
 62
   250
420
  2301728
370
    25
100
AcDbSpline
210
0.0
220
0.0
230
1.0
 70
     9
 71
     3
 72
    17
 73
    13
 74
     0
 42
0.0000000001
 43
0.0000000001
 40
0.0
 40
0.0
 40
0.0
 40
0.0
 40
1.0
 40
1.0
 40
1.0
 40
2.0
 40
2.0
 40
2.0
 40
3.0
 40
3.0
 40
3.0
 40
4.0
 40
4.0
 40
4.0
 40
4.0
 10
3.060923269889043
 20
4.096936892548316
 30
0.0
 10
3.060923269889043
 20
4.074113679967922
 30
0.0
 10
3.044028934399799
 20
4.055589649948071
 30
0.0
 10
3.031434460503153
 20
4.055589649948071
 30
0.0
 10
3.018777077146498
 20
4.055589649948071
 30
0.0
 10
3.008579453676752
 20
4.074113679967922
 30
0.0
 10
3.008579453676752
 20
4.096936892548316
 30
0.0
 10
3.008579453676752
 20
4.119757299171712
 30
0.0
 10
3.018777077146498
 20
4.138265262310546
 30
0.0
 10
3.031434460503153
 20
4.138265262310546
 30
0.0
 10
3.044028934399799
 20
4.138265262310546
 30
0.0
 10
3.060923269889043
 20
4.123827541235211
 30
0.0
 10
3.060923269889043
 20
4.096936892548316
 30
0.0
  0
HATCH
  5
B3
330
70
100
AcDbEntity
  8
Layer 1
 62
   253
420
 10987948
440
 33554687
100
AcDbHatch
 10
0.0
 20
0.0
 30
0.0
210
0.0
220
0.0
230
1.0
  2
SOLID
 70
     1
 71
     1
 91
        1
 92
        1
 93
        1
 72
     4
 94
        3
 73
     0
 74
     0
 95
       17
 96
       13
 40
0.0
 40
0.0
 40
0.0
 40
0.0
 40
1.0
 40
1.0
 40
1.0
 40
2.0
 40
2.0
 40
2.0
 40
3.0
 40
3.0
 40
3.0
 40
4.0
 40
4.0
 40
4.0
 40
4.0
 10
3.060923269889043
 20
4.096936892548316
 10
3.060923269889043
 20
4.074113679967922
 10
3.044028934399799
 20
4.055589649948071
 10
3.031434460503153
 20
4.055589649948071
 10
3.018777077146498
 20
4.055589649948071
 10
3.008579453676752
 20
4.074113679967922
 10
3.008579453676752
 20
4.096936892548316
 10
3.008579453676752
 20
4.119757299171712
 10
3.018777077146498
 20
4.138265262310546
 10
3.031434460503153
 20
4.138265262310546
 10
3.044028934399799
 20
4.138265262310546
 10
3.060923269889043
 20
4.123827541235211
 10
3.060923269889043
 20
4.096936892548316
 97
        0
 97
        1
330
B2
 75
     2
 76
     1
 98
        1
 10
0.0
 20
0.0
450
        0
451
        0
460
0.0
461
0.0
452
        0
462
0.0
453
        0
470

  0
SPLINE
  5
B4
330
70
100
AcDbEntity
  8
Layer 1
100
AcDbSpline
210
0.0
220
0.0
230
1.0
 70
     9
 71
     3
 72
    53
 73
    49
 74
     0
 42
0.0000000001
 43
0.0000000001
 40
0.0
 40
0.0
 40
0.0
 40
0.0
 40
1.0
 40
1.0
 40
1.0
 40
2.0
 40
2.0
 40
2.0
 40
3.0
 40
3.0
 40
3.0
 40
4.0
 40
4.0
 40
4.0
 40
5.0
 40
5.0
 40
5.0
 40
6.0
 40
6.0
 40
6.0
 40
7.0
 40
7.0
 40
7.0
 40
8.0
 40
8.0
 40
8.0
 40
9.0
 40
9.0
 40
9.0
 40
10.0
 40
10.0
 40
10.0
 40
11.0
 40
11.0
 40
11.0
 40
12.0
 40
12.0
 40
12.0
 40
13.0
 40
13.0
 40
13.0
 40
14.0
 40
14.0
 40
14.0
 40
15.0
 40
15.0
 40
15.0
 40
16.0
 40
16.0
 40
16.0
 40
16.0
 10
3.042739290469322
 20
4.116841445699643
 30
0.0
 10
3.041940340327048
 20
4.119895699983771
 30
0.0
 10
3.040896043290634
 20
4.122739207576816
 30
0.0
 10
3.039634708617161
 20
4.125255585977734
 30
0.0
 10
3.039357906993093
 20
4.125104603273699
 30
0.0
 10
3.038958431921931
 20
4.125164708066399
 30
0.0
 10
3.038713085027868
 20
4.12491902036662
 30
0.0
 10
3.036196706626924
 20
4.122660570751792
 30
0.0
 10
3.034076657824142
 20
4.117778796654016
 30
0.0
 10
3.032324629362493
 20
4.111940798763827
 30
0.0
 10
3.028606952627241
 20
4.113507244318409
 30
0.0
 10
3.025168678284848
 20
4.114397413177735
 30
0.0
 10
3.022526480963885
 20
4.114183521013665
 30
0.0
 10
3.020315213444064
 20
4.113998278630194
 30
0.0
 10
3.018654403699454
 20
4.112048085320225
 30
0.0
 10
3.018871441336512
 20
4.10979244070404
 30
0.0
 10
3.019025569513612
 20
4.107562300346229
 30
0.0
 10
3.02099149013932
 20
4.105888908709604
 30
0.0
 10
3.02323106691617
 20
4.106105946346689
 30
0.0
 10
3.024615075036662
 20
4.106228960121054
 30
0.0
 10
3.027257272357625
 20
4.105351032826408
 30
0.0
 10
3.030327254006755
 20
4.103938715448899
 30
0.0
 10
3.027747966145827
 20
4.091498369729302
 30
0.0
 10
3.027011925463537
 20
4.077139285479006
 30
0.0
 10
3.029100519536314
 20
4.069719114669295
 30
0.0
 10
3.029314411700397
 20
4.069058565339028
 30
0.0
 10
3.029868014948583
 20
4.068690544997896
 30
0.0
 10
3.030267490019746
 20
4.068231645307175
 30
0.0
 10
3.032478757539567
 20
4.070288445282484
 30
0.0
 10
3.034504442152284
 20
4.072824036004868
 30
0.0
 10
3.036347689330972
 20
4.075572839924435
 30
0.0
 10
3.035580193918702
 20
4.08192984085978
 30
0.0
 10
3.036287925343963
 20
4.091130689334085
 30
0.0
 10
3.037823188753438
 20
4.099654921382554
 30
0.0
 10
3.040034183688349
 20
4.098132172288741
 30
0.0
 10
3.042185687221111
 20
4.096427325922111
 30
0.0
 10
3.044060389129804
 20
4.094571496851433
 30
0.0
 10
3.044519628188001
 20
4.09711932998237
 30
0.0
 10
3.044764975082089
 20
4.099698617843324
 30
0.0
 10
3.044764975082089
 20
4.102325087799297
 30
0.0
 10
3.044764975082089
 20
4.103186947401619
 30
0.0
 10
3.04464230163502
 20
4.103922988083922
 30
0.0
 10
3.044582537648011
 20
4.104769120321204
 30
0.0
 10
3.042984637363436
 20
4.105951818169627
 30
0.0
 10
3.041355282348831
 20
4.107118788653072
 30
0.0
 10
3.039666163347192
 20
4.10813163095943
 30
0.0
 10
3.040650696396546
 20
4.111770943221775
 30
0.0
 10
3.041694993432959
 20
4.114828342978904
 30
0.0
 10
3.042739290469322
 20
4.116841445699643
 30
0.0
  0
HATCH
  5
B5
330
70
100
AcDbEntity
  8
Layer 1
 62
   250
420
  2301728
440
 33554687
100
AcDbHatch
 10
0.0
 20
0.0
 30
0.0
210
0.0
220
0.0
230
1.0
  2
SOLID
 70
     1
 71
     1
 91
        1
 92
        1
 93
        1
 72
     4
 94
        3
 73
     0
 74
     0
 95
       53
 96
       49
 40
0.0
 40
0.0
 40
0.0
 40
0.0
 40
1.0
 40
1.0
 40
1.0
 40
2.0
 40
2.0
 40
2.0
 40
3.0
 40
3.0
 40
3.0
 40
4.0
 40
4.0
 40
4.0
 40
5.0
 40
5.0
 40
5.0
 40
6.0
 40
6.0
 40
6.0
 40
7.0
 40
7.0
 40
7.0
 40
8.0
 40
8.0
 40
8.0
 40
9.0
 40
9.0
 40
9.0
 40
10.0
 40
10.0
 40
10.0
 40
11.0
 40
11.0
 40
11.0
 40
12.0
 40
12.0
 40
12.0
 40
13.0
 40
13.0
 40
13.0
 40
14.0
 40
14.0
 40
14.0
 40
15.0
 40
15.0
 40
15.0
 40
16.0
 40
16.0
 40
16.0
 40
16.0
 10
3.042739290469322
 20
4.116841445699643
 10
3.041940340327048
 20
4.119895699983771
 10
3.040896043290634
 20
4.122739207576816
 10
3.039634708617161
 20
4.125255585977734
 10
3.039357906993093
 20
4.125104603273699
 10
3.038958431921931
 20
4.125164708066399
 10
3.038713085027868
 20
4.12491902036662
 10
3.036196706626924
 20
4.122660570751792
 10
3.034076657824142
 20
4.117778796654016
 10
3.032324629362493
 20
4.111940798763827
 10
3.028606952627241
 20
4.113507244318409
 10
3.025168678284848
 20
4.114397413177735
 10
3.022526480963885
 20
4.114183521013665
 10
3.020315213444064
 20
4.113998278630194
 10
3.018654403699454
 20
4.112048085320225
 10
3.018871441336512
 20
4.10979244070404
 10
3.019025569513612
 20
4.107562300346229
 10
3.02099149013932
 20
4.105888908709604
 10
3.02323106691617
 20
4.106105946346689
 10
3.024615075036662
 20
4.106228960121054
 10
3.027257272357625
 20
4.105351032826408
 10
3.030327254006755
 20
4.103938715448899
 10
3.027747966145827
 20
4.091498369729302
 10
3.027011925463537
 20
4.077139285479006
 10
3.029100519536314
 20
4.069719114669295
 10
3.029314411700397
 20
4.069058565339028
 10
3.029868014948583
 20
4.068690544997896
 10
3.030267490019746
 20
4.068231645307175
 10
3.032478757539567
 20
4.070288445282484
 10
3.034504442152284
 20
4.072824036004868
 10
3.036347689330972
 20
4.075572839924435
 10
3.035580193918702
 20
4.08192984085978
 10
3.036287925343963
 20
4.091130689334085
 10
3.037823188753438
 20
4.099654921382554
 10
3.040034183688349
 20
4.098132172288741
 10
3.042185687221111
 20
4.096427325922111
 10
3.044060389129804
 20
4.094571496851433
 10
3.044519628188001
 20
4.09711932998237
 10
3.044764975082089
 20
4.099698617843324
 10
3.044764975082089
 20
4.102325087799297
 10
3.044764975082089
 20
4.103186947401619
 10
3.04464230163502
 20
4.103922988083922
 10
3.044582537648011
 20
4.104769120321204
 10
3.042984637363436
 20
4.105951818169627
 10
3.041355282348831
 20
4.107118788653072
 10
3.039666163347192
 20
4.10813163095943
 10
3.040650696396546
 20
4.111770943221775
 10
3.041694993432959
 20
4.114828342978904
 10
3.042739290469322
 20
4.116841445699643
 97
        0
 97
        1
330
B4
 75
     2
 76
     1
 98
        1
 10
0.0
 20
0.0
450
        0
451
        0
460
0.0
461
0.0
452
        0
462
0.0
453
        0
470

  0
LINE
  5
B6
330
70
100
AcDbEntity
  8
Layer 1
 62
   250
420
  2301728
370
    40
100
AcDbLine
 10
0.7482173912597495
 20
5.237598639796664
 30
0.0
 11
2.938573806562948
 21
4.532770486115926
 31
0.0
  0
LWPOLYLINE
  5
B7
330
70
100
AcDbEntity
  8
Layer 1
 62
   250
420
  2301728
370
    25
100
AcDbPolyline
 90
        6
 70
     0
 43
0.0
 10
2.22224265811696
 20
4.736505917874006
 10
2.25004234850121
 20
4.753630229574367
 10
2.25004234850121
 20
4.694391179861491
 10
2.221629290881739
 20
4.678110211607493
 10
2.221629290881739
 20
4.735829641178762
 10
0.6238265159558978
 20
5.25375693460363
  0
LWPOLYLINE
  5
B8
330
70
100
AcDbEntity
  8
Layer 1
 62
   250
420
  2301728
370
    25
100
AcDbPolyline
 90
        3
 70
     0
 43
0.0
 10
1.536520342104103
 20
5.457504948253699
 10
3.038744539757872
 20
5.041991110273581
 10
3.038744539757872
 20
4.735153364483494
  0
LINE
  5
B9
330
70
100
AcDbEntity
  8
Layer 1
 62
   250
420
  2301728
370
    25
100
AcDbLine
 10
3.039266688276054
 20
5.0420351468956
 30
0.0
 11
3.065069003304567
 21
5.059653305587958
 31
0.0
  0
LWPOLYLINE
  5
BA
330
70
100
AcDbEntity
  8
Layer 1
 62
   250
420
  2301728
370
    25
100
AcDbPolyline
 90
        3
 70
     0
 43
0.0
 10
1.44587386649784
 20
5.013100303994759
 10
1.490520710276301
 20
5.031931887615869
 10
2.957865263044115
 20
4.565914335129137
  0
LINE
  5
BB
330
70
100
AcDbEntity
  8
Layer 1
 62
   250
420
  2301728
370
    25
100
AcDbLine
 10
3.80834112800547
 20
3.873435308450943
 30
0.0
 11
3.83337624030403
 21
3.85145788859183
 31
0.0
  0
SPLINE
  5
BC
330
70
100
AcDbEntity
  8
Layer 1
 62
   250
420
  2301728
370
    20
100
AcDbSpline
210
0.0
220
0.0
230
1.0
 70
     8
 71
     3
 72
    14
 73
    10
 74
     0
 42
0.0000000001
 43
0.0000000001
 40
0.0
 40
0.0
 40
0.0
 40
0.0
 40
1.0
 40
1.0
 40
1.0
 40
2.0
 40
2.0
 40
2.0
 40
3.0
 40
3.0
 40
3.0
 40
3.0
 10
2.221229815810576
 20
5.293811387800385
 30
0.0
 10
2.221229815810576
 20
5.293811387800385
 30
0.0
 10
2.221289831755206
 20
5.313319611353563
 30
0.0
 10
2.221229815810576
 20
5.315669279685431
 30
0.0
 10
2.221135451620549
 20
5.319767831005947
 30
0.0
 10
2.223132826976287
 20
5.323838073069459
 30
0.0
 10
2.225344094496108
 20
5.325360482002009
 30
0.0
 10
2.228571349795288
 20
5.327631513508852
 30
0.0
 10
2.259749278182779
 20
5.350011925660029
 30
0.0
 10
2.279562612617104
 20
5.364461856879428
 30
0.0
  0
SPLINE
  5
BD
330
70
100
AcDbEntity
  8
Layer 1
 62
   250
420
  2301728
370
    20
100
AcDbSpline
210
0.0
220
0.0
230
1.0
 70
     8
 71
     3
 72
    14
 73
    10
 74
     0
 42
0.0000000001
 43
0.0000000001
 40
0.0
 40
0.0
 40
0.0
 40
0.0
 40
1.0
 40
1.0
 40
1.0
 40
2.0
 40
2.0
 40
2.0
 40
3.0
 40
3.0
 40
3.0
 40
3.0
 10
2.250073803231215
 20
5.285318610697256
 30
0.0
 10
2.250073803231215
 20
5.285318610697256
 30
0.0
 10
2.250102365173663
 20
5.304795379520428
 30
0.0
 10
2.250073803231215
 20
5.307173357109314
 30
0.0
 10
2.249979439041175
 20
5.311275053902818
 30
0.0
 10
2.252130942573987
 20
5.315254448119149
 30
0.0
 10
2.254160025447668
 20
5.316943196250917
 30
0.0
 10
2.255572090037225
 20
5.318125894099339
 30
0.0
 10
2.280452781476419
 20
5.33587894371788
 30
0.0
 10
2.296670840270406
 20
5.347907232474325
 30
0.0
  0
MTEXT
  5
BF
330
70
100
AcDbEntity
  8
Layer 2
100
AcDbMText
 10
1.669225162929958
 20
1.870256582895914
 30
0.0
 40
0.2
 41
0.0
 46
0.0
 71
     7
 72
     1
  1
\C250;\c2105123;\FHelvetica Neue LT Std 55 Roman|b0|i0|c1;\H0.118000;\W1.000000;SIMPSON Strong-Tie\H0.068794;®\H0.118000; ^C
 73
     1
 44
1.0
  0
MTEXT
  5
C0
330
70
100
AcDbEntity
  8
Layer 2
100
AcDbMText
 10
1.401016341315375
 20
1.670264720916748
 30
0.0
 40
0.2
 41
0.0
 46
0.0
 71
     7
 72
     1
  1
\C250;\c2105123;\FHelvetica Neue LT Std 55 Roman|b0|i0|c1;\H0.118000;\W1.000000;S/H2.5 Steel Frame Tie Down
 73
     1
 44
1.0
  0
LINE
  5
C1
330
70
100
AcDbEntity
  8
Layer 2
 62
   250
420
  2301728
370
    30
100
AcDbLine
 10
3.09603052860181
 20
4.141014807020913
 30
0.0
 11
3.772467014425096
 21
3.245275398264968
 31
0.0
  0
MTEXT
  5
C2
330
70
100
AcDbEntity
  8
Layer 2
100
AcDbMText
 10
3.821894539727104
 20
3.136757479773627
 30
0.0
 40
0.2
 41
0.0
 46
0.0
 71
     7
 72
     1
  1
\C250;\c2105123;\FHelvetica Neue LT Std 57 Condensed|b0|i0|c1;\H0.118000;\W1.000000;S/H2.5
 73
     1
 44
1.0
  0
MTEXT
  5
C3
330
70
100
AcDbEntity
  8
Layer 2
100
AcDbMText
 10
2.831923590766058
 20
6.203609042697482
 30
0.0
 40
0.2
 41
0.0
 46
0.0
 71
     7
 72
     1
  1
\C250;\c2105123;\FHelvetica Neue LT Std 57 Condensed|b0|i0|c1;\H0.118000;\W1.000000;Truss/Rafter
 73
     1
 44
1.0
  0
MTEXT
  5
C4
330
70
100
AcDbEntity
  8
Layer 2
100
AcDbMText
 10
3.243406931559244
 20
5.804761992560492
 30
0.0
 40
0.2
 41
0.0
 46
0.0
 71
     7
 72
     1
  1
\C250;\c2105123;\FHelvetica Neue LT Std 57 Condensed|b0|i0|c1;\H0.118000;\W1.000000;Top Plate
 73
     1
 44
1.0
  0
MTEXT
  5
C5
330
70
100
AcDbEntity
  8
Layer 2
100
AcDbMText
 10
1.270653194851345
 20
3.00992276933458
 30
0.0
 40
0.2
 41
0.0
 46
0.0
 71
     7
 72
     1
  1
\C250;\c2105123;\FHelvetica Neue LT Std 57 Condensed|b0|i0|c1;\H0.118000;\W1.000000;Stud
 73
     1
 44
1.0
  0
LINE
  5
C6
330
70
100
AcDbEntity
  8
Layer 2
 62
   250
420
  2301728
370
    18
100
AcDbLine
 10
3.092396834872387
 20
6.098137130563764
 30
0.0
 11
2.800015018918454
 21
5.749208841368221
 31
0.0
  0
LINE
  5
C7
330
70
100
AcDbEntity
  8
Layer 2
 62
   250
420
  2301728
370
    18
100
AcDbLine
 10
3.446498089352694
 20
5.741697614434731
 30
0.0
 11
3.43003926022877
 21
5.401838256547585
 31
0.0
  0
LINE
  5
C8
330
70
100
AcDbEntity
  8
Layer 2
 62
   250
420
  2301728
370
    18
100
AcDbLine
 10
1.634791441733012
 20
3.104579339989489
 30
0.0
 11
2.115922677491476
 21
3.346786961052127
 31
0.0
  0
ENDSEC
  0
SECTION
  2
OBJECTS
  0
DICTIONARY
  5
C
330
0
100
AcDbDictionary
281
     1
  3
ACAD_COLOR
350
63
  3
ACAD_DETAILVIEWSTYLE
350
6A
  3
ACAD_GROUP
350
D
  3
ACAD_LAYOUT
350
62
  3
ACAD_MATERIAL
350
10
  3
ACAD_MLEADERSTYLE
350
66
  3
ACAD_MLINESTYLE
350
5F
  3
ACAD_PLOTSETTINGS
350
61
  3
ACAD_PLOTSTYLENAME
350
E
  3
ACAD_SCALELIST
350
42
  3
ACAD_SECTIONVIEWSTYLE
350
68
  3
ACAD_TABLESTYLE
350
64
  3
ACAD_VISUALSTYLE
350
29
  3
ACDB_RECOMPOSE_DATA
350
D1
  3
AcDbVariableDictionary
350
C9
  0
DICTIONARY
  5
63
102
{ACAD_REACTORS
330
C
102
}
330
C
100
AcDbDictionary
281
     1
  0
DICTIONARY
  5
6A
102
{ACAD_REACTORS
330
C
102
}
330
C
100
AcDbDictionary
281
     1
  3
Imperial24
350
6B
  0
DICTIONARY
  5
D
102
{ACAD_REACTORS
330
C
102
}
330
C
100
AcDbDictionary
281
     1
  0
DICTIONARY
  5
62
102
{ACAD_REACTORS
330
C
102
}
330
C
100
AcDbDictionary
281
     1
  3
Layout1
350
6F
  3
Layout2
350
77
  3
Model
350
73
  0
DICTIONARY
  5
10
102
{ACAD_REACTORS
330
C
102
}
330
C
100
AcDbDictionary
281
     1
  3
ByBlock
350
19
  3
ByLayer
350
11
  3
Global
350
21
  0
DICTIONARY
  5
66
102
{ACAD_REACTORS
330
C
102
}
330
C
100
AcDbDictionary
281
     1
  3
Standard
350
67
  0
DICTIONARY
  5
5F
102
{ACAD_REACTORS
330
C
102
}
330
C
100
AcDbDictionary
281
     1
  3
Standard
350
60
  0
DICTIONARY
  5
61
102
{ACAD_REACTORS
330
C
102
}
330
C
100
AcDbDictionary
281
     1
  0
ACDBDICTIONARYWDFLT
  5
E
102
{ACAD_REACTORS
330
C
102
}
330
C
100
AcDbDictionary
281
     1
  3
Normal
350
F
100
AcDbDictionaryWithDefault
340
F
  0
DICTIONARY
  5
42
102
{ACAD_REACTORS
330
C
102
}
330
C
100
AcDbDictionary
281
     1
  3
A0
350
43
  3
A1
350
44
  3
A2
350
45
  3
A3
350
46
  3
A4
350
47
  3
A5
350
48
  3
A6
350
49
  3
A7
350
4A
  3
A8
350
4B
  3
A9
350
4C
  3
B0
350
4D
  3
B1
350
4E
  3
B2
350
4F
  3
B3
350
50
  3
B4
350
51
  3
B5
350
52
  3
B6
350
53
  0
DICTIONARY
  5
68
102
{ACAD_REACTORS
330
C
102
}
330
C
100
AcDbDictionary
281
     1
  3
Imperial24
350
69
  0
DICTIONARY
  5
64
102
{ACAD_REACTORS
330
C
102
}
330
C
100
AcDbDictionary
281
     1
  3
Standard
350
65
  0
DICTIONARY
  5
29
102
{ACAD_REACTORS
330
C
102
}
330
C
100
AcDbDictionary
281
     1
  3
2dWireframe
350
2F
  3
Basic
350
2E
  3
Brighten
350
35
  3
ColorChange
350
39
  3
Conceptual
350
32
  3
Dim
350
34
  3
EdgeColorOff
350
41
  3
Facepattern
350
38
  3
Flat
350
2A
  3
FlatWithEdges
350
2B
  3
Gouraud
350
2C
  3
GouraudWithEdges
350
2D
  3
Hidden
350
31
  3
JitterOff
350
3F
  3
Linepattern
350
37
  3
OverhangOff
350
40
  3
Realistic
350
33
  3
Shaded
350
3E
  3
Shaded with edges
350
3D
  3
Shades of Gray
350
3A
  3
Sketchy
350
3B
  3
Thicken
350
36
  3
Wireframe
350
30
  3
X-Ray
350
3C
  0
XRECORD
  5
D1
102
{ACAD_REACTORS
330
C
102
}
330
C
100
AcDbXrecord
280
     1
 90
        1
330
65
  0
DICTIONARY
  5
C9
102
{ACAD_REACTORS
330
C
102
}
330
C
100
AcDbDictionary
281
     1
  3
CANNOSCALE
350
CE
  3
CMLEADERSTYLE
350
CB
  3
CTABLESTYLE
350
CA
  3
CVIEWDETAILSTYLE
350
CC
  3
CVIEWSECTIONSTYLE
350
CD
  0
ACDBDETAILVIEWSTYLE
  5
6B
102
{ACAD_REACTORS
330
6A
102
}
330
6A
100
AcDbModelDocViewStyle
 70
     0
  3
Imperial24
290
     1
300
Imperial24
 90
        0
100
AcDbDetailViewStyle
 70
     0
 71
     0
 90
        3
 71
     1
340
55
 62
   256
 40
0.24
340
0
 62
   256
 40
0.24
300

 40
0.36
280
     3
 71
     2
340
5D
 90
       25
 62
   256
 71
     3
340
55
 62
   256
 40
0.24
 90
        1
 40
0.75
 90
        1
300
%<\AcVar ViewType \f "%tc1">% %<\AcVar ViewDetailId>%\PSCALE %<\AcVar ViewScale \f "%sn">%
 71
     4
340
5D
 90
       25
 62
   256
340
5D
 90
       25
 62
   256
280
     0
  0
LAYOUT
  5
6F
102
{ACAD_REACTORS
330
62
102
}
330
62
100
AcDbPlotSettings
  1

  2

  4

  6

 40
0.0
 41
0.0
 42
0.0
 43
0.0
 44
0.0
 45
0.0
 46
0.0
 47
0.0
 48
0.0
 49
0.0
140
0.0
141
0.0
142
1.0
143
1.0
 70
   688
 72
     0
 73
     0
 74
     5
  7

 75
    16
147
1.0
 76
     0
 77
     2
 78
   300
148
0.0
149
0.0
100
AcDbLayout
  1
Layout1
 70
     1
 71
     1
 10
0.0
 20
0.0
 11
12.0
 21
9.0
 12
0.0
 22
0.0
 32
0.0
 14
0.0
 24
0.0
 34
0.0
 15
0.0
 25
0.0
 35
0.0
146
0.0
 13
0.0
 23
0.0
 33
0.0
 16
1.0
 26
0.0
 36
0.0
 17
0.0
 27
1.0
 37
0.0
 76
     0
330
6C
  0
LAYOUT
  5
77
102
{ACAD_REACTORS
330
62
102
}
330
62
100
AcDbPlotSettings
  1

  2

  4

  6

 40
0.0
 41
0.0
 42
0.0
 43
0.0
 44
0.0
 45
0.0
 46
0.0
 47
0.0
 48
0.0
 49
0.0
140
0.0
141
0.0
142
1.0
143
1.0
 70
   688
 72
     0
 73
     0
 74
     5
  7

 75
    16
147
1.0
 76
     0
 77
     2
 78
   300
148
0.0
149
0.0
100
AcDbLayout
  1
Layout2
 70
     1
 71
     2
 10
0.0
 20
0.0
 11
12.0
 21
9.0
 12
0.0
 22
0.0
 32
0.0
 14
0.0
 24
0.0
 34
0.0
 15
0.0
 25
0.0
 35
0.0
146
0.0
 13
0.0
 23
0.0
 33
0.0
 16
1.0
 26
0.0
 36
0.0
 17
0.0
 27
1.0
 37
0.0
 76
     0
330
74
  0
LAYOUT
  5
73
102
{ACAD_REACTORS
330
62
102
}
330
62
100
AcDbPlotSettings
  1

  2

  4

  6

 40
0.0
 41
0.0
 42
0.0
 43
0.0
 44
0.0
 45
0.0
 46
0.0
 47
0.0
 48
0.0
 49
0.0
140
0.0
141
0.0
142
1.0
143
1.0
 70
  1712
 72
     0
 73
     0
 74
     0
  7

 75
     0
147
1.0
 76
     0
 77
     2
 78
   300
148
0.0
149
0.0
100
AcDbLayout
  1
Model
 70
     1
 71
     0
 10
0.0
 20
0.0
 11
12.0
 21
9.0
 12
0.0
 22
0.0
 32
0.0
 14
0.0
 24
0.0
 34
0.0
 15
0.0
 25
0.0
 35
0.0
146
0.0
 13
0.0
 23
0.0
 33
0.0
 16
1.0
 26
0.0
 36
0.0
 17
0.0
 27
1.0
 37
0.0
 76
     0
330
70
  0
MATERIAL
  5
19
102
{ACAD_XDICTIONARY
360
1A
102
}
102
{ACAD_REACTORS
330
10
102
}
330
10
100
AcDbMaterial
  1
ByBlock
 72
     0
 43
0.0208333333333333
 43
0.0
 43
0.0
 43
0.0
 43
0.0
 43
0.0208333333333333
 43
0.0
 43
0.0
 43
0.0
 43
0.0
 43
1.0
 43
0.0
 43
0.0
 43
0.0
 43
0.0
 43
1.0
 77
     0
 47
0.0208333333333333
 47
0.0
 47
0.0
 47
0.0
 47
0.0
 47
0.0208333333333333
 47
0.0
 47
0.0
 47
0.0
 47
0.0
 47
1.0
 47
0.0
 47
0.0
 47
0.0
 47
0.0
 47
1.0
171
     0
 49
0.0208333333333333
 49
0.0
 49
0.0
 49
0.0
 49
0.0
 49
0.0208333333333333
 49
0.0
 49
0.0
 49
0.0
 49
0.0
 49
1.0
 49
0.0
 49
0.0
 49
0.0
 49
0.0
 49
1.0
175
     0
142
0.0208333333333333
142
0.0
142
0.0
142
0.0
142
0.0
142
0.0208333333333333
142
0.0
142
0.0
142
0.0
142
0.0
142
1.0
142
0.0
142
0.0
142
0.0
142
0.0
142
1.0
179
     0
144
0.0208333333333333
144
0.0
144
0.0
144
0.0
144
0.0
144
0.0208333333333333
144
0.0
144
0.0
144
0.0
144
0.0
144
1.0
144
0.0
144
0.0
144
0.0
144
0.0
144
1.0
147
0.0208333333333333
147
0.0
147
0.0
147
0.0
147
0.0
147
0.0208333333333333
147
0.0
147
0.0
147
0.0
147
0.0
147
1.0
147
0.0
147
0.0
147
0.0
147
0.0
147
1.0
  0
MATERIAL
  5
11
102
{ACAD_XDICTIONARY
360
12
102
}
102
{ACAD_REACTORS
330
10
102
}
330
10
100
AcDbMaterial
  1
ByLayer
 72
     0
 43
0.0208333333333333
 43
0.0
 43
0.0
 43
0.0
 43
0.0
 43
0.0208333333333333
 43
0.0
 43
0.0
 43
0.0
 43
0.0
 43
1.0
 43
0.0
 43
0.0
 43
0.0
 43
0.0
 43
1.0
 77
     0
 47
0.0208333333333333
 47
0.0
 47
0.0
 47
0.0
 47
0.0
 47
0.0208333333333333
 47
0.0
 47
0.0
 47
0.0
 47
0.0
 47
1.0
 47
0.0
 47
0.0
 47
0.0
 47
0.0
 47
1.0
171
     0
 49
0.0208333333333333
 49
0.0
 49
0.0
 49
0.0
 49
0.0
 49
0.0208333333333333
 49
0.0
 49
0.0
 49
0.0
 49
0.0
 49
1.0
 49
0.0
 49
0.0
 49
0.0
 49
0.0
 49
1.0
175
     0
142
0.0208333333333333
142
0.0
142
0.0
142
0.0
142
0.0
142
0.0208333333333333
142
0.0
142
0.0
142
0.0
142
0.0
142
1.0
142
0.0
142
0.0
142
0.0
142
0.0
142
1.0
179
     0
144
0.0208333333333333
144
0.0
144
0.0
144
0.0
144
0.0
144
0.0208333333333333
144
0.0
144
0.0
144
0.0
144
0.0
144
1.0
144
0.0
144
0.0
144
0.0
144
0.0
144
1.0
147
0.0208333333333333
147
0.0
147
0.0
147
0.0
147
0.0
147
0.0208333333333333
147
0.0
147
0.0
147
0.0
147
0.0
147
1.0
147
0.0
147
0.0
147
0.0
147
0.0
147
1.0
  0
MATERIAL
  5
21
102
{ACAD_XDICTIONARY
360
22
102
}
102
{ACAD_REACTORS
330
10
102
}
330
10
100
AcDbMaterial
  1
Global
 72
     0
 43
0.0208333333333333
 43
0.0
 43
0.0
 43
0.0
 43
0.0
 43
0.0208333333333333
 43
0.0
 43
0.0
 43
0.0
 43
0.0
 43
1.0
 43
0.0
 43
0.0
 43
0.0
 43
0.0
 43
1.0
 77
     0
 47
0.0208333333333333
 47
0.0
 47
0.0
 47
0.0
 47
0.0
 47
0.0208333333333333
 47
0.0
 47
0.0
 47
0.0
 47
0.0
 47
1.0
 47
0.0
 47
0.0
 47
0.0
 47
0.0
 47
1.0
171
     0
 49
0.0208333333333333
 49
0.0
 49
0.0
 49
0.0
 49
0.0
 49
0.0208333333333333
 49
0.0
 49
0.0
 49
0.0
 49
0.0
 49
1.0
 49
0.0
 49
0.0
 49
0.0
 49
0.0
 49
1.0
175
     0
142
0.0208333333333333
142
0.0
142
0.0
142
0.0
142
0.0
142
0.0208333333333333
142
0.0
142
0.0
142
0.0
142
0.0
142
1.0
142
0.0
142
0.0
142
0.0
142
0.0
142
1.0
179
     0
144
0.0208333333333333
144
0.0
144
0.0
144
0.0
144
0.0
144
0.0208333333333333
144
0.0
144
0.0
144
0.0
144
0.0
144
1.0
144
0.0
144
0.0
144
0.0
144
0.0
144
1.0
147
0.0208333333333333
147
0.0
147
0.0
147
0.0
147
0.0
147
0.0208333333333333
147
0.0
147
0.0
147
0.0
147
0.0
147
1.0
147
0.0
147
0.0
147
0.0
147
0.0
147
1.0
  0
MLEADERSTYLE
  5
67
102
{ACAD_REACTORS
330
66
102
}
330
66
100
AcDbMLeaderStyle
179
     2
170
     2
171
     1
172
     0
 90
        2
 40
0.0
 41
0.0
173
     1
 91
-1056964608
340
5B
 92
       -2
290
     1
 42
0.09
291
     1
 43
0.36
  3
Standard
 44
0.18
300

342
55
174
     1
178
     6
175
     1
176
     0
 93
-1056964608
 45
0.18
292
     0
297
     0
 46
0.18
 94
-1056964608
 47
1.0
 49
1.0
140
1.0
293
     1
141
0.0
294
     1
177
     0
142
1.0
295
     1
296
     0
143
0.125
271
     0
272
     9
273
     9
298
     1
  0
MLINESTYLE
  5
60
102
{ACAD_REACTORS
330
5F
102
}
330
5F
100
AcDbMlineStyle
  2
STANDARD
 70
     0
  3

 62
   256
 51
90.0
 52
90.0
 71
     2
 49
0.5
 62
   256
  6
BYLAYER
 49
-0.5
 62
   256
  6
BYLAYER
  0
ACDBPLACEHOLDER
  5
F
102
{ACAD_REACTORS
330
E
102
}
330
E
  0
SCALE
  5
43
102
{ACAD_REACTORS
330
42
102
}
330
42
100
AcDbScale
 70
     0
300
1:1
140
1.0
141
1.0
290
     1
  0
SCALE
  5
44
102
{ACAD_REACTORS
330
42
102
}
330
42
100
AcDbScale
 70
     0
300
1/128" = 1'-0"
140
0.0078125
141
12.0
290
     0
  0
SCALE
  5
45
102
{ACAD_REACTORS
330
42
102
}
330
42
100
AcDbScale
 70
     0
300
1/64" = 1'-0"
140
0.015625
141
12.0
290
     0
  0
SCALE
  5
46
102
{ACAD_REACTORS
330
42
102
}
330
42
100
AcDbScale
 70
     0
300
1/32" = 1'-0"
140
0.03125
141
12.0
290
     0
  0
SCALE
  5
47
102
{ACAD_REACTORS
330
42
102
}
330
42
100
AcDbScale
 70
     0
300
1/16" = 1'-0"
140
0.0625
141
12.0
290
     0
  0
SCALE
  5
48
102
{ACAD_REACTORS
330
42
102
}
330
42
100
AcDbScale
 70
     0
300
3/32" = 1'-0"
140
0.09375
141
12.0
290
     0
  0
SCALE
  5
49
102
{ACAD_REACTORS
330
42
102
}
330
42
100
AcDbScale
 70
     0
300
1/8" = 1'-0"
140
0.125
141
12.0
290
     0
  0
SCALE
  5
4A
102
{ACAD_REACTORS
330
42
102
}
330
42
100
AcDbScale
 70
     0
300
3/16" = 1'-0"
140
0.1875
141
12.0
290
     0
  0
SCALE
  5
4B
102
{ACAD_REACTORS
330
42
102
}
330
42
100
AcDbScale
 70
     0
300
1/4" = 1'-0"
140
0.25
141
12.0
290
     0
  0
SCALE
  5
4C
102
{ACAD_REACTORS
330
42
102
}
330
42
100
AcDbScale
 70
     0
300
3/8" = 1'-0"
140
0.375
141
12.0
290
     0
  0
SCALE
  5
4D
102
{ACAD_REACTORS
330
42
102
}
330
42
100
AcDbScale
 70
     0
300
1/2" = 1'-0"
140
0.5
141
12.0
290
     0
  0
SCALE
  5
4E
102
{ACAD_REACTORS
330
42
102
}
330
42
100
AcDbScale
 70
     0
300
3/4" = 1'-0"
140
0.75
141
12.0
290
     0
  0
SCALE
  5
4F
102
{ACAD_REACTORS
330
42
102
}
330
42
100
AcDbScale
 70
     0
300
1" = 1'-0"
140
1.0
141
12.0
290
     0
  0
SCALE
  5
50
102
{ACAD_REACTORS
330
42
102
}
330
42
100
AcDbScale
 70
     0
300
1-1/2" = 1'-0"
140
1.5
141
12.0
290
     0
  0
SCALE
  5
51
102
{ACAD_REACTORS
330
42
102
}
330
42
100
AcDbScale
 70
     0
300
3" = 1'-0"
140
3.0
141
12.0
290
     0
  0
SCALE
  5
52
102
{ACAD_REACTORS
330
42
102
}
330
42
100
AcDbScale
 70
     0
300
6" = 1'-0"
140
6.0
141
12.0
290
     0
  0
SCALE
  5
53
102
{ACAD_REACTORS
330
42
102
}
330
42
100
AcDbScale
 70
     0
300
1'-0" = 1'-0"
140
12.0
141
12.0
290
     0
  0
ACDBSECTIONVIEWSTYLE
  5
69
102
{ACAD_REACTORS
330
68
102
}
330
68
100
AcDbModelDocViewStyle
 70
     0
  3
Imperial24
290
     1
300
Imperial24
 90
        0
100
AcDbSectionViewStyle
 70
     0
 71
     0
 90
       78
 71
     1
340
55
 62
   256
 40
0.24
340
0
340
0
 62
   256
 40
0.24
300
I, O, Q, S, X, Z
 40
0.48
 90
        3
 40
0.18
 90
        1
 71
     2
340
5D
 90
       25
 62
   256
340
5D
 90
       50
 62
   256
 40
0.24
 40
0.0
 40
0.24
 71
     3
340
55
 62
   256
 40
0.24
 90
        1
 40
0.75
 90
        1
300
%<\AcVar ViewType \f "%tc1">% %<\AcVar ViewSectionStartId>%-%<\AcVar ViewSectionEndId>%\PSCALE %<\AcVar ViewScale \f "%sn">%
 71
     4
 62
   256
 62
   257
300
ANSI31
 40
1.0
 90
        0
290
     0
290
     0
 90
        6
 40
0.0
 40
1.570796326794896
 40
0.2617993877991494
 40
1.308996938995747
 40
-0.2617993877991494
 40
1.832595714594046
  0
TABLESTYLE
  5
65
102
{ACAD_XDICTIONARY
360
CF
102
}
102
{ACAD_REACTORS
330
64
102
}
330
64
100
AcDbTableStyle
280
     0
  3
Standard
 70
     0
 71
     0
 40
0.06
 41
0.06
280
     0
281
     0
  7
Standard
140
0.18
170
     2
 62
     0
 63
     7
283
     0
 90
      512
 91
        0
  1

274
    -2
284
     1
 64
     0
275
    -2
285
     1
 65
     0
276
    -2
286
     1
 66
     0
277
    -2
287
     1
 67
     0
278
    -2
288
     1
 68
     0
279
    -2
289
     1
 69
     0
  7
Standard
140
0.25
170
     5
 62
     0
 63
     7
283
     0
 90
      512
 91
        0
  1

274
    -2
284
     1
 64
     0
275
    -2
285
     1
 65
     0
276
    -2
286
     1
 66
     0
277
    -2
287
     1
 67
     0
278
    -2
288
     1
 68
     0
279
    -2
289
     1
 69
     0
  7
Standard
140
0.18
170
     5
 62
     0
 63
     7
283
     0
 90
      512
 91
        0
  1

274
    -2
284
     1
 64
     0
275
    -2
285
     1
 65
     0
276
    -2
286
     1
 66
     0
277
    -2
287
     1
 67
     0
278
    -2
288
     1
 68
     0
279
    -2
289
     1
 69
     0
  0
VISUALSTYLE
  5
2F
102
{ACAD_REACTORS
330
29
102
}
330
29
100
AcDbVisualStyle
  2
2dWireframe
 70
     4
177
     3
291
     0
 70
    58
 90
        0
176
     1
 90
        2
176
     1
 90
        0
176
     1
 90
        0
176
     1
 40
0.6
176
     1
 40
30.0
176
     1
 62
     7
420
 16777215
176
     1
 90
        1
176
     1
 90
        4
176
     1
 62
     7
176
     1
 62
   257
176
     1
 90
        1
176
     1
 90
        1
176
     1
 40
1.0
176
     1
 90
        0
176
     1
 62
   257
176
     1
 40
1.0
176
     1
 90
        1
176
     1
 90
        6
176
     1
 90
        2
176
     1
 62
     7
176
     1
 90
        5
176
     1
 90
        0
176
     1
 90
        0
176
     1
290
     0
176
     1
 90
        1
176
     1
 40
0.0
176
     1
 90
        0
176
     1
290
     1
176
     1
290
     1
176
     1
290
     0
176
     1
290
     0
176
     1
290
     0
176
     1
290
     0
176
     1
290
     0
176
     1
290
     0
176
     1
290
     0
176
     1
 90
       50
176
     1
 40
0.0
176
     1
 40
1.0
176
     1
 90
        0
176
     1
 62
    18
420
        0
176
     1
 90
       50
176
     1
 90
        3
176
     1
 62
     5
420
      255
176
     1
290
     0
176
     1
 90
       50
176
     1
 90
       50
176
     1
 90
       50
176
     1
290
     0
176
     1
 90
       50
176
     1
 62
   256
176
     0
 40
1.0
176
     0
 90
        2
176
     1
  1
strokes_ogs.tif
176
     1
290
     0
176
     1
 40
1.0
176
     1
 40
1.0
176
     1
  0
VISUALSTYLE
  5
2E
102
{ACAD_REACTORS
330
29
102
}
330
29
100
AcDbVisualStyle
  2
Basic
 70
     7
177
     3
291
     1
 70
    58
 90
        1
176
     1
 90
        0
176
     1
 90
        1
176
     1
 90
        0
176
     1
 40
0.6
176
     1
 40
30.0
176
     1
 62
     7
420
 16777215
176
     1
 90
        0
176
     1
 90
        4
176
     1
 62
     7
176
     1
 62
   257
176
     1
 90
        1
176
     1
 90
        1
176
     1
 40
1.0
176
     1
 90
        8
176
     1
 62
     7
176
     1
 40
1.0
176
     1
 90
        1
176
     1
 90
        6
176
     1
 90
        2
176
     1
 62
     7
176
     1
 90
        5
176
     1
 90
        0
176
     1
 90
        0
176
     1
290
     0
176
     1
 90
        1
176
     1
 40
0.0
176
     1
 90
        0
176
     1
290
     0
176
     1
290
     1
176
     1
290
     1
176
     1
290
     0
176
     1
290
     0
176
     1
290
     0
176
     1
290
     0
176
     1
290
     0
176
     1
290
     0
176
     1
 90
       50
176
     1
 40
0.0
176
     1
 40
1.0
176
     1
 90
        0
176
     1
 62
    18
420
        0
176
     1
 90
       50
176
     1
 90
        3
176
     1
 62
     5
420
      255
176
     1
290
     0
176
     1
 90
       50
176
     1
 90
       50
176
     1
 90
       50
176
     1
290
     0
176
     1
 90
       50
176
     1
 62
   256
176
     0
 40
1.0
176
     0
 90
        2
176
     1
  1
strokes_ogs.tif
176
     1
290
     0
176
     1
 40
1.0
176
     1
 40
1.0
176
     1
  0
VISUALSTYLE
  5
35
102
{ACAD_REACTORS
330
29
102
}
330
29
100
AcDbVisualStyle
  2
Brighten
 70
    12
177
     3
291
     1
 70
    58
 90
        2
176
     1
 90
        2
176
     1
 90
        0
176
     1
 90
        0
176
     1
 40
0.6
176
     1
 40
30.0
176
     1
 62
     7
420
 16777215
176
     1
 90
        1
176
     1
 90
        4
176
     1
 62
     7
176
     1
 62
   257
176
     1
 90
        1
176
     1
 90
        1
176
     1
 40
1.0
176
     1
 90
        8
176
     1
 62
     7
176
     1
 40
1.0
176
     1
 90
        1
176
     1
 90
        6
176
     1
 90
        2
176
     1
 62
     7
176
     1
 90
        5
176
     1
 90
        0
176
     1
 90
        0
176
     1
290
     0
176
     1
 90
        1
176
     1
 40
50.0
176
     1
 90
        0
176
     1
290
     0
176
     1
290
     1
176
     1
290
     1
176
     1
290
     0
176
     1
290
     0
176
     1
290
     0
176
     1
290
     0
176
     1
290
     0
176
     1
290
     0
176
     1
 90
       50
176
     1
 40
0.0
176
     1
 40
1.0
176
     1
 90
        0
176
     1
 62
    18
420
        0
176
     1
 90
       50
176
     1
 90
        3
176
     1
 62
     5
420
      255
176
     1
290
     0
176
     1
 90
       50
176
     1
 90
       50
176
     1
 90
       50
176
     1
290
     0
176
     1
 90
       50
176
     1
 62
   256
176
     0
 40
1.0
176
     0
 90
        2
176
     1
  1
strokes_ogs.tif
176
     1
290
     0
176
     1
 40
1.0
176
     1
 40
1.0
176
     1
  0
VISUALSTYLE
  5
39
102
{ACAD_REACTORS
330
29
102
}
330
29
100
AcDbVisualStyle
  2
ColorChange
 70
    16
177
     3
291
     1
 70
    58
 90
        2
176
     1
 90
        2
176
     1
 90
        3
176
     1
 90
        0
176
     1
 40
0.6
176
     1
 40
30.0
176
     1
 62
     8
420
  8421504
176
     1
 90
        1
176
     1
 90
        4
176
     1
 62
     7
176
     1
 62
   257
176
     1
 90
        1
176
     1
 90
        1
176
     1
 40
1.0
176
     1
 90
        8
176
     1
 62
     8
420
  8421504
176
     1
 40
1.0
176
     1
 90
        1
176
     1
 90
        6
176
     1
 90
        2
176
     1
 62
     7
176
     1
 90
        5
176
     1
 90
        0
176
     1
 90
        0
176
     1
290
     0
176
     1
 90
        1
176
     1
 40
0.0
176
     1
 90
        0
176
     1
290
     0
176
     1
290
     1
176
     1
290
     1
176
     1
290
     0
176
     1
290
     0
176
     1
290
     0
176
     1
290
     0
176
     1
290
     0
176
     1
290
     0
176
     1
 90
       50
176
     1
 40
0.0
176
     1
 40
1.0
176
     1
 90
        0
176
     1
 62
    18
420
        0
176
     1
 90
       50
176
     1
 90
        3
176
     1
 62
     5
420
      255
176
     1
290
     0
176
     1
 90
       50
176
     1
 90
       50
176
     1
 90
       50
176
     1
290
     0
176
     1
 90
       50
176
     1
 62
   256
176
     0
 40
1.0
176
     0
 90
        2
176
     1
  1
strokes_ogs.tif
176
     1
290
     0
176
     1
 40
1.0
176
     1
 40
1.0
176
     1
  0
VISUALSTYLE
  5
32
102
{ACAD_REACTORS
330
29
102
}
330
29
100
AcDbVisualStyle
  2
Conceptual
 70
     9
177
     3
291
     0
 70
    58
 90
        3
176
     1
 90
        2
176
     1
 90
        0
176
     1
 90
        0
176
     1
 40
0.6
176
     1
 40
30.0
176
     1
 62
     7
420
 16777215
176
     1
 90
        2
176
     1
 90
        2
176
     1
 62
     7
176
     1
 62
   257
176
     1
 90
        1
176
     1
 90
        1
176
     1
 40
179.0
176
     1
 90
        8
176
     1
 62
     7
176
     1
 40
1.0
176
     1
 90
        1
176
     1
 90
        6
176
     1
 90
        2
176
     1
 62
     7
176
     1
 90
        3
176
     1
 90
        0
176
     1
 90
        0
176
     1
290
     0
176
     1
 90
        1
176
     1
 40
0.0
176
     1
 90
        0
176
     1
290
     0
176
     1
290
     1
176
     1
290
     1
176
     1
290
     0
176
     1
290
     0
176
     1
290
     0
176
     1
290
     0
176
     1
290
     0
176
     1
290
     0
176
     1
 90
       50
176
     1
 40
0.0
176
     1
 40
1.0
176
     1
 90
        0
176
     1
 62
    18
420
        0
176
     1
 90
       50
176
     1
 90
        3
176
     1
 62
     5
420
      255
176
     1
290
     0
176
     1
 90
       50
176
     1
 90
       50
176
     1
 90
       50
176
     1
290
     0
176
     1
 90
       50
176
     1
 62
   256
176
     0
 40
1.0
176
     0
 90
        2
176
     1
  1
strokes_ogs.tif
176
     1
290
     0
176
     1
 40
1.0
176
     1
 40
1.0
176
     1
  0
VISUALSTYLE
  5
34
102
{ACAD_REACTORS
330
29
102
}
330
29
100
AcDbVisualStyle
  2
Dim
 70
    11
177
     3
291
     1
 70
    58
 90
        2
176
     1
 90
        2
176
     1
 90
        0
176
     1
 90
        0
176
     1
 40
0.6
176
     1
 40
30.0
176
     1
 62
     7
420
 16777215
176
     1
 90
        1
176
     1
 90
        4
176
     1
 62
     7
176
     1
 62
   257
176
     1
 90
        1
176
     1
 90
        1
176
     1
 40
1.0
176
     1
 90
        8
176
     1
 62
     7
176
     1
 40
1.0
176
     1
 90
        1
176
     1
 90
        6
176
     1
 90
        2
176
     1
 62
     7
176
     1
 90
        5
176
     1
 90
        0
176
     1
 90
        0
176
     1
290
     0
176
     1
 90
        1
176
     1
 40
-50.0
176
     1
 90
        0
176
     1
290
     0
176
     1
290
     1
176
     1
290
     1
176
     1
290
     0
176
     1
290
     0
176
     1
290
     0
176
     1
290
     0
176
     1
290
     0
176
     1
290
     0
176
     1
 90
       50
176
     1
 40
0.0
176
     1
 40
1.0
176
     1
 90
        0
176
     1
 62
    18
420
        0
176
     1
 90
       50
176
     1
 90
        3
176
     1
 62
     5
420
      255
176
     1
290
     0
176
     1
 90
       50
176
     1
 90
       50
176
     1
 90
       50
176
     1
290
     0
176
     1
 90
       50
176
     1
 62
   256
176
     0
 40
1.0
176
     0
 90
        2
176
     1
  1
strokes_ogs.tif
176
     1
290
     0
176
     1
 40
1.0
176
     1
 40
1.0
176
     1
  0
VISUALSTYLE
  5
41
102
{ACAD_REACTORS
330
29
102
}
330
29
100
AcDbVisualStyle
  2
EdgeColorOff
 70
    22
177
     3
291
     1
 70
    58
 90
        2
176
     0
 90
        2
176
     0
 90
        0
176
     0
 90
        0
176
     0
 40
0.6
176
     0
 40
30.0
176
     0
 62
     7
420
 16777215
176
     0
 90
        1
176
     0
 90
        4
176
     0
 62
     7
176
     0
 62
   257
176
     0
 90
        1
176
     0
 90
        1
176
     0
 40
1.0
176
     0
 90
        8
176
     2
 62
     7
176
     0
 40
1.0
176
     0
 90
        1
176
     0
 90
        6
176
     0
 90
        2
176
     0
 62
     7
176
     0
 90
        5
176
     0
 90
        0
176
     0
 90
        0
176
     0
290
     0
176
     0
 90
        1
176
     0
 40
0.0
176
     0
 90
        0
176
     0
290
     0
176
     0
290
     1
176
     0
290
     1
176
     0
290
     0
176
     0
290
     0
176
     0
290
     0
176
     0
290
     0
176
     0
290
     0
176
     0
290
     0
176
     0
 90
       50
176
     0
 40
0.0
176
     0
 40
1.0
176
     0
 90
        0
176
     0
 62
    18
420
        0
176
     0
 90
       50
176
     0
 90
        3
176
     0
 62
     5
420
      255
176
     0
290
     0
176
     0
 90
       50
176
     0
 90
       50
176
     0
 90
       50
176
     0
290
     0
176
     0
 90
       50
176
     0
 62
   256
176
     0
 40
1.0
176
     0
 90
        2
176
     0
  1
strokes_ogs.tif
176
     0
290
     0
176
     0
 40
1.0
176
     0
 40
1.0
176
     0
  0
VISUALSTYLE
  5
38
102
{ACAD_REACTORS
330
29
102
}
330
29
100
AcDbVisualStyle
  2
Facepattern
 70
    15
177
     3
291
     1
 70
    58
 90
        2
176
     1
 90
        2
176
     1
 90
        0
176
     1
 90
        0
176
     1
 40
0.6
176
     1
 40
30.0
176
     1
 62
     7
420
 16777215
176
     1
 90
        1
176
     1
 90
        4
176
     1
 62
     7
176
     1
 62
   257
176
     1
 90
        1
176
     1
 90
        1
176
     1
 40
1.0
176
     1
 90
        8
176
     1
 62
     7
176
     1
 40
1.0
176
     1
 90
        1
176
     1
 90
        6
176
     1
 90
        2
176
     1
 62
     7
176
     1
 90
        5
176
     1
 90
        0
176
     1
 90
        0
176
     1
290
     0
176
     1
 90
        1
176
     1
 40
0.0
176
     1
 90
        0
176
     1
290
     0
176
     1
290
     1
176
     1
290
     1
176
     1
290
     0
176
     1
290
     0
176
     1
290
     0
176
     1
290
     0
176
     1
290
     0
176
     1
290
     0
176
     1
 90
       50
176
     1
 40
0.0
176
     1
 40
1.0
176
     1
 90
        0
176
     1
 62
    18
420
        0
176
     1
 90
       50
176
     1
 90
        3
176
     1
 62
     5
420
      255
176
     1
290
     0
176
     1
 90
       50
176
     1
 90
       50
176
     1
 90
       50
176
     1
290
     0
176
     1
 90
       50
176
     1
 62
   256
176
     0
 40
1.0
176
     0
 90
        2
176
     1
  1
strokes_ogs.tif
176
     1
290
     0
176
     1
 40
1.0
176
     1
 40
1.0
176
     1
  0
VISUALSTYLE
  5
2A
102
{ACAD_REACTORS
330
29
102
}
330
29
100
AcDbVisualStyle
  2
Flat
 70
     0
177
     3
291
     1
 70
    58
 90
        2
176
     1
 90
        1
176
     1
 90
        1
176
     1
 90
        2
176
     1
 40
0.6
176
     1
 40
30.0
176
     1
 62
     7
420
 16777215
176
     1
 90
        0
176
     1
 90
        0
176
     1
 62
     7
176
     1
 62
   257
176
     1
 90
        1
176
     1
 90
        1
176
     1
 40
1.0
176
     1
 90
        8
176
     1
 62
     7
176
     1
 40
1.0
176
     1
 90
        1
176
     1
 90
        6
176
     1
 90
        2
176
     1
 62
     7
176
     1
 90
        5
176
     1
 90
        0
176
     1
 90
        0
176
     1
290
     0
176
     1
 90
       13
176
     1
 40
0.0
176
     1
 90
        0
176
     1
290
     0
176
     1
290
     1
176
     1
290
     1
176
     1
290
     0
176
     1
290
     0
176
     1
290
     0
176
     1
290
     0
176
     1
290
     0
176
     1
290
     0
176
     1
 90
       50
176
     1
 40
0.0
176
     1
 40
1.0
176
     1
 90
        0
176
     1
 62
    18
420
        0
176
     1
 90
       50
176
     1
 90
        3
176
     1
 62
     5
420
      255
176
     1
290
     0
176
     1
 90
       50
176
     1
 90
       50
176
     1
 90
       50
176
     1
290
     0
176
     1
 90
       50
176
     1
 62
   256
176
     0
 40
1.0
176
     0
 90
        2
176
     1
  1
strokes_ogs.tif
176
     1
290
     0
176
     1
 40
1.0
176
     1
 40
1.0
176
     1
  0
VISUALSTYLE
  5
2B
102
{ACAD_REACTORS
330
29
102
}
330
29
100
AcDbVisualStyle
  2
FlatWithEdges
 70
     1
177
     3
291
     1
 70
    58
 90
        2
176
     1
 90
        1
176
     1
 90
        1
176
     1
 90
        2
176
     1
 40
0.6
176
     1
 40
30.0
176
     1
 62
     7
420
 16777215
176
     1
 90
        1
176
     1
 90
        0
176
     1
 62
     7
176
     1
 62
   257
176
     1
 90
        1
176
     1
 90
        1
176
     1
 40
1.0
176
     1
 90
        0
176
     1
 62
   257
176
     1
 40
1.0
176
     1
 90
        1
176
     1
 90
        6
176
     1
 90
        2
176
     1
 62
     7
176
     1
 90
        5
176
     1
 90
        0
176
     1
 90
        0
176
     1
290
     0
176
     1
 90
       13
176
     1
 40
0.0
176
     1
 90
        0
176
     1
290
     0
176
     1
290
     1
176
     1
290
     1
176
     1
290
     0
176
     1
290
     0
176
     1
290
     0
176
     1
290
     0
176
     1
290
     0
176
     1
290
     0
176
     1
 90
       50
176
     1
 40
0.0
176
     1
 40
1.0
176
     1
 90
        0
176
     1
 62
    18
420
        0
176
     1
 90
       50
176
     1
 90
        3
176
     1
 62
     5
420
      255
176
     1
290
     0
176
     1
 90
       50
176
     1
 90
       50
176
     1
 90
       50
176
     1
290
     0
176
     1
 90
       50
176
     1
 62
   256
176
     0
 40
1.0
176
     0
 90
        2
176
     1
  1
strokes_ogs.tif
176
     1
290
     0
176
     1
 40
1.0
176
     1
 40
1.0
176
     1
  0
VISUALSTYLE
  5
2C
102
{ACAD_REACTORS
330
29
102
}
330
29
100
AcDbVisualStyle
  2
Gouraud
 70
     2
177
     3
291
     1
 70
    58
 90
        2
176
     1
 90
        2
176
     1
 90
        1
176
     1
 90
        2
176
     1
 40
0.6
176
     1
 40
30.0
176
     1
 62
     7
420
 16777215
176
     1
 90
        0
176
     1
 90
        0
176
     1
 62
     7
176
     1
 62
   257
176
     1
 90
        1
176
     1
 90
        1
176
     1
 40
1.0
176
     1
 90
        0
176
     1
 62
     7
176
     1
 40
1.0
176
     1
 90
        1
176
     1
 90
        6
176
     1
 90
        2
176
     1
 62
     7
176
     1
 90
        5
176
     1
 90
        0
176
     1
 90
        0
176
     1
290
     0
176
     1
 90
       13
176
     1
 40
0.0
176
     1
 90
        0
176
     1
290
     0
176
     1
290
     1
176
     1
290
     1
176
     1
290
     0
176
     1
290
     0
176
     1
290
     0
176
     1
290
     0
176
     1
290
     0
176
     1
290
     0
176
     1
 90
       50
176
     1
 40
0.0
176
     1
 40
1.0
176
     1
 90
        0
176
     1
 62
    18
420
        0
176
     1
 90
       50
176
     1
 90
        3
176
     1
 62
     5
420
      255
176
     1
290
     0
176
     1
 90
       50
176
     1
 90
       50
176
     1
 90
       50
176
     1
290
     0
176
     1
 90
       50
176
     1
 62
   256
176
     0
 40
1.0
176
     0
 90
        2
176
     1
  1
strokes_ogs.tif
176
     1
290
     0
176
     1
 40
1.0
176
     1
 40
1.0
176
     1
  0
VISUALSTYLE
  5
2D
102
{ACAD_REACTORS
330
29
102
}
330
29
100
AcDbVisualStyle
  2
GouraudWithEdges
 70
     3
177
     3
291
     1
 70
    58
 90
        2
176
     1
 90
        2
176
     1
 90
        1
176
     1
 90
        2
176
     1
 40
0.6
176
     1
 40
30.0
176
     1
 62
     7
420
 16777215
176
     1
 90
        1
176
     1
 90
        0
176
     1
 62
     7
176
     1
 62
   257
176
     1
 90
        1
176
     1
 90
        1
176
     1
 40
1.0
176
     1
 90
        0
176
     1
 62
   257
176
     1
 40
1.0
176
     1
 90
        1
176
     1
 90
        6
176
     1
 90
        2
176
     1
 62
     7
176
     1
 90
        5
176
     1
 90
        0
176
     1
 90
        0
176
     1
290
     0
176
     1
 90
       13
176
     1
 40
0.0
176
     1
 90
        0
176
     1
290
     0
176
     1
290
     1
176
     1
290
     1
176
     1
290
     0
176
     1
290
     0
176
     1
290
     0
176
     1
290
     0
176
     1
290
     0
176
     1
290
     0
176
     1
 90
       50
176
     1
 40
0.0
176
     1
 40
1.0
176
     1
 90
        0
176
     1
 62
    18
420
        0
176
     1
 90
       50
176
     1
 90
        3
176
     1
 62
     5
420
      255
176
     1
290
     0
176
     1
 90
       50
176
     1
 90
       50
176
     1
 90
       50
176
     1
290
     0
176
     1
 90
       50
176
     1
 62
   256
176
     0
 40
1.0
176
     0
 90
        2
176
     1
  1
strokes_ogs.tif
176
     1
290
     0
176
     1
 40
1.0
176
     1
 40
1.0
176
     1
  0
VISUALSTYLE
  5
31
102
{ACAD_REACTORS
330
29
102
}
330
29
100
AcDbVisualStyle
  2
Hidden
 70
     6
177
     3
291
     0
 70
    58
 90
        1
176
     1
 90
        2
176
     1
 90
        2
176
     1
 90
        0
176
     1
 40
0.6
176
     1
 40
30.0
176
     1
 62
     7
420
 16777215
176
     1
 90
        2
176
     1
 90
        2
176
     1
 62
     7
176
     1
 62
   257
176
     1
 90
        2
176
     1
 90
        1
176
     1
 40
40.0
176
     1
 90
        0
176
     1
 62
   257
176
     1
 40
1.0
176
     1
 90
        1
176
     1
 90
        6
176
     1
 90
        2
176
     1
 62
     7
176
     1
 90
        3
176
     1
 90
        0
176
     1
 90
        0
176
     1
290
     0
176
     1
 90
        1
176
     1
 40
0.0
176
     1
 90
        0
176
     1
290
     0
176
     1
290
     1
176
     1
290
     1
176
     1
290
     0
176
     1
290
     0
176
     1
290
     0
176
     1
290
     0
176
     1
290
     0
176
     1
290
     0
176
     1
 90
       50
176
     1
 40
0.0
176
     1
 40
1.0
176
     1
 90
        0
176
     1
 62
    18
420
        0
176
     1
 90
       50
176
     1
 90
        3
176
     1
 62
     5
420
      255
176
     1
290
     0
176
     1
 90
       50
176
     1
 90
       50
176
     1
 90
       50
176
     1
290
     0
176
     1
 90
       50
176
     1
 62
   256
176
     0
 40
1.0
176
     0
 90
        2
176
     1
  1
strokes_ogs.tif
176
     1
290
     0
176
     1
 40
1.0
176
     1
 40
1.0
176
     1
  0
VISUALSTYLE
  5
3F
102
{ACAD_REACTORS
330
29
102
}
330
29
100
AcDbVisualStyle
  2
JitterOff
 70
    20
177
     3
291
     1
 70
    58
 90
        2
176
     0
 90
        2
176
     0
 90
        0
176
     0
 90
        0
176
     0
 40
0.6
176
     0
 40
30.0
176
     0
 62
     7
420
 16777215
176
     0
 90
        1
176
     0
 90
        4
176
     0
 62
     7
176
     0
 62
   257
176
     0
 90
        1
176
     0
 90
        1
176
     0
 40
1.0
176
     0
 90
       10
176
     2
 62
     7
176
     0
 40
1.0
176
     0
 90
        1
176
     0
 90
        6
176
     0
 90
        2
176
     0
 62
     7
176
     0
 90
        5
176
     0
 90
        0
176
     0
 90
        0
176
     0
290
     0
176
     0
 90
        1
176
     0
 40
0.0
176
     0
 90
        0
176
     0
290
     0
176
     0
290
     1
176
     0
290
     1
176
     0
290
     0
176
     0
290
     0
176
     0
290
     0
176
     0
290
     0
176
     0
290
     0
176
     0
290
     0
176
     0
 90
       50
176
     0
 40
0.0
176
     0
 40
1.0
176
     0
 90
        0
176
     0
 62
    18
420
        0
176
     0
 90
       50
176
     0
 90
        3
176
     0
 62
     5
420
      255
176
     0
290
     0
176
     0
 90
       50
176
     0
 90
       50
176
     0
 90
       50
176
     0
290
     0
176
     0
 90
       50
176
     0
 62
   256
176
     0
 40
1.0
176
     0
 90
        2
176
     0
  1
strokes_ogs.tif
176
     0
290
     0
176
     0
 40
1.0
176
     0
 40
1.0
176
     0
  0
VISUALSTYLE
  5
37
102
{ACAD_REACTORS
330
29
102
}
330
29
100
AcDbVisualStyle
  2
Linepattern
 70
    14
177
     3
291
     1
 70
    58
 90
        2
176
     1
 90
        2
176
     1
 90
        0
176
     1
 90
        0
176
     1
 40
0.6
176
     1
 40
30.0
176
     1
 62
     7
420
 16777215
176
     1
 90
        1
176
     1
 90
        4
176
     1
 62
     7
176
     1
 62
   257
176
     1
 90
        7
176
     1
 90
        7
176
     1
 40
1.0
176
     1
 90
        8
176
     1
 62
     7
176
     1
 40
1.0
176
     1
 90
        1
176
     1
 90
        6
176
     1
 90
        2
176
     1
 62
     7
176
     1
 90
        5
176
     1
 90
        0
176
     1
 90
        0
176
     1
290
     0
176
     1
 90
        1
176
     1
 40
0.0
176
     1
 90
        0
176
     1
290
     0
176
     1
290
     1
176
     1
290
     1
176
     1
290
     0
176
     1
290
     0
176
     1
290
     0
176
     1
290
     0
176
     1
290
     0
176
     1
290
     0
176
     1
 90
       50
176
     1
 40
0.0
176
     1
 40
1.0
176
     1
 90
        0
176
     1
 62
    18
420
        0
176
     1
 90
       50
176
     1
 90
        3
176
     1
 62
     5
420
      255
176
     1
290
     0
176
     1
 90
       50
176
     1
 90
       50
176
     1
 90
       50
176
     1
290
     0
176
     1
 90
       50
176
     1
 62
   256
176
     0
 40
1.0
176
     0
 90
        2
176
     1
  1
strokes_ogs.tif
176
     1
290
     0
176
     1
 40
1.0
176
     1
 40
1.0
176
     1
  0
VISUALSTYLE
  5
40
102
{ACAD_REACTORS
330
29
102
}
330
29
100
AcDbVisualStyle
  2
OverhangOff
 70
    21
177
     3
291
     1
 70
    58
 90
        2
176
     0
 90
        2
176
     0
 90
        0
176
     0
 90
        0
176
     0
 40
0.6
176
     0
 40
30.0
176
     0
 62
     7
420
 16777215
176
     0
 90
        1
176
     0
 90
        4
176
     0
 62
     7
176
     0
 62
   257
176
     0
 90
        1
176
     0
 90
        1
176
     0
 40
1.0
176
     0
 90
        9
176
     2
 62
     7
176
     0
 40
1.0
176
     0
 90
        1
176
     0
 90
        6
176
     0
 90
        2
176
     0
 62
     7
176
     0
 90
        5
176
     0
 90
        0
176
     0
 90
        0
176
     0
290
     0
176
     0
 90
        1
176
     0
 40
0.0
176
     0
 90
        0
176
     0
290
     0
176
     0
290
     1
176
     0
290
     1
176
     0
290
     0
176
     0
290
     0
176
     0
290
     0
176
     0
290
     0
176
     0
290
     0
176
     0
290
     0
176
     0
 90
       50
176
     0
 40
0.0
176
     0
 40
1.0
176
     0
 90
        0
176
     0
 62
    18
420
        0
176
     0
 90
       50
176
     0
 90
        3
176
     0
 62
     5
420
      255
176
     0
290
     0
176
     0
 90
       50
176
     0
 90
       50
176
     0
 90
       50
176
     0
290
     0
176
     0
 90
       50
176
     0
 62
   256
176
     0
 40
1.0
176
     0
 90
        2
176
     0
  1
strokes_ogs.tif
176
     0
290
     0
176
     0
 40
1.0
176
     0
 40
1.0
176
     0
  0
VISUALSTYLE
  5
33
102
{ACAD_REACTORS
330
29
102
}
330
29
100
AcDbVisualStyle
  2
Realistic
 70
     8
177
     3
291
     0
 70
    58
 90
        2
176
     1
 90
        3
176
     1
 90
        0
176
     1
 90
        2
176
     1
 40
0.6
176
     1
 40
30.0
176
     1
 62
     7
420
 16777215
176
     1
 90
        0
176
     1
 90
        0
176
     1
 62
     7
176
     1
 62
   257
176
     1
 90
        1
176
     1
 90
        1
176
     1
 40
1.0
176
     1
 90
        8
176
     1
 62
   257
176
     1
 40
1.0
176
     1
 90
        1
176
     1
 90
        6
176
     1
 90
        2
176
     1
 62
     7
176
     1
 90
        3
176
     1
 90
        0
176
     1
 90
        0
176
     1
290
     0
176
     1
 90
       13
176
     1
 40
0.0
176
     1
 90
        0
176
     1
290
     0
176
     1
290
     1
176
     1
290
     1
176
     1
290
     0
176
     1
290
     0
176
     1
290
     0
176
     1
290
     0
176
     1
290
     0
176
     1
290
     0
176
     1
 90
       50
176
     1
 40
0.0
176
     1
 40
1.0
176
     1
 90
        0
176
     1
 62
    18
420
        0
176
     1
 90
       50
176
     1
 90
        3
176
     1
 62
     5
420
      255
176
     1
290
     0
176
     1
 90
       50
176
     1
 90
       50
176
     1
 90
       50
176
     1
290
     0
176
     1
 90
       50
176
     1
 62
   256
176
     0
 40
1.0
176
     0
 90
        2
176
     1
  1
strokes_ogs.tif
176
     1
290
     0
176
     1
 40
1.0
176
     1
 40
1.0
176
     1
  0
VISUALSTYLE
  5
3E
102
{ACAD_REACTORS
330
29
102
}
330
29
100
AcDbVisualStyle
  2
Shaded
 70
    27
177
     3
291
     0
 70
    58
 90
        2
176
     1
 90
        2
176
     1
 90
        1
176
     1
 90
        2
176
     1
 40
0.6
176
     1
 40
30.0
176
     1
 62
     7
420
 16777215
176
     1
 90
        0
176
     1
 90
        4
176
     1
 62
     7
176
     1
 62
   257
176
     1
 90
        1
176
     1
 90
        1
176
     1
 40
1.0
176
     1
 90
        8
176
     1
 62
   257
176
     1
 40
1.0
176
     1
 90
        1
176
     1
 90
        6
176
     1
 90
        2
176
     1
 62
     8
420
  7895160
176
     1
 90
        3
176
     1
 90
        0
176
     1
 90
        0
176
     1
290
     0
176
     1
 90
        5
176
     1
 40
0.0
176
     1
 90
        0
176
     1
290
     0
176
     1
290
     1
176
     1
290
     1
176
     1
290
     0
176
     1
290
     0
176
     1
290
     0
176
     1
290
     0
176
     1
290
     0
176
     1
290
     0
176
     1
 90
       50
176
     1
 40
0.0
176
     1
 40
1.0
176
     1
 90
        0
176
     1
 62
    18
420
        0
176
     1
 90
       50
176
     1
 90
        3
176
     1
 62
     5
420
      255
176
     1
290
     0
176
     1
 90
       50
176
     1
 90
       50
176
     1
 90
       50
176
     1
290
     0
176
     1
 90
       50
176
     1
 62
   256
176
     0
 40
1.0
176
     0
 90
        2
176
     1
  1
strokes_ogs.tif
176
     1
290
     0
176
     1
 40
1.0
176
     1
 40
1.0
176
     1
  0
VISUALSTYLE
  5
3D
102
{ACAD_REACTORS
330
29
102
}
330
29
100
AcDbVisualStyle
  2
Shaded with edges
 70
    26
177
     3
291
     0
 70
    58
 90
        2
176
     1
 90
        2
176
     1
 90
        1
176
     1
 90
        2
176
     1
 40
0.6
176
     1
 40
30.0
176
     1
 62
     7
420
 16777215
176
     1
 90
        1
176
     1
 90
        2
176
     1
 62
     7
176
     1
 62
   257
176
     1
 90
        2
176
     1
 90
        1
176
     1
 40
1.0
176
     1
 90
        8
176
     1
 62
   257
176
     1
 40
1.0
176
     1
 90
        1
176
     1
 90
        6
176
     1
 90
        2
176
     1
 62
     7
176
     1
 90
        3
176
     1
 90
        0
176
     1
 90
        0
176
     1
290
     0
176
     1
 90
        5
176
     1
 40
0.0
176
     1
 90
        0
176
     1
290
     0
176
     1
290
     1
176
     1
290
     1
176
     1
290
     0
176
     1
290
     0
176
     1
290
     0
176
     1
290
     0
176
     1
290
     0
176
     1
290
     0
176
     1
 90
       50
176
     1
 40
0.0
176
     1
 40
1.0
176
     1
 90
        0
176
     1
 62
    18
420
        0
176
     1
 90
       50
176
     1
 90
        3
176
     1
 62
     5
420
      255
176
     1
290
     0
176
     1
 90
       50
176
     1
 90
       50
176
     1
 90
       50
176
     1
290
     0
176
     1
 90
       50
176
     1
 62
   256
176
     0
 40
1.0
176
     0
 90
        2
176
     1
  1
strokes_ogs.tif
176
     1
290
     0
176
     1
 40
1.0
176
     1
 40
1.0
176
     1
  0
VISUALSTYLE
  5
3A
102
{ACAD_REACTORS
330
29
102
}
330
29
100
AcDbVisualStyle
  2
Shades of Gray
 70
    23
177
     3
291
     0
 70
    58
 90
        2
176
     1
 90
        2
176
     1
 90
        3
176
     1
 90
        0
176
     1
 40
0.6
176
     1
 40
30.0
176
     1
 62
     7
420
 16777215
176
     1
 90
        2
176
     1
 90
        2
176
     1
 62
     7
176
     1
 62
     7
176
     1
 90
        1
176
     1
 90
        1
176
     1
 40
40.0
176
     1
 90
        8
176
     1
 62
     7
176
     1
 40
1.0
176
     1
 90
        1
176
     1
 90
        6
176
     1
 90
        2
176
     1
 62
     7
176
     1
 90
        3
176
     1
 90
        0
176
     1
 90
        0
176
     1
290
     0
176
     1
 90
        1
176
     1
 40
0.0
176
     1
 90
        0
176
     1
290
     0
176
     1
290
     1
176
     1
290
     1
176
     1
290
     0
176
     1
290
     0
176
     1
290
     0
176
     1
290
     0
176
     1
290
     0
176
     1
290
     0
176
     1
 90
       50
176
     1
 40
0.0
176
     1
 40
1.0
176
     1
 90
        0
176
     1
 62
    18
420
        0
176
     1
 90
       50
176
     1
 90
        3
176
     1
 62
     5
420
      255
176
     1
290
     0
176
     1
 90
       50
176
     1
 90
       50
176
     1
 90
       50
176
     1
290
     0
176
     1
 90
       50
176
     1
 62
   256
176
     0
 40
1.0
176
     0
 90
        2
176
     1
  1
strokes_ogs.tif
176
     1
290
     0
176
     1
 40
1.0
176
     1
 40
1.0
176
     1
  0
VISUALSTYLE
  5
3B
102
{ACAD_REACTORS
330
29
102
}
330
29
100
AcDbVisualStyle
  2
Sketchy
 70
    24
177
     3
291
     0
 70
    58
 90
        1
176
     1
 90
        2
176
     1
 90
        2
176
     1
 90
        0
176
     1
 40
0.6
176
     1
 40
30.0
176
     1
 62
     7
420
 16777215
176
     1
 90
        2
176
     1
 90
        2
176
     1
 62
     7
176
     1
 62
     7
176
     1
 90
        1
176
     1
 90
        1
176
     1
 40
40.0
176
     1
 90
       11
176
     1
 62
     7
176
     1
 40
1.0
176
     1
 90
        1
176
     1
 90
        6
176
     1
 90
        2
176
     1
 62
     7
176
     1
 90
        6
176
     1
 90
        0
176
     1
 90
        0
176
     1
290
     0
176
     1
 90
        1
176
     1
 40
0.0
176
     1
 90
        0
176
     1
290
     0
176
     1
290
     1
176
     1
290
     1
176
     1
290
     0
176
     1
290
     0
176
     1
290
     0
176
     1
290
     0
176
     1
290
     0
176
     1
290
     0
176
     1
 90
       50
176
     1
 40
0.0
176
     1
 40
1.0
176
     1
 90
        0
176
     1
 62
    18
420
        0
176
     1
 90
       50
176
     1
 90
        3
176
     1
 62
     5
420
      255
176
     1
290
     0
176
     1
 90
       50
176
     1
 90
       50
176
     1
 90
       50
176
     1
290
     0
176
     1
 90
       50
176
     1
 62
   256
176
     0
 40
1.0
176
     0
 90
        2
176
     1
  1
strokes_ogs.tif
176
     1
290
     0
176
     1
 40
1.0
176
     1
 40
1.0
176
     1
  0
VISUALSTYLE
  5
36
102
{ACAD_REACTORS
330
29
102
}
330
29
100
AcDbVisualStyle
  2
Thicken
 70
    13
177
     3
291
     1
 70
    58
 90
        2
176
     1
 90
        2
176
     1
 90
        0
176
     1
 90
        0
176
     1
 40
0.6
176
     1
 40
30.0
176
     1
 62
     7
420
 16777215
176
     1
 90
        1
176
     1
 90
        4
176
     1
 62
     7
176
     1
 62
   257
176
     1
 90
        1
176
     1
 90
        1
176
     1
 40
1.0
176
     1
 90
       12
176
     1
 62
     7
176
     1
 40
1.0
176
     1
 90
        1
176
     1
 90
        6
176
     1
 90
        2
176
     1
 62
     7
176
     1
 90
        5
176
     1
 90
        0
176
     1
 90
        0
176
     1
290
     0
176
     1
 90
        1
176
     1
 40
0.0
176
     1
 90
        0
176
     1
290
     0
176
     1
290
     1
176
     1
290
     1
176
     1
290
     0
176
     1
290
     0
176
     1
290
     0
176
     1
290
     0
176
     1
290
     0
176
     1
290
     0
176
     1
 90
       50
176
     1
 40
0.0
176
     1
 40
1.0
176
     1
 90
        0
176
     1
 62
    18
420
        0
176
     1
 90
       50
176
     1
 90
        3
176
     1
 62
     5
420
      255
176
     1
290
     0
176
     1
 90
       50
176
     1
 90
       50
176
     1
 90
       50
176
     1
290
     0
176
     1
 90
       50
176
     1
 62
   256
176
     0
 40
1.0
176
     0
 90
        2
176
     1
  1
strokes_ogs.tif
176
     1
290
     0
176
     1
 40
1.0
176
     1
 40
1.0
176
     1
  0
VISUALSTYLE
  5
30
102
{ACAD_REACTORS
330
29
102
}
330
29
100
AcDbVisualStyle
  2
Wireframe
 70
     5
177
     3
291
     0
 70
    58
 90
        0
176
     1
 90
        2
176
     1
 90
        0
176
     1
 90
        0
176
     1
 40
0.6
176
     1
 40
30.0
176
     1
 62
     7
420
 16777215
176
     1
 90
        1
176
     1
 90
        4
176
     1
 62
     7
176
     1
 62
   257
176
     1
 90
        1
176
     1
 90
        1
176
     1
 40
1.0
176
     1
 90
        0
176
     1
 62
   257
176
     1
 40
1.0
176
     1
 90
        1
176
     1
 90
        6
176
     1
 90
        2
176
     1
 62
     7
176
     1
 90
        3
176
     1
 90
        0
176
     1
 90
        0
176
     1
290
     0
176
     1
 90
        1
176
     1
 40
0.0
176
     1
 90
        0
176
     1
290
     0
176
     1
290
     1
176
     1
290
     1
176
     1
290
     0
176
     1
290
     0
176
     1
290
     0
176
     1
290
     0
176
     1
290
     0
176
     1
290
     0
176
     1
 90
       50
176
     1
 40
0.0
176
     1
 40
1.0
176
     1
 90
        0
176
     1
 62
    18
420
        0
176
     1
 90
       50
176
     1
 90
        3
176
     1
 62
     5
420
      255
176
     1
290
     0
176
     1
 90
       50
176
     1
 90
       50
176
     1
 90
       50
176
     1
290
     0
176
     1
 90
       50
176
     1
 62
   256
176
     0
 40
1.0
176
     0
 90
        2
176
     1
  1
strokes_ogs.tif
176
     1
290
     0
176
     1
 40
1.0
176
     1
 40
1.0
176
     1
  0
VISUALSTYLE
  5
3C
102
{ACAD_REACTORS
330
29
102
}
330
29
100
AcDbVisualStyle
  2
X-Ray
 70
    25
177
     3
291
     0
 70
    58
 90
        2
176
     1
 90
        2
176
     1
 90
        1
176
     1
 90
        1
176
     1
 40
0.5
176
     1
 40
30.0
176
     1
 62
     7
420
 16777215
176
     1
 90
        1
176
     1
 90
        0
176
     1
 62
     7
176
     1
 62
   257
176
     1
 90
        1
176
     1
 90
        1
176
     1
 40
1.0
176
     1
 90
        8
176
     1
 62
     7
176
     1
 40
1.0
176
     1
 90
        1
176
     1
 90
        6
176
     1
 90
        2
176
     1
 62
     7
176
     1
 90
        3
176
     1
 90
        0
176
     1
 90
        0
176
     1
290
     0
176
     1
 90
       13
176
     1
 40
0.0
176
     1
 90
        0
176
     1
290
     0
176
     1
290
     1
176
     1
290
     1
176
     1
290
     0
176
     1
290
     0
176
     1
290
     0
176
     1
290
     0
176
     1
290
     0
176
     1
290
     0
176
     1
 90
       50
176
     1
 40
0.0
176
     1
 40
1.0
176
     1
 90
        0
176
     1
 62
    18
420
        0
176
     1
 90
       50
176
     1
 90
        3
176
     1
 62
     5
420
      255
176
     1
290
     0
176
     1
 90
       50
176
     1
 90
       50
176
     1
 90
       50
176
     1
290
     0
176
     1
 90
       50
176
     1
 62
   256
176
     0
 40
1.0
176
     0
 90
        2
176
     1
  1
strokes_ogs.tif
176
     1
290
     0
176
     1
 40
1.0
176
     1
 40
1.0
176
     1
  0
DICTIONARYVAR
  5
CE
102
{ACAD_REACTORS
330
C9
102
}
330
C9
100
DictionaryVariables
280
     0
  1
1:1
  0
DICTIONARYVAR
  5
CB
102
{ACAD_REACTORS
330
C9
102
}
330
C9
100
DictionaryVariables
280
     0
  1
STANDARD
  0
DICTIONARYVAR
  5
CA
102
{ACAD_REACTORS
330
C9
102
}
330
C9
100
DictionaryVariables
280
     0
  1
STANDARD
  0
DICTIONARYVAR
  5
CC
102
{ACAD_REACTORS
330
C9
102
}
330
C9
100
DictionaryVariables
280
     0
  1
Imperial24
  0
DICTIONARYVAR
  5
CD
102
{ACAD_REACTORS
330
C9
102
}
330
C9
100
DictionaryVariables
280
     0
  1
Imperial24
  0
DICTIONARY
  5
1A
330
19
100
AcDbDictionary
280
     1
281
     1
  3
BUMPTILE
360
1C
  3
DIFFUSETILE
360
1B
  3
OPACITYTILE
360
1F
  3
REFLECTIONTILE
360
1E
  3
REFRACTIONTILE
360
20
  3
SPECULARTILE
360
1D
  0
DICTIONARY
  5
12
330
11
100
AcDbDictionary
280
     1
281
     1
  3
BUMPTILE
360
14
  3
DIFFUSETILE
360
13
  3
OPACITYTILE
360
17
  3
REFLECTIONTILE
360
16
  3
REFRACTIONTILE
360
18
  3
SPECULARTILE
360
15
  0
DICTIONARY
  5
22
330
21
100
AcDbDictionary
280
     1
281
     1
  3
BUMPTILE
360
24
  3
DIFFUSETILE
360
23
  3
OPACITYTILE
360
27
  3
REFLECTIONTILE
360
26
  3
REFRACTIONTILE
360
28
  3
SPECULARTILE
360
25
  0
DICTIONARY
  5
CF
330
65
100
AcDbDictionary
280
     1
281
     1
  3
ACAD_ROUNDTRIP_2008_TABLESTYLE_CELLSTYLEMAP
360
D0
  0
XRECORD
  5
1C
102
{ACAD_REACTORS
330
1A
102
}
330
1A
100
AcDbXrecord
280
     1
270
     1
271
     1
  0
XRECORD
  5
1B
102
{ACAD_REACTORS
330
1A
102
}
330
1A
100
AcDbXrecord
280
     1
270
     1
271
     1
  0
XRECORD
  5
1F
102
{ACAD_REACTORS
330
1A
102
}
330
1A
100
AcDbXrecord
280
     1
270
     1
271
     1
  0
XRECORD
  5
1E
102
{ACAD_REACTORS
330
1A
102
}
330
1A
100
AcDbXrecord
280
     1
270
     1
271
     1
  0
XRECORD
  5
20
102
{ACAD_REACTORS
330
1A
102
}
330
1A
100
AcDbXrecord
280
     1
270
     1
271
     1
  0
XRECORD
  5
1D
102
{ACAD_REACTORS
330
1A
102
}
330
1A
100
AcDbXrecord
280
     1
270
     1
271
     1
  0
XRECORD
  5
14
102
{ACAD_REACTORS
330
12
102
}
330
12
100
AcDbXrecord
280
     1
270
     1
271
     1
  0
XRECORD
  5
13
102
{ACAD_REACTORS
330
12
102
}
330
12
100
AcDbXrecord
280
     1
270
     1
271
     1
  0
XRECORD
  5
17
102
{ACAD_REACTORS
330
12
102
}
330
12
100
AcDbXrecord
280
     1
270
     1
271
     1
  0
XRECORD
  5
16
102
{ACAD_REACTORS
330
12
102
}
330
12
100
AcDbXrecord
280
     1
270
     1
271
     1
  0
XRECORD
  5
18
102
{ACAD_REACTORS
330
12
102
}
330
12
100
AcDbXrecord
280
     1
270
     1
271
     1
  0
XRECORD
  5
15
102
{ACAD_REACTORS
330
12
102
}
330
12
100
AcDbXrecord
280
     1
270
     1
271
     1
  0
XRECORD
  5
24
102
{ACAD_REACTORS
330
22
102
}
330
22
100
AcDbXrecord
280
     1
270
     1
271
     1
  0
XRECORD
  5
23
102
{ACAD_REACTORS
330
22
102
}
330
22
100
AcDbXrecord
280
     1
270
     1
271
     1
  0
XRECORD
  5
27
102
{ACAD_REACTORS
330
22
102
}
330
22
100
AcDbXrecord
280
     1
270
     1
271
     1
  0
XRECORD
  5
26
102
{ACAD_REACTORS
330
22
102
}
330
22
100
AcDbXrecord
280
     1
270
     1
271
     1
  0
XRECORD
  5
28
102
{ACAD_REACTORS
330
22
102
}
330
22
100
AcDbXrecord
280
     1
270
     1
271
     1
  0
XRECORD
  5
25
102
{ACAD_REACTORS
330
22
102
}
330
22
100
AcDbXrecord
280
     1
270
     1
271
     1
  0
CELLSTYLEMAP
  5
D0
102
{ACAD_REACTORS
330
CF
102
}
330
CF
100
AcDbCellStyleMap
 90
        3
300
CELLSTYLE
  1
TABLEFORMAT_BEGIN
 90
        5
170
     1
 91
        0
 92
    32768
 62
   257
 93
        1
300
CONTENTFORMAT
  1
CONTENTFORMAT_BEGIN
 90
        0
 91
        0
 92
      512
 93
        0
300

 40
0.0
140
1.0
 94
        5
 62
     0
340
55
144
0.25
309
CONTENTFORMAT_END
171
     0
 94
        0
309
TABLEFORMAT_END
  1
CELLSTYLE_BEGIN
 90
        1
 91
        1
300
_TITLE
309
CELLSTYLE_END
300
CELLSTYLE
  1
TABLEFORMAT_BEGIN
 90
        5
170
     1
 91
        0
 92
        0
 62
   257
 93
        1
300
CONTENTFORMAT
  1
CONTENTFORMAT_BEGIN
 90
        0
 91
        0
 92
      512
 93
        0
300

 40
0.0
140
1.0
 94
        5
 62
     0
340
55
144
0.18
309
CONTENTFORMAT_END
171
     0
 94
        0
309
TABLEFORMAT_END
  1
CELLSTYLE_BEGIN
 90
        2
 91
        1
300
_HEADER
309
CELLSTYLE_END
300
CELLSTYLE
  1
TABLEFORMAT_BEGIN
 90
        5
170
     1
 91
        0
 92
        0
 62
   257
 93
        1
300
CONTENTFORMAT
  1
CONTENTFORMAT_BEGIN
 90
        0
 91
        0
 92
      512
 93
        0
300

 40
0.0
140
1.0
 94
        2
 62
     0
340
55
144
0.18
309
CONTENTFORMAT_END
171
     0
 94
        0
309
TABLEFORMAT_END
  1
CELLSTYLE_BEGIN
 90
        3
 91
        2
300
_DATA
309
CELLSTYLE_END
  0
ENDSEC
  0
EOF
