  0
SECTION
  2
HEADER
  9
$ACADVER
  1
AC1032
  9
$ACADMAINTVER
 90
      228
  9
$DWGCODEPAGE
  3
ANSI_1252
  9
$REQUIREDVERSIONS
160
                 0
  9
$INSBASE
 10
0.0
 20
0.0
 30
0.0
  9
$EXTMIN
 10
1.000000000000000E+20
 20
1.000000000000000E+20
 30
1.000000000000000E+20
  9
$EXTMAX
 10
-1.000000000000000E+20
 20
-1.000000000000000E+20
 30
-1.000000000000000E+20
  9
$LIMMIN
 10
0.0
 20
0.0
  9
$LIMMAX
 10
12.0
 20
9.0
  9
$ORTHOMODE
 70
     0
  9
$REGENMODE
 70
     1
  9
$FILLMODE
 70
     1
  9
$QTEXTMODE
 70
     0
  9
$MIRRTEXT
 70
     0
  9
$LTSCALE
 40
1.0
  9
$ATTMODE
 70
     1
  9
$TEXTSIZE
 40
0.2
  9
$TRACEWID
 40
0.05
  9
$TEXTSTYLE
  7
Standard
  9
$CLAYER
  8
0
  9
$CELTYPE
  6
ByLayer
  9
$CECOLOR
 62
   256
  9
$CELTSCALE
 40
1.0
  9
$DISPSILH
 70
     0
  9
$DIMSCALE
 40
1.0
  9
$DIMASZ
 40
0.18
  9
$DIMEXO
 40
0.0625
  9
$DIMDLI
 40
0.38
  9
$DIMRND
 40
0.0
  9
$DIMDLE
 40
0.0
  9
$DIMEXE
 40
0.18
  9
$DIMTP
 40
0.0
  9
$DIMTM
 40
0.0
  9
$DIMTXT
 40
0.18
  9
$DIMCEN
 40
0.09
  9
$DIMTSZ
 40
0.0
  9
$DIMTOL
 70
     0
  9
$DIMLIM
 70
     0
  9
$DIMTIH
 70
     1
  9
$DIMTOH
 70
     1
  9
$DIMSE1
 70
     0
  9
$DIMSE2
 70
     0
  9
$DIMTAD
 70
     0
  9
$DIMZIN
 70
     0
  9
$DIMBLK
  1

  9
$DIMASO
 70
     1
  9
$DIMSHO
 70
     1
  9
$DIMPOST
  1

  9
$DIMAPOST
  1

  9
$DIMALT
 70
     0
  9
$DIMALTD
 70
     2
  9
$DIMALTF
 40
25.4
  9
$DIMLFAC
 40
1.0
  9
$DIMTOFL
 70
     0
  9
$DIMTVP
 40
0.0
  9
$DIMTIX
 70
     0
  9
$DIMSOXD
 70
     0
  9
$DIMSAH
 70
     0
  9
$DIMBLK1
  1

  9
$DIMBLK2
  1

  9
$DIMSTYLE
  2
Standard
  9
$DIMCLRD
 70
     0
  9
$DIMCLRE
 70
     0
  9
$DIMCLRT
 70
     0
  9
$DIMTFAC
 40
1.0
  9
$DIMGAP
 40
0.09
  9
$DIMJUST
 70
     0
  9
$DIMSD1
 70
     0
  9
$DIMSD2
 70
     0
  9
$DIMTOLJ
 70
     1
  9
$DIMTZIN
 70
     0
  9
$DIMALTZ
 70
     0
  9
$DIMALTTZ
 70
     0
  9
$DIMUPT
 70
     0
  9
$DIMDEC
 70
     4
  9
$DIMTDEC
 70
     4
  9
$DIMALTU
 70
     2
  9
$DIMALTTD
 70
     2
  9
$DIMTXSTY
  7
Standard
  9
$DIMAUNIT
 70
     0
  9
$DIMADEC
 70
     0
  9
$DIMALTRND
 40
0.0
  9
$DIMAZIN
 70
     0
  9
$DIMDSEP
 70
    46
  9
$DIMATFIT
 70
     3
  9
$DIMFRAC
 70
     0
  9
$DIMLDRBLK
  1

  9
$DIMLUNIT
 70
     2
  9
$DIMLWD
 70
    -2
  9
$DIMLWE
 70
    -2
  9
$DIMTMOVE
 70
     0
  9
$DIMFXL
 40
1.0
  9
$DIMFXLON
 70
     0
  9
$DIMJOGANG
 40
0.7853981633974483
  9
$DIMTFILL
 70
     0
  9
$DIMTFILLCLR
 70
     0
  9
$DIMARCSYM
 70
     0
  9
$DIMLTYPE
  6

  9
$DIMLTEX1
  6

  9
$DIMLTEX2
  6

  9
$DIMTXTDIRECTION
 70
     0
  9
$LUNITS
 70
     2
  9
$LUPREC
 70
     4
  9
$SKETCHINC
 40
0.1
  9
$FILLETRAD
 40
0.0
  9
$AUNITS
 70
     0
  9
$AUPREC
 70
     0
  9
$MENU
  1
.
  9
$ELEVATION
 40
0.0
  9
$PELEVATION
 40
0.0
  9
$THICKNESS
 40
0.0
  9
$LIMCHECK
 70
     0
  9
$CHAMFERA
 40
0.0
  9
$CHAMFERB
 40
0.0
  9
$CHAMFERC
 40
0.0
  9
$CHAMFERD
 40
0.0
  9
$SKPOLY
 70
     0
  9
$TDCREATE
 40
2459843.627743055
  9
$TDUCREATE
 40
2459843.127743056
  9
$TDUPDATE
 40
2459843.627743055
  9
$TDUUPDATE
 40
2459843.127743056
  9
$TDINDWG
 40
0.0000000000
  9
$TDUSRTIMER
 40
0.0000000000
  9
$USRTIMER
 70
     1
  9
$ANGBASE
 50
0.0
  9
$ANGDIR
 70
     0
  9
$PDMODE
 70
     0
  9
$PDSIZE
 40
0.0
  9
$PLINEWID
 40
0.0
  9
$SPLFRAME
 70
     0
  9
$SPLINETYPE
 70
     6
  9
$SPLINESEGS
 70
     8
  9
$HANDSEED
  5
DF
  9
$SURFTAB1
 70
     6
  9
$SURFTAB2
 70
     6
  9
$SURFTYPE
 70
     6
  9
$SURFU
 70
     6
  9
$SURFV
 70
     6
  9
$UCSBASE
  2

  9
$UCSNAME
  2

  9
$UCSORG
 10
0.0
 20
0.0
 30
0.0
  9
$UCSXDIR
 10
1.0
 20
0.0
 30
0.0
  9
$UCSYDIR
 10
0.0
 20
1.0
 30
0.0
  9
$UCSORTHOREF
  2

  9
$UCSORTHOVIEW
 70
     0
  9
$UCSORGTOP
 10
0.0
 20
0.0
 30
0.0
  9
$UCSORGBOTTOM
 10
0.0
 20
0.0
 30
0.0
  9
$UCSORGLEFT
 10
0.0
 20
0.0
 30
0.0
  9
$UCSORGRIGHT
 10
0.0
 20
0.0
 30
0.0
  9
$UCSORGFRONT
 10
0.0
 20
0.0
 30
0.0
  9
$UCSORGBACK
 10
0.0
 20
0.0
 30
0.0
  9
$PUCSBASE
  2

  9
$PUCSNAME
  2

  9
$PUCSORG
 10
0.0
 20
0.0
 30
0.0
  9
$PUCSXDIR
 10
1.0
 20
0.0
 30
0.0
  9
$PUCSYDIR
 10
0.0
 20
1.0
 30
0.0
  9
$PUCSORTHOREF
  2

  9
$PUCSORTHOVIEW
 70
     0
  9
$PUCSORGTOP
 10
0.0
 20
0.0
 30
0.0
  9
$PUCSORGBOTTOM
 10
0.0
 20
0.0
 30
0.0
  9
$PUCSORGLEFT
 10
0.0
 20
0.0
 30
0.0
  9
$PUCSORGRIGHT
 10
0.0
 20
0.0
 30
0.0
  9
$PUCSORGFRONT
 10
0.0
 20
0.0
 30
0.0
  9
$PUCSORGBACK
 10
0.0
 20
0.0
 30
0.0
  9
$USERI1
 70
     0
  9
$USERI2
 70
     0
  9
$USERI3
 70
     0
  9
$USERI4
 70
     0
  9
$USERI5
 70
     0
  9
$USERR1
 40
0.0
  9
$USERR2
 40
0.0
  9
$USERR3
 40
0.0
  9
$USERR4
 40
0.0
  9
$USERR5
 40
0.0
  9
$WORLDVIEW
 70
     1
  9
$SHADEDGE
 70
     3
  9
$SHADEDIF
 70
    70
  9
$TILEMODE
 70
     1
  9
$MAXACTVP
 70
    64
  9
$PINSBASE
 10
0.0
 20
0.0
 30
0.0
  9
$PLIMCHECK
 70
     0
  9
$PEXTMIN
 10
1.000000000000000E+20
 20
1.000000000000000E+20
 30
1.000000000000000E+20
  9
$PEXTMAX
 10
-1.000000000000000E+20
 20
-1.000000000000000E+20
 30
-1.000000000000000E+20
  9
$PLIMMIN
 10
0.0
 20
0.0
  9
$PLIMMAX
 10
12.0
 20
9.0
  9
$UNITMODE
 70
     0
  9
$VISRETAIN
 70
     1
  9
$PLINEGEN
 70
     0
  9
$PSLTSCALE
 70
     1
  9
$TREEDEPTH
 70
  3020
  9
$CMLSTYLE
  2
Standard
  9
$CMLJUST
 70
     0
  9
$CMLSCALE
 40
1.0
  9
$PROXYGRAPHICS
 70
     1
  9
$MEASUREMENT
 70
     0
  9
$CELWEIGHT
370
    -1
  9
$ENDCAPS
280
     0
  9
$JOINSTYLE
280
     0
  9
$LWDISPLAY
290
     1
  9
$INSUNITS
 70
     1
  9
$HYPERLINKBASE
  1

  9
$STYLESHEET
  1

  9
$XEDIT
290
     1
  9
$CEPSNTYPE
380
     0
  9
$PSTYLEMODE
290
     1
  9
$FINGERPRINTGUID
  2
{3739ED15-DA10-4941-874B-16682C086D9A}
  9
$VERSIONGUID
  2
{27911DA5-6244-3344-851F-CA9429F1597A}
  9
$EXTNAMES
290
     1
  9
$PSVPSCALE
 40
0.0
  9
$OLESTARTUP
290
     0
  9
$SORTENTS
280
   127
  9
$INDEXCTL
280
     0
  9
$HIDETEXT
280
     1
  9
$XCLIPFRAME
280
     2
  9
$HALOGAP
280
     0
  9
$OBSCOLOR
 70
   257
  9
$OBSLTYPE
280
     0
  9
$INTERSECTIONDISPLAY
280
     0
  9
$INTERSECTIONCOLOR
 70
   257
  9
$DIMASSOC
280
     2
  9
$PROJECTNAME
  1

  9
$CAMERADISPLAY
290
     0
  9
$LENSLENGTH
 40
50.0
  9
$CAMERAHEIGHT
 40
0.0
  9
$STEPSPERSEC
 40
2.0
  9
$STEPSIZE
 40
6.0
  9
$3DDWFPREC
 40
2.0
  9
$PSOLWIDTH
 40
0.25
  9
$PSOLHEIGHT
 40
4.0
  9
$LOFTANG1
 40
1.570796326794896
  9
$LOFTANG2
 40
1.570796326794896
  9
$LOFTMAG1
 40
0.0
  9
$LOFTMAG2
 40
0.0
  9
$LOFTPARAM
 70
     7
  9
$LOFTNORMALS
280
     1
  9
$LATITUDE
 40
37.795
  9
$LONGITUDE
 40
-122.394
  9
$NORTHDIRECTION
 40
0.0
  9
$TIMEZONE
 70
 -8000
  9
$LIGHTGLYPHDISPLAY
280
     1
  9
$TILEMODELIGHTSYNCH
280
     1
  9
$CMATERIAL
347
11
  9
$SOLIDHIST
280
     0
  9
$SHOWHIST
280
     1
  9
$DWFFRAME
280
     2
  9
$DGNFRAME
280
     0
  9
$REALWORLDSCALE
290
     1
  9
$INTERFERECOLOR
 62
     1
  9
$INTERFEREOBJVS
345
33
  9
$INTERFEREVPVS
346
30
  9
$CSHADOW
280
     0
  9
$SHADOWPLANELOCATION
 40
0.0
  0
ENDSEC
  0
SECTION
  2
CLASSES
  0
CLASS
  1
ACDBDICTIONARYWDFLT
  2
AcDbDictionaryWithDefault
  3
ObjectDBX Classes
 90
        0
 91
        1
280
     0
281
     0
  0
CLASS
  1
MATERIAL
  2
AcDbMaterial
  3
ObjectDBX Classes
 90
     1153
 91
        3
280
     0
281
     0
  0
CLASS
  1
VISUALSTYLE
  2
AcDbVisualStyle
  3
ObjectDBX Classes
 90
     4095
 91
       24
280
     0
281
     0
  0
CLASS
  1
SCALE
  2
AcDbScale
  3
ObjectDBX Classes
 90
     1153
 91
       17
280
     0
281
     0
  0
CLASS
  1
TABLESTYLE
  2
AcDbTableStyle
  3
ObjectDBX Classes
 90
     4095
 91
        1
280
     0
281
     0
  0
CLASS
  1
MLEADERSTYLE
  2
AcDbMLeaderStyle
  3
ACDB_MLEADERSTYLE_CLASS
 90
     4095
 91
        1
280
     0
281
     0
  0
CLASS
  1
ACDBSECTIONVIEWSTYLE
  2
AcDbSectionViewStyle
  3
ObjectDBX Classes
 90
     1025
 91
        1
280
     0
281
     0
  0
CLASS
  1
ACDBDETAILVIEWSTYLE
  2
AcDbDetailViewStyle
  3
ObjectDBX Classes
 90
     1025
 91
        1
280
     0
281
     0
  0
CLASS
  1
DICTIONARYVAR
  2
AcDbDictionaryVar
  3
ObjectDBX Classes
 90
        0
 91
        5
280
     0
281
     0
  0
CLASS
  1
CELLSTYLEMAP
  2
AcDbCellStyleMap
  3
ObjectDBX Classes
 90
     1152
 91
        1
280
     0
281
     0
  0
ENDSEC
  0
SECTION
  2
TABLES
  0
TABLE
  2
VPORT
  5
8
330
0
100
AcDbSymbolTable
 70
     1
  0
VPORT
  5
57
330
8
100
AcDbSymbolTableRecord
100
AcDbViewportTableRecord
  2
*Active
 70
     0
 10
0.0
 20
0.0
 11
1.0
 21
1.0
 12
0.0
 22
0.0
 13
0.0
 23
0.0
 14
1.0
 24
1.0
 15
0.0
 25
0.0
 16
0.0
 26
0.0
 36
1.0
 17
2.22857009735601
 27
3.909920622002074
 37
0.0
 40
11.92677165354331
 41
0.7070707070707068
 42
50.0
 43
0.0
 44
0.0
 50
0.0
 51
0.0
 71
     0
 72
   100
 73
     1
 74
     1
 75
     0
 76
     0
 77
     0
 78
     0
281
     0
 65
     1
110
0.0
120
0.0
130
0.0
111
1.0
121
0.0
131
0.0
112
0.0
122
1.0
132
0.0
 79
     0
146
0.0
 60
     3
 61
     5
292
     1
282
     1
141
0.0
142
0.0
 63
   250
421
  3355443
  0
ENDTAB
  0
TABLE
  2
LTYPE
  5
5
330
0
100
AcDbSymbolTable
 70
     1
  0
LTYPE
  5
5B
330
5
100
AcDbSymbolTableRecord
100
AcDbLinetypeTableRecord
  2
ByBlock
 70
     0
  3

 72
    65
 73
     0
 40
0.0
  0
LTYPE
  5
5C
330
5
100
AcDbSymbolTableRecord
100
AcDbLinetypeTableRecord
  2
ByLayer
 70
     0
  3

 72
    65
 73
     0
 40
0.0
  0
LTYPE
  5
5D
330
5
100
AcDbSymbolTableRecord
100
AcDbLinetypeTableRecord
  2
Continuous
 70
     0
  3
Solid line
 72
    65
 73
     0
 40
0.0
  0
ENDTAB
  0
TABLE
  2
LAYER
  5
2
330
0
100
AcDbSymbolTable
 70
     3
  0
LAYER
  5
54
330
2
100
AcDbSymbolTableRecord
100
AcDbLayerTableRecord
  2
0
 70
     0
 62
     7
  6
Continuous
370
    -3
390
F
347
21
348
0
  0
LAYER
  5
78
330
2
100
AcDbSymbolTableRecord
100
AcDbLayerTableRecord
  2
Layer 1
 70
     0
 62
     7
  6
Continuous
370
     0
390
F
347
21
348
0
  0
LAYER
  5
CB
330
2
100
AcDbSymbolTableRecord
100
AcDbLayerTableRecord
  2
Layer 2
 70
     0
 62
     7
  6
Continuous
370
     0
390
F
347
21
348
0
  0
ENDTAB
  0
TABLE
  2
STYLE
  5
3
330
0
100
AcDbSymbolTable
 70
     2
  0
STYLE
  5
55
330
3
100
AcDbSymbolTableRecord
100
AcDbTextStyleTableRecord
  2
Standard
 70
     0
 40
0.0
 41
1.0
 50
0.0
 71
     0
 42
0.2
  3
txt
  4

  0
STYLE
  5
5A
330
3
100
AcDbSymbolTableRecord
100
AcDbTextStyleTableRecord
  2
Annotative
 70
     0
 40
0.0
 41
1.0
 50
0.0
 71
     0
 42
0.2
  3
txt
  4

1001
AcadAnnotative
1000
AnnotativeData
1002
{
1070
     1
1070
     1
1002
}
  0
ENDTAB
  0
TABLE
  2
VIEW
  5
6
330
0
100
AcDbSymbolTable
 70
     0
  0
ENDTAB
  0
TABLE
  2
UCS
  5
7
330
0
100
AcDbSymbolTable
 70
     0
  0
ENDTAB
  0
TABLE
  2
APPID
  5
9
330
0
100
AcDbSymbolTable
 70
     2
  0
APPID
  5
56
330
9
100
AcDbSymbolTableRecord
100
AcDbRegAppTableRecord
  2
ACAD
 70
     0
  0
APPID
  5
5E
330
9
100
AcDbSymbolTableRecord
100
AcDbRegAppTableRecord
  2
AcadAnnotative
 70
     0
  0
ENDTAB
  0
TABLE
  2
DIMSTYLE
  5
A
330
0
100
AcDbSymbolTable
 70
     2
100
AcDbDimStyleTable
 71
     0
  0
DIMSTYLE
105
58
330
A
100
AcDbSymbolTableRecord
100
AcDbDimStyleTableRecord
  2
Standard
 70
     0
340
55
  0
DIMSTYLE
105
59
330
A
100
AcDbSymbolTableRecord
100
AcDbDimStyleTableRecord
  2
Annotative
 70
     0
340
55
1001
AcadAnnotative
1000
AnnotativeData
1002
{
1070
     1
1070
     1
1002
}
  0
ENDTAB
  0
TABLE
  2
BLOCK_RECORD
  5
1
330
0
100
AcDbSymbolTable
 70
     2
  0
BLOCK_RECORD
  5
70
330
1
100
AcDbSymbolTableRecord
100
AcDbBlockTableRecord
  2
*Model_Space
340
73
 70
     0
280
     1
281
     0
  0
BLOCK_RECORD
  5
6C
330
1
100
AcDbSymbolTableRecord
100
AcDbBlockTableRecord
  2
*Paper_Space
340
6F
 70
     0
280
     1
281
     0
  0
BLOCK_RECORD
  5
74
330
1
100
AcDbSymbolTableRecord
100
AcDbBlockTableRecord
  2
*Paper_Space0
340
77
 70
     0
280
     1
281
     0
  0
BLOCK_RECORD
  5
A1
330
1
100
AcDbSymbolTableRecord
100
AcDbBlockTableRecord
  2
Block_0
340
0
102
{BLKREFS
331
A2
102
}
 70
     0
280
     1
281
     0
  0
ENDTAB
  0
ENDSEC
  0
SECTION
  2
BLOCKS
  0
BLOCK
  5
71
330
70
100
AcDbEntity
  8
0
100
AcDbBlockBegin
  2
*Model_Space
 70
     0
 10
0.0
 20
0.0
 30
0.0
  3
*Model_Space
  1

  0
ENDBLK
  5
72
330
70
100
AcDbEntity
  8
0
100
AcDbBlockEnd
  0
BLOCK
  5
6D
330
6C
100
AcDbEntity
 67
     1
  8
0
100
AcDbBlockBegin
  2
*Paper_Space
 70
     0
 10
0.0
 20
0.0
 30
0.0
  3
*Paper_Space
  1

  0
ENDBLK
  5
6E
330
6C
100
AcDbEntity
 67
     1
  8
0
100
AcDbBlockEnd
  0
BLOCK
  5
75
330
74
100
AcDbEntity
 67
     1
  8
0
100
AcDbBlockBegin
  2
*Paper_Space0
 70
     0
 10
0.0
 20
0.0
 30
0.0
  3
*Paper_Space0
  1

  0
ENDBLK
  5
76
330
74
100
AcDbEntity
 67
     1
  8
0
100
AcDbBlockEnd
  0
BLOCK
  5
A3
330
A1
100
AcDbEntity
  8
0
100
AcDbBlockBegin
  2
Block_0
 70
     0
 10
0.0
 20
0.0
 30
0.0
  3
Block_0
  1

  0
SPLINE
  5
A5
330
A1
100
AcDbEntity
  8
Layer 1
 62
   250
420
  2301728
370
    20
100
AcDbSpline
210
0.0
220
0.0
230
1.0
 70
     9
 71
     3
 72
    17
 73
    13
 74
     0
 42
0.0000000001
 43
0.0000000001
 40
0.0
 40
0.0
 40
0.0
 40
0.0
 40
1.0
 40
1.0
 40
1.0
 40
2.0
 40
2.0
 40
2.0
 40
3.0
 40
3.0
 40
3.0
 40
4.0
 40
4.0
 40
4.0
 40
4.0
 10
2.651818405725407
 20
4.222498390816945
 30
0.0
 10
2.651818405725407
 20
4.202134947924946
 30
0.0
 10
2.639160699342912
 20
4.185624373287724
 30
0.0
 10
2.623494397628266
 20
4.185624373287724
 30
0.0
 10
2.6078278855958
 20
4.185624373287724
 30
0.0
 10
2.59517017921333
 20
4.202134947924946
 30
0.0
 10
2.59517017921333
 20
4.222498390816945
 30
0.0
 10
2.59517017921333
 20
4.242859584207545
 30
0.0
 10
2.6078278855958
 20
4.259394053673442
 30
0.0
 10
2.623494397628266
 20
4.259394053673442
 30
0.0
 10
2.639160699342912
 20
4.259394053673442
 30
0.0
 10
2.651818405725407
 20
4.242859584207545
 30
0.0
 10
2.651818405725407
 20
4.222498390816945
 30
0.0
  0
HATCH
  5
A6
330
A1
100
AcDbEntity
  8
Layer 1
 62
   254
420
 13751252
440
 33554687
100
AcDbHatch
 10
0.0
 20
0.0
 30
0.0
210
0.0
220
0.0
230
1.0
  2
SOLID
 70
     1
 71
     1
 91
        1
 92
        1
 93
        1
 72
     4
 94
        3
 73
     0
 74
     0
 95
       17
 96
       13
 40
0.0
 40
0.0
 40
0.0
 40
0.0
 40
1.0
 40
1.0
 40
1.0
 40
2.0
 40
2.0
 40
2.0
 40
3.0
 40
3.0
 40
3.0
 40
4.0
 40
4.0
 40
4.0
 40
4.0
 10
2.651818405725407
 20
4.222498390816945
 10
2.651818405725407
 20
4.202134947924946
 10
2.639160699342912
 20
4.185624373287724
 10
2.623494397628266
 20
4.185624373287724
 10
2.6078278855958
 20
4.185624373287724
 10
2.59517017921333
 20
4.202134947924946
 10
2.59517017921333
 20
4.222498390816945
 10
2.59517017921333
 20
4.242859584207545
 10
2.6078278855958
 20
4.259394053673442
 10
2.623494397628266
 20
4.259394053673442
 10
2.639160699342912
 20
4.259394053673442
 10
2.651818405725407
 20
4.242859584207545
 10
2.651818405725407
 20
4.222498390816945
 97
        0
 97
        1
330
A5
 75
     2
 76
     1
 98
        1
 10
0.0
 20
0.0
450
        0
451
        0
460
0.0
461
0.0
452
        0
462
0.0
453
        0
470

  0
SPLINE
  5
A7
330
A1
100
AcDbEntity
  8
Layer 1
100
AcDbSpline
210
0.0
220
0.0
230
1.0
 70
     9
 71
     3
 72
    41
 73
    37
 74
     0
 42
0.0000000001
 43
0.0000000001
 40
0.0
 40
0.0
 40
0.0
 40
0.0
 40
1.0
 40
1.0
 40
1.0
 40
2.0
 40
2.0
 40
2.0
 40
3.0
 40
3.0
 40
3.0
 40
4.0
 40
4.0
 40
4.0
 40
5.0
 40
5.0
 40
5.0
 40
6.0
 40
6.0
 40
6.0
 40
7.0
 40
7.0
 40
7.0
 40
8.0
 40
8.0
 40
8.0
 40
9.0
 40
9.0
 40
9.0
 40
10.0
 40
10.0
 40
10.0
 40
11.0
 40
11.0
 40
11.0
 40
12.0
 40
12.0
 40
12.0
 40
12.0
 10
2.651654863252689
 20
4.224540266689788
 30
0.0
 10
2.649870326270754
 20
4.223203066471531
 30
0.0
 10
2.648155535343398
 20
4.221699918744168
 30
0.0
 10
2.646370998361488
 20
4.220408414216838
 30
0.0
 10
2.641226625579393
 20
4.226231007253519
 30
0.0
 10
2.635966811051856
 20
4.231233482890135
 30
0.0
 10
2.631363571451604
 20
4.234145981926644
 30
0.0
 10
2.628520923755483
 20
4.235933079304926
 30
0.0
 10
2.624809847360337
 20
4.235134451872164
 30
0.0
 10
2.623049360742065
 20
4.23231574925382
 30
0.0
 10
2.621262418723795
 20
4.22952109699914
 30
0.0
 10
2.62208494116021
 20
4.225810125889855
 30
0.0
 10
2.624855543051252
 20
4.224023183871559
 30
0.0
 10
2.628357275996904
 20
4.221815515492999
 30
0.0
 10
2.632277485269822
 20
4.218200590834903
 30
0.0
 10
2.636200099579127
 20
4.213900385816499
 30
0.0
 10
2.629295240178761
 20
4.209886534827407
 30
0.0
 10
2.622907463596599
 20
4.206856188932495
 30
0.0
 10
2.618867002505491
 20
4.20596376581606
 30
0.0
 10
2.615627418523495
 20
4.205259090161474
 30
0.0
 10
2.61358313761429
 20
4.20204115150678
 30
0.0
 10
2.614333508959791
 20
4.198775266546123
 30
0.0
 10
2.615062234978015
 20
4.195559578506427
 30
0.0
 10
2.618280173632733
 20
4.193491247233585
 30
0.0
 10
2.621498217395886
 20
4.194195922888171
 30
0.0
 10
2.627368806051385
 20
4.19553552814279
 30
0.0
 10
2.635449728233627
 20
4.199410041724819
 30
0.0
 10
2.64390343105227
 20
4.204482263415999
 30
0.0
 10
2.644774054215961
 20
4.203308605670486
 30
0.0
 10
2.6455485816411
 20
4.202158998288584
 30
0.0
 10
2.646416694052403
 20
4.200961290179431
 30
0.0
 10
2.649776529852589
 20
4.207019576779783
 30
0.0
 10
2.651818405725407
 20
4.214417468634703
 30
0.0
 10
2.651818405725407
 20
4.222498390816945
 30
0.0
 10
2.651818405725407
 20
4.223203066471531
 30
0.0
 10
2.651678913616327
 20
4.223835746089624
 30
0.0
 10
2.651654863252689
 20
4.224540266689788
 30
0.0
  0
HATCH
  5
A8
330
A1
100
AcDbEntity
  8
Layer 1
 62
   250
420
  2301728
440
 33554687
100
AcDbHatch
 10
0.0
 20
0.0
 30
0.0
210
0.0
220
0.0
230
1.0
  2
SOLID
 70
     1
 71
     1
 91
        1
 92
        1
 93
        2
 72
     4
 94
        3
 73
     0
 74
     0
 95
       41
 96
       37
 40
0.0
 40
0.0
 40
0.0
 40
0.0
 40
1.0
 40
1.0
 40
1.0
 40
2.0
 40
2.0
 40
2.0
 40
3.0
 40
3.0
 40
3.0
 40
4.0
 40
4.0
 40
4.0
 40
5.0
 40
5.0
 40
5.0
 40
6.0
 40
6.0
 40
6.0
 40
7.0
 40
7.0
 40
7.0
 40
8.0
 40
8.0
 40
8.0
 40
9.0
 40
9.0
 40
9.0
 40
10.0
 40
10.0
 40
10.0
 40
11.0
 40
11.0
 40
11.0
 40
12.0
 40
12.0
 40
12.0
 40
12.0
 10
2.651654863252689
 20
4.224540266689788
 10
2.649870326270754
 20
4.223203066471531
 10
2.648155535343398
 20
4.221699918744168
 10
2.646370998361488
 20
4.220408414216838
 10
2.641226625579393
 20
4.226231007253519
 10
2.635966811051856
 20
4.231233482890135
 10
2.631363571451604
 20
4.234145981926644
 10
2.628520923755483
 20
4.235933079304926
 10
2.624809847360337
 20
4.235134451872164
 10
2.623049360742065
 20
4.23231574925382
 10
2.621262418723795
 20
4.22952109699914
 10
2.62208494116021
 20
4.225810125889855
 10
2.624855543051252
 20
4.224023183871559
 10
2.628357275996904
 20
4.221815515492999
 10
2.632277485269822
 20
4.218200590834903
 10
2.636200099579127
 20
4.213900385816499
 10
2.629295240178761
 20
4.209886534827407
 10
2.622907463596599
 20
4.206856188932495
 10
2.618867002505491
 20
4.20596376581606
 10
2.615627418523495
 20
4.205259090161474
 10
2.61358313761429
 20
4.20204115150678
 10
2.614333508959791
 20
4.198775266546123
 10
2.615062234978015
 20
4.195559578506427
 10
2.618280173632733
 20
4.193491247233585
 10
2.621498217395886
 20
4.194195922888171
 10
2.627368806051385
 20
4.19553552814279
 10
2.635449728233627
 20
4.199410041724819
 10
2.64390343105227
 20
4.204482263415999
 10
2.644774054215961
 20
4.203308605670486
 10
2.6455485816411
 20
4.202158998288584
 10
2.646416694052403
 20
4.200961290179431
 10
2.649776529852589
 20
4.207019576779783
 10
2.651818405725407
 20
4.214417468634703
 10
2.651818405725407
 20
4.222498390816945
 10
2.651818405725407
 20
4.223203066471531
 10
2.651678913616327
 20
4.223835746089624
 10
2.651654863252689
 20
4.224540266689788
 97
        0
 72
     1
 10
2.651654863252689
 20
4.224540266689788
 11
2.651654863252689
 21
4.224540266689788
 97
        0
 75
     2
 76
     1
 98
        1
 10
0.0
 20
0.0
450
        0
451
        0
460
0.0
461
0.0
452
        0
462
0.0
453
        0
470

  0
SPLINE
  5
A9
330
A1
100
AcDbEntity
  8
Layer 1
 62
   250
420
  2301728
370
    20
100
AcDbSpline
210
0.0
220
0.0
230
1.0
 70
     9
 71
     3
 72
    17
 73
    13
 74
     0
 42
0.0000000001
 43
0.0000000001
 40
0.0
 40
0.0
 40
0.0
 40
0.0
 40
1.0
 40
1.0
 40
1.0
 40
2.0
 40
2.0
 40
2.0
 40
3.0
 40
3.0
 40
3.0
 40
4.0
 40
4.0
 40
4.0
 40
4.0
 10
3.019550870781282
 20
4.494026996285886
 30
0.0
 10
3.019550870781282
 20
4.473651528212081
 30
0.0
 10
3.006890759362426
 20
4.457128928393014
 30
0.0
 10
2.991248517301629
 20
4.457128928393014
 30
0.0
 10
2.975560350651676
 20
4.457128928393014
 30
0.0
 10
2.962900239232819
 20
4.473651528212081
 30
0.0
 10
2.962900239232819
 20
4.494026996285886
 30
0.0
 10
2.962900239232819
 20
4.514390439177873
 30
0.0
 10
2.975560350651676
 20
4.530913038996926
 30
0.0
 10
2.991248517301629
 20
4.530913038996926
 30
0.0
 10
3.006890759362426
 20
4.530913038996926
 30
0.0
 10
3.019550870781282
 20
4.514390439177873
 30
0.0
 10
3.019550870781282
 20
4.494026996285886
 30
0.0
  0
HATCH
  5
AA
330
A1
100
AcDbEntity
  8
Layer 1
 62
   254
420
 13751252
440
 33554687
100
AcDbHatch
 10
0.0
 20
0.0
 30
0.0
210
0.0
220
0.0
230
1.0
  2
SOLID
 70
     1
 71
     1
 91
        1
 92
        1
 93
        1
 72
     4
 94
        3
 73
     0
 74
     0
 95
       17
 96
       13
 40
0.0
 40
0.0
 40
0.0
 40
0.0
 40
1.0
 40
1.0
 40
1.0
 40
2.0
 40
2.0
 40
2.0
 40
3.0
 40
3.0
 40
3.0
 40
4.0
 40
4.0
 40
4.0
 40
4.0
 10
3.019550870781282
 20
4.494026996285886
 10
3.019550870781282
 20
4.473651528212081
 10
3.006890759362426
 20
4.457128928393014
 10
2.991248517301629
 20
4.457128928393014
 10
2.975560350651676
 20
4.457128928393014
 10
2.962900239232819
 20
4.473651528212081
 10
2.962900239232819
 20
4.494026996285886
 10
2.962900239232819
 20
4.514390439177873
 10
2.975560350651676
 20
4.530913038996926
 10
2.991248517301629
 20
4.530913038996926
 10
3.006890759362426
 20
4.530913038996926
 10
3.019550870781282
 20
4.514390439177873
 10
3.019550870781282
 20
4.494026996285886
 97
        0
 97
        1
330
A9
 75
     2
 76
     1
 98
        1
 10
0.0
 20
0.0
450
        0
451
        0
460
0.0
461
0.0
452
        0
462
0.0
453
        0
470

  0
SPLINE
  5
AB
330
A1
100
AcDbEntity
  8
Layer 1
100
AcDbSpline
210
0.0
220
0.0
230
1.0
 70
     9
 71
     3
 72
    41
 73
    37
 74
     0
 42
0.0000000001
 43
0.0000000001
 40
0.0
 40
0.0
 40
0.0
 40
0.0
 40
1.0
 40
1.0
 40
1.0
 40
2.0
 40
2.0
 40
2.0
 40
3.0
 40
3.0
 40
3.0
 40
4.0
 40
4.0
 40
4.0
 40
5.0
 40
5.0
 40
5.0
 40
6.0
 40
6.0
 40
6.0
 40
7.0
 40
7.0
 40
7.0
 40
8.0
 40
8.0
 40
8.0
 40
9.0
 40
9.0
 40
9.0
 40
10.0
 40
10.0
 40
10.0
 40
11.0
 40
11.0
 40
11.0
 40
12.0
 40
12.0
 40
12.0
 40
12.0
 10
3.019384923272177
 20
4.496071277195079
 30
0.0
 10
3.017600386290268
 20
4.494695596395015
 30
0.0
 10
3.015885595362886
 20
4.493204473849472
 30
0.0
 10
3.014101058380977
 20
4.491949206695102
 30
0.0
 10
3.008959090635244
 20
4.497749992577015
 30
0.0
 10
3.003696871071345
 20
4.50272841784998
 30
0.0
 10
2.999093631471092
 20
4.50568901761379
 30
0.0
 10
2.996275043428896
 20
4.507461691633276
 30
0.0
 10
2.992539907379851
 20
4.506626981795648
 30
0.0
 10
2.990755370397917
 20
4.503832329540955
 30
0.0
 10
2.988994883779645
 20
4.501049702468068
 30
0.0
 10
2.98981740621606
 20
4.497314680995158
 30
0.0
 10
2.992588008107102
 20
4.495542169195055
 30
0.0
 10
2.996087336016393
 20
4.493322320631301
 30
0.0
 10
3.000009950325698
 20
4.489717171122024
 30
0.0
 10
3.003932564634977
 20
4.485407507620417
 30
0.0
 10
2.997027705234611
 20
4.481415147155732
 30
0.0
 10
2.990637523616113
 20
4.478360750896588
 30
0.0
 10
2.986599467561341
 20
4.477480346103182
 30
0.0
 10
2.983357478542984
 20
4.476751620084971
 30
0.0
 10
2.981313197633779
 20
4.473557731793889
 30
0.0
 10
2.982065974015641
 20
4.470306122630088
 30
0.0
 10
2.982794700033865
 20
4.467088183975369
 30
0.0
 10
2.986012638688584
 20
4.465022257738888
 30
0.0
 10
2.989252337069249
 20
4.465736553538931
 30
0.0
 10
2.99510127110726
 20
4.467040083248093
 30
0.0
 10
3.003179788253141
 20
4.4709291883448
 30
0.0
 10
3.01163589610812
 20
4.47601327392129
 30
0.0
 10
3.012504114235449
 20
4.474827590993956
 30
0.0
 10
3.013302701314462
 20
4.473651528212081
 30
0.0
 10
3.014149159108253
 20
4.472477870466554
 30
0.0
 10
3.017506589872077
 20
4.478538562103241
 30
0.0
 10
3.019550870781282
 20
4.485960665998049
 30
0.0
 10
3.019550870781282
 20
4.494026996285886
 30
0.0
 10
3.019550870781282
 20
4.494719646758653
 30
0.0
 10
3.019408973635816
 20
4.495366601540505
 30
0.0
 10
3.019384923272177
 20
4.496071277195079
 30
0.0
  0
HATCH
  5
AC
330
A1
100
AcDbEntity
  8
Layer 1
 62
   250
420
  2301728
440
 33554687
100
AcDbHatch
 10
0.0
 20
0.0
 30
0.0
210
0.0
220
0.0
230
1.0
  2
SOLID
 70
     1
 71
     1
 91
        1
 92
        1
 93
        2
 72
     4
 94
        3
 73
     0
 74
     0
 95
       41
 96
       37
 40
0.0
 40
0.0
 40
0.0
 40
0.0
 40
1.0
 40
1.0
 40
1.0
 40
2.0
 40
2.0
 40
2.0
 40
3.0
 40
3.0
 40
3.0
 40
4.0
 40
4.0
 40
4.0
 40
5.0
 40
5.0
 40
5.0
 40
6.0
 40
6.0
 40
6.0
 40
7.0
 40
7.0
 40
7.0
 40
8.0
 40
8.0
 40
8.0
 40
9.0
 40
9.0
 40
9.0
 40
10.0
 40
10.0
 40
10.0
 40
11.0
 40
11.0
 40
11.0
 40
12.0
 40
12.0
 40
12.0
 40
12.0
 10
3.019384923272177
 20
4.496071277195079
 10
3.017600386290268
 20
4.494695596395015
 10
3.015885595362886
 20
4.493204473849472
 10
3.014101058380977
 20
4.491949206695102
 10
3.008959090635244
 20
4.497749992577015
 10
3.003696871071345
 20
4.50272841784998
 10
2.999093631471092
 20
4.50568901761379
 10
2.996275043428896
 20
4.507461691633276
 10
2.992539907379851
 20
4.506626981795648
 10
2.990755370397917
 20
4.503832329540955
 10
2.988994883779645
 20
4.501049702468068
 10
2.98981740621606
 20
4.497314680995158
 10
2.992588008107102
 20
4.495542169195055
 10
2.996087336016393
 20
4.493322320631301
 10
3.000009950325698
 20
4.489717171122024
 10
3.003932564634977
 20
4.485407507620417
 10
2.997027705234611
 20
4.481415147155732
 10
2.990637523616113
 20
4.478360750896588
 10
2.986599467561341
 20
4.477480346103182
 10
2.983357478542984
 20
4.476751620084971
 10
2.981313197633779
 20
4.473557731793889
 10
2.982065974015641
 20
4.470306122630088
 10
2.982794700033865
 20
4.467088183975369
 10
2.986012638688584
 20
4.465022257738888
 10
2.989252337069249
 20
4.465736553538931
 10
2.99510127110726
 20
4.467040083248093
 10
3.003179788253141
 20
4.4709291883448
 10
3.01163589610812
 20
4.47601327392129
 10
3.012504114235449
 20
4.474827590993956
 10
3.013302701314462
 20
4.473651528212081
 10
3.014149159108253
 20
4.472477870466554
 10
3.017506589872077
 20
4.478538562103241
 10
3.019550870781282
 20
4.485960665998049
 10
3.019550870781282
 20
4.494026996285886
 10
3.019550870781282
 20
4.494719646758653
 10
3.019408973635816
 20
4.495366601540505
 10
3.019384923272177
 20
4.496071277195079
 97
        0
 72
     1
 10
3.019384923272177
 20
4.496071277195078
 11
3.019384923272177
 21
4.496071277195079
 97
        0
 75
     2
 76
     1
 98
        1
 10
0.0
 20
0.0
450
        0
451
        0
460
0.0
461
0.0
452
        0
462
0.0
453
        0
470

  0
ENDBLK
  5
A4
330
A1
100
AcDbEntity
  8
0
100
AcDbBlockEnd
  0
ENDSEC
  0
SECTION
  2
ENTITIES
  0
SPLINE
  5
79
330
70
100
AcDbEntity
  8
Layer 1
100
AcDbSpline
210
0.0
220
0.0
230
1.0
 70
     9
 71
     3
 72
    41
 73
    37
 74
     0
 42
0.0000000001
 43
0.0000000001
 40
0.0
 40
0.0
 40
0.0
 40
0.0
 40
1.0
 40
1.0
 40
1.0
 40
2.0
 40
2.0
 40
2.0
 40
3.0
 40
3.0
 40
3.0
 40
4.0
 40
4.0
 40
4.0
 40
5.0
 40
5.0
 40
5.0
 40
6.0
 40
6.0
 40
6.0
 40
7.0
 40
7.0
 40
7.0
 40
8.0
 40
8.0
 40
8.0
 40
9.0
 40
9.0
 40
9.0
 40
10.0
 40
10.0
 40
10.0
 40
11.0
 40
11.0
 40
11.0
 40
12.0
 40
12.0
 40
12.0
 40
12.0
 10
2.121467094373909
 20
3.748465723519087
 30
0.0
 10
2.121467094373909
 20
3.583893895219464
 30
0.0
 10
2.121467094373909
 20
2.98808461667876
 30
0.0
 10
2.121467094373909
 20
2.966828905295844
 30
0.0
 10
2.121467094373909
 20
2.942167785098515
 30
0.0
 10
2.124836457842926
 20
2.922862435529875
 30
0.0
 10
2.142123859225661
 20
2.914971511220351
 30
0.0
 10
2.14864150777147
 20
2.912010911456541
 30
0.0
 10
2.319423139962332
 20
2.835280631307038
 30
0.0
 10
2.319423139962332
 20
2.835280631307038
 30
0.0
 10
2.319423139962332
 20
2.835280631307038
 30
0.0
 10
2.345176269345529
 20
2.735108461719896
 30
0.0
 10
2.345176269345529
 20
2.735108461719896
 30
0.0
 10
2.345176269345529
 20
2.735108461719896
 30
0.0
 10
2.461178489337397
 20
2.853857132180766
 30
0.0
 10
2.461178489337397
 20
2.853857132180766
 30
0.0
 10
2.461178489337397
 20
2.853857132180766
 30
0.0
 10
2.491970068844213
 20
2.757845793523352
 30
0.0
 10
2.491970068844213
 20
2.757845793523352
 30
0.0
 10
2.491970068844213
 20
2.757845793523352
 30
0.0
 10
2.680801498945129
 20
2.673080168862068
 30
0.0
 10
2.685171450018085
 20
2.671271581516521
 30
0.0
 10
2.698721424891548
 20
2.665448988479864
 30
0.0
 10
2.728808429802231
 20
2.663522554352463
 30
0.0
 10
2.73756997727542
 20
2.673198015643922
 30
0.0
 10
2.746307474384972
 20
2.682921577662606
 30
0.0
 10
2.873721490864454
 20
2.815573763342348
 30
0.0
 10
2.880203063864781
 20
2.822644570251819
 30
0.0
 10
2.891853060010867
 20
2.835256580943425
 30
0.0
 10
2.898664122993043
 20
2.851745510253345
 30
0.0
 10
2.898664122993043
 20
2.872130598472621
 30
0.0
 10
2.898664122993043
 20
2.872130598472621
 30
0.0
 10
2.898664122993043
 20
4.32072007591306
 30
0.0
 10
2.898664122993043
 20
4.32072007591306
 30
0.0
 10
2.608862051232234
 20
4.107294743956281
 30
0.0
 10
2.324954723598996
 20
3.898239363072472
 30
0.0
 10
2.121467094373909
 20
3.748465723519087
 30
0.0
  0
HATCH
  5
7A
330
70
100
AcDbEntity
  8
Layer 1
 62
   253
420
 10987948
440
 33554687
100
AcDbHatch
 10
0.0
 20
0.0
 30
0.0
210
0.0
220
0.0
230
1.0
  2
SOLID
 70
     1
 71
     1
 91
        1
 92
        1
 93
        2
 72
     4
 94
        3
 73
     0
 74
     0
 95
       41
 96
       37
 40
0.0
 40
0.0
 40
0.0
 40
0.0
 40
1.0
 40
1.0
 40
1.0
 40
2.0
 40
2.0
 40
2.0
 40
3.0
 40
3.0
 40
3.0
 40
4.0
 40
4.0
 40
4.0
 40
5.0
 40
5.0
 40
5.0
 40
6.0
 40
6.0
 40
6.0
 40
7.0
 40
7.0
 40
7.0
 40
8.0
 40
8.0
 40
8.0
 40
9.0
 40
9.0
 40
9.0
 40
10.0
 40
10.0
 40
10.0
 40
11.0
 40
11.0
 40
11.0
 40
12.0
 40
12.0
 40
12.0
 40
12.0
 10
2.121467094373909
 20
3.748465723519087
 10
2.121467094373909
 20
3.583893895219464
 10
2.121467094373909
 20
2.98808461667876
 10
2.121467094373909
 20
2.966828905295844
 10
2.121467094373909
 20
2.942167785098515
 10
2.124836457842926
 20
2.922862435529875
 10
2.142123859225661
 20
2.914971511220351
 10
2.14864150777147
 20
2.912010911456541
 10
2.319423139962332
 20
2.835280631307038
 10
2.319423139962332
 20
2.835280631307038
 10
2.319423139962332
 20
2.835280631307038
 10
2.345176269345529
 20
2.735108461719896
 10
2.345176269345529
 20
2.735108461719896
 10
2.345176269345529
 20
2.735108461719896
 10
2.461178489337397
 20
2.853857132180766
 10
2.461178489337397
 20
2.853857132180766
 10
2.461178489337397
 20
2.853857132180766
 10
2.491970068844213
 20
2.757845793523352
 10
2.491970068844213
 20
2.757845793523352
 10
2.491970068844213
 20
2.757845793523352
 10
2.680801498945129
 20
2.673080168862068
 10
2.685171450018085
 20
2.671271581516521
 10
2.698721424891548
 20
2.665448988479864
 10
2.728808429802231
 20
2.663522554352463
 10
2.73756997727542
 20
2.673198015643922
 10
2.746307474384972
 20
2.682921577662606
 10
2.873721490864454
 20
2.815573763342348
 10
2.880203063864781
 20
2.822644570251819
 10
2.891853060010867
 20
2.835256580943425
 10
2.898664122993043
 20
2.851745510253345
 10
2.898664122993043
 20
2.872130598472621
 10
2.898664122993043
 20
2.872130598472621
 10
2.898664122993043
 20
4.32072007591306
 10
2.898664122993043
 20
4.32072007591306
 10
2.608862051232234
 20
4.107294743956281
 10
2.324954723598996
 20
3.898239363072472
 10
2.121467094373909
 20
3.748465723519087
 97
        0
 72
     1
 10
2.121467094373909
 20
3.748465723519088
 11
2.121467094373909
 21
3.748465723519087
 97
        0
 75
     2
 76
     1
 98
        1
 10
0.0
 20
0.0
450
        0
451
        0
460
0.0
461
0.0
452
        0
462
0.0
453
        0
470

  0
SPLINE
  5
7B
330
70
100
AcDbEntity
  8
Layer 1
 62
   250
420
  2301728
370
    30
100
AcDbSpline
210
0.0
220
0.0
230
1.0
 70
     9
 71
     3
 72
    41
 73
    37
 74
     0
 42
0.0000000001
 43
0.0000000001
 40
0.0
 40
0.0
 40
0.0
 40
0.0
 40
1.0
 40
1.0
 40
1.0
 40
2.0
 40
2.0
 40
2.0
 40
3.0
 40
3.0
 40
3.0
 40
4.0
 40
4.0
 40
4.0
 40
5.0
 40
5.0
 40
5.0
 40
6.0
 40
6.0
 40
6.0
 40
7.0
 40
7.0
 40
7.0
 40
8.0
 40
8.0
 40
8.0
 40
9.0
 40
9.0
 40
9.0
 40
10.0
 40
10.0
 40
10.0
 40
11.0
 40
11.0
 40
11.0
 40
12.0
 40
12.0
 40
12.0
 40
12.0
 10
2.121467094373909
 20
3.748465723519087
 30
0.0
 10
2.121467094373909
 20
3.583893895219464
 30
0.0
 10
2.121467094373909
 20
2.98808461667876
 30
0.0
 10
2.121467094373909
 20
2.966828905295844
 30
0.0
 10
2.121467094373909
 20
2.942167785098515
 30
0.0
 10
2.124836457842926
 20
2.922862435529875
 30
0.0
 10
2.142123859225661
 20
2.914971511220351
 30
0.0
 10
2.14864150777147
 20
2.912010911456541
 30
0.0
 10
2.319423139962332
 20
2.835280631307038
 30
0.0
 10
2.319423139962332
 20
2.835280631307038
 30
0.0
 10
2.319423139962332
 20
2.835280631307038
 30
0.0
 10
2.345176269345529
 20
2.735108461719896
 30
0.0
 10
2.345176269345529
 20
2.735108461719896
 30
0.0
 10
2.345176269345529
 20
2.735108461719896
 30
0.0
 10
2.461178489337397
 20
2.853857132180766
 30
0.0
 10
2.461178489337397
 20
2.853857132180766
 30
0.0
 10
2.461178489337397
 20
2.853857132180766
 30
0.0
 10
2.491970068844213
 20
2.757845793523352
 30
0.0
 10
2.491970068844213
 20
2.757845793523352
 30
0.0
 10
2.491970068844213
 20
2.757845793523352
 30
0.0
 10
2.680801498945129
 20
2.673080168862068
 30
0.0
 10
2.685171450018085
 20
2.671271581516521
 30
0.0
 10
2.698721424891548
 20
2.665448988479864
 30
0.0
 10
2.728808429802231
 20
2.663522554352463
 30
0.0
 10
2.73756997727542
 20
2.673198015643922
 30
0.0
 10
2.746307474384972
 20
2.682921577662606
 30
0.0
 10
2.873721490864454
 20
2.815573763342348
 30
0.0
 10
2.880203063864781
 20
2.822644570251819
 30
0.0
 10
2.891853060010867
 20
2.835256580943425
 30
0.0
 10
2.898664122993043
 20
2.851745510253345
 30
0.0
 10
2.898664122993043
 20
2.872130598472621
 30
0.0
 10
2.898664122993043
 20
2.872130598472621
 30
0.0
 10
2.898664122993043
 20
4.32072007591306
 30
0.0
 10
2.898664122993043
 20
4.32072007591306
 30
0.0
 10
2.608862051232234
 20
4.107294743956281
 30
0.0
 10
2.324954723598996
 20
3.898239363072472
 30
0.0
 10
2.121467094373909
 20
3.748465723519087
 30
0.0
  0
SPLINE
  5
7C
330
70
100
AcDbEntity
  8
Layer 1
100
AcDbSpline
210
0.0
220
0.0
230
1.0
 70
     9
 71
     3
 72
    83
 73
    79
 74
     0
 42
0.0000000001
 43
0.0000000001
 40
0.0
 40
0.0
 40
0.0
 40
0.0
 40
1.0
 40
1.0
 40
1.0
 40
2.0
 40
2.0
 40
2.0
 40
3.0
 40
3.0
 40
3.0
 40
4.0
 40
4.0
 40
4.0
 40
5.0
 40
5.0
 40
5.0
 40
6.0
 40
6.0
 40
6.0
 40
7.0
 40
7.0
 40
7.0
 40
8.0
 40
8.0
 40
8.0
 40
9.0
 40
9.0
 40
9.0
 40
10.0
 40
10.0
 40
10.0
 40
11.0
 40
11.0
 40
11.0
 40
12.0
 40
12.0
 40
12.0
 40
13.0
 40
13.0
 40
13.0
 40
14.0
 40
14.0
 40
14.0
 40
15.0
 40
15.0
 40
15.0
 40
16.0
 40
16.0
 40
16.0
 40
17.0
 40
17.0
 40
17.0
 40
18.0
 40
18.0
 40
18.0
 40
19.0
 40
19.0
 40
19.0
 40
20.0
 40
20.0
 40
20.0
 40
21.0
 40
21.0
 40
21.0
 40
22.0
 40
22.0
 40
22.0
 40
23.0
 40
23.0
 40
23.0
 40
24.0
 40
24.0
 40
24.0
 40
25.0
 40
25.0
 40
25.0
 40
26.0
 40
26.0
 40
26.0
 40
26.0
 10
1.088405277169802
 20
4.010013428078397
 30
0.0
 10
1.088405277169802
 20
3.990426961089939
 30
0.0
 10
1.087347061169743
 20
3.827475978141453
 30
0.0
 10
1.087347061169743
 20
3.822588944250292
 30
0.0
 10
1.087347061169743
 20
3.817704315395505
 30
0.0
 10
1.086173403424229
 20
3.808966962859876
 30
0.0
 10
1.098386178079421
 20
3.804224086576583
 30
0.0
 10
1.099066803370368
 20
3.803940436732609
 30
0.0
 10
1.122003635171583
 20
3.794594320976077
 30
0.0
 10
1.122003635171583
 20
3.794594320976077
 30
0.0
 10
1.122003635171583
 20
3.794594320976077
 30
0.0
 10
1.307124094163214
 20
3.918321416709899
 30
0.0
 10
1.307124094163214
 20
3.918321416709899
 30
0.0
 10
1.307124094163214
 20
3.918321416709899
 30
0.0
 10
1.326559193018788
 20
3.910618085236781
 30
0.0
 10
1.326559193018788
 20
3.910618085236781
 30
0.0
 10
1.326559193018788
 20
3.910618085236781
 30
0.0
 10
1.313523895927194
 20
3.831514034196225
 30
0.0
 10
1.313523895927194
 20
3.831514034196225
 30
0.0
 10
1.313523895927194
 20
3.831514034196225
 30
0.0
 10
1.313136685072625
 20
3.795063303067018
 30
0.0
 10
1.313136685072625
 20
3.795063303067018
 30
0.0
 10
1.313136685072625
 20
3.795063303067018
 30
0.0
 10
1.572089355395443
 20
3.872803698489317
 30
0.0
 10
1.572089355395443
 20
3.872803698489317
 30
0.0
 10
1.572089355395443
 20
3.872803698489317
 30
0.0
 10
1.573311192497271
 20
3.840463174505783
 30
0.0
 10
1.573311192497271
 20
3.840463174505783
 30
0.0
 10
1.573311192497271
 20
3.840463174505783
 30
0.0
 10
1.575071600486517
 20
3.812725890122502
 30
0.0
 10
1.575071600486517
 20
3.812725890122502
 30
0.0
 10
1.575071600486517
 20
3.812725890122502
 30
0.0
 10
1.753477197950511
 20
3.743581094664288
 30
0.0
 10
1.755062116914233
 20
3.742828461185568
 30
0.0
 10
1.764081003278356
 20
3.738696465809488
 30
0.0
 10
1.769061833587708
 20
3.732541977754597
 30
0.0
 10
1.769061833587708
 20
3.714268511462718
 30
0.0
 10
1.769061833587708
 20
3.696043145898139
 30
0.0
 10
1.768883860896797
 20
3.531495367962128
 30
0.0
 10
1.768883860896797
 20
3.531495367962128
 30
0.0
 10
1.768883860896797
 20
3.531495367962128
 30
0.0
 10
1.791279643651515
 20
3.521396757579976
 30
0.0
 10
1.791784701300672
 20
3.521209027434299
 30
0.0
 10
1.798278299646881
 20
3.51885930690691
 30
0.0
 10
1.811407308844498
 20
3.521209027434299
 30
0.0
 10
1.822422375390538
 20
3.528582868925594
 30
0.0
 10
1.833437441936578
 20
3.535886964362362
 30
0.0
 10
4.106656310265608
 20
5.210477888884762
 30
0.0
 10
4.106656310265608
 20
5.210477888884762
 30
0.0
 10
4.106656310265608
 20
5.210477888884762
 30
0.0
 10
4.106656310265608
 20
5.301746433874162
 30
0.0
 10
4.106656310265608
 20
5.327817028057362
 30
0.0
 10
4.106656310265608
 20
5.353909267567827
 30
0.0
 10
4.110624620366049
 20
5.38098997702381
 30
0.0
 10
4.08020798274659
 20
5.388236351587831
 30
0.0
 10
4.072199211655262
 20
5.390160380678846
 30
0.0
 10
3.952536627376174
 20
5.41676008286207
 30
0.0
 10
3.952536627376174
 20
5.41676008286207
 30
0.0
 10
3.952536627376174
 20
5.41676008286207
 30
0.0
 10
3.936495034829881
 20
5.472963564256915
 30
0.0
 10
3.936495034829881
 20
5.472963564256915
 30
0.0
 10
3.936495034829881
 20
5.472963564256915
 30
0.0
 10
3.773426354257606
 20
5.419978021516789
 30
0.0
 10
3.773426354257606
 20
5.419978021516789
 30
0.0
 10
3.773426354257606
 20
5.419978021516789
 30
0.0
 10
3.767930980236163
 20
5.457662536300605
 30
0.0
 10
3.767930980236163
 20
5.457662536300605
 30
0.0
 10
3.767930980236163
 20
5.457662536300605
 30
0.0
 10
3.627738871486245
 20
5.488593708974968
 30
0.0
 10
3.618578218273493
 20
5.490568430884397
 30
0.0
 10
3.594176589029908
 20
5.495782362666267
 30
0.0
 10
3.570664953537768
 20
5.494923764684395
 30
0.0
 10
3.553262110409554
 20
5.483591233338352
 30
0.0
 10
3.361282487708472
 20
5.359310979240843
 30
0.0
 10
0.9533336249081052
 20
3.923018452728342
 30
0.0
 10
1.130163923553835
 20
4.055976078026295
 30
0.0
 10
1.115413835534872
 20
4.04491531578934
 30
0.0
 10
1.088405277169802
 20
4.033407216788734
 30
0.0
 10
1.088405277169802
 20
4.010013428078397
 30
0.0
  0
HATCH
  5
7D
330
70
100
AcDbEntity
  8
Layer 1
 62
   253
420
 10987948
440
 33554687
100
AcDbHatch
 10
0.0
 20
0.0
 30
0.0
210
0.0
220
0.0
230
1.0
  2
SOLID
 70
     1
 71
     1
 91
        1
 92
        1
 93
        2
 72
     4
 94
        3
 73
     0
 74
     0
 95
       83
 96
       79
 40
0.0
 40
0.0
 40
0.0
 40
0.0
 40
1.0
 40
1.0
 40
1.0
 40
2.0
 40
2.0
 40
2.0
 40
3.0
 40
3.0
 40
3.0
 40
4.0
 40
4.0
 40
4.0
 40
5.0
 40
5.0
 40
5.0
 40
6.0
 40
6.0
 40
6.0
 40
7.0
 40
7.0
 40
7.0
 40
8.0
 40
8.0
 40
8.0
 40
9.0
 40
9.0
 40
9.0
 40
10.0
 40
10.0
 40
10.0
 40
11.0
 40
11.0
 40
11.0
 40
12.0
 40
12.0
 40
12.0
 40
13.0
 40
13.0
 40
13.0
 40
14.0
 40
14.0
 40
14.0
 40
15.0
 40
15.0
 40
15.0
 40
16.0
 40
16.0
 40
16.0
 40
17.0
 40
17.0
 40
17.0
 40
18.0
 40
18.0
 40
18.0
 40
19.0
 40
19.0
 40
19.0
 40
20.0
 40
20.0
 40
20.0
 40
21.0
 40
21.0
 40
21.0
 40
22.0
 40
22.0
 40
22.0
 40
23.0
 40
23.0
 40
23.0
 40
24.0
 40
24.0
 40
24.0
 40
25.0
 40
25.0
 40
25.0
 40
26.0
 40
26.0
 40
26.0
 40
26.0
 10
1.088405277169802
 20
4.010013428078397
 10
1.088405277169802
 20
3.990426961089939
 10
1.087347061169743
 20
3.827475978141453
 10
1.087347061169743
 20
3.822588944250292
 10
1.087347061169743
 20
3.817704315395505
 10
1.086173403424229
 20
3.808966962859876
 10
1.098386178079421
 20
3.804224086576583
 10
1.099066803370368
 20
3.803940436732609
 10
1.122003635171583
 20
3.794594320976077
 10
1.122003635171583
 20
3.794594320976077
 10
1.122003635171583
 20
3.794594320976077
 10
1.307124094163214
 20
3.918321416709899
 10
1.307124094163214
 20
3.918321416709899
 10
1.307124094163214
 20
3.918321416709899
 10
1.326559193018788
 20
3.910618085236781
 10
1.326559193018788
 20
3.910618085236781
 10
1.326559193018788
 20
3.910618085236781
 10
1.313523895927194
 20
3.831514034196225
 10
1.313523895927194
 20
3.831514034196225
 10
1.313523895927194
 20
3.831514034196225
 10
1.313136685072625
 20
3.795063303067018
 10
1.313136685072625
 20
3.795063303067018
 10
1.313136685072625
 20
3.795063303067018
 10
1.572089355395443
 20
3.872803698489317
 10
1.572089355395443
 20
3.872803698489317
 10
1.572089355395443
 20
3.872803698489317
 10
1.573311192497271
 20
3.840463174505783
 10
1.573311192497271
 20
3.840463174505783
 10
1.573311192497271
 20
3.840463174505783
 10
1.575071600486517
 20
3.812725890122502
 10
1.575071600486517
 20
3.812725890122502
 10
1.575071600486517
 20
3.812725890122502
 10
1.753477197950511
 20
3.743581094664288
 10
1.755062116914233
 20
3.742828461185568
 10
1.764081003278356
 20
3.738696465809488
 10
1.769061833587708
 20
3.732541977754597
 10
1.769061833587708
 20
3.714268511462718
 10
1.769061833587708
 20
3.696043145898139
 10
1.768883860896797
 20
3.531495367962128
 10
1.768883860896797
 20
3.531495367962128
 10
1.768883860896797
 20
3.531495367962128
 10
1.791279643651515
 20
3.521396757579976
 10
1.791784701300672
 20
3.521209027434299
 10
1.798278299646881
 20
3.51885930690691
 10
1.811407308844498
 20
3.521209027434299
 10
1.822422375390538
 20
3.528582868925594
 10
1.833437441936578
 20
3.535886964362362
 10
4.106656310265608
 20
5.210477888884762
 10
4.106656310265608
 20
5.210477888884762
 10
4.106656310265608
 20
5.210477888884762
 10
4.106656310265608
 20
5.301746433874162
 10
4.106656310265608
 20
5.327817028057362
 10
4.106656310265608
 20
5.353909267567827
 10
4.110624620366049
 20
5.38098997702381
 10
4.08020798274659
 20
5.388236351587831
 10
4.072199211655262
 20
5.390160380678846
 10
3.952536627376174
 20
5.41676008286207
 10
3.952536627376174
 20
5.41676008286207
 10
3.952536627376174
 20
5.41676008286207
 10
3.936495034829881
 20
5.472963564256915
 10
3.936495034829881
 20
5.472963564256915
 10
3.936495034829881
 20
5.472963564256915
 10
3.773426354257606
 20
5.419978021516789
 10
3.773426354257606
 20
5.419978021516789
 10
3.773426354257606
 20
5.419978021516789
 10
3.767930980236163
 20
5.457662536300605
 10
3.767930980236163
 20
5.457662536300605
 10
3.767930980236163
 20
5.457662536300605
 10
3.627738871486245
 20
5.488593708974968
 10
3.618578218273493
 20
5.490568430884397
 10
3.594176589029908
 20
5.495782362666267
 10
3.570664953537768
 20
5.494923764684395
 10
3.553262110409554
 20
5.483591233338352
 10
3.361282487708472
 20
5.359310979240843
 10
0.9533336249081052
 20
3.923018452728342
 10
1.130163923553835
 20
4.055976078026295
 10
1.115413835534872
 20
4.04491531578934
 10
1.088405277169802
 20
4.033407216788734
 10
1.088405277169802
 20
4.010013428078397
 97
        0
 72
     1
 10
1.088405277169802
 20
4.010013428078397
 11
1.088405277169802
 21
4.010013428078397
 97
        0
 75
     2
 76
     1
 98
        1
 10
0.0
 20
0.0
450
        0
451
        0
460
0.0
461
0.0
452
        0
462
0.0
453
        0
470

  0
SPLINE
  5
7E
330
70
100
AcDbEntity
  8
Layer 1
 62
   250
420
  2301728
370
    30
100
AcDbSpline
210
0.0
220
0.0
230
1.0
 70
     9
 71
     3
 72
    83
 73
    79
 74
     0
 42
0.0000000001
 43
0.0000000001
 40
0.0
 40
0.0
 40
0.0
 40
0.0
 40
1.0
 40
1.0
 40
1.0
 40
2.0
 40
2.0
 40
2.0
 40
3.0
 40
3.0
 40
3.0
 40
4.0
 40
4.0
 40
4.0
 40
5.0
 40
5.0
 40
5.0
 40
6.0
 40
6.0
 40
6.0
 40
7.0
 40
7.0
 40
7.0
 40
8.0
 40
8.0
 40
8.0
 40
9.0
 40
9.0
 40
9.0
 40
10.0
 40
10.0
 40
10.0
 40
11.0
 40
11.0
 40
11.0
 40
12.0
 40
12.0
 40
12.0
 40
13.0
 40
13.0
 40
13.0
 40
14.0
 40
14.0
 40
14.0
 40
15.0
 40
15.0
 40
15.0
 40
16.0
 40
16.0
 40
16.0
 40
17.0
 40
17.0
 40
17.0
 40
18.0
 40
18.0
 40
18.0
 40
19.0
 40
19.0
 40
19.0
 40
20.0
 40
20.0
 40
20.0
 40
21.0
 40
21.0
 40
21.0
 40
22.0
 40
22.0
 40
22.0
 40
23.0
 40
23.0
 40
23.0
 40
24.0
 40
24.0
 40
24.0
 40
25.0
 40
25.0
 40
25.0
 40
26.0
 40
26.0
 40
26.0
 40
26.0
 10
1.088405277169802
 20
4.010013428078397
 30
0.0
 10
1.088405277169802
 20
3.990426961089939
 30
0.0
 10
1.087347061169743
 20
3.827475978141453
 30
0.0
 10
1.087347061169743
 20
3.822588944250292
 30
0.0
 10
1.087347061169743
 20
3.817704315395505
 30
0.0
 10
1.086173403424229
 20
3.808966962859876
 30
0.0
 10
1.098386178079421
 20
3.804224086576583
 30
0.0
 10
1.099066803370368
 20
3.803940436732609
 30
0.0
 10
1.122003635171583
 20
3.794594320976077
 30
0.0
 10
1.122003635171583
 20
3.794594320976077
 30
0.0
 10
1.122003635171583
 20
3.794594320976077
 30
0.0
 10
1.307124094163214
 20
3.918321416709899
 30
0.0
 10
1.307124094163214
 20
3.918321416709899
 30
0.0
 10
1.307124094163214
 20
3.918321416709899
 30
0.0
 10
1.326559193018788
 20
3.910618085236781
 30
0.0
 10
1.326559193018788
 20
3.910618085236781
 30
0.0
 10
1.326559193018788
 20
3.910618085236781
 30
0.0
 10
1.313523895927194
 20
3.831514034196225
 30
0.0
 10
1.313523895927194
 20
3.831514034196225
 30
0.0
 10
1.313523895927194
 20
3.831514034196225
 30
0.0
 10
1.313136685072625
 20
3.795063303067018
 30
0.0
 10
1.313136685072625
 20
3.795063303067018
 30
0.0
 10
1.313136685072625
 20
3.795063303067018
 30
0.0
 10
1.572089355395443
 20
3.872803698489317
 30
0.0
 10
1.572089355395443
 20
3.872803698489317
 30
0.0
 10
1.572089355395443
 20
3.872803698489317
 30
0.0
 10
1.573311192497271
 20
3.840463174505783
 30
0.0
 10
1.573311192497271
 20
3.840463174505783
 30
0.0
 10
1.573311192497271
 20
3.840463174505783
 30
0.0
 10
1.575071600486517
 20
3.812725890122502
 30
0.0
 10
1.575071600486517
 20
3.812725890122502
 30
0.0
 10
1.575071600486517
 20
3.812725890122502
 30
0.0
 10
1.753477197950511
 20
3.743581094664288
 30
0.0
 10
1.755062116914233
 20
3.742828461185568
 30
0.0
 10
1.764081003278356
 20
3.738696465809488
 30
0.0
 10
1.769061833587708
 20
3.732541977754597
 30
0.0
 10
1.769061833587708
 20
3.714268511462718
 30
0.0
 10
1.769061833587708
 20
3.696043145898139
 30
0.0
 10
1.768883860896797
 20
3.531495367962128
 30
0.0
 10
1.768883860896797
 20
3.531495367962128
 30
0.0
 10
1.768883860896797
 20
3.531495367962128
 30
0.0
 10
1.791279643651515
 20
3.521396757579976
 30
0.0
 10
1.791784701300672
 20
3.521209027434299
 30
0.0
 10
1.798278299646881
 20
3.51885930690691
 30
0.0
 10
1.811407308844498
 20
3.521209027434299
 30
0.0
 10
1.822422375390538
 20
3.528582868925594
 30
0.0
 10
1.833437441936578
 20
3.535886964362362
 30
0.0
 10
4.106656310265608
 20
5.210477888884762
 30
0.0
 10
4.106656310265608
 20
5.210477888884762
 30
0.0
 10
4.106656310265608
 20
5.210477888884762
 30
0.0
 10
4.106656310265608
 20
5.301746433874162
 30
0.0
 10
4.106656310265608
 20
5.327817028057362
 30
0.0
 10
4.106656310265608
 20
5.353909267567827
 30
0.0
 10
4.110624620366049
 20
5.38098997702381
 30
0.0
 10
4.08020798274659
 20
5.388236351587831
 30
0.0
 10
4.072199211655262
 20
5.390160380678846
 30
0.0
 10
3.952536627376174
 20
5.41676008286207
 30
0.0
 10
3.952536627376174
 20
5.41676008286207
 30
0.0
 10
3.952536627376174
 20
5.41676008286207
 30
0.0
 10
3.936495034829881
 20
5.472963564256915
 30
0.0
 10
3.936495034829881
 20
5.472963564256915
 30
0.0
 10
3.936495034829881
 20
5.472963564256915
 30
0.0
 10
3.773426354257606
 20
5.419978021516789
 30
0.0
 10
3.773426354257606
 20
5.419978021516789
 30
0.0
 10
3.773426354257606
 20
5.419978021516789
 30
0.0
 10
3.767930980236163
 20
5.457662536300605
 30
0.0
 10
3.767930980236163
 20
5.457662536300605
 30
0.0
 10
3.767930980236163
 20
5.457662536300605
 30
0.0
 10
3.627738871486245
 20
5.488593708974968
 30
0.0
 10
3.618578218273493
 20
5.490568430884397
 30
0.0
 10
3.594176589029908
 20
5.495782362666267
 30
0.0
 10
3.570664953537768
 20
5.494923764684395
 30
0.0
 10
3.553262110409554
 20
5.483591233338352
 30
0.0
 10
3.361282487708472
 20
5.359310979240843
 30
0.0
 10
0.9533336249081052
 20
3.923018452728342
 30
0.0
 10
1.130163923553835
 20
4.055976078026295
 30
0.0
 10
1.115413835534872
 20
4.04491531578934
 30
0.0
 10
1.088405277169802
 20
4.033407216788734
 30
0.0
 10
1.088405277169802
 20
4.010013428078397
 30
0.0
  0
SPLINE
  5
7F
330
70
100
AcDbEntity
  8
Layer 1
100
AcDbSpline
210
0.0
220
0.0
230
1.0
 70
     9
 71
     3
 72
    53
 73
    49
 74
     0
 42
0.0000000001
 43
0.0000000001
 40
0.0
 40
0.0
 40
0.0
 40
0.0
 40
1.0
 40
1.0
 40
1.0
 40
2.0
 40
2.0
 40
2.0
 40
3.0
 40
3.0
 40
3.0
 40
4.0
 40
4.0
 40
4.0
 40
5.0
 40
5.0
 40
5.0
 40
6.0
 40
6.0
 40
6.0
 40
7.0
 40
7.0
 40
7.0
 40
8.0
 40
8.0
 40
8.0
 40
9.0
 40
9.0
 40
9.0
 40
10.0
 40
10.0
 40
10.0
 40
11.0
 40
11.0
 40
11.0
 40
12.0
 40
12.0
 40
12.0
 40
13.0
 40
13.0
 40
13.0
 40
14.0
 40
14.0
 40
14.0
 40
15.0
 40
15.0
 40
15.0
 40
16.0
 40
16.0
 40
16.0
 40
16.0
 10
0.7400622728579897
 20
5.153932898957236
 30
0.0
 10
0.7400622728579897
 20
5.159392331502973
 30
0.0
 10
0.7400141721295137
 20
5.265000064628629
 30
0.0
 10
0.7400141721295137
 20
5.265000064628629
 30
0.0
 10
0.7400141721295137
 20
5.265000064628629
 30
0.0
 10
0.6903285246353335
 20
5.313841361747525
 30
0.0
 10
0.6903285246353335
 20
5.313841361747525
 30
0.0
 10
0.6903285246353335
 20
5.313841361747525
 30
0.0
 10
0.7925425726774367
 20
5.366206218495752
 30
0.0
 10
0.7925425726774367
 20
5.366206218495752
 30
0.0
 10
0.7925425726774367
 20
5.366206218495752
 30
0.0
 10
0.7399684764374367
 20
5.384501330114895
 30
0.0
 10
0.7399684764374367
 20
5.384501330114895
 30
0.0
 10
0.7399684764374367
 20
5.384501330114895
 30
0.0
 10
0.7399684764374367
 20
5.506997047230495
 30
0.0
 10
0.7399684764374367
 20
5.506997047230495
 30
0.0
 10
0.7399684764374367
 20
5.506997047230495
 30
0.0
 10
0.7111032292703436
 20
5.515417079540029
 30
0.0
 10
0.7111032292703436
 20
5.515417079540029
 30
0.0
 10
0.7111032292703436
 20
5.515417079540029
 30
0.0
 10
0.7111032292703436
 20
5.536860383759353
 30
0.0
 10
0.7111032292703436
 20
5.541651404541211
 30
0.0
 10
0.7111032292703436
 20
5.54646609899622
 30
0.0
 10
0.714309142824239
 20
5.555025623414861
 30
0.0
 10
0.7233977754724871
 20
5.559277727705989
 30
0.0
 10
0.7324888131571849
 20
5.563563502506225
 30
0.0
 10
0.7511711361028498
 20
5.568895468124688
 30
0.0
 10
0.7559860190247415
 20
5.571043165597529
 30
0.0
 10
0.7607888767645111
 20
5.573181432066651
 30
0.0
 10
0.7816453526379519
 20
5.573710540080051
 30
0.0
 10
0.7981920032386445
 20
5.568366360124652
 30
0.0
 10
0.7981920032386445
 20
5.568366360124652
 30
0.0
 10
2.939578601613397
 20
4.996184158821594
 30
0.0
 10
2.961279244723628
 20
4.990782447148577
 30
0.0
 10
2.983006343233885
 20
4.985344659930104
 30
0.0
 10
2.993362429816241
 20
4.980871292293537
 30
0.0
 10
2.993362429816241
 20
4.959827224110577
 30
0.0
 10
2.993362429816241
 20
4.938783155927644
 30
0.0
 10
3.005130272744155
 20
4.500320976449857
 30
0.0
 10
2.99047398114337
 20
4.492980805467646
 30
0.0
 10
2.975865790269861
 20
4.485667089885446
 30
0.0
 10
2.833206248280475
 20
4.514941354913528
 30
0.0
 10
2.774701333695575
 20
4.5369015795427
 30
0.0
 10
2.716148318383375
 20
4.558861966580226
 30
0.0
 10
0.7716163507476873
 20
5.170020187194444
 30
0.0
 10
0.7606253342876496
 20
5.173507489921903
 30
0.0
 10
0.7496559631554066
 20
5.176997197685724
 30
0.0
 10
0.7400622728579897
 20
5.134122614428911
 30
0.0
 10
0.7400622728579897
 20
5.153932898957236
 30
0.0
  0
HATCH
  5
80
330
70
100
AcDbEntity
  8
Layer 1
 62
   253
420
 10987948
440
 33554687
100
AcDbHatch
 10
0.0
 20
0.0
 30
0.0
210
0.0
220
0.0
230
1.0
  2
SOLID
 70
     1
 71
     1
 91
        1
 92
        1
 93
        2
 72
     4
 94
        3
 73
     0
 74
     0
 95
       53
 96
       49
 40
0.0
 40
0.0
 40
0.0
 40
0.0
 40
1.0
 40
1.0
 40
1.0
 40
2.0
 40
2.0
 40
2.0
 40
3.0
 40
3.0
 40
3.0
 40
4.0
 40
4.0
 40
4.0
 40
5.0
 40
5.0
 40
5.0
 40
6.0
 40
6.0
 40
6.0
 40
7.0
 40
7.0
 40
7.0
 40
8.0
 40
8.0
 40
8.0
 40
9.0
 40
9.0
 40
9.0
 40
10.0
 40
10.0
 40
10.0
 40
11.0
 40
11.0
 40
11.0
 40
12.0
 40
12.0
 40
12.0
 40
13.0
 40
13.0
 40
13.0
 40
14.0
 40
14.0
 40
14.0
 40
15.0
 40
15.0
 40
15.0
 40
16.0
 40
16.0
 40
16.0
 40
16.0
 10
0.7400622728579897
 20
5.153932898957236
 10
0.7400622728579897
 20
5.159392331502973
 10
0.7400141721295137
 20
5.265000064628629
 10
0.7400141721295137
 20
5.265000064628629
 10
0.7400141721295137
 20
5.265000064628629
 10
0.6903285246353335
 20
5.313841361747525
 10
0.6903285246353335
 20
5.313841361747525
 10
0.6903285246353335
 20
5.313841361747525
 10
0.7925425726774367
 20
5.366206218495752
 10
0.7925425726774367
 20
5.366206218495752
 10
0.7925425726774367
 20
5.366206218495752
 10
0.7399684764374367
 20
5.384501330114895
 10
0.7399684764374367
 20
5.384501330114895
 10
0.7399684764374367
 20
5.384501330114895
 10
0.7399684764374367
 20
5.506997047230495
 10
0.7399684764374367
 20
5.506997047230495
 10
0.7399684764374367
 20
5.506997047230495
 10
0.7111032292703436
 20
5.515417079540029
 10
0.7111032292703436
 20
5.515417079540029
 10
0.7111032292703436
 20
5.515417079540029
 10
0.7111032292703436
 20
5.536860383759353
 10
0.7111032292703436
 20
5.541651404541211
 10
0.7111032292703436
 20
5.54646609899622
 10
0.714309142824239
 20
5.555025623414861
 10
0.7233977754724871
 20
5.559277727705989
 10
0.7324888131571849
 20
5.563563502506225
 10
0.7511711361028498
 20
5.568895468124688
 10
0.7559860190247415
 20
5.571043165597529
 10
0.7607888767645111
 20
5.573181432066651
 10
0.7816453526379519
 20
5.573710540080051
 10
0.7981920032386445
 20
5.568366360124652
 10
0.7981920032386445
 20
5.568366360124652
 10
2.939578601613397
 20
4.996184158821594
 10
2.961279244723628
 20
4.990782447148577
 10
2.983006343233885
 20
4.985344659930104
 10
2.993362429816241
 20
4.980871292293537
 10
2.993362429816241
 20
4.959827224110577
 10
2.993362429816241
 20
4.938783155927644
 10
3.005130272744155
 20
4.500320976449857
 10
2.99047398114337
 20
4.492980805467646
 10
2.975865790269861
 20
4.485667089885446
 10
2.833206248280475
 20
4.514941354913528
 10
2.774701333695575
 20
4.5369015795427
 10
2.716148318383375
 20
4.558861966580226
 10
0.7716163507476873
 20
5.170020187194444
 10
0.7606253342876496
 20
5.173507489921903
 10
0.7496559631554066
 20
5.176997197685724
 10
0.7400622728579897
 20
5.134122614428911
 10
0.7400622728579897
 20
5.153932898957236
 97
        0
 72
     1
 10
0.7400622728579897
 20
5.153932898957235
 11
0.7400622728579897
 21
5.153932898957236
 97
        0
 75
     2
 76
     1
 98
        1
 10
0.0
 20
0.0
450
        0
451
        0
460
0.0
461
0.0
452
        0
462
0.0
453
        0
470

  0
SPLINE
  5
81
330
70
100
AcDbEntity
  8
Layer 1
 62
   250
420
  2301728
370
    30
100
AcDbSpline
210
0.0
220
0.0
230
1.0
 70
     9
 71
     3
 72
    56
 73
    52
 74
     0
 42
0.0000000001
 43
0.0000000001
 40
0.0
 40
0.0
 40
0.0
 40
0.0
 40
1.0
 40
1.0
 40
1.0
 40
2.0
 40
2.0
 40
2.0
 40
3.0
 40
3.0
 40
3.0
 40
4.0
 40
4.0
 40
4.0
 40
5.0
 40
5.0
 40
5.0
 40
6.0
 40
6.0
 40
6.0
 40
7.0
 40
7.0
 40
7.0
 40
8.0
 40
8.0
 40
8.0
 40
9.0
 40
9.0
 40
9.0
 40
10.0
 40
10.0
 40
10.0
 40
11.0
 40
11.0
 40
11.0
 40
12.0
 40
12.0
 40
12.0
 40
13.0
 40
13.0
 40
13.0
 40
14.0
 40
14.0
 40
14.0
 40
15.0
 40
15.0
 40
15.0
 40
16.0
 40
16.0
 40
16.0
 40
17.0
 40
17.0
 40
17.0
 40
17.0
 10
0.7400622728579897
 20
5.153932898957236
 30
0.0
 10
0.7400622728579897
 20
5.159392331502973
 30
0.0
 10
0.7400141721295137
 20
5.265000064628629
 30
0.0
 10
0.7400141721295137
 20
5.265000064628629
 30
0.0
 10
0.7400141721295137
 20
5.265000064628629
 30
0.0
 10
0.6903285246353335
 20
5.313841361747525
 30
0.0
 10
0.6903285246353335
 20
5.313841361747525
 30
0.0
 10
0.6903285246353335
 20
5.313841361747525
 30
0.0
 10
0.7925425726774367
 20
5.366206218495752
 30
0.0
 10
0.7925425726774367
 20
5.366206218495752
 30
0.0
 10
0.7925425726774367
 20
5.366206218495752
 30
0.0
 10
0.7399684764374367
 20
5.384501330114895
 30
0.0
 10
0.7399684764374367
 20
5.384501330114895
 30
0.0
 10
0.7399684764374367
 20
5.384501330114895
 30
0.0
 10
0.7399684764374367
 20
5.506997047230495
 30
0.0
 10
0.7399684764374367
 20
5.506997047230495
 30
0.0
 10
0.7399684764374367
 20
5.506997047230495
 30
0.0
 10
0.7111032292703436
 20
5.515417079540029
 30
0.0
 10
0.7111032292703436
 20
5.515417079540029
 30
0.0
 10
0.7111032292703436
 20
5.515417079540029
 30
0.0
 10
0.7111032292703436
 20
5.536860383759353
 30
0.0
 10
0.7111032292703436
 20
5.541651404541211
 30
0.0
 10
0.7111032292703436
 20
5.54646609899622
 30
0.0
 10
0.714309142824239
 20
5.555025623414861
 30
0.0
 10
0.7233977754724871
 20
5.559277727705989
 30
0.0
 10
0.7324888131571849
 20
5.563563502506225
 30
0.0
 10
0.7511711361028498
 20
5.568895468124688
 30
0.0
 10
0.7559860190247415
 20
5.571043165597529
 30
0.0
 10
0.7607888767645111
 20
5.573181432066651
 30
0.0
 10
0.7816453526379519
 20
5.573710540080051
 30
0.0
 10
0.7981920032386445
 20
5.568366360124652
 30
0.0
 10
0.7981920032386445
 20
5.568366360124652
 30
0.0
 10
2.939578601613397
 20
4.996184158821594
 30
0.0
 10
2.961279244723628
 20
4.990782447148577
 30
0.0
 10
2.983006343233885
 20
4.985344659930104
 30
0.0
 10
2.993362429816241
 20
4.980871292293537
 30
0.0
 10
2.993362429816241
 20
4.959827224110577
 30
0.0
 10
2.993362429816241
 20
4.938783155927644
 30
0.0
 10
2.994136851525379
 20
4.579131777083969
 30
0.0
 10
2.994136851525379
 20
4.56788085294435
 30
0.0
 10
2.994136851525379
 20
4.55659658578621
 30
0.0
 10
3.005130272744155
 20
4.500320976449857
 30
0.0
 10
2.99047398114337
 20
4.492980805467646
 30
0.0
 10
2.975865790269861
 20
4.485667089885446
 30
0.0
 10
2.833206248280475
 20
4.514941354913528
 30
0.0
 10
2.774701333695575
 20
4.5369015795427
 30
0.0
 10
2.716148318383375
 20
4.558861966580226
 30
0.0
 10
0.7716163507476873
 20
5.170020187194444
 30
0.0
 10
0.7606253342876496
 20
5.173507489921903
 30
0.0
 10
0.7496559631554066
 20
5.176997197685724
 30
0.0
 10
0.7400622728579897
 20
5.134122614428911
 30
0.0
 10
0.7400622728579897
 20
5.153932898957236
 30
0.0
  0
SPLINE
  5
82
330
70
100
AcDbEntity
  8
Layer 1
 62
   250
420
  2301728
370
    15
100
AcDbSpline
210
0.0
220
0.0
230
1.0
 70
    24
 71
     3
 72
     8
 73
     4
 74
     0
 42
0.0000000001
 43
0.0000000001
 40
0.0
 40
0.0
 40
0.0
 40
0.0
 40
1.0
 40
1.0
 40
1.0
 40
1.0
 10
1.828293154224891
 20
3.7794209465571
 30
0.0
 10
1.828293154224891
 20
3.7794209465571
 30
0.0
 10
4.069875946527872
 20
5.346605172131085
 30
0.0
 10
4.069875946527872
 20
5.346605172131085
 30
0.0
  0
SPLINE
  5
83
330
70
100
AcDbEntity
  8
Layer 1
 62
   250
420
  2301728
370
    15
100
AcDbSpline
210
0.0
220
0.0
230
1.0
 70
    24
 71
     3
 72
     8
 73
     4
 74
     0
 42
0.0000000001
 43
0.0000000001
 40
0.0
 40
0.0
 40
0.0
 40
0.0
 40
1.0
 40
1.0
 40
1.0
 40
1.0
 10
0.7614695020726509
 20
5.543281830850597
 30
0.0
 10
0.7614695020726509
 20
5.543281830850597
 30
0.0
 10
2.898875766193062
 20
4.966251076238184
 30
0.0
 10
2.898875766193062
 20
4.966251076238184
 30
0.0
  0
LWPOLYLINE
  5
84
330
70
100
AcDbEntity
  8
Layer 1
100
AcDbPolyline
 90
        6
 70
     0
 43
0.0
 10
2.590049856794874
 20
5.256286436526289
 10
2.590049856794874
 20
4.503103603522731
 10
2.761454393403962
 20
4.426433449282285
 10
2.921211338903326
 20
4.53738258681546
 10
2.921211338903326
 20
4.921825417213855
 10
2.590049856794874
 20
5.256286436526289
  0
HATCH
  5
85
330
70
100
AcDbEntity
  8
Layer 1
 62
   253
420
 10987948
440
 33554687
100
AcDbHatch
 10
0.0
 20
0.0
 30
0.0
210
0.0
220
0.0
230
1.0
  2
SOLID
 70
     1
 71
     1
 91
        1
 92
        3
 72
     0
 73
     1
 93
        6
 10
2.590049856794874
 20
5.256286436526289
 10
2.590049856794874
 20
4.503103603522731
 10
2.761454393403962
 20
4.426433449282285
 10
2.921211338903326
 20
4.53738258681546
 10
2.921211338903326
 20
4.921825417213855
 10
2.590049856794874
 20
5.256286436526289
 97
        0
 75
     2
 76
     1
 98
        1
 10
0.0
 20
0.0
450
        0
451
        0
460
0.0
461
0.0
452
        0
462
0.0
453
        0
470

  0
LWPOLYLINE
  5
86
330
70
100
AcDbEntity
  8
Layer 1
 62
   250
420
  2301728
370
    30
100
AcDbPolyline
 90
        5
 70
     1
 43
0.0
 10
2.590049856794874
 20
5.256286436526289
 10
2.590049856794874
 20
4.503103603522731
 10
2.761454393403962
 20
4.426433449282285
 10
2.921211338903326
 20
4.53738258681546
 10
2.921211338903326
 20
4.921825417213855
  0
SPLINE
  5
87
330
70
100
AcDbEntity
  8
Layer 1
100
AcDbSpline
210
0.0
220
0.0
230
1.0
 70
     9
 71
     3
 72
    68
 73
    64
 74
     0
 42
0.0000000001
 43
0.0000000001
 40
0.0
 40
0.0
 40
0.0
 40
0.0
 40
1.0
 40
1.0
 40
1.0
 40
2.0
 40
2.0
 40
2.0
 40
3.0
 40
3.0
 40
3.0
 40
4.0
 40
4.0
 40
4.0
 40
5.0
 40
5.0
 40
5.0
 40
6.0
 40
6.0
 40
6.0
 40
7.0
 40
7.0
 40
7.0
 40
8.0
 40
8.0
 40
8.0
 40
9.0
 40
9.0
 40
9.0
 40
10.0
 40
10.0
 40
10.0
 40
11.0
 40
11.0
 40
11.0
 40
12.0
 40
12.0
 40
12.0
 40
13.0
 40
13.0
 40
13.0
 40
14.0
 40
14.0
 40
14.0
 40
15.0
 40
15.0
 40
15.0
 40
16.0
 40
16.0
 40
16.0
 40
17.0
 40
17.0
 40
17.0
 40
18.0
 40
18.0
 40
18.0
 40
19.0
 40
19.0
 40
19.0
 40
20.0
 40
20.0
 40
20.0
 40
21.0
 40
21.0
 40
21.0
 40
21.0
 10
0.5347876039523574
 20
5.125935870646672
 30
0.0
 10
0.5347876039523574
 20
5.131397708228758
 30
0.0
 10
0.5347419082602806
 20
5.18286807073126
 30
0.0
 10
0.5347419082602806
 20
5.18286807073126
 30
0.0
 10
0.5347419082602806
 20
5.18286807073126
 30
0.0
 10
0.4850322104018814
 20
5.231743040434088
 30
0.0
 10
0.4850322104018814
 20
5.231743040434088
 30
0.0
 10
0.4850322104018814
 20
5.231743040434088
 30
0.0
 10
0.5872462584439847
 20
5.284096053839334
 30
0.0
 10
0.5872462584439847
 20
5.284096053839334
 30
0.0
 10
0.5872462584439847
 20
5.284096053839334
 30
0.0
 10
0.5346938075317793
 20
5.356504301804331
 30
0.0
 10
0.5346938075317793
 20
5.356504301804331
 30
0.0
 10
0.5346938075317793
 20
5.356504301804331
 30
0.0
 10
0.5346938075317793
 20
5.424886886130732
 30
0.0
 10
0.5346938075317793
 20
5.424886886130732
 30
0.0
 10
0.5346938075317793
 20
5.424886886130732
 30
0.0
 10
0.5058405855468083
 20
5.433306733044774
 30
0.0
 10
0.5058405855468083
 20
5.433306733044774
 30
0.0
 10
0.5058405855468083
 20
5.433306733044774
 30
0.0
 10
0.5058405855468083
 20
5.454762062445903
 30
0.0
 10
0.5058405855468083
 20
5.459540869700705
 30
0.0
 10
0.5058405855468083
 20
5.464355752500978
 30
0.0
 10
0.5090344739185816
 20
5.472917681955967
 30
0.0
 10
0.5181014612390351
 20
5.477167381210733
 30
0.0
 10
0.5271900938872831
 20
5.481453342835455
 30
0.0
 10
0.5459084923793272
 20
5.486797146811239
 30
0.0
 10
0.5507113501190967
 20
5.488935224138622
 30
0.0
 10
0.5555262330409884
 20
5.491070896429656
 30
0.0
 10
0.5763490384044746
 20
5.491600004429679
 30
0.0
 10
0.5929173343329996
 20
5.486268038811216
 30
0.0
 10
2.735501646002578
 20
4.913768545191727
 30
0.0
 10
2.673850943853848
 20
4.929189465872594
 30
0.0
 10
2.756006986040018
 20
4.908672100653322
 30
0.0
 10
2.777731679513913
 20
4.90323671847121
 30
0.0
 10
2.78809017113263
 20
5.006987757006123
 30
0.0
 10
2.78809017113263
 20
4.985943688291588
 30
0.0
 10
2.78809017113263
 20
4.964899619577017
 30
0.0
 10
2.78809017113263
 20
4.736175677535091
 30
0.0
 10
2.78809017113263
 20
4.727308308461892
 30
0.0
 10
2.78809017113263
 20
4.718407436427924
 30
0.0
 10
2.788489407169031
 20
4.698830439932344
 30
0.0
 10
2.788489407169031
 20
4.690552137714487
 30
0.0
 10
2.788489407169031
 20
4.682307839695895
 30
0.0
 10
2.78809017113263
 20
4.645104165548432
 30
0.0
 10
2.78809017113263
 20
4.637953992438951
 30
0.0
 10
2.78809017113263
 20
4.619541034037991
 30
0.0
 10
2.78809017113263
 20
4.599235312018739
 30
0.0
 10
2.78809017113263
 20
4.587984551909041
 30
0.0
 10
2.78809017113263
 20
4.576700121290273
 30
0.0
 10
2.788840651814022
 20
4.497021266558767
 30
0.0
 10
2.788840651814022
 20
4.485770506449082
 30
0.0
 10
2.788840651814022
 20
4.474486075830301
 30
0.0
 10
2.799855718638304
 20
4.418213034990937
 30
0.0
 10
2.785199317423398
 20
4.410872864008752
 30
0.0
 10
2.770591126549889
 20
4.403568768571997
 30
0.0
 10
2.627933989596865
 20
4.43280936101616
 30
0.0
 10
2.569405128440798
 20
4.454793638083805
 30
0.0
 10
2.510900110063403
 20
4.476751620084971
 30
0.0
 10
0.5663200365142353
 20
5.08791224573555
 30
0.0
 10
0.5553506653819922
 20
5.09139954846301
 30
0.0
 10
0.5443836992861736
 20
5.094886851190469
 30
0.0
 10
0.5347876039523574
 20
5.106125586118334
 30
0.0
 10
0.5347876039523574
 20
5.125935870646672
 30
0.0
  0
HATCH
  5
88
330
70
100
AcDbEntity
  8
Layer 1
 62
   253
420
 10987948
440
 33554687
100
AcDbHatch
 10
0.0
 20
0.0
 30
0.0
210
0.0
220
0.0
230
1.0
  2
SOLID
 70
     1
 71
     1
 91
        1
 92
        1
 93
        2
 72
     4
 94
        3
 73
     0
 74
     0
 95
       68
 96
       64
 40
0.0
 40
0.0
 40
0.0
 40
0.0
 40
1.0
 40
1.0
 40
1.0
 40
2.0
 40
2.0
 40
2.0
 40
3.0
 40
3.0
 40
3.0
 40
4.0
 40
4.0
 40
4.0
 40
5.0
 40
5.0
 40
5.0
 40
6.0
 40
6.0
 40
6.0
 40
7.0
 40
7.0
 40
7.0
 40
8.0
 40
8.0
 40
8.0
 40
9.0
 40
9.0
 40
9.0
 40
10.0
 40
10.0
 40
10.0
 40
11.0
 40
11.0
 40
11.0
 40
12.0
 40
12.0
 40
12.0
 40
13.0
 40
13.0
 40
13.0
 40
14.0
 40
14.0
 40
14.0
 40
15.0
 40
15.0
 40
15.0
 40
16.0
 40
16.0
 40
16.0
 40
17.0
 40
17.0
 40
17.0
 40
18.0
 40
18.0
 40
18.0
 40
19.0
 40
19.0
 40
19.0
 40
20.0
 40
20.0
 40
20.0
 40
21.0
 40
21.0
 40
21.0
 40
21.0
 10
0.5347876039523574
 20
5.125935870646672
 10
0.5347876039523574
 20
5.131397708228758
 10
0.5347419082602806
 20
5.18286807073126
 10
0.5347419082602806
 20
5.18286807073126
 10
0.5347419082602806
 20
5.18286807073126
 10
0.4850322104018814
 20
5.231743040434088
 10
0.4850322104018814
 20
5.231743040434088
 10
0.4850322104018814
 20
5.231743040434088
 10
0.5872462584439847
 20
5.284096053839334
 10
0.5872462584439847
 20
5.284096053839334
 10
0.5872462584439847
 20
5.284096053839334
 10
0.5346938075317793
 20
5.356504301804331
 10
0.5346938075317793
 20
5.356504301804331
 10
0.5346938075317793
 20
5.356504301804331
 10
0.5346938075317793
 20
5.424886886130732
 10
0.5346938075317793
 20
5.424886886130732
 10
0.5346938075317793
 20
5.424886886130732
 10
0.5058405855468083
 20
5.433306733044774
 10
0.5058405855468083
 20
5.433306733044774
 10
0.5058405855468083
 20
5.433306733044774
 10
0.5058405855468083
 20
5.454762062445903
 10
0.5058405855468083
 20
5.459540869700705
 10
0.5058405855468083
 20
5.464355752500978
 10
0.5090344739185816
 20
5.472917681955967
 10
0.5181014612390351
 20
5.477167381210733
 10
0.5271900938872831
 20
5.481453342835455
 10
0.5459084923793272
 20
5.486797146811239
 10
0.5507113501190967
 20
5.488935224138622
 10
0.5555262330409884
 20
5.491070896429656
 10
0.5763490384044746
 20
5.491600004429679
 10
0.5929173343329996
 20
5.486268038811216
 10
2.735501646002578
 20
4.913768545191727
 10
2.673850943853848
 20
4.929189465872594
 10
2.756006986040018
 20
4.908672100653322
 10
2.777731679513913
 20
4.90323671847121
 10
2.78809017113263
 20
5.006987757006123
 10
2.78809017113263
 20
4.985943688291588
 10
2.78809017113263
 20
4.964899619577017
 10
2.78809017113263
 20
4.736175677535091
 10
2.78809017113263
 20
4.727308308461892
 10
2.78809017113263
 20
4.718407436427924
 10
2.788489407169031
 20
4.698830439932344
 10
2.788489407169031
 20
4.690552137714487
 10
2.788489407169031
 20
4.682307839695895
 10
2.78809017113263
 20
4.645104165548432
 10
2.78809017113263
 20
4.637953992438951
 10
2.78809017113263
 20
4.619541034037991
 10
2.78809017113263
 20
4.599235312018739
 10
2.78809017113263
 20
4.587984551909041
 10
2.78809017113263
 20
4.576700121290273
 10
2.788840651814022
 20
4.497021266558767
 10
2.788840651814022
 20
4.485770506449082
 10
2.788840651814022
 20
4.474486075830301
 10
2.799855718638304
 20
4.418213034990937
 10
2.785199317423398
 20
4.410872864008752
 10
2.770591126549889
 20
4.403568768571997
 10
2.627933989596865
 20
4.43280936101616
 10
2.569405128440798
 20
4.454793638083805
 10
2.510900110063403
 20
4.476751620084971
 10
0.5663200365142353
 20
5.08791224573555
 10
0.5553506653819922
 20
5.09139954846301
 10
0.5443836992861736
 20
5.094886851190469
 10
0.5347876039523574
 20
5.106125586118334
 10
0.5347876039523574
 20
5.125935870646672
 97
        0
 72
     1
 10
0.5347876039523574
 20
5.125935870646672
 11
0.5347876039523574
 21
5.125935870646672
 97
        0
 75
     2
 76
     1
 98
        1
 10
0.0
 20
0.0
450
        0
451
        0
460
0.0
461
0.0
452
        0
462
0.0
453
        0
470

  0
SPLINE
  5
89
330
70
100
AcDbEntity
  8
Layer 1
 62
   250
420
  2301728
370
    30
100
AcDbSpline
210
0.0
220
0.0
230
1.0
 70
     9
 71
     3
 72
    56
 73
    52
 74
     0
 42
0.0000000001
 43
0.0000000001
 40
0.0
 40
0.0
 40
0.0
 40
0.0
 40
1.0
 40
1.0
 40
1.0
 40
2.0
 40
2.0
 40
2.0
 40
3.0
 40
3.0
 40
3.0
 40
4.0
 40
4.0
 40
4.0
 40
5.0
 40
5.0
 40
5.0
 40
6.0
 40
6.0
 40
6.0
 40
7.0
 40
7.0
 40
7.0
 40
8.0
 40
8.0
 40
8.0
 40
9.0
 40
9.0
 40
9.0
 40
10.0
 40
10.0
 40
10.0
 40
11.0
 40
11.0
 40
11.0
 40
12.0
 40
12.0
 40
12.0
 40
13.0
 40
13.0
 40
13.0
 40
14.0
 40
14.0
 40
14.0
 40
15.0
 40
15.0
 40
15.0
 40
16.0
 40
16.0
 40
16.0
 40
17.0
 40
17.0
 40
17.0
 40
17.0
 10
0.5347876039523574
 20
5.125935870646672
 30
0.0
 10
0.5347876039523574
 20
5.131397708228758
 30
0.0
 10
0.5347419082602806
 20
5.18286807073126
 30
0.0
 10
0.5347419082602806
 20
5.18286807073126
 30
0.0
 10
0.5347419082602806
 20
5.18286807073126
 30
0.0
 10
0.4850322104018814
 20
5.231743040434088
 30
0.0
 10
0.4850322104018814
 20
5.231743040434088
 30
0.0
 10
0.4850322104018814
 20
5.231743040434088
 30
0.0
 10
0.5872462584439847
 20
5.284096053839334
 30
0.0
 10
0.5872462584439847
 20
5.284096053839334
 30
0.0
 10
0.5872462584439847
 20
5.284096053839334
 30
0.0
 10
0.5346938075317793
 20
5.356504301804331
 30
0.0
 10
0.5346938075317793
 20
5.356504301804331
 30
0.0
 10
0.5346938075317793
 20
5.356504301804331
 30
0.0
 10
0.5346938075317793
 20
5.424886886130732
 30
0.0
 10
0.5346938075317793
 20
5.424886886130732
 30
0.0
 10
0.5346938075317793
 20
5.424886886130732
 30
0.0
 10
0.5058405855468083
 20
5.433306733044774
 30
0.0
 10
0.5058405855468083
 20
5.433306733044774
 30
0.0
 10
0.5058405855468083
 20
5.433306733044774
 30
0.0
 10
0.5058405855468083
 20
5.454762062445903
 30
0.0
 10
0.5058405855468083
 20
5.459540869700705
 30
0.0
 10
0.5058405855468083
 20
5.464355752500978
 30
0.0
 10
0.5090344739185816
 20
5.472917681955967
 30
0.0
 10
0.5181014612390351
 20
5.477167381210733
 30
0.0
 10
0.5271900938872831
 20
5.481453342835455
 30
0.0
 10
0.5459084923793272
 20
5.486797146811239
 30
0.0
 10
0.5507113501190967
 20
5.488935224138622
 30
0.0
 10
0.5555262330409884
 20
5.491070896429656
 30
0.0
 10
0.5763490384044746
 20
5.491600004429679
 30
0.0
 10
0.5929173343329996
 20
5.486268038811216
 30
0.0
 10
2.735501646002578
 20
4.913768545191727
 30
0.0
 10
2.673850943853848
 20
4.929189465872594
 30
0.0
 10
2.756006986040018
 20
4.908672100653322
 30
0.0
 10
2.777755729877551
 20
4.90323671847121
 30
0.0
 10
2.78809017113263
 20
4.89878516826694
 30
0.0
 10
2.78809017113263
 20
4.877717049188163
 30
0.0
 10
2.78809017113263
 20
4.856672980473616
 30
0.0
 10
2.788840651814022
 20
4.497021266558767
 30
0.0
 10
2.788840651814022
 20
4.485770506449082
 30
0.0
 10
2.788840651814022
 20
4.474486075830301
 30
0.0
 10
2.799855718638304
 20
4.418213034990937
 30
0.0
 10
2.785199317423398
 20
4.410872864008752
 30
0.0
 10
2.770591126549889
 20
4.403568768571997
 30
0.0
 10
2.627933989596865
 20
4.43280936101616
 30
0.0
 10
2.569405128440798
 20
4.454793638083805
 30
0.0
 10
2.510900110063403
 20
4.476751620084971
 30
0.0
 10
0.5663200365142353
 20
5.08791224573555
 30
0.0
 10
0.5553506653819922
 20
5.09139954846301
 30
0.0
 10
0.5443836992861736
 20
5.094886851190469
 30
0.0
 10
0.5347876039523574
 20
5.106125586118334
 30
0.0
 10
0.5347876039523574
 20
5.125935870646672
 30
0.0
  0
SPLINE
  5
8A
330
70
100
AcDbEntity
  8
Layer 1
 62
   250
420
  2301728
370
    15
100
AcDbSpline
210
0.0
220
0.0
230
1.0
 70
    24
 71
     3
 72
     8
 73
     4
 74
     0
 42
0.0000000001
 43
0.0000000001
 40
0.0
 40
0.0
 40
0.0
 40
0.0
 40
1.0
 40
1.0
 40
1.0
 40
1.0
 10
0.5561731878391735
 20
5.461173889391703
 30
0.0
 10
0.5561731878391735
 20
5.461173889391703
 30
0.0
 10
2.693601209402989
 20
4.884140729742928
 30
0.0
 10
2.693601209402989
 20
4.884140729742928
 30
0.0
  0
SPLINE
  5
8B
330
70
100
AcDbEntity
  8
Layer 1
 62
   250
420
  2301728
370
    30
100
AcDbSpline
210
0.0
220
0.0
230
1.0
 70
     8
 71
     3
 72
    26
 73
    22
 74
     0
 42
0.0000000001
 43
0.0000000001
 40
0.0
 40
0.0
 40
0.0
 40
0.0
 40
1.0
 40
1.0
 40
1.0
 40
2.0
 40
2.0
 40
2.0
 40
3.0
 40
3.0
 40
3.0
 40
4.0
 40
4.0
 40
4.0
 40
5.0
 40
5.0
 40
5.0
 40
6.0
 40
6.0
 40
6.0
 40
7.0
 40
7.0
 40
7.0
 40
7.0
 10
0.5350353227040741
 20
5.424862835766512
 30
0.0
 10
0.5350353227040741
 20
5.424862835766512
 30
0.0
 10
2.715655393415873
 20
4.818894498230368
 30
0.0
 10
2.715655393415873
 20
4.818894498230368
 30
0.0
 10
2.715655393415873
 20
4.818894498230368
 30
0.0
 10
2.739025024275481
 20
4.831318916085579
 30
0.0
 10
2.739025024275481
 20
4.831318916085579
 30
0.0
 10
2.739025024275481
 20
4.838106099276298
 30
0.0
 10
2.738861481802763
 20
4.843250301486212
 30
0.0
 10
2.738861481802763
 20
4.848041133922833
 30
0.0
 10
2.738861481802763
 20
4.852798295850359
 30
0.0
 10
2.741632083693805
 20
4.856966223868766
 30
0.0
 10
2.7441212963303
 20
4.858940758723406
 30
0.0
 10
2.747526827821401
 20
4.861557438287187
 30
0.0
 10
2.754527888676319
 20
4.864318420032796
 30
0.0
 10
2.75978781180581
 20
4.867324715487496
 30
0.0
 10
2.763335131840424
 20
4.86934494603305
 30
0.0
 10
2.766247630876932
 20
4.869462792814879
 30
0.0
 10
2.766247630876932
 20
4.86041985608713
 30
0.0
 10
2.766247630876932
 20
4.839375787904196
 30
0.0
 10
2.76615142942238
 20
4.434560067155453
 30
0.0
 10
2.76615142942238
 20
4.434560067155453
 30
0.0
  0
SPLINE
  5
8C
330
70
100
AcDbEntity
  8
Layer 1
 62
   250
420
  2301728
370
    15
100
AcDbSpline
210
0.0
220
0.0
230
1.0
 70
    24
 71
     3
 72
     8
 73
     4
 74
     0
 42
0.0000000001
 43
0.0000000001
 40
0.0
 40
0.0
 40
0.0
 40
0.0
 40
1.0
 40
1.0
 40
1.0
 40
1.0
 10
2.731838775620568
 20
4.049754248953237
 30
0.0
 10
2.731838775620568
 20
4.049754248953237
 30
0.0
 10
2.723570260601945
 20
2.721298742919164
 30
0.0
 10
2.723570260601945
 20
2.721298742919164
 30
0.0
  0
SPLINE
  5
8D
330
70
100
AcDbEntity
  8
Layer 1
 62
   250
420
  2301728
370
    30
100
AcDbSpline
210
0.0
220
0.0
230
1.0
 70
     8
 71
     3
 72
    17
 73
    13
 74
     0
 42
0.0000000001
 43
0.0000000001
 40
0.0
 40
0.0
 40
0.0
 40
0.0
 40
1.0
 40
1.0
 40
1.0
 40
2.0
 40
2.0
 40
2.0
 40
3.0
 40
3.0
 40
3.0
 40
4.0
 40
4.0
 40
4.0
 40
4.0
 10
2.78809017113263
 20
4.877329666760752
 30
0.0
 10
2.78809017113263
 20
4.887240993429259
 30
0.0
 10
2.781699989514107
 20
4.89938385021647
 30
0.0
 10
2.771812993928405
 20
4.895684904288978
 30
0.0
 10
2.761901730167614
 20
4.891973933179706
 30
0.0
 10
2.739000973911843
 20
4.880841019851851
 30
0.0
 10
2.731603082056911
 20
4.877741099552395
 30
0.0
 10
2.724159494511063
 20
4.874640836106057
 30
0.0
 10
2.715515793819703
 20
4.866608014651092
 30
0.0
 10
2.715515793819703
 20
4.861030735323525
 30
0.0
 10
2.715515793819703
 20
4.855475101323222
 30
0.0
 10
2.71610262269246
 20
4.820186002757723
 30
0.0
 10
2.71610262269246
 20
4.820186002757723
 30
0.0
  0
SPLINE
  5
8E
330
70
100
AcDbEntity
  8
Layer 1
100
AcDbSpline
210
0.0
220
0.0
230
1.0
 70
     9
 71
     3
 72
    86
 73
    82
 74
     0
 42
0.0000000001
 43
0.0000000001
 40
0.0
 40
0.0
 40
0.0
 40
0.0
 40
1.0
 40
1.0
 40
1.0
 40
2.0
 40
2.0
 40
2.0
 40
3.0
 40
3.0
 40
3.0
 40
4.0
 40
4.0
 40
4.0
 40
5.0
 40
5.0
 40
5.0
 40
6.0
 40
6.0
 40
6.0
 40
7.0
 40
7.0
 40
7.0
 40
8.0
 40
8.0
 40
8.0
 40
9.0
 40
9.0
 40
9.0
 40
10.0
 40
10.0
 40
10.0
 40
11.0
 40
11.0
 40
11.0
 40
12.0
 40
12.0
 40
12.0
 40
13.0
 40
13.0
 40
13.0
 40
14.0
 40
14.0
 40
14.0
 40
15.0
 40
15.0
 40
15.0
 40
16.0
 40
16.0
 40
16.0
 40
17.0
 40
17.0
 40
17.0
 40
18.0
 40
18.0
 40
18.0
 40
19.0
 40
19.0
 40
19.0
 40
20.0
 40
20.0
 40
20.0
 40
21.0
 40
21.0
 40
21.0
 40
22.0
 40
22.0
 40
22.0
 40
23.0
 40
23.0
 40
23.0
 40
24.0
 40
24.0
 40
24.0
 40
25.0
 40
25.0
 40
25.0
 40
26.0
 40
26.0
 40
26.0
 40
27.0
 40
27.0
 40
27.0
 40
27.0
 10
1.415374780896235
 20
7.023966518565455
 30
0.0
 10
1.410817236986897
 20
7.019995803528886
 30
0.0
 10
1.357362971939588
 20
6.930429844305952
 30
0.0
 10
1.357362971939588
 20
6.930429844305952
 30
0.0
 10
1.357362971939588
 20
6.930429844305952
 30
0.0
 10
1.262652637541981
 20
6.896468325813239
 30
0.0
 10
1.262652637541981
 20
6.896468325813239
 30
0.0
 10
1.262652637541981
 20
6.896468325813239
 30
0.0
 10
1.284694725034758
 20
6.800266871262692
 30
0.0
 10
1.284694725034758
 20
6.800266871262692
 30
0.0
 10
1.284694725034758
 20
6.800266871262692
 30
0.0
 10
1.222490864522367
 20
6.734376090004653
 30
0.0
 10
1.222490864522367
 20
6.734376090004653
 30
0.0
 10
1.222490864522367
 20
6.734376090004653
 30
0.0
 10
1.189010422223178
 20
6.734376090004653
 30
0.0
 10
1.189010422223178
 20
6.734376090004653
 30
0.0
 10
1.189010422223178
 20
6.734376090004653
 30
0.0
 10
1.167343380701266
 20
6.716441733840092
 30
0.0
 10
1.164337085246579
 20
6.713825054276285
 30
0.0
 10
1.161330789791855
 20
6.711169894130698
 30
0.0
 10
1.157196532282543
 20
6.700272674366474
 30
0.0
 10
1.164337085246579
 20
6.692391370202421
 30
0.0
 10
1.171453656324173
 20
6.684500663108956
 30
0.0
 10
3.547013825936498
 20
4.293074182911595
 30
0.0
 10
3.558711922809859
 20
4.280086986547265
 30
0.0
 10
3.558711922809859
 20
4.280086986547265
 30
0.0
 10
3.570852546374124
 20
4.258785579473421
 30
0.0
 10
3.583630504574809
 20
4.267804465837532
 30
0.0
 10
3.596430108102771
 20
4.276823352201644
 30
0.0
 10
3.634737527304802
 20
4.30388001129399
 30
0.0
 10
3.634737527304802
 20
4.30388001129399
 30
0.0
 10
3.634737527304802
 20
4.30388001129399
 30
0.0
 10
3.6418780802688
 20
4.312521306948989
 30
0.0
 10
3.647890671178224
 20
4.321165007640362
 30
0.0
 10
3.653903262087624
 20
4.329808708331723
 30
0.0
 10
3.713112852327134
 20
4.404025725481119
 30
0.0
 10
3.713112852327134
 20
4.404025725481119
 30
0.0
 10
3.713112852327134
 20
4.404025725481119
 30
0.0
 10
3.725794742078555
 20
4.392354084007769
 30
0.0
 10
3.727932686400638
 20
4.389922592244007
 30
0.0
 10
3.731338217891738
 20
4.386175704744724
 30
0.0
 10
3.734344513346437
 20
4.383910001334596
 30
0.0
 10
3.738079534819361
 20
4.386175704744724
 30
0.0
 10
3.741836335030155
 20
4.388431469698477
 30
0.0
 10
3.748623214238098
 20
4.393316098553277
 30
0.0
 10
3.751629509692798
 20
4.395935183153406
 30
0.0
 10
3.754635805147522
 20
4.398587938262658
 30
0.0
 10
3.951502461739765
 20
4.655744046421735
 30
0.0
 10
3.958359220412855
 20
4.663824968603976
 30
0.0
 10
3.965264218868039
 20
4.671915510931676
 30
0.0
 10
3.976069908195616
 20
4.686511676623366
 30
0.0
 10
3.960285793469286
 20
4.701872643878724
 30
0.0
 10
3.944549501612123
 20
4.717221585952263
 30
0.0
 10
1.5803579492211
 20
7.034887788693303
 30
0.0
 10
1.574944133559231
 20
7.040994176020906
 30
0.0
 10
1.569506346340757
 20
7.047076512984871
 30
0.0
 10
1.56534803846782
 20
7.046641201403025
 30
0.0
 10
1.561286010374664
 20
7.046641201403025
 30
0.0
 10
1.557221498817208
 20
7.046641201403025
 30
0.0
 10
1.546030786394049
 20
7.046290292449523
 30
0.0
 10
1.54398891052123
 20
7.046290292449523
 30
0.0
 10
1.541944629612026
 20
7.046290292449523
 30
0.0
 10
1.53425340096304
 20
7.041018226384544
 30
0.0
 10
1.530835766647808
 20
7.041018226384544
 30
0.0
 10
1.527442260338552
 20
7.041018226384544
 30
0.0
 10
1.520970307483644
 20
7.045150078857495
 30
0.0
 10
1.516191577414916
 20
7.045150078857495
 30
0.0
 10
1.512045217537724
 20
7.045150078857495
 30
0.0
 10
1.501547233809889
 20
7.044762868002925
 30
0.0
 10
1.498153804231012
 20
7.044762868002925
 30
0.0
 10
1.494760221191351
 20
7.044762868002925
 30
0.0
 10
1.484250212281696
 20
7.03961849522083
 30
0.0
 10
1.478812425063248
 20
7.03961849522083
 30
0.0
 10
1.4733986882084
 20
7.03961849522083
 30
0.0
 10
1.462465392898732
 20
7.043800853457418
 30
0.0
 10
1.459071962332561
 20
7.043634905948313
 30
0.0
 10
1.450440211079896
 20
7.043283996918868
 30
0.0
 10
1.444569592692699
 20
7.042896559784669
 30
0.0
 10
1.437275042024667
 20
7.042896559784669
 30
0.0
 10
1.431861305169832
 20
7.042896559784669
 30
0.0
 10
1.415374780896235
 20
7.023966518565455
 30
0.0
 10
1.415374780896235
 20
7.023966518565455
 30
0.0
  0
HATCH
  5
8F
330
70
100
AcDbEntity
  8
Layer 1
 62
   253
420
 10987948
440
 33554687
100
AcDbHatch
 10
0.0
 20
0.0
 30
0.0
210
0.0
220
0.0
230
1.0
  2
SOLID
 70
     1
 71
     1
 91
        1
 92
        1
 93
        2
 72
     4
 94
        3
 73
     0
 74
     0
 95
       86
 96
       82
 40
0.0
 40
0.0
 40
0.0
 40
0.0
 40
1.0
 40
1.0
 40
1.0
 40
2.0
 40
2.0
 40
2.0
 40
3.0
 40
3.0
 40
3.0
 40
4.0
 40
4.0
 40
4.0
 40
5.0
 40
5.0
 40
5.0
 40
6.0
 40
6.0
 40
6.0
 40
7.0
 40
7.0
 40
7.0
 40
8.0
 40
8.0
 40
8.0
 40
9.0
 40
9.0
 40
9.0
 40
10.0
 40
10.0
 40
10.0
 40
11.0
 40
11.0
 40
11.0
 40
12.0
 40
12.0
 40
12.0
 40
13.0
 40
13.0
 40
13.0
 40
14.0
 40
14.0
 40
14.0
 40
15.0
 40
15.0
 40
15.0
 40
16.0
 40
16.0
 40
16.0
 40
17.0
 40
17.0
 40
17.0
 40
18.0
 40
18.0
 40
18.0
 40
19.0
 40
19.0
 40
19.0
 40
20.0
 40
20.0
 40
20.0
 40
21.0
 40
21.0
 40
21.0
 40
22.0
 40
22.0
 40
22.0
 40
23.0
 40
23.0
 40
23.0
 40
24.0
 40
24.0
 40
24.0
 40
25.0
 40
25.0
 40
25.0
 40
26.0
 40
26.0
 40
26.0
 40
27.0
 40
27.0
 40
27.0
 40
27.0
 10
1.415374780896235
 20
7.023966518565455
 10
1.410817236986897
 20
7.019995803528886
 10
1.357362971939588
 20
6.930429844305952
 10
1.357362971939588
 20
6.930429844305952
 10
1.357362971939588
 20
6.930429844305952
 10
1.262652637541981
 20
6.896468325813239
 10
1.262652637541981
 20
6.896468325813239
 10
1.262652637541981
 20
6.896468325813239
 10
1.284694725034758
 20
6.800266871262692
 10
1.284694725034758
 20
6.800266871262692
 10
1.284694725034758
 20
6.800266871262692
 10
1.222490864522367
 20
6.734376090004653
 10
1.222490864522367
 20
6.734376090004653
 10
1.222490864522367
 20
6.734376090004653
 10
1.189010422223178
 20
6.734376090004653
 10
1.189010422223178
 20
6.734376090004653
 10
1.189010422223178
 20
6.734376090004653
 10
1.167343380701266
 20
6.716441733840092
 10
1.164337085246579
 20
6.713825054276285
 10
1.161330789791855
 20
6.711169894130698
 10
1.157196532282543
 20
6.700272674366474
 10
1.164337085246579
 20
6.692391370202421
 10
1.171453656324173
 20
6.684500663108956
 10
3.547013825936498
 20
4.293074182911595
 10
3.558711922809859
 20
4.280086986547265
 10
3.558711922809859
 20
4.280086986547265
 10
3.570852546374124
 20
4.258785579473421
 10
3.583630504574809
 20
4.267804465837532
 10
3.596430108102771
 20
4.276823352201644
 10
3.634737527304802
 20
4.30388001129399
 10
3.634737527304802
 20
4.30388001129399
 10
3.634737527304802
 20
4.30388001129399
 10
3.6418780802688
 20
4.312521306948989
 10
3.647890671178224
 20
4.321165007640362
 10
3.653903262087624
 20
4.329808708331723
 10
3.713112852327134
 20
4.404025725481119
 10
3.713112852327134
 20
4.404025725481119
 10
3.713112852327134
 20
4.404025725481119
 10
3.725794742078555
 20
4.392354084007769
 10
3.727932686400638
 20
4.389922592244007
 10
3.731338217891738
 20
4.386175704744724
 10
3.734344513346437
 20
4.383910001334596
 10
3.738079534819361
 20
4.386175704744724
 10
3.741836335030155
 20
4.388431469698477
 10
3.748623214238098
 20
4.393316098553277
 10
3.751629509692798
 20
4.395935183153406
 10
3.754635805147522
 20
4.398587938262658
 10
3.951502461739765
 20
4.655744046421735
 10
3.958359220412855
 20
4.663824968603976
 10
3.965264218868039
 20
4.671915510931676
 10
3.976069908195616
 20
4.686511676623366
 10
3.960285793469286
 20
4.701872643878724
 10
3.944549501612123
 20
4.717221585952263
 10
1.5803579492211
 20
7.034887788693303
 10
1.574944133559231
 20
7.040994176020906
 10
1.569506346340757
 20
7.047076512984871
 10
1.56534803846782
 20
7.046641201403025
 10
1.561286010374664
 20
7.046641201403025
 10
1.557221498817208
 20
7.046641201403025
 10
1.546030786394049
 20
7.046290292449523
 10
1.54398891052123
 20
7.046290292449523
 10
1.541944629612026
 20
7.046290292449523
 10
1.53425340096304
 20
7.041018226384544
 10
1.530835766647808
 20
7.041018226384544
 10
1.527442260338552
 20
7.041018226384544
 10
1.520970307483644
 20
7.045150078857495
 10
1.516191577414916
 20
7.045150078857495
 10
1.512045217537724
 20
7.045150078857495
 10
1.501547233809889
 20
7.044762868002925
 10
1.498153804231012
 20
7.044762868002925
 10
1.494760221191351
 20
7.044762868002925
 10
1.484250212281696
 20
7.03961849522083
 10
1.478812425063248
 20
7.03961849522083
 10
1.4733986882084
 20
7.03961849522083
 10
1.462465392898732
 20
7.043800853457418
 10
1.459071962332561
 20
7.043634905948313
 10
1.450440211079896
 20
7.043283996918868
 10
1.444569592692699
 20
7.042896559784669
 10
1.437275042024667
 20
7.042896559784669
 10
1.431861305169832
 20
7.042896559784669
 10
1.415374780896235
 20
7.023966518565455
 10
1.415374780896235
 20
7.023966518565455
 97
        0
 72
     1
 10
1.415374780896235
 20
7.023966518565455
 11
1.415374780896235
 21
7.023966518565455
 97
        0
 75
     2
 76
     1
 98
        1
 10
0.0
 20
0.0
450
        0
451
        0
460
0.0
461
0.0
452
        0
462
0.0
453
        0
470

  0
SPLINE
  5
90
330
70
100
AcDbEntity
  8
Layer 1
 62
   250
420
  2301728
370
    30
100
AcDbSpline
210
0.0
220
0.0
230
1.0
 70
    24
 71
     3
 72
     8
 73
     4
 74
     0
 42
0.0000000001
 43
0.0000000001
 40
0.0
 40
0.0
 40
0.0
 40
0.0
 40
1.0
 40
1.0
 40
1.0
 40
1.0
 10
1.222490864522367
 20
6.734376090004653
 30
0.0
 10
1.222490864522367
 20
6.734376090004653
 30
0.0
 10
3.644155649705301
 20
4.317408340840162
 30
0.0
 10
3.644155649705301
 20
4.317408340840162
 30
0.0
  0
SPLINE
  5
91
330
70
100
AcDbEntity
  8
Layer 1
 62
   250
420
  2301728
370
    30
100
AcDbSpline
210
0.0
220
0.0
230
1.0
 70
     9
 71
     3
 72
    71
 73
    67
 74
     0
 42
0.0000000001
 43
0.0000000001
 40
0.0
 40
0.0
 40
0.0
 40
0.0
 40
1.0
 40
1.0
 40
1.0
 40
2.0
 40
2.0
 40
2.0
 40
3.0
 40
3.0
 40
3.0
 40
4.0
 40
4.0
 40
4.0
 40
5.0
 40
5.0
 40
5.0
 40
6.0
 40
6.0
 40
6.0
 40
7.0
 40
7.0
 40
7.0
 40
8.0
 40
8.0
 40
8.0
 40
9.0
 40
9.0
 40
9.0
 40
10.0
 40
10.0
 40
10.0
 40
11.0
 40
11.0
 40
11.0
 40
12.0
 40
12.0
 40
12.0
 40
13.0
 40
13.0
 40
13.0
 40
14.0
 40
14.0
 40
14.0
 40
15.0
 40
15.0
 40
15.0
 40
16.0
 40
16.0
 40
16.0
 40
17.0
 40
17.0
 40
17.0
 40
18.0
 40
18.0
 40
18.0
 40
19.0
 40
19.0
 40
19.0
 40
20.0
 40
20.0
 40
20.0
 40
21.0
 40
21.0
 40
21.0
 40
22.0
 40
22.0
 40
22.0
 40
22.0
 10
1.415374780896235
 20
7.023966518565455
 30
0.0
 10
1.410817236986897
 20
7.019995803528886
 30
0.0
 10
1.357362971939588
 20
6.930429844305952
 30
0.0
 10
1.357362971939588
 20
6.930429844305952
 30
0.0
 10
1.357362971939588
 20
6.930429844305952
 30
0.0
 10
1.262652637541981
 20
6.896468325813239
 30
0.0
 10
1.262652637541981
 20
6.896468325813239
 30
0.0
 10
1.262652637541981
 20
6.896468325813239
 30
0.0
 10
1.284694725034758
 20
6.800266871262692
 30
0.0
 10
1.284694725034758
 20
6.800266871262692
 30
0.0
 10
1.284694725034758
 20
6.800266871262692
 30
0.0
 10
1.222490864522367
 20
6.734376090004653
 30
0.0
 10
1.222490864522367
 20
6.734376090004653
 30
0.0
 10
1.222490864522367
 20
6.734376090004653
 30
0.0
 10
1.189010422223178
 20
6.734376090004653
 30
0.0
 10
1.189010422223178
 20
6.734376090004653
 30
0.0
 10
1.189010422223178
 20
6.734376090004653
 30
0.0
 10
1.167343380701266
 20
6.716441733840092
 30
0.0
 10
1.164337085246579
 20
6.713825054276285
 30
0.0
 10
1.161330789791855
 20
6.711169894130698
 30
0.0
 10
1.157196532282543
 20
6.700272674366474
 30
0.0
 10
1.164337085246579
 20
6.692391370202421
 30
0.0
 10
1.171453656324173
 20
6.684500663108956
 30
0.0
 10
3.547013825936498
 20
4.293074182911595
 30
0.0
 10
3.558711922809859
 20
4.280086986547265
 30
0.0
 10
3.558711922809859
 20
4.280086986547265
 30
0.0
 10
3.570852546374124
 20
4.258785579473421
 30
0.0
 10
3.583630504574809
 20
4.267804465837532
 30
0.0
 10
3.596430108102771
 20
4.276823352201644
 30
0.0
 10
3.634737527304802
 20
4.30388001129399
 30
0.0
 10
3.634737527304802
 20
4.30388001129399
 30
0.0
 10
3.634737527304802
 20
4.30388001129399
 30
0.0
 10
3.651060509105668
 20
4.312521306948989
 30
0.0
 10
3.657073100015066
 20
4.321165007640362
 30
0.0
 10
3.663085690924465
 20
4.329808708331723
 30
0.0
 10
3.722271230800338
 20
4.404025725481119
 30
0.0
 10
3.722271230800338
 20
4.404025725481119
 30
0.0
 10
3.722271230800338
 20
4.404025725481119
 30
0.0
 10
3.725794742078555
 20
4.392354084007769
 30
0.0
 10
3.727932686400638
 20
4.389934617425814
 30
0.0
 10
3.731338217891738
 20
4.386175704744724
 30
0.0
 10
3.734344513346437
 20
4.383922026516415
 30
0.0
 10
3.738079534819361
 20
4.386175704744724
 30
0.0
 10
3.741836335030155
 20
4.388431469698477
 30
0.0
 10
3.748623214238098
 20
4.393316098553277
 30
0.0
 10
3.751629509692798
 20
4.395947208335226
 30
0.0
 10
3.754635805147522
 20
4.398578318117188
 30
0.0
 10
3.951502461739765
 20
4.655744046421735
 30
0.0
 10
3.958359220412855
 20
4.663824968603976
 30
0.0
 10
3.965264218868039
 20
4.671915510931676
 30
0.0
 10
3.976069908195616
 20
4.686511676623366
 30
0.0
 10
3.960285793469286
 20
4.701872643878724
 30
0.0
 10
3.944549501612123
 20
4.717221585952263
 30
0.0
 10
1.5803579492211
 20
7.034887788693303
 30
0.0
 10
1.574944133559231
 20
7.040994176020906
 30
0.0
 10
1.569506346340757
 20
7.047076512984871
 30
0.0
 10
1.56534803846782
 20
7.046641201403025
 30
0.0
 10
1.561286010374664
 20
7.046641201403025
 30
0.0
 10
1.557221498817208
 20
7.046641201403025
 30
0.0
 10
1.462465392898732
 20
7.043800853457418
 30
0.0
 10
1.459071962332561
 20
7.043634905948313
 30
0.0
 10
1.450440211079896
 20
7.043283996918868
 30
0.0
 10
1.444569592692699
 20
7.042896559784669
 30
0.0
 10
1.437275042024667
 20
7.042896559784669
 30
0.0
 10
1.431861305169832
 20
7.042896559784669
 30
0.0
 10
1.415374780896235
 20
7.023966518565455
 30
0.0
 10
1.415374780896235
 20
7.023966518565455
 30
0.0
  0
LINE
  5
92
330
70
100
AcDbEntity
  8
Layer 1
 62
   250
420
  2301728
370
    20
100
AcDbLine
 10
3.595795178502738
 20
4.299791449475593
 30
0.0
 11
1.186648607593193
 21
6.731227897404487
 31
0.0
  0
SPLINE
  5
93
330
70
100
AcDbEntity
  8
Layer 1
 62
   250
420
  2301728
370
    15
100
AcDbSpline
210
0.0
220
0.0
230
1.0
 70
    24
 71
     3
 72
     8
 73
     4
 74
     0
 42
0.0000000001
 43
0.0000000001
 40
0.0
 40
0.0
 40
0.0
 40
0.0
 40
1.0
 40
1.0
 40
1.0
 40
1.0
 10
2.8245168518982
 20
5.018120495495509
 30
0.0
 10
2.8245168518982
 20
5.018120495495509
 30
0.0
 10
2.8245168518982
 20
4.475084929884878
 30
0.0
 10
2.8245168518982
 20
4.475084929884878
 30
0.0
  0
SPLINE
  5
94
330
70
100
AcDbEntity
  8
Layer 1
 62
   250
420
  2301728
370
    30
100
AcDbSpline
210
0.0
220
0.0
230
1.0
 70
     8
 71
     3
 72
    14
 73
    10
 74
     0
 42
0.0000000001
 43
0.0000000001
 40
0.0
 40
0.0
 40
0.0
 40
0.0
 40
1.0
 40
1.0
 40
1.0
 40
2.0
 40
2.0
 40
2.0
 40
3.0
 40
3.0
 40
3.0
 40
3.0
 10
1.119677965007831
 20
3.798211495667184
 30
0.0
 10
1.119677965007831
 20
3.938167776783693
 30
0.0
 10
1.119677965007831
 20
3.937720440020017
 30
0.0
 10
1.119677965007831
 20
3.952848118748091
 30
0.0
 10
1.119677965007831
 20
3.967595801730706
 30
0.0
 10
1.11543788589851
 20
3.991530723622885
 30
0.0
 10
1.139394520785332
 20
3.982321988339322
 30
0.0
 10
1.163326969973796
 20
3.973115360185538
 30
0.0
 10
1.307124094163214
 20
3.918321416709899
 30
0.0
 10
1.307124094163214
 20
3.918321416709899
 30
0.0
  0
SPLINE
  5
95
330
70
100
AcDbEntity
  8
Layer 1
 62
   250
420
  2301728
370
    20
100
AcDbSpline
210
0.0
220
0.0
230
1.0
 70
     8
 71
     3
 72
    14
 73
    10
 74
     0
 42
0.0000000001
 43
0.0000000001
 40
0.0
 40
0.0
 40
0.0
 40
0.0
 40
1.0
 40
1.0
 40
1.0
 40
2.0
 40
2.0
 40
2.0
 40
3.0
 40
3.0
 40
3.0
 40
3.0
 10
1.577303552961956
 20
3.849929397633546
 30
0.0
 10
1.577303552961956
 20
3.849929397633546
 30
0.0
 10
1.77684693629721
 20
3.772140901483971
 30
0.0
 10
1.783987489261221
 20
3.769134606029271
 30
0.0
 10
1.79113766237069
 20
3.766128310574572
 30
0.0
 10
1.809269316106931
 20
3.751096833301049
 30
0.0
 10
1.809269316106931
 20
3.721033878754004
 30
0.0
 10
1.809269316106931
 20
3.689044490079582
 30
0.0
 10
1.809269316106931
 20
3.690829027061479
 30
0.0
 10
1.809269316106931
 20
3.521865602361635
 30
0.0
  0
SPLINE
  5
96
330
70
100
AcDbEntity
  8
Layer 1
 62
   250
420
  2301728
370
    20
100
AcDbSpline
210
0.0
220
0.0
230
1.0
 70
     8
 71
     3
 72
    11
 73
     7
 74
     0
 42
0.0000000001
 43
0.0000000001
 40
0.0
 40
0.0
 40
0.0
 40
0.0
 40
1.0
 40
1.0
 40
1.0
 40
2.0
 40
2.0
 40
2.0
 40
2.0
 10
1.311258423681528
 20
3.831514034196225
 30
0.0
 10
1.311258423681528
 20
3.831514034196225
 30
0.0
 10
1.572464541068193
 20
3.905168419840681
 30
0.0
 10
1.572464541068193
 20
3.905168419840681
 30
0.0
 10
1.572464541068193
 20
3.905168419840681
 30
0.0
 10
1.573979713977362
 20
3.866086577942231
 30
0.0
 10
1.573979713977362
 20
3.866086577942231
 30
0.0
  0
SPLINE
  5
97
330
70
100
AcDbEntity
  8
Layer 1
 62
   250
420
  2301728
370
    20
100
AcDbSpline
210
0.0
220
0.0
230
1.0
 70
     8
 71
     3
 72
    14
 73
    10
 74
     0
 42
0.0000000001
 43
0.0000000001
 40
0.0
 40
0.0
 40
0.0
 40
0.0
 40
1.0
 40
1.0
 40
1.0
 40
2.0
 40
2.0
 40
2.0
 40
3.0
 40
3.0
 40
3.0
 40
3.0
 10
1.087664525969759
 20
3.991975655350175
 30
0.0
 10
1.087664525969759
 20
4.00550398489636
 30
0.0
 10
1.097424163533913
 20
4.034816568097905
 30
0.0
 10
1.133146168644909
 20
4.02241394553606
 30
0.0
 10
1.168834503246772
 20
4.010013428078397
 30
0.0
 10
1.333793614979286
 20
3.945002890129519
 30
0.0
 10
1.333793614979286
 20
3.945002890129519
 30
0.0
 10
1.333793614979286
 20
3.945002890129519
 30
0.0
 10
1.327030580146091
 20
3.903289939436376
 30
0.0
 10
1.327030580146091
 20
3.903289939436376
 30
0.0
  0
LWPOLYLINE
  5
98
330
70
100
AcDbEntity
  8
Layer 1
 62
   250
420
  2301728
370
    30
100
AcDbPolyline
 90
        3
 70
     0
 43
0.0
 10
3.580530542037573
 20
4.270199882055837
 10
3.596406057739133
 20
4.295142514184425
 10
3.63377310772292
 20
4.321189058004001
  0
SPLINE
  5
99
330
70
100
AcDbEntity
  8
Layer 1
 62
   250
420
  2301728
370
    15
100
AcDbSpline
210
0.0
220
0.0
230
1.0
 70
    24
 71
     3
 72
     8
 73
     4
 74
     0
 42
0.0000000001
 43
0.0000000001
 40
0.0
 40
0.0
 40
0.0
 40
0.0
 40
1.0
 40
1.0
 40
1.0
 40
1.0
 10
1.43477380420634
 20
7.009168329819216
 30
0.0
 10
1.43477380420634
 20
7.009168329819216
 30
0.0
 10
3.831883168115255
 20
4.63412517454785
 30
0.0
 10
3.831883168115255
 20
4.63412517454785
 30
0.0
  0
SPLINE
  5
9A
330
70
100
AcDbEntity
  8
Layer 1
 62
   250
420
  2301728
370
    20
100
AcDbSpline
210
0.0
220
0.0
230
1.0
 70
     8
 71
     3
 72
     8
 73
     4
 74
     0
 42
0.0000000001
 43
0.0000000001
 40
0.0
 40
0.0
 40
0.0
 40
0.0
 40
1.0
 40
1.0
 40
1.0
 40
1.0
 10
3.73345224485547
 20
4.394068874935125
 30
0.0
 10
3.736458540310195
 20
4.396709764284133
 30
0.0
 10
3.916954114374296
 20
4.629428138529432
 30
0.0
 10
3.923858973774662
 20
4.637506655675324
 30
0.0
  0
SPLINE
  5
9B
330
70
100
AcDbEntity
  8
Layer 1
 62
   250
420
  2301728
370
    20
100
AcDbSpline
210
0.0
220
0.0
230
1.0
 70
     8
 71
     3
 72
    14
 73
    10
 74
     0
 42
0.0000000001
 43
0.0000000001
 40
0.0
 40
0.0
 40
0.0
 40
0.0
 40
1.0
 40
1.0
 40
1.0
 40
2.0
 40
2.0
 40
2.0
 40
3.0
 40
3.0
 40
3.0
 40
3.0
 10
3.951925748139779
 20
4.657540608585463
 30
0.0
 10
3.951925748139779
 20
4.657540608585463
 30
0.0
 10
3.883391831917985
 20
4.60392032285535
 30
0.0
 10
3.875570653663013
 20
4.598343043527797
 30
0.0
 10
3.867701374680791
 20
4.592741713836567
 30
0.0
 10
3.863240032226005
 20
4.589372257890923
 30
0.0
 10
3.856522765661995
 20
4.579295155526765
 30
0.0
 10
3.856522765661995
 20
4.579295155526765
 30
0.0
 10
3.648499145378258
 20
4.318346305022006
 30
0.0
 10
3.648499145378258
 20
4.318346305022006
 30
0.0
  0
SPLINE
  5
9C
330
70
100
AcDbEntity
  8
Layer 1
 62
   250
420
  2301728
370
    20
100
AcDbSpline
210
0.0
220
0.0
230
1.0
 70
     8
 71
     3
 72
    14
 73
    10
 74
     0
 42
0.0000000001
 43
0.0000000001
 40
0.0
 40
0.0
 40
0.0
 40
0.0
 40
1.0
 40
1.0
 40
1.0
 40
2.0
 40
2.0
 40
2.0
 40
3.0
 40
3.0
 40
3.0
 40
3.0
 10
3.959556928522008
 20
4.673337053832432
 30
0.0
 10
3.959556928522008
 20
4.673337053832432
 30
0.0
 10
3.875570653663013
 20
4.609524057582916
 30
0.0
 10
3.867749475408042
 20
4.60392032285535
 30
0.0
 10
3.859856146062181
 20
4.598318993164171
 30
0.0
 10
3.855418853971034
 20
4.594949537218503
 30
0.0
 10
3.848701587407049
 20
4.584874839890706
 30
0.0
 10
3.848701587407049
 20
4.584874839890706
 30
0.0
 10
3.640656452650571
 20
4.323935609531417
 30
0.0
 10
3.640656452650571
 20
4.323935609531417
 30
0.0
  0
LWPOLYLINE
  5
9D
330
70
100
AcDbEntity
  8
Layer 1
100
AcDbPolyline
 90
       16
 70
     0
 43
0.0
 10
2.633381396960809
 20
4.818331719721286
 10
2.696655605662145
 20
4.802501770374962
 10
2.762558305094924
 20
4.786154738210458
 10
2.762558305094924
 20
4.427664827900545
 10
2.922033861339741
 20
4.535739946979004
 10
2.922033861339741
 20
4.885008947870245
 10
3.090715896785038
 20
4.672807945819031
 10
3.090715896785038
 20
4.581868544435994
 10
2.867990400544966
 20
4.079675306354817
 10
2.790201793060027
 20
4.025655784588315
 10
2.730898406402325
 20
4.049754248953237
 10
2.502912984299326
 20
4.203589994925033
 10
2.502912984299326
 20
4.280017396966387
 10
2.599513674886288
 20
4.489472019177873
 10
2.599513674886288
 20
4.802501770374962
 10
2.629437137324228
 20
4.81962322424863
  0
HATCH
  5
9E
330
70
100
AcDbEntity
  8
Layer 1
 62
   254
420
 13358815
440
 33554687
100
AcDbHatch
 10
0.0
 20
0.0
 30
0.0
210
0.0
220
0.0
230
1.0
  2
SOLID
 70
     1
 71
     1
 91
        1
 92
        3
 72
     0
 73
     1
 93
       16
 10
2.633381396960809
 20
4.818331719721286
 10
2.696655605662145
 20
4.802501770374962
 10
2.762558305094924
 20
4.786154738210458
 10
2.762558305094924
 20
4.427664827900545
 10
2.922033861339741
 20
4.535739946979004
 10
2.922033861339741
 20
4.885008947870245
 10
3.090715896785038
 20
4.672807945819031
 10
3.090715896785038
 20
4.581868544435994
 10
2.867990400544966
 20
4.079675306354817
 10
2.790201793060027
 20
4.025655784588315
 10
2.730898406402325
 20
4.049754248953237
 10
2.502912984299326
 20
4.203589994925033
 10
2.502912984299326
 20
4.280017396966387
 10
2.599513674886288
 20
4.489472019177873
 10
2.599513674886288
 20
4.802501770374962
 10
2.629437137324228
 20
4.81962322424863
 97
        0
 75
     2
 76
     1
 98
        1
 10
0.0
 20
0.0
450
        0
451
        0
460
0.0
461
0.0
452
        0
462
0.0
453
        0
470

  0
LWPOLYLINE
  5
9F
330
70
100
AcDbEntity
  8
Layer 1
 62
   250
420
  2301728
370
    30
100
AcDbPolyline
 90
       16
 70
     0
 43
0.0
 10
2.633381396960809
 20
4.818331719721286
 10
2.696655605662145
 20
4.802501770374962
 10
2.762558305094924
 20
4.786154738210458
 10
2.762558305094924
 20
4.427664827900545
 10
2.922033861339741
 20
4.535739946979004
 10
2.922033861339741
 20
4.885008947870245
 10
3.090715896785038
 20
4.672807945819031
 10
3.090715896785038
 20
4.581868544435994
 10
2.867990400544966
 20
4.079675306354817
 10
2.790201793060027
 20
4.025655784588315
 10
2.730898406402325
 20
4.049754248953237
 10
2.502912984299326
 20
4.203589994925033
 10
2.502912984299326
 20
4.280017396966387
 10
2.599513674886288
 20
4.489472019177873
 10
2.599513674886288
 20
4.802501770374962
 10
2.629437137324228
 20
4.81962322424863
  0
LWPOLYLINE
  5
A0
330
70
100
AcDbEntity
  8
Layer 1
 62
   250
420
  2301728
370
    20
100
AcDbPolyline
 90
        4
 70
     0
 43
0.0
 10
2.759905549985685
 20
4.782208073537528
 10
2.524005153209549
 20
4.270810761292232
 10
2.524005153209549
 20
4.204905549816013
 10
2.788888752542485
 20
4.029602449261258
  0
INSERT
  5
A2
330
70
100
AcDbEntity
  8
Layer 1
100
AcDbBlockReference
  2
Block_0
 10
0.0
 20
0.0
 30
0.0
  0
SPLINE
  5
AD
330
70
100
AcDbEntity
  8
Layer 1
 62
   250
420
  2301728
370
    20
100
AcDbSpline
210
0.0
220
0.0
230
1.0
 70
     9
 71
     3
 72
    17
 73
    13
 74
     0
 42
0.0000000001
 43
0.0000000001
 40
0.0
 40
0.0
 40
0.0
 40
0.0
 40
1.0
 40
1.0
 40
1.0
 40
2.0
 40
2.0
 40
2.0
 40
3.0
 40
3.0
 40
3.0
 40
4.0
 40
4.0
 40
4.0
 40
4.0
 10
2.85086883533596
 20
4.124509994248114
 30
0.0
 10
2.85086883533596
 20
4.104148956392501
 30
0.0
 10
2.838163028226189
 20
4.087614483004762
 30
0.0
 10
2.822544722079909
 20
4.087614483004762
 30
0.0
 10
2.806878424997926
 20
4.087614483004762
 30
0.0
 10
2.794172508096607
 20
4.104148956392501
 30
0.0
 10
2.794172508096607
 20
4.124509994248114
 30
0.0
 10
2.794172508096607
 20
4.144897487503751
 30
0.0
 10
2.806878424997926
 20
4.161408062140973
 30
0.0
 10
2.822544722079909
 20
4.161408062140973
 30
0.0
 10
2.838163028226189
 20
4.161408062140973
 30
0.0
 10
2.85086883533596
 20
4.144897487503751
 30
0.0
 10
2.85086883533596
 20
4.124509994248114
 30
0.0
  0
HATCH
  5
AE
330
70
100
AcDbEntity
  8
Layer 1
 62
   254
420
 13751252
440
 33554687
100
AcDbHatch
 10
0.0
 20
0.0
 30
0.0
210
0.0
220
0.0
230
1.0
  2
SOLID
 70
     1
 71
     1
 91
        1
 92
        1
 93
        1
 72
     4
 94
        3
 73
     0
 74
     0
 95
       17
 96
       13
 40
0.0
 40
0.0
 40
0.0
 40
0.0
 40
1.0
 40
1.0
 40
1.0
 40
2.0
 40
2.0
 40
2.0
 40
3.0
 40
3.0
 40
3.0
 40
4.0
 40
4.0
 40
4.0
 40
4.0
 10
2.85086883533596
 20
4.124509994248114
 10
2.85086883533596
 20
4.104148956392501
 10
2.838163028226189
 20
4.087614483004762
 10
2.822544722079909
 20
4.087614483004762
 10
2.806878424997926
 20
4.087614483004762
 10
2.794172508096607
 20
4.104148956392501
 10
2.794172508096607
 20
4.124509994248114
 10
2.794172508096607
 20
4.144897487503751
 10
2.806878424997926
 20
4.161408062140973
 10
2.822544722079909
 20
4.161408062140973
 10
2.838163028226189
 20
4.161408062140973
 10
2.85086883533596
 20
4.144897487503751
 10
2.85086883533596
 20
4.124509994248114
 97
        0
 97
        1
330
AD
 75
     2
 76
     1
 98
        1
 10
0.0
 20
0.0
450
        0
451
        0
460
0.0
461
0.0
452
        0
462
0.0
453
        0
470

  0
SPLINE
  5
AF
330
70
100
AcDbEntity
  8
Layer 1
100
AcDbSpline
210
0.0
220
0.0
230
1.0
 70
     9
 71
     3
 72
    41
 73
    37
 74
     0
 42
0.0000000001
 43
0.0000000001
 40
0.0
 40
0.0
 40
0.0
 40
0.0
 40
1.0
 40
1.0
 40
1.0
 40
2.0
 40
2.0
 40
2.0
 40
3.0
 40
3.0
 40
3.0
 40
4.0
 40
4.0
 40
4.0
 40
5.0
 40
5.0
 40
5.0
 40
6.0
 40
6.0
 40
6.0
 40
7.0
 40
7.0
 40
7.0
 40
8.0
 40
8.0
 40
8.0
 40
9.0
 40
9.0
 40
9.0
 40
10.0
 40
10.0
 40
10.0
 40
11.0
 40
11.0
 40
11.0
 40
12.0
 40
12.0
 40
12.0
 40
12.0
 10
2.850705292863242
 20
4.126554275157319
 30
0.0
 10
2.848920755881307
 20
4.125193024575436
 30
0.0
 10
2.847157864226674
 20
4.12369002937257
 30
0.0
 10
2.845373327244765
 20
4.122444068011633
 30
0.0
 10
2.84022895446267
 20
4.128245015721037
 30
0.0
 10
2.834993300800558
 20
4.133225846030389
 30
0.0
 10
2.83036590033488
 20
4.136184040757825
 30
0.0
 10
2.827571248080175
 20
4.137968577739747
 30
0.0
 10
2.82386027697089
 20
4.137124409976055
 30
0.0
 10
2.822051689625343
 20
4.13432975772135
 30
0.0
 10
2.820264747607072
 20
4.131532700430309
 30
0.0
 10
2.821087270043486
 20
4.127821729321023
 30
0.0
 10
2.823906082883493
 20
4.126037192339114
 30
0.0
 10
2.827359604880181
 20
4.123829368957166
 30
0.0
 10
2.831282219189461
 20
4.120212194266072
 30
0.0
 10
2.835202428462404
 20
4.115914394284029
 30
0.0
 10
2.828297569062037
 20
4.111922033920172
 30
0.0
 10
2.821933953015432
 20
4.108870042774557
 30
0.0
 10
2.817917542186453
 20
4.107975369247242
 30
0.0
 10
2.814675443097687
 20
4.107249048265392
 30
0.0
 10
2.812633567224843
 20
4.10405515997431
 30
0.0
 10
2.813338242879429
 20
4.100813170955953
 30
0.0
 10
2.814064563861292
 20
4.097571333802294
 30
0.0
 10
2.817282502516011
 20
4.095505255701115
 30
0.0
 10
2.820548541898006
 20
4.096233981719352
 30
0.0
 10
2.826373539971023
 20
4.097525486246683
 30
0.0
 10
2.834476107480541
 20
4.101424050192349
 30
0.0
 10
2.842953971365735
 20
4.10649627188353
 30
0.0
 10
2.843822078790127
 20
4.105322614138016
 30
0.0
 10
2.844598905535626
 20
4.104148956392501
 30
0.0
 10
2.84541902293568
 20
4.1029728936106
 30
0.0
 10
2.848824554426755
 20
4.109033585247301
 30
0.0
 10
2.85086883533596
 20
4.116455527465872
 30
0.0
 10
2.85086883533596
 20
4.124509994248114
 30
0.0
 10
2.85086883533596
 20
4.125214669902687
 30
0.0
 10
2.850729343226854
 20
4.125873649866371
 30
0.0
 10
2.850705292863242
 20
4.126554275157319
 30
0.0
  0
HATCH
  5
B0
330
70
100
AcDbEntity
  8
Layer 1
 62
   250
420
  2301728
440
 33554687
100
AcDbHatch
 10
0.0
 20
0.0
 30
0.0
210
0.0
220
0.0
230
1.0
  2
SOLID
 70
     1
 71
     1
 91
        1
 92
        1
 93
        2
 72
     4
 94
        3
 73
     0
 74
     0
 95
       41
 96
       37
 40
0.0
 40
0.0
 40
0.0
 40
0.0
 40
1.0
 40
1.0
 40
1.0
 40
2.0
 40
2.0
 40
2.0
 40
3.0
 40
3.0
 40
3.0
 40
4.0
 40
4.0
 40
4.0
 40
5.0
 40
5.0
 40
5.0
 40
6.0
 40
6.0
 40
6.0
 40
7.0
 40
7.0
 40
7.0
 40
8.0
 40
8.0
 40
8.0
 40
9.0
 40
9.0
 40
9.0
 40
10.0
 40
10.0
 40
10.0
 40
11.0
 40
11.0
 40
11.0
 40
12.0
 40
12.0
 40
12.0
 40
12.0
 10
2.850705292863242
 20
4.126554275157319
 10
2.848920755881307
 20
4.125193024575436
 10
2.847157864226674
 20
4.12369002937257
 10
2.845373327244765
 20
4.122444068011633
 10
2.84022895446267
 20
4.128245015721037
 10
2.834993300800558
 20
4.133225846030389
 10
2.83036590033488
 20
4.136184040757825
 10
2.827571248080175
 20
4.137968577739747
 10
2.82386027697089
 20
4.137124409976055
 10
2.822051689625343
 20
4.13432975772135
 10
2.820264747607072
 20
4.131532700430309
 10
2.821087270043486
 20
4.127821729321023
 10
2.823906082883493
 20
4.126037192339114
 10
2.827359604880181
 20
4.123829368957166
 10
2.831282219189461
 20
4.120212194266072
 10
2.835202428462404
 20
4.115914394284029
 10
2.828297569062037
 20
4.111922033920172
 10
2.821933953015432
 20
4.108870042774557
 10
2.817917542186453
 20
4.107975369247242
 10
2.814675443097687
 20
4.107249048265392
 10
2.812633567224843
 20
4.10405515997431
 10
2.813338242879429
 20
4.100813170955953
 10
2.814064563861292
 20
4.097571333802294
 10
2.817282502516011
 20
4.095505255701115
 10
2.820548541898006
 20
4.096233981719352
 10
2.826373539971023
 20
4.097525486246683
 10
2.834476107480541
 20
4.101424050192349
 10
2.842953971365735
 20
4.10649627188353
 10
2.843822078790127
 20
4.105322614138016
 10
2.844598905535626
 20
4.104148956392501
 10
2.84541902293568
 20
4.1029728936106
 10
2.848824554426755
 20
4.109033585247301
 10
2.85086883533596
 20
4.116455527465872
 10
2.85086883533596
 20
4.124509994248114
 10
2.85086883533596
 20
4.125214669902687
 10
2.850729343226854
 20
4.125873649866371
 10
2.850705292863242
 20
4.126554275157319
 97
        0
 72
     1
 10
2.850705292863242
 20
4.126554275157318
 11
2.850705292863242
 21
4.126554275157319
 97
        0
 75
     2
 76
     1
 98
        1
 10
0.0
 20
0.0
450
        0
451
        0
460
0.0
461
0.0
452
        0
462
0.0
453
        0
470

  0
SPLINE
  5
B1
330
70
100
AcDbEntity
  8
Layer 1
 62
   250
420
  2301728
370
    20
100
AcDbSpline
210
0.0
220
0.0
230
1.0
 70
     9
 71
     3
 72
    17
 73
    13
 74
     0
 42
0.0000000001
 43
0.0000000001
 40
0.0
 40
0.0
 40
0.0
 40
0.0
 40
1.0
 40
1.0
 40
1.0
 40
2.0
 40
2.0
 40
2.0
 40
3.0
 40
3.0
 40
3.0
 40
4.0
 40
4.0
 40
4.0
 40
4.0
 10
2.85086883533596
 20
4.407101766990371
 30
0.0
 10
2.85086883533596
 20
4.386740729134745
 30
0.0
 10
2.838163028226189
 20
4.370206262885909
 30
0.0
 10
2.822544722079909
 20
4.370206262885909
 30
0.0
 10
2.806878424997926
 20
4.370206262885909
 30
0.0
 10
2.794172508096607
 20
4.386740729134745
 30
0.0
 10
2.794172508096607
 20
4.407101766990371
 30
0.0
 10
2.794172508096607
 20
4.427489260245995
 30
0.0
 10
2.806878424997926
 20
4.44399983488323
 30
0.0
 10
2.822544722079909
 20
4.44399983488323
 30
0.0
 10
2.838163028226189
 20
4.44399983488323
 30
0.0
 10
2.85086883533596
 20
4.427489260245995
 30
0.0
 10
2.85086883533596
 20
4.407101766990371
 30
0.0
  0
HATCH
  5
B2
330
70
100
AcDbEntity
  8
Layer 1
 62
   254
420
 13751252
440
 33554687
100
AcDbHatch
 10
0.0
 20
0.0
 30
0.0
210
0.0
220
0.0
230
1.0
  2
SOLID
 70
     1
 71
     1
 91
        1
 92
        1
 93
        1
 72
     4
 94
        3
 73
     0
 74
     0
 95
       17
 96
       13
 40
0.0
 40
0.0
 40
0.0
 40
0.0
 40
1.0
 40
1.0
 40
1.0
 40
2.0
 40
2.0
 40
2.0
 40
3.0
 40
3.0
 40
3.0
 40
4.0
 40
4.0
 40
4.0
 40
4.0
 10
2.85086883533596
 20
4.407101766990371
 10
2.85086883533596
 20
4.386740729134745
 10
2.838163028226189
 20
4.370206262885909
 10
2.822544722079909
 20
4.370206262885909
 10
2.806878424997926
 20
4.370206262885909
 10
2.794172508096607
 20
4.386740729134745
 10
2.794172508096607
 20
4.407101766990371
 10
2.794172508096607
 20
4.427489260245995
 10
2.806878424997926
 20
4.44399983488323
 10
2.822544722079909
 20
4.44399983488323
 10
2.838163028226189
 20
4.44399983488323
 10
2.85086883533596
 20
4.427489260245995
 10
2.85086883533596
 20
4.407101766990371
 97
        0
 97
        1
330
B1
 75
     2
 76
     1
 98
        1
 10
0.0
 20
0.0
450
        0
451
        0
460
0.0
461
0.0
452
        0
462
0.0
453
        0
470

  0
SPLINE
  5
B3
330
70
100
AcDbEntity
  8
Layer 1
100
AcDbSpline
210
0.0
220
0.0
230
1.0
 70
     9
 71
     3
 72
    41
 73
    37
 74
     0
 42
0.0000000001
 43
0.0000000001
 40
0.0
 40
0.0
 40
0.0
 40
0.0
 40
1.0
 40
1.0
 40
1.0
 40
2.0
 40
2.0
 40
2.0
 40
3.0
 40
3.0
 40
3.0
 40
4.0
 40
4.0
 40
4.0
 40
5.0
 40
5.0
 40
5.0
 40
6.0
 40
6.0
 40
6.0
 40
7.0
 40
7.0
 40
7.0
 40
8.0
 40
8.0
 40
8.0
 40
9.0
 40
9.0
 40
9.0
 40
10.0
 40
10.0
 40
10.0
 40
11.0
 40
11.0
 40
11.0
 40
12.0
 40
12.0
 40
12.0
 40
12.0
 10
2.850705292863242
 20
4.409146047899563
 30
0.0
 10
2.848920755881307
 20
4.40778479731768
 30
0.0
 10
2.847157864226674
 20
4.406281809253704
 30
0.0
 10
2.845373327244765
 20
4.40503584075389
 30
0.0
 10
2.84022895446267
 20
4.410836788463294
 30
0.0
 10
2.834993300800558
 20
4.415817618772658
 30
0.0
 10
2.83036590033488
 20
4.418775813500082
 30
0.0
 10
2.827571248080175
 20
4.420560350481991
 30
0.0
 10
2.82386027697089
 20
4.419716182718326
 30
0.0
 10
2.822051689625343
 20
4.41692153046362
 30
0.0
 10
2.820264747607072
 20
4.414124473172553
 30
0.0
 10
2.821087270043486
 20
4.410413502063268
 30
0.0
 10
2.823906082883493
 20
4.408628965081359
 30
0.0
 10
2.827359604880181
 20
4.406421141699436
 30
0.0
 10
2.831282219189461
 20
4.402803967008316
 30
0.0
 10
2.835202428462404
 20
4.398506167026273
 30
0.0
 10
2.828297569062037
 20
4.394513806662429
 30
0.0
 10
2.821933953015432
 20
4.391461815516814
 30
0.0
 10
2.817917542186453
 20
4.390567141989486
 30
0.0
 10
2.814675443097687
 20
4.389840821007636
 30
0.0
 10
2.812633567224843
 20
4.386646932716555
 30
0.0
 10
2.813338242879429
 20
4.383404943698198
 30
0.0
 10
2.814064563861292
 20
4.380163113683427
 30
0.0
 10
2.817282502516011
 20
4.378097028443372
 30
0.0
 10
2.820548541898006
 20
4.378825754461596
 30
0.0
 10
2.826373539971023
 20
4.380117258988939
 30
0.0
 10
2.834476107480541
 20
4.384015822934594
 30
0.0
 10
2.842953971365735
 20
4.389088044625774
 30
0.0
 10
2.843822078790127
 20
4.38791438688026
 30
0.0
 10
2.844598905535626
 20
4.386740729134745
 30
0.0
 10
2.84541902293568
 20
4.385564666352857
 30
0.0
 10
2.848824554426755
 20
4.391625357989545
 30
0.0
 10
2.85086883533596
 20
4.399047300208128
 30
0.0
 10
2.85086883533596
 20
4.407101766990371
 30
0.0
 10
2.85086883533596
 20
4.407806442644957
 30
0.0
 10
2.850729343226854
 20
4.408465422608628
 30
0.0
 10
2.850705292863242
 20
4.409146047899563
 30
0.0
  0
HATCH
  5
B4
330
70
100
AcDbEntity
  8
Layer 1
 62
   250
420
  2301728
440
 33554687
100
AcDbHatch
 10
0.0
 20
0.0
 30
0.0
210
0.0
220
0.0
230
1.0
  2
SOLID
 70
     1
 71
     1
 91
        1
 92
        1
 93
        2
 72
     4
 94
        3
 73
     0
 74
     0
 95
       41
 96
       37
 40
0.0
 40
0.0
 40
0.0
 40
0.0
 40
1.0
 40
1.0
 40
1.0
 40
2.0
 40
2.0
 40
2.0
 40
3.0
 40
3.0
 40
3.0
 40
4.0
 40
4.0
 40
4.0
 40
5.0
 40
5.0
 40
5.0
 40
6.0
 40
6.0
 40
6.0
 40
7.0
 40
7.0
 40
7.0
 40
8.0
 40
8.0
 40
8.0
 40
9.0
 40
9.0
 40
9.0
 40
10.0
 40
10.0
 40
10.0
 40
11.0
 40
11.0
 40
11.0
 40
12.0
 40
12.0
 40
12.0
 40
12.0
 10
2.850705292863242
 20
4.409146047899563
 10
2.848920755881307
 20
4.40778479731768
 10
2.847157864226674
 20
4.406281809253704
 10
2.845373327244765
 20
4.40503584075389
 10
2.84022895446267
 20
4.410836788463294
 10
2.834993300800558
 20
4.415817618772658
 10
2.83036590033488
 20
4.418775813500082
 10
2.827571248080175
 20
4.420560350481991
 10
2.82386027697089
 20
4.419716182718326
 10
2.822051689625343
 20
4.41692153046362
 10
2.820264747607072
 20
4.414124473172553
 10
2.821087270043486
 20
4.410413502063268
 10
2.823906082883493
 20
4.408628965081359
 10
2.827359604880181
 20
4.406421141699436
 10
2.831282219189461
 20
4.402803967008316
 10
2.835202428462404
 20
4.398506167026273
 10
2.828297569062037
 20
4.394513806662429
 10
2.821933953015432
 20
4.391461815516814
 10
2.817917542186453
 20
4.390567141989486
 10
2.814675443097687
 20
4.389840821007636
 10
2.812633567224843
 20
4.386646932716555
 10
2.813338242879429
 20
4.383404943698198
 10
2.814064563861292
 20
4.380163113683427
 10
2.817282502516011
 20
4.378097028443372
 10
2.820548541898006
 20
4.378825754461596
 10
2.826373539971023
 20
4.380117258988939
 10
2.834476107480541
 20
4.384015822934594
 10
2.842953971365735
 20
4.389088044625774
 10
2.843822078790127
 20
4.38791438688026
 10
2.844598905535626
 20
4.386740729134745
 10
2.84541902293568
 20
4.385564666352857
 10
2.848824554426755
 20
4.391625357989545
 10
2.85086883533596
 20
4.399047300208128
 10
2.85086883533596
 20
4.407101766990371
 10
2.85086883533596
 20
4.407806442644957
 10
2.850729343226854
 20
4.408465422608628
 10
2.850705292863242
 20
4.409146047899563
 97
        0
 72
     1
 10
2.850705292863242
 20
4.409146047899562
 11
2.850705292863242
 21
4.409146047899563
 97
        0
 75
     2
 76
     1
 98
        1
 10
0.0
 20
0.0
450
        0
451
        0
460
0.0
461
0.0
452
        0
462
0.0
453
        0
470

  0
SPLINE
  5
B5
330
70
100
AcDbEntity
  8
Layer 1
 62
   250
420
  2301728
370
    15
100
AcDbSpline
210
0.0
220
0.0
230
1.0
 70
     8
 71
     3
 72
    14
 73
    10
 74
     0
 42
0.0000000001
 43
0.0000000001
 40
0.0
 40
0.0
 40
0.0
 40
0.0
 40
1.0
 40
1.0
 40
1.0
 40
2.0
 40
2.0
 40
2.0
 40
3.0
 40
3.0
 40
3.0
 40
3.0
 10
2.922856383776156
 20
4.663096242585752
 30
0.0
 10
2.922856383776156
 20
4.663096242585752
 30
0.0
 10
2.966281720360257
 20
4.609723840403881
 30
0.0
 10
2.966281720360257
 20
4.609723840403881
 30
0.0
 10
2.970651671433213
 20
4.604355634437183
 30
0.0
 10
2.978566646106375
 20
4.603569187546238
 30
0.0
 10
2.983920257052103
 20
4.607936733582833
 30
0.0
 10
2.989276387433518
 20
4.61229465947397
 30
0.0
 10
2.990120440797884
 20
4.620185748850531
 30
0.0
 10
2.98572884439765
 20
4.625505524220127
 30
0.0
  0
SPLINE
  5
B6
330
70
100
AcDbEntity
  8
Layer 1
 62
   250
420
  2301728
370
    15
100
AcDbSpline
210
0.0
220
0.0
230
1.0
 70
    24
 71
     3
 72
     8
 73
     4
 74
     0
 42
0.0000000001
 43
0.0000000001
 40
0.0
 40
0.0
 40
0.0
 40
0.0
 40
1.0
 40
1.0
 40
1.0
 40
1.0
 10
2.974244909780256
 20
4.639620682639057
 30
0.0
 10
2.974244909780256
 20
4.639620682639057
 30
0.0
 10
2.944088044795459
 20
4.676612546950106
 30
0.0
 10
2.944088044795459
 20
4.676612546950106
 30
0.0
  0
SPLINE
  5
B7
330
70
100
AcDbEntity
  8
Layer 1
 62
   250
420
  2301728
370
    15
100
AcDbSpline
210
0.0
220
0.0
230
1.0
 70
     8
 71
     3
 72
    14
 73
    10
 74
     0
 42
0.0000000001
 43
0.0000000001
 40
0.0
 40
0.0
 40
0.0
 40
0.0
 40
1.0
 40
1.0
 40
1.0
 40
2.0
 40
2.0
 40
2.0
 40
3.0
 40
3.0
 40
3.0
 40
3.0
 10
2.922433097376117
 20
4.783535822803956
 30
0.0
 10
2.922433097376117
 20
4.783535822803956
 30
0.0
 10
3.025258022072471
 20
4.65729546088087
 30
0.0
 10
3.025258022072471
 20
4.65729546088087
 30
0.0
 10
3.029603922781815
 20
4.651951304076078
 30
0.0
 10
3.037518897454952
 20
4.65116485718512
 30
0.0
 10
3.042848458037042
 20
4.655522783076258
 30
0.0
 10
3.048228524382794
 20
4.65989032911284
 30
0.0
 10
3.049048641782822
 20
4.66778141969179
 30
0.0
 10
3.044657045382614
 20
4.673149294586285
 30
0.0
  0
SPLINE
  5
B8
330
70
100
AcDbEntity
  8
Layer 1
 62
   250
420
  2301728
370
    15
100
AcDbSpline
210
0.0
220
0.0
230
1.0
 70
    24
 71
     3
 72
     8
 73
     4
 74
     0
 42
0.0000000001
 43
0.0000000001
 40
0.0
 40
0.0
 40
0.0
 40
0.0
 40
1.0
 40
1.0
 40
1.0
 40
1.0
 10
3.033572232782009
 20
4.68675939536883
 30
0.0
 10
3.033572232782009
 20
4.68675939536883
 30
0.0
 10
2.989370069452408
 20
4.741012205662614
 30
0.0
 10
2.989370069452408
 20
4.741012205662614
 30
0.0
  0
SPLINE
  5
B9
330
70
100
AcDbEntity
  8
Layer 1
 62
   250
420
  2301728
370
    15
100
AcDbSpline
210
0.0
220
0.0
230
1.0
 70
    24
 71
     3
 72
     8
 73
     4
 74
     0
 42
0.0000000001
 43
0.0000000001
 40
0.0
 40
0.0
 40
0.0
 40
0.0
 40
1.0
 40
1.0
 40
1.0
 40
1.0
 10
2.962501003196419
 20
4.773987828198616
 30
0.0
 10
2.962501003196419
 20
4.773987828198616
 30
0.0
 10
2.947892812322935
 20
4.791955685919863
 30
0.0
 10
2.947892812322935
 20
4.791955685919863
 30
0.0
  0
SPLINE
  5
BA
330
70
100
AcDbEntity
  8
Layer 1
 62
   250
420
  2301728
370
    15
100
AcDbSpline
210
0.0
220
0.0
230
1.0
 70
     8
 71
     3
 72
    20
 73
    16
 74
     0
 42
0.0000000001
 43
0.0000000001
 40
0.0
 40
0.0
 40
0.0
 40
0.0
 40
1.0
 40
1.0
 40
1.0
 40
2.0
 40
2.0
 40
2.0
 40
3.0
 40
3.0
 40
3.0
 40
4.0
 40
4.0
 40
4.0
 40
5.0
 40
5.0
 40
5.0
 40
5.0
 10
2.720376372310864
 20
4.53185340821517
 30
0.0
 10
2.721903570401865
 20
4.531100631833307
 30
0.0
 10
2.723264820983735
 20
4.530090516560524
 30
0.0
 10
2.724368732674722
 20
4.528940909178648
 30
0.0
 10
2.727704625902687
 20
4.52533575966936
 30
0.0
 10
2.728714741201024
 20
4.519967881040782
 30
0.0
 10
2.726576556056645
 20
4.51525865730519
 30
0.0
 10
2.726576556056645
 20
4.51525865730519
 30
0.0
 10
2.668776317126305
 20
4.388056284025702
 30
0.0
 10
2.668776317126305
 20
4.388056284025702
 30
0.0
 10
2.665911918817073
 20
4.381747873643588
 30
0.0
 10
2.658489976598502
 20
4.378989296934327
 30
0.0
 10
2.652217641761808
 20
4.381844075098115
 30
0.0
 10
2.645899611234199
 20
4.384684582161526
 30
0.0
 10
2.643129009343131
 20
4.392094340080486
 30
0.0
 10
2.645971762325113
 20
4.398388320244458
 30
0.0
  0
SPLINE
  5
BB
330
70
100
AcDbEntity
  8
Layer 1
 62
   250
420
  2301728
370
    15
100
AcDbSpline
210
0.0
220
0.0
230
1.0
 70
    24
 71
     3
 72
     8
 73
     4
 74
     0
 42
0.0000000001
 43
0.0000000001
 40
0.0
 40
0.0
 40
0.0
 40
0.0
 40
1.0
 40
1.0
 40
1.0
 40
1.0
 10
2.653533302570521
 20
4.414934970427148
 30
0.0
 10
2.653533302570521
 20
4.414934970427148
 30
0.0
 10
2.673285760308367
 20
4.458420432920357
 30
0.0
 10
2.673285760308367
 20
4.458420432920357
 30
0.0
  0
SPLINE
  5
BC
330
70
100
AcDbEntity
  8
Layer 1
 62
   250
420
  2301728
370
    15
100
AcDbSpline
210
0.0
220
0.0
230
1.0
 70
    24
 71
     3
 72
     8
 73
     4
 74
     0
 42
0.0000000001
 43
0.0000000001
 40
0.0
 40
0.0
 40
0.0
 40
0.0
 40
1.0
 40
1.0
 40
1.0
 40
1.0
 10
2.684887655727177
 20
4.483961919103547
 30
0.0
 10
2.684887655727177
 20
4.483961919103547
 30
0.0
 10
2.703772001255452
 20
4.525593098560281
 30
0.0
 10
2.703772001255452
 20
4.525593098560281
 30
0.0
  0
SPLINE
  5
BD
330
70
100
AcDbEntity
  8
Layer 1
 62
   250
420
  2301728
370
    15
100
AcDbSpline
210
0.0
220
0.0
230
1.0
 70
     8
 71
     3
 72
    20
 73
    16
 74
     0
 42
0.0000000001
 43
0.0000000001
 40
0.0
 40
0.0
 40
0.0
 40
0.0
 40
1.0
 40
1.0
 40
1.0
 40
2.0
 40
2.0
 40
2.0
 40
3.0
 40
3.0
 40
3.0
 40
4.0
 40
4.0
 40
4.0
 40
5.0
 40
5.0
 40
5.0
 40
5.0
 10
2.713942900037788
 20
4.622593025183605
 30
0.0
 10
2.713942900037788
 20
4.622593025183605
 30
0.0
 10
2.713942900037788
 20
4.622593025183605
 30
0.0
 10
2.713942900037788
 20
4.622593025183605
 30
0.0
 10
2.720236880201759
 20
4.619728791929863
 30
0.0
 10
2.723007482092826
 20
4.61229465947397
 30
0.0
 10
2.720143083783568
 20
4.606022324637276
 30
0.0
 10
2.720143083783568
 20
4.606022324637276
 30
0.0
 10
2.605668162941153
 20
4.353998564078462
 30
0.0
 10
2.605668162941153
 20
4.353998564078462
 30
0.0
 10
2.602803764631895
 20
4.347752684641768
 30
0.0
 10
2.595381822413325
 20
4.34493398202345
 30
0.0
 10
2.58910948757663
 20
4.347798380332682
 30
0.0
 10
2.582791457049021
 20
4.350665183678289
 30
0.0
 10
2.580020855157979
 20
4.35808712589686
 30
0.0
 10
2.582863608139935
 20
4.364381106060831
 30
0.0
  0
SPLINE
  5
BE
330
70
100
AcDbEntity
  8
Layer 1
 62
   250
420
  2301728
370
    15
100
AcDbSpline
210
0.0
220
0.0
230
1.0
 70
    24
 71
     3
 72
     8
 73
     4
 74
     0
 42
0.0000000001
 43
0.0000000001
 40
0.0
 40
0.0
 40
0.0
 40
0.0
 40
1.0
 40
1.0
 40
1.0
 40
1.0
 10
2.590143653213064
 20
4.38037459787986
 30
0.0
 10
2.590143653213064
 20
4.38037459787986
 30
0.0
 10
2.619102696069123
 20
4.444093631301421
 30
0.0
 10
2.619102696069123
 20
4.444093631301421
 30
0.0
  0
SPLINE
  5
BF
330
70
100
AcDbEntity
  8
Layer 1
 62
   250
420
  2301728
370
    15
100
AcDbSpline
210
0.0
220
0.0
230
1.0
 70
    24
 71
     3
 72
     8
 73
     4
 74
     0
 42
0.0000000001
 43
0.0000000001
 40
0.0
 40
0.0
 40
0.0
 40
0.0
 40
1.0
 40
1.0
 40
1.0
 40
1.0
 10
2.636693132033693
 20
4.482836362085296
 30
0.0
 10
2.636693132033693
 20
4.482836362085296
 30
0.0
 10
2.668047591108082
 20
4.551839260398044
 30
0.0
 10
2.668047591108082
 20
4.551839260398044
 30
0.0
  0
SPLINE
  5
C0
330
70
100
AcDbEntity
  8
Layer 1
 62
   250
420
  2301728
370
    15
100
AcDbSpline
210
0.0
220
0.0
230
1.0
 70
     8
 71
     3
 72
    11
 73
     7
 74
     0
 42
0.0000000001
 43
0.0000000001
 40
0.0
 40
0.0
 40
0.0
 40
0.0
 40
1.0
 40
1.0
 40
1.0
 40
2.0
 40
2.0
 40
2.0
 40
2.0
 10
2.682304646672491
 20
4.583169669108794
 30
0.0
 10
2.682304646672491
 20
4.583169669108794
 30
0.0
 10
2.69738422467329
 20
4.616380816256019
 30
0.0
 10
2.69738422467329
 20
4.616380816256019
 30
0.0
 10
2.698064849964238
 20
4.617944089892463
 30
0.0
 10
2.699074965237008
 20
4.619293315292527
 30
0.0
 10
2.700296723709799
 20
4.620397226983489
 30
0.0
  0
SPLINE
  5
C1
330
70
100
AcDbEntity
  8
Layer 1
 62
   250
420
  2301728
370
    15
100
AcDbSpline
210
0.0
220
0.0
230
1.0
 70
    24
 71
     3
 72
     8
 73
     4
 74
     0
 42
0.0000000001
 43
0.0000000001
 40
0.0
 40
0.0
 40
0.0
 40
0.0
 40
1.0
 40
1.0
 40
1.0
 40
1.0
 10
2.896997432792962
 20
4.946955469491727
 30
0.0
 10
2.896997432792962
 20
4.946955469491727
 30
0.0
 10
2.896997432792962
 20
4.529128502015017
 30
0.0
 10
2.896997432792962
 20
4.529128502015017
 30
0.0
  0
SPLINE
  5
C2
330
70
100
AcDbEntity
  8
Layer 1
 62
   250
420
  2301728
370
    15
100
AcDbSpline
210
0.0
220
0.0
230
1.0
 70
    24
 71
     3
 72
     8
 73
     4
 74
     0
 42
0.0000000001
 43
0.0000000001
 40
0.0
 40
0.0
 40
0.0
 40
0.0
 40
1.0
 40
1.0
 40
1.0
 40
1.0
 10
2.862730474682039
 20
4.985169092275555
 30
0.0
 10
2.862730474682039
 20
4.985169092275555
 30
0.0
 10
2.862730474682039
 20
4.506744828577463
 30
0.0
 10
2.862730474682039
 20
4.506744828577463
 30
0.0
  0
SPLINE
  5
C3
330
70
100
AcDbEntity
  8
Layer 1
 62
   250
420
  2301728
370
    15
100
AcDbSpline
210
0.0
220
0.0
230
1.0
 70
     8
 71
     3
 72
    14
 73
    10
 74
     0
 42
0.0000000001
 43
0.0000000001
 40
0.0
 40
0.0
 40
0.0
 40
0.0
 40
1.0
 40
1.0
 40
1.0
 40
2.0
 40
2.0
 40
2.0
 40
3.0
 40
3.0
 40
3.0
 40
3.0
 10
2.679134808745048
 20
4.664563314767645
 30
0.0
 10
2.674601421649311
 20
4.677598611859252
 30
0.0
 10
2.664103331471526
 20
4.686465980932451
 30
0.0
 10
2.65245333532544
 20
4.685773330459684
 30
0.0
 10
2.637633501251937
 20
4.684857178305883
 30
0.0
 10
2.623330749996638
 20
4.668697572276957
 30
0.0
 10
2.624504512926553
 20
4.649697785003227
 30
0.0
 10
2.625656420160389
 20
4.630695758025681
 30
0.0
 10
2.641907250870341
 20
4.61605132627417
 30
0.0
 10
2.656705439616593
 20
4.616955619946944
 30
0.0
  0
HATCH
  5
C4
330
70
100
AcDbEntity
  8
Layer 1
 62
   254
420
 13751252
440
 33554687
100
AcDbHatch
 10
0.0
 20
0.0
 30
0.0
210
0.0
220
0.0
230
1.0
  2
SOLID
 70
     1
 71
     1
 91
        1
 92
        1
 93
        2
 72
     4
 94
        3
 73
     0
 74
     0
 95
       14
 96
       10
 40
0.0
 40
0.0
 40
0.0
 40
0.0
 40
1.0
 40
1.0
 40
1.0
 40
2.0
 40
2.0
 40
2.0
 40
3.0
 40
3.0
 40
3.0
 40
3.0
 10
2.679134808745048
 20
4.664563314767645
 10
2.674601421649311
 20
4.677598611859252
 10
2.664103331471526
 20
4.686465980932451
 10
2.65245333532544
 20
4.685773330459684
 10
2.637633501251937
 20
4.684857178305883
 10
2.623330749996638
 20
4.668697572276957
 10
2.624504512926553
 20
4.649697785003227
 10
2.625656420160389
 20
4.630695758025681
 10
2.641907250870341
 20
4.61605132627417
 10
2.656705439616593
 20
4.616955619946944
 97
        0
 72
     1
 10
2.656705439616593
 20
4.616955619946943
 11
2.679134808745048
 21
4.664563314767645
 97
        0
 75
     2
 76
     1
 98
        1
 10
0.0
 20
0.0
450
        0
451
        0
460
0.0
461
0.0
452
        0
462
0.0
453
        0
470

  0
SPLINE
  5
C5
330
70
100
AcDbEntity
  8
Layer 1
100
AcDbSpline
210
0.0
220
0.0
230
1.0
 70
     9
 71
     3
 72
    50
 73
    46
 74
     0
 42
0.0000000001
 43
0.0000000001
 40
0.0
 40
0.0
 40
0.0
 40
0.0
 40
1.0
 40
1.0
 40
1.0
 40
2.0
 40
2.0
 40
2.0
 40
3.0
 40
3.0
 40
3.0
 40
4.0
 40
4.0
 40
4.0
 40
5.0
 40
5.0
 40
5.0
 40
6.0
 40
6.0
 40
6.0
 40
7.0
 40
7.0
 40
7.0
 40
8.0
 40
8.0
 40
8.0
 40
9.0
 40
9.0
 40
9.0
 40
10.0
 40
10.0
 40
10.0
 40
11.0
 40
11.0
 40
11.0
 40
12.0
 40
12.0
 40
12.0
 40
13.0
 40
13.0
 40
13.0
 40
14.0
 40
14.0
 40
14.0
 40
15.0
 40
15.0
 40
15.0
 40
15.0
 10
2.650127665161688
 20
4.639233637332734
 30
0.0
 10
2.645218985943251
 20
4.640678898639103
 30
0.0
 10
2.640687897433912
 20
4.643872786930197
 30
0.0
 10
2.636459843506422
 20
4.647535657312206
 30
0.0
 10
2.640004867106603
 20
4.65352419785798
 30
0.0
 10
2.643997227470461
 20
4.65890426420372
 30
0.0
 10
2.648343128179779
 20
4.662249835915379
 30
0.0
 10
2.650199816252602
 20
4.663646995913053
 30
0.0
 10
2.650527007039853
 20
4.666290297108591
 30
0.0
 10
2.649117549888917
 20
4.668168464276933
 30
0.0
 10
2.647662502888831
 20
4.669989076804299
 30
0.0
 10
2.645031393106869
 20
4.670306707937533
 30
0.0
 10
2.643222805761322
 20
4.668909215476976
 30
0.0
 10
2.638362227270161
 20
4.665162168822234
 30
0.0
 10
2.63404037692448
 20
4.65956083913103
 30
0.0
 10
2.630235609397004
 20
4.653348630203418
 30
0.0
 10
2.628427022051457
 20
4.655368860748985
 30
0.0
 10
2.626923874324095
 20
4.657482887712729
 30
0.0
 10
2.62544477696037
 20
4.659584889494667
 30
0.0
 10
2.624716050942146
 20
4.656403026385405
 30
0.0
 10
2.624292764542133
 20
4.653136987003411
 30
0.0
 10
2.624504512926553
 20
4.649697785003227
 30
0.0
 10
2.624552613655042
 20
4.648663619366806
 30
0.0
 10
2.624809847360337
 20
4.647723415911311
 30
0.0
 10
2.62497338983308
 20
4.646713300612987
 30
0.0
 10
2.625302879814928
 20
4.646349974384873
 30
0.0
 10
2.62551462822484
 20
4.645986813893942
 30
0.0
 10
2.625844012996771
 20
4.645633273548469
 30
0.0
 10
2.625656420160389
 20
4.645246228394044
 30
0.0
 10
2.62551462822484
 20
4.644904547530245
 30
0.0
 10
2.625350980542179
 20
4.644529361857494
 30
0.0
 10
2.626171097942233
 20
4.640630797911866
 30
0.0
 10
2.627604499615042
 20
4.63704969876619
 30
0.0
 10
2.629506988689551
 20
4.633774204649082
 30
0.0
 10
2.630447252596998
 20
4.635839965475219
 30
0.0
 10
2.631363571451604
 20
4.637953992438951
 30
0.0
 10
2.632395332051651
 20
4.640031943857264
 30
0.0
 10
2.637234265215561
 20
4.636133379911598
 30
0.0
 10
2.642330537270355
 20
4.632740038986526
 30
0.0
 10
2.647756299307022
 20
4.631176765310593
 30
0.0
 10
2.649988173052583
 20
4.630507999856755
 30
0.0
 10
2.652335488543611
 20
4.631799504384098
 30
0.0
 10
2.652970418143644
 20
4.634043403311491
 30
0.0
 10
2.653626993070954
 20
4.636251392166323
 30
0.0
 10
2.652359538907249
 20
4.638610567366273
 30
0.0
 10
2.650127665161688
 20
4.639233637332734
 30
0.0
  0
HATCH
  5
C6
330
70
100
AcDbEntity
  8
Layer 1
 62
   250
420
  2301728
440
 33554687
100
AcDbHatch
 10
0.0
 20
0.0
 30
0.0
210
0.0
220
0.0
230
1.0
  2
SOLID
 70
     1
 71
     1
 91
        1
 92
        1
 93
        2
 72
     4
 94
        3
 73
     0
 74
     0
 95
       50
 96
       46
 40
0.0
 40
0.0
 40
0.0
 40
0.0
 40
1.0
 40
1.0
 40
1.0
 40
2.0
 40
2.0
 40
2.0
 40
3.0
 40
3.0
 40
3.0
 40
4.0
 40
4.0
 40
4.0
 40
5.0
 40
5.0
 40
5.0
 40
6.0
 40
6.0
 40
6.0
 40
7.0
 40
7.0
 40
7.0
 40
8.0
 40
8.0
 40
8.0
 40
9.0
 40
9.0
 40
9.0
 40
10.0
 40
10.0
 40
10.0
 40
11.0
 40
11.0
 40
11.0
 40
12.0
 40
12.0
 40
12.0
 40
13.0
 40
13.0
 40
13.0
 40
14.0
 40
14.0
 40
14.0
 40
15.0
 40
15.0
 40
15.0
 40
15.0
 10
2.650127665161688
 20
4.639233637332734
 10
2.645218985943251
 20
4.640678898639103
 10
2.640687897433912
 20
4.643872786930197
 10
2.636459843506422
 20
4.647535657312206
 10
2.640004867106603
 20
4.65352419785798
 10
2.643997227470461
 20
4.65890426420372
 10
2.648343128179779
 20
4.662249835915379
 10
2.650199816252602
 20
4.663646995913053
 10
2.650527007039853
 20
4.666290297108591
 10
2.649117549888917
 20
4.668168464276933
 10
2.647662502888831
 20
4.669989076804299
 10
2.645031393106869
 20
4.670306707937533
 10
2.643222805761322
 20
4.668909215476976
 10
2.638362227270161
 20
4.665162168822234
 10
2.63404037692448
 20
4.65956083913103
 10
2.630235609397004
 20
4.653348630203418
 10
2.628427022051457
 20
4.655368860748985
 10
2.626923874324095
 20
4.657482887712729
 10
2.62544477696037
 20
4.659584889494667
 10
2.624716050942146
 20
4.656403026385405
 10
2.624292764542133
 20
4.653136987003411
 10
2.624504512926553
 20
4.649697785003227
 10
2.624552613655042
 20
4.648663619366806
 10
2.624809847360337
 20
4.647723415911311
 10
2.62497338983308
 20
4.646713300612987
 10
2.625302879814928
 20
4.646349974384873
 10
2.62551462822484
 20
4.645986813893942
 10
2.625844012996771
 20
4.645633273548469
 10
2.625656420160389
 20
4.645246228394044
 10
2.62551462822484
 20
4.644904547530245
 10
2.625350980542179
 20
4.644529361857494
 10
2.626171097942233
 20
4.640630797911866
 10
2.627604499615042
 20
4.63704969876619
 10
2.629506988689551
 20
4.633774204649082
 10
2.630447252596998
 20
4.635839965475219
 10
2.631363571451604
 20
4.637953992438951
 10
2.632395332051651
 20
4.640031943857264
 10
2.637234265215561
 20
4.636133379911598
 10
2.642330537270355
 20
4.632740038986526
 10
2.647756299307022
 20
4.631176765310593
 10
2.649988173052583
 20
4.630507999856755
 10
2.652335488543611
 20
4.631799504384098
 10
2.652970418143644
 20
4.634043403311491
 10
2.653626993070954
 20
4.636251392166323
 10
2.652359538907249
 20
4.638610567366273
 10
2.650127665161688
 20
4.639233637332734
 97
        0
 72
     1
 10
2.650127665161688
 20
4.639233637332734
 11
2.650127665161688
 21
4.639233637332734
 97
        0
 75
     2
 76
     1
 98
        1
 10
0.0
 20
0.0
450
        0
451
        0
460
0.0
461
0.0
452
        0
462
0.0
453
        0
470

  0
LWPOLYLINE
  5
C7
330
70
100
AcDbEntity
  8
Layer 1
 62
   250
420
  2301728
370
    30
100
AcDbPolyline
 90
        3
 70
     0
 43
0.0
 10
2.598082678249839
 20
4.486323664812744
 10
2.730734971797599
 20
4.772015698330505
 10
2.599513674886288
 20
4.802501770374962
  0
LINE
  5
C8
330
70
100
AcDbEntity
  8
Layer 1
 62
   250
420
  2301728
370
    15
100
AcDbLine
 10
2.524005153209549
 20
4.270810761292232
 30
0.0
 11
2.502912984299326
 21
4.280017396966387
 31
0.0
  0
LINE
  5
C9
330
70
100
AcDbEntity
  8
Layer 1
 62
   250
420
  2301728
370
    15
100
AcDbLine
 10
2.52529676041508
 20
4.204811907971626
 30
0.0
 11
2.507258987231175
 21
4.209814383734649
 31
0.0
  0
LINE
  5
CA
330
70
100
AcDbEntity
  8
Layer 1
 62
   250
420
  2301728
370
    20
100
AcDbLine
 10
3.607820360321536
 20
4.30979880578521
 30
0.0
 11
1.199520431398329
 21
6.733623313622792
 31
0.0
  0
MTEXT
  5
CC
330
70
100
AcDbEntity
  8
Layer 2
100
AcDbMText
 10
1.669225162929958
 20
1.87027014626397
 30
0.0
 40
0.2
 41
0.0
 46
0.0
 71
     7
 72
     1
  1
\C250;\c2105123;\FHelvetica Neue LT Std 55 Roman|b0|i0|c1;\H0.118000;\W1.000000;SIMPSON Strong-Tie\H0.068794;®\H0.118000; ^C
 73
     1
 44
1.0
  0
MTEXT
  5
CD
330
70
100
AcDbEntity
  8
Layer 2
100
AcDbMText
 10
1.416512489318847
 20
1.670264720916748
 30
0.0
 40
0.2
 41
0.0
 46
0.0
 71
     7
 72
     1
  1
\C250;\c2105123;\FHelvetica Neue LT Std 55 Roman|b0|i0|c1;\H0.118000;\W1.000000;S/H1A Steel Frame Tie Down
 73
     1
 44
1.0
  0
LINE
  5
CE
330
70
100
AcDbEntity
  8
Layer 2
 62
   250
420
  2301728
370
    30
100
AcDbLine
 10
2.957336621899634
 20
4.300733498590463
 30
0.0
 11
3.63377310772292
 21
3.404994089834518
 31
0.0
  0
MTEXT
  5
CF
330
70
100
AcDbEntity
  8
Layer 2
100
AcDbMText
 10
3.701531516181097
 20
3.296476152208116
 30
0.0
 40
0.2
 41
0.0
 46
0.0
 71
     7
 72
     1
  1
\C250;\c2105123;\FHelvetica Neue LT Std 57 Condensed|b0|i0|c1;\H0.118000;\W1.000000;S/H1A
 73
     1
 44
1.0
  0
MTEXT
  5
D0
330
70
100
AcDbEntity
  8
Layer 2
100
AcDbMText
 10
2.859701368543836
 20
6.259164598253037
 30
0.0
 40
0.2
 41
0.0
 46
0.0
 71
     7
 72
     1
  1
\C250;\c2105123;\FHelvetica Neue LT Std 57 Condensed|b0|i0|c1;\H0.118000;\W1.000000;Truss/Rafter
 73
     1
 44
1.0
  0
MTEXT
  5
D1
330
70
100
AcDbEntity
  8
Layer 2
100
AcDbMText
 10
3.243406931559244
 20
5.804761992560492
 30
0.0
 40
0.2
 41
0.0
 46
0.0
 71
     7
 72
     1
  1
\C250;\c2105123;\FHelvetica Neue LT Std 57 Condensed|b0|i0|c1;\H0.118000;\W1.000000;Top Plate
 73
     1
 44
1.0
  0
MTEXT
  5
D2
330
70
100
AcDbEntity
  8
Layer 2
100
AcDbMText
 10
1.270653194851345
 20
3.00992276933458
 30
0.0
 40
0.2
 41
0.0
 46
0.0
 71
     7
 72
     1
  1
\C250;\c2105123;\FHelvetica Neue LT Std 57 Condensed|b0|i0|c1;\H0.118000;\W1.000000;Stud
 73
     1
 44
1.0
  0
LINE
  5
D3
330
70
100
AcDbEntity
  8
Layer 2
 62
   250
420
  2301728
370
    18
100
AcDbLine
 10
3.120174612650164
 20
6.153692686119319
 30
0.0
 11
2.827792796696232
 21
5.804764396923776
 31
0.0
  0
LINE
  5
D4
330
70
100
AcDbEntity
  8
Layer 2
 62
   250
420
  2301728
370
    18
100
AcDbLine
 10
3.446498089352694
 20
5.741697614434731
 30
0.0
 11
3.43003926022877
 21
5.401838256547585
 31
0.0
  0
LINE
  5
D5
330
70
100
AcDbEntity
  8
Layer 2
 62
   250
420
  2301728
370
    18
100
AcDbLine
 10
1.634791441733012
 20
3.104579339989489
 30
0.0
 11
2.115922677491476
 21
3.346786961052127
 31
0.0
  0
ENDSEC
  0
SECTION
  2
OBJECTS
  0
DICTIONARY
  5
C
330
0
100
AcDbDictionary
281
     1
  3
ACAD_COLOR
350
63
  3
ACAD_DETAILVIEWSTYLE
350
6A
  3
ACAD_GROUP
350
D
  3
ACAD_LAYOUT
350
62
  3
ACAD_MATERIAL
350
10
  3
ACAD_MLEADERSTYLE
350
66
  3
ACAD_MLINESTYLE
350
5F
  3
ACAD_PLOTSETTINGS
350
61
  3
ACAD_PLOTSTYLENAME
350
E
  3
ACAD_SCALELIST
350
42
  3
ACAD_SECTIONVIEWSTYLE
350
68
  3
ACAD_TABLESTYLE
350
64
  3
ACAD_VISUALSTYLE
350
29
  3
ACDB_RECOMPOSE_DATA
350
DE
  3
AcDbVariableDictionary
350
D6
  0
DICTIONARY
  5
63
102
{ACAD_REACTORS
330
C
102
}
330
C
100
AcDbDictionary
281
     1
  0
DICTIONARY
  5
6A
102
{ACAD_REACTORS
330
C
102
}
330
C
100
AcDbDictionary
281
     1
  3
Imperial24
350
6B
  0
DICTIONARY
  5
D
102
{ACAD_REACTORS
330
C
102
}
330
C
100
AcDbDictionary
281
     1
  0
DICTIONARY
  5
62
102
{ACAD_REACTORS
330
C
102
}
330
C
100
AcDbDictionary
281
     1
  3
Layout1
350
6F
  3
Layout2
350
77
  3
Model
350
73
  0
DICTIONARY
  5
10
102
{ACAD_REACTORS
330
C
102
}
330
C
100
AcDbDictionary
281
     1
  3
ByBlock
350
19
  3
ByLayer
350
11
  3
Global
350
21
  0
DICTIONARY
  5
66
102
{ACAD_REACTORS
330
C
102
}
330
C
100
AcDbDictionary
281
     1
  3
Standard
350
67
  0
DICTIONARY
  5
5F
102
{ACAD_REACTORS
330
C
102
}
330
C
100
AcDbDictionary
281
     1
  3
Standard
350
60
  0
DICTIONARY
  5
61
102
{ACAD_REACTORS
330
C
102
}
330
C
100
AcDbDictionary
281
     1
  0
ACDBDICTIONARYWDFLT
  5
E
102
{ACAD_REACTORS
330
C
102
}
330
C
100
AcDbDictionary
281
     1
  3
Normal
350
F
100
AcDbDictionaryWithDefault
340
F
  0
DICTIONARY
  5
42
102
{ACAD_REACTORS
330
C
102
}
330
C
100
AcDbDictionary
281
     1
  3
A0
350
43
  3
A1
350
44
  3
A2
350
45
  3
A3
350
46
  3
A4
350
47
  3
A5
350
48
  3
A6
350
49
  3
A7
350
4A
  3
A8
350
4B
  3
A9
350
4C
  3
B0
350
4D
  3
B1
350
4E
  3
B2
350
4F
  3
B3
350
50
  3
B4
350
51
  3
B5
350
52
  3
B6
350
53
  0
DICTIONARY
  5
68
102
{ACAD_REACTORS
330
C
102
}
330
C
100
AcDbDictionary
281
     1
  3
Imperial24
350
69
  0
DICTIONARY
  5
64
102
{ACAD_REACTORS
330
C
102
}
330
C
100
AcDbDictionary
281
     1
  3
Standard
350
65
  0
DICTIONARY
  5
29
102
{ACAD_REACTORS
330
C
102
}
330
C
100
AcDbDictionary
281
     1
  3
2dWireframe
350
2F
  3
Basic
350
2E
  3
Brighten
350
35
  3
ColorChange
350
39
  3
Conceptual
350
32
  3
Dim
350
34
  3
EdgeColorOff
350
41
  3
Facepattern
350
38
  3
Flat
350
2A
  3
FlatWithEdges
350
2B
  3
Gouraud
350
2C
  3
GouraudWithEdges
350
2D
  3
Hidden
350
31
  3
JitterOff
350
3F
  3
Linepattern
350
37
  3
OverhangOff
350
40
  3
Realistic
350
33
  3
Shaded
350
3E
  3
Shaded with edges
350
3D
  3
Shades of Gray
350
3A
  3
Sketchy
350
3B
  3
Thicken
350
36
  3
Wireframe
350
30
  3
X-Ray
350
3C
  0
XRECORD
  5
DE
102
{ACAD_REACTORS
330
C
102
}
330
C
100
AcDbXrecord
280
     1
 90
        1
330
65
  0
DICTIONARY
  5
D6
102
{ACAD_REACTORS
330
C
102
}
330
C
100
AcDbDictionary
281
     1
  3
CANNOSCALE
350
DB
  3
CMLEADERSTYLE
350
D8
  3
CTABLESTYLE
350
D7
  3
CVIEWDETAILSTYLE
350
D9
  3
CVIEWSECTIONSTYLE
350
DA
  0
ACDBDETAILVIEWSTYLE
  5
6B
102
{ACAD_REACTORS
330
6A
102
}
330
6A
100
AcDbModelDocViewStyle
 70
     0
  3
Imperial24
290
     1
300
Imperial24
 90
        0
100
AcDbDetailViewStyle
 70
     0
 71
     0
 90
        3
 71
     1
340
55
 62
   256
 40
0.24
340
0
 62
   256
 40
0.24
300

 40
0.36
280
     3
 71
     2
340
5D
 90
       25
 62
   256
 71
     3
340
55
 62
   256
 40
0.24
 90
        1
 40
0.75
 90
        1
300
%<\AcVar ViewType \f "%tc1">% %<\AcVar ViewDetailId>%\PSCALE %<\AcVar ViewScale \f "%sn">%
 71
     4
340
5D
 90
       25
 62
   256
340
5D
 90
       25
 62
   256
280
     0
  0
LAYOUT
  5
6F
102
{ACAD_REACTORS
330
62
102
}
330
62
100
AcDbPlotSettings
  1

  2

  4

  6

 40
0.0
 41
0.0
 42
0.0
 43
0.0
 44
0.0
 45
0.0
 46
0.0
 47
0.0
 48
0.0
 49
0.0
140
0.0
141
0.0
142
1.0
143
1.0
 70
   688
 72
     0
 73
     0
 74
     5
  7

 75
    16
147
1.0
 76
     0
 77
     2
 78
   300
148
0.0
149
0.0
100
AcDbLayout
  1
Layout1
 70
     1
 71
     1
 10
0.0
 20
0.0
 11
12.0
 21
9.0
 12
0.0
 22
0.0
 32
0.0
 14
0.0
 24
0.0
 34
0.0
 15
0.0
 25
0.0
 35
0.0
146
0.0
 13
0.0
 23
0.0
 33
0.0
 16
1.0
 26
0.0
 36
0.0
 17
0.0
 27
1.0
 37
0.0
 76
     0
330
6C
  0
LAYOUT
  5
77
102
{ACAD_REACTORS
330
62
102
}
330
62
100
AcDbPlotSettings
  1

  2

  4

  6

 40
0.0
 41
0.0
 42
0.0
 43
0.0
 44
0.0
 45
0.0
 46
0.0
 47
0.0
 48
0.0
 49
0.0
140
0.0
141
0.0
142
1.0
143
1.0
 70
   688
 72
     0
 73
     0
 74
     5
  7

 75
    16
147
1.0
 76
     0
 77
     2
 78
   300
148
0.0
149
0.0
100
AcDbLayout
  1
Layout2
 70
     1
 71
     2
 10
0.0
 20
0.0
 11
12.0
 21
9.0
 12
0.0
 22
0.0
 32
0.0
 14
0.0
 24
0.0
 34
0.0
 15
0.0
 25
0.0
 35
0.0
146
0.0
 13
0.0
 23
0.0
 33
0.0
 16
1.0
 26
0.0
 36
0.0
 17
0.0
 27
1.0
 37
0.0
 76
     0
330
74
  0
LAYOUT
  5
73
102
{ACAD_REACTORS
330
62
102
}
330
62
100
AcDbPlotSettings
  1

  2

  4

  6

 40
0.0
 41
0.0
 42
0.0
 43
0.0
 44
0.0
 45
0.0
 46
0.0
 47
0.0
 48
0.0
 49
0.0
140
0.0
141
0.0
142
1.0
143
1.0
 70
  1712
 72
     0
 73
     0
 74
     0
  7

 75
     0
147
1.0
 76
     0
 77
     2
 78
   300
148
0.0
149
0.0
100
AcDbLayout
  1
Model
 70
     1
 71
     0
 10
0.0
 20
0.0
 11
12.0
 21
9.0
 12
0.0
 22
0.0
 32
0.0
 14
0.0
 24
0.0
 34
0.0
 15
0.0
 25
0.0
 35
0.0
146
0.0
 13
0.0
 23
0.0
 33
0.0
 16
1.0
 26
0.0
 36
0.0
 17
0.0
 27
1.0
 37
0.0
 76
     0
330
70
  0
MATERIAL
  5
19
102
{ACAD_XDICTIONARY
360
1A
102
}
102
{ACAD_REACTORS
330
10
102
}
330
10
100
AcDbMaterial
  1
ByBlock
 72
     0
 43
0.0208333333333333
 43
0.0
 43
0.0
 43
0.0
 43
0.0
 43
0.0208333333333333
 43
0.0
 43
0.0
 43
0.0
 43
0.0
 43
1.0
 43
0.0
 43
0.0
 43
0.0
 43
0.0
 43
1.0
 77
     0
 47
0.0208333333333333
 47
0.0
 47
0.0
 47
0.0
 47
0.0
 47
0.0208333333333333
 47
0.0
 47
0.0
 47
0.0
 47
0.0
 47
1.0
 47
0.0
 47
0.0
 47
0.0
 47
0.0
 47
1.0
171
     0
 49
0.0208333333333333
 49
0.0
 49
0.0
 49
0.0
 49
0.0
 49
0.0208333333333333
 49
0.0
 49
0.0
 49
0.0
 49
0.0
 49
1.0
 49
0.0
 49
0.0
 49
0.0
 49
0.0
 49
1.0
175
     0
142
0.0208333333333333
142
0.0
142
0.0
142
0.0
142
0.0
142
0.0208333333333333
142
0.0
142
0.0
142
0.0
142
0.0
142
1.0
142
0.0
142
0.0
142
0.0
142
0.0
142
1.0
179
     0
144
0.0208333333333333
144
0.0
144
0.0
144
0.0
144
0.0
144
0.0208333333333333
144
0.0
144
0.0
144
0.0
144
0.0
144
1.0
144
0.0
144
0.0
144
0.0
144
0.0
144
1.0
147
0.0208333333333333
147
0.0
147
0.0
147
0.0
147
0.0
147
0.0208333333333333
147
0.0
147
0.0
147
0.0
147
0.0
147
1.0
147
0.0
147
0.0
147
0.0
147
0.0
147
1.0
  0
MATERIAL
  5
11
102
{ACAD_XDICTIONARY
360
12
102
}
102
{ACAD_REACTORS
330
10
102
}
330
10
100
AcDbMaterial
  1
ByLayer
 72
     0
 43
0.0208333333333333
 43
0.0
 43
0.0
 43
0.0
 43
0.0
 43
0.0208333333333333
 43
0.0
 43
0.0
 43
0.0
 43
0.0
 43
1.0
 43
0.0
 43
0.0
 43
0.0
 43
0.0
 43
1.0
 77
     0
 47
0.0208333333333333
 47
0.0
 47
0.0
 47
0.0
 47
0.0
 47
0.0208333333333333
 47
0.0
 47
0.0
 47
0.0
 47
0.0
 47
1.0
 47
0.0
 47
0.0
 47
0.0
 47
0.0
 47
1.0
171
     0
 49
0.0208333333333333
 49
0.0
 49
0.0
 49
0.0
 49
0.0
 49
0.0208333333333333
 49
0.0
 49
0.0
 49
0.0
 49
0.0
 49
1.0
 49
0.0
 49
0.0
 49
0.0
 49
0.0
 49
1.0
175
     0
142
0.0208333333333333
142
0.0
142
0.0
142
0.0
142
0.0
142
0.0208333333333333
142
0.0
142
0.0
142
0.0
142
0.0
142
1.0
142
0.0
142
0.0
142
0.0
142
0.0
142
1.0
179
     0
144
0.0208333333333333
144
0.0
144
0.0
144
0.0
144
0.0
144
0.0208333333333333
144
0.0
144
0.0
144
0.0
144
0.0
144
1.0
144
0.0
144
0.0
144
0.0
144
0.0
144
1.0
147
0.0208333333333333
147
0.0
147
0.0
147
0.0
147
0.0
147
0.0208333333333333
147
0.0
147
0.0
147
0.0
147
0.0
147
1.0
147
0.0
147
0.0
147
0.0
147
0.0
147
1.0
  0
MATERIAL
  5
21
102
{ACAD_XDICTIONARY
360
22
102
}
102
{ACAD_REACTORS
330
10
102
}
330
10
100
AcDbMaterial
  1
Global
 72
     0
 43
0.0208333333333333
 43
0.0
 43
0.0
 43
0.0
 43
0.0
 43
0.0208333333333333
 43
0.0
 43
0.0
 43
0.0
 43
0.0
 43
1.0
 43
0.0
 43
0.0
 43
0.0
 43
0.0
 43
1.0
 77
     0
 47
0.0208333333333333
 47
0.0
 47
0.0
 47
0.0
 47
0.0
 47
0.0208333333333333
 47
0.0
 47
0.0
 47
0.0
 47
0.0
 47
1.0
 47
0.0
 47
0.0
 47
0.0
 47
0.0
 47
1.0
171
     0
 49
0.0208333333333333
 49
0.0
 49
0.0
 49
0.0
 49
0.0
 49
0.0208333333333333
 49
0.0
 49
0.0
 49
0.0
 49
0.0
 49
1.0
 49
0.0
 49
0.0
 49
0.0
 49
0.0
 49
1.0
175
     0
142
0.0208333333333333
142
0.0
142
0.0
142
0.0
142
0.0
142
0.0208333333333333
142
0.0
142
0.0
142
0.0
142
0.0
142
1.0
142
0.0
142
0.0
142
0.0
142
0.0
142
1.0
179
     0
144
0.0208333333333333
144
0.0
144
0.0
144
0.0
144
0.0
144
0.0208333333333333
144
0.0
144
0.0
144
0.0
144
0.0
144
1.0
144
0.0
144
0.0
144
0.0
144
0.0
144
1.0
147
0.0208333333333333
147
0.0
147
0.0
147
0.0
147
0.0
147
0.0208333333333333
147
0.0
147
0.0
147
0.0
147
0.0
147
1.0
147
0.0
147
0.0
147
0.0
147
0.0
147
1.0
  0
MLEADERSTYLE
  5
67
102
{ACAD_REACTORS
330
66
102
}
330
66
100
AcDbMLeaderStyle
179
     2
170
     2
171
     1
172
     0
 90
        2
 40
0.0
 41
0.0
173
     1
 91
-1056964608
340
5B
 92
       -2
290
     1
 42
0.09
291
     1
 43
0.36
  3
Standard
 44
0.18
300

342
55
174
     1
178
     6
175
     1
176
     0
 93
-1056964608
 45
0.18
292
     0
297
     0
 46
0.18
 94
-1056964608
 47
1.0
 49
1.0
140
1.0
293
     1
141
0.0
294
     1
177
     0
142
1.0
295
     1
296
     0
143
0.125
271
     0
272
     9
273
     9
298
     1
  0
MLINESTYLE
  5
60
102
{ACAD_REACTORS
330
5F
102
}
330
5F
100
AcDbMlineStyle
  2
STANDARD
 70
     0
  3

 62
   256
 51
90.0
 52
90.0
 71
     2
 49
0.5
 62
   256
  6
BYLAYER
 49
-0.5
 62
   256
  6
BYLAYER
  0
ACDBPLACEHOLDER
  5
F
102
{ACAD_REACTORS
330
E
102
}
330
E
  0
SCALE
  5
43
102
{ACAD_REACTORS
330
42
102
}
330
42
100
AcDbScale
 70
     0
300
1:1
140
1.0
141
1.0
290
     1
  0
SCALE
  5
44
102
{ACAD_REACTORS
330
42
102
}
330
42
100
AcDbScale
 70
     0
300
1/128" = 1'-0"
140
0.0078125
141
12.0
290
     0
  0
SCALE
  5
45
102
{ACAD_REACTORS
330
42
102
}
330
42
100
AcDbScale
 70
     0
300
1/64" = 1'-0"
140
0.015625
141
12.0
290
     0
  0
SCALE
  5
46
102
{ACAD_REACTORS
330
42
102
}
330
42
100
AcDbScale
 70
     0
300
1/32" = 1'-0"
140
0.03125
141
12.0
290
     0
  0
SCALE
  5
47
102
{ACAD_REACTORS
330
42
102
}
330
42
100
AcDbScale
 70
     0
300
1/16" = 1'-0"
140
0.0625
141
12.0
290
     0
  0
SCALE
  5
48
102
{ACAD_REACTORS
330
42
102
}
330
42
100
AcDbScale
 70
     0
300
3/32" = 1'-0"
140
0.09375
141
12.0
290
     0
  0
SCALE
  5
49
102
{ACAD_REACTORS
330
42
102
}
330
42
100
AcDbScale
 70
     0
300
1/8" = 1'-0"
140
0.125
141
12.0
290
     0
  0
SCALE
  5
4A
102
{ACAD_REACTORS
330
42
102
}
330
42
100
AcDbScale
 70
     0
300
3/16" = 1'-0"
140
0.1875
141
12.0
290
     0
  0
SCALE
  5
4B
102
{ACAD_REACTORS
330
42
102
}
330
42
100
AcDbScale
 70
     0
300
1/4" = 1'-0"
140
0.25
141
12.0
290
     0
  0
SCALE
  5
4C
102
{ACAD_REACTORS
330
42
102
}
330
42
100
AcDbScale
 70
     0
300
3/8" = 1'-0"
140
0.375
141
12.0
290
     0
  0
SCALE
  5
4D
102
{ACAD_REACTORS
330
42
102
}
330
42
100
AcDbScale
 70
     0
300
1/2" = 1'-0"
140
0.5
141
12.0
290
     0
  0
SCALE
  5
4E
102
{ACAD_REACTORS
330
42
102
}
330
42
100
AcDbScale
 70
     0
300
3/4" = 1'-0"
140
0.75
141
12.0
290
     0
  0
SCALE
  5
4F
102
{ACAD_REACTORS
330
42
102
}
330
42
100
AcDbScale
 70
     0
300
1" = 1'-0"
140
1.0
141
12.0
290
     0
  0
SCALE
  5
50
102
{ACAD_REACTORS
330
42
102
}
330
42
100
AcDbScale
 70
     0
300
1-1/2" = 1'-0"
140
1.5
141
12.0
290
     0
  0
SCALE
  5
51
102
{ACAD_REACTORS
330
42
102
}
330
42
100
AcDbScale
 70
     0
300
3" = 1'-0"
140
3.0
141
12.0
290
     0
  0
SCALE
  5
52
102
{ACAD_REACTORS
330
42
102
}
330
42
100
AcDbScale
 70
     0
300
6" = 1'-0"
140
6.0
141
12.0
290
     0
  0
SCALE
  5
53
102
{ACAD_REACTORS
330
42
102
}
330
42
100
AcDbScale
 70
     0
300
1'-0" = 1'-0"
140
12.0
141
12.0
290
     0
  0
ACDBSECTIONVIEWSTYLE
  5
69
102
{ACAD_REACTORS
330
68
102
}
330
68
100
AcDbModelDocViewStyle
 70
     0
  3
Imperial24
290
     1
300
Imperial24
 90
        0
100
AcDbSectionViewStyle
 70
     0
 71
     0
 90
       78
 71
     1
340
55
 62
   256
 40
0.24
340
0
340
0
 62
   256
 40
0.24
300
I, O, Q, S, X, Z
 40
0.48
 90
        3
 40
0.18
 90
        1
 71
     2
340
5D
 90
       25
 62
   256
340
5D
 90
       50
 62
   256
 40
0.24
 40
0.0
 40
0.24
 71
     3
340
55
 62
   256
 40
0.24
 90
        1
 40
0.75
 90
        1
300
%<\AcVar ViewType \f "%tc1">% %<\AcVar ViewSectionStartId>%-%<\AcVar ViewSectionEndId>%\PSCALE %<\AcVar ViewScale \f "%sn">%
 71
     4
 62
   256
 62
   257
300
ANSI31
 40
1.0
 90
        0
290
     0
290
     0
 90
        6
 40
0.0
 40
1.570796326794896
 40
0.2617993877991494
 40
1.308996938995747
 40
-0.2617993877991494
 40
1.832595714594046
  0
TABLESTYLE
  5
65
102
{ACAD_XDICTIONARY
360
DC
102
}
102
{ACAD_REACTORS
330
64
102
}
330
64
100
AcDbTableStyle
280
     0
  3
Standard
 70
     0
 71
     0
 40
0.06
 41
0.06
280
     0
281
     0
  7
Standard
140
0.18
170
     2
 62
     0
 63
     7
283
     0
 90
      512
 91
        0
  1

274
    -2
284
     1
 64
     0
275
    -2
285
     1
 65
     0
276
    -2
286
     1
 66
     0
277
    -2
287
     1
 67
     0
278
    -2
288
     1
 68
     0
279
    -2
289
     1
 69
     0
  7
Standard
140
0.25
170
     5
 62
     0
 63
     7
283
     0
 90
      512
 91
        0
  1

274
    -2
284
     1
 64
     0
275
    -2
285
     1
 65
     0
276
    -2
286
     1
 66
     0
277
    -2
287
     1
 67
     0
278
    -2
288
     1
 68
     0
279
    -2
289
     1
 69
     0
  7
Standard
140
0.18
170
     5
 62
     0
 63
     7
283
     0
 90
      512
 91
        0
  1

274
    -2
284
     1
 64
     0
275
    -2
285
     1
 65
     0
276
    -2
286
     1
 66
     0
277
    -2
287
     1
 67
     0
278
    -2
288
     1
 68
     0
279
    -2
289
     1
 69
     0
  0
VISUALSTYLE
  5
2F
102
{ACAD_REACTORS
330
29
102
}
330
29
100
AcDbVisualStyle
  2
2dWireframe
 70
     4
177
     3
291
     0
 70
    58
 90
        0
176
     1
 90
        2
176
     1
 90
        0
176
     1
 90
        0
176
     1
 40
0.6
176
     1
 40
30.0
176
     1
 62
     7
420
 16777215
176
     1
 90
        1
176
     1
 90
        4
176
     1
 62
     7
176
     1
 62
   257
176
     1
 90
        1
176
     1
 90
        1
176
     1
 40
1.0
176
     1
 90
        0
176
     1
 62
   257
176
     1
 40
1.0
176
     1
 90
        1
176
     1
 90
        6
176
     1
 90
        2
176
     1
 62
     7
176
     1
 90
        5
176
     1
 90
        0
176
     1
 90
        0
176
     1
290
     0
176
     1
 90
        1
176
     1
 40
0.0
176
     1
 90
        0
176
     1
290
     1
176
     1
290
     1
176
     1
290
     0
176
     1
290
     0
176
     1
290
     0
176
     1
290
     0
176
     1
290
     0
176
     1
290
     0
176
     1
290
     0
176
     1
 90
       50
176
     1
 40
0.0
176
     1
 40
1.0
176
     1
 90
        0
176
     1
 62
    18
420
        0
176
     1
 90
       50
176
     1
 90
        3
176
     1
 62
     5
420
      255
176
     1
290
     0
176
     1
 90
       50
176
     1
 90
       50
176
     1
 90
       50
176
     1
290
     0
176
     1
 90
       50
176
     1
 62
   256
176
     0
 40
1.0
176
     0
 90
        2
176
     1
  1
strokes_ogs.tif
176
     1
290
     0
176
     1
 40
1.0
176
     1
 40
1.0
176
     1
  0
VISUALSTYLE
  5
2E
102
{ACAD_REACTORS
330
29
102
}
330
29
100
AcDbVisualStyle
  2
Basic
 70
     7
177
     3
291
     1
 70
    58
 90
        1
176
     1
 90
        0
176
     1
 90
        1
176
     1
 90
        0
176
     1
 40
0.6
176
     1
 40
30.0
176
     1
 62
     7
420
 16777215
176
     1
 90
        0
176
     1
 90
        4
176
     1
 62
     7
176
     1
 62
   257
176
     1
 90
        1
176
     1
 90
        1
176
     1
 40
1.0
176
     1
 90
        8
176
     1
 62
     7
176
     1
 40
1.0
176
     1
 90
        1
176
     1
 90
        6
176
     1
 90
        2
176
     1
 62
     7
176
     1
 90
        5
176
     1
 90
        0
176
     1
 90
        0
176
     1
290
     0
176
     1
 90
        1
176
     1
 40
0.0
176
     1
 90
        0
176
     1
290
     0
176
     1
290
     1
176
     1
290
     1
176
     1
290
     0
176
     1
290
     0
176
     1
290
     0
176
     1
290
     0
176
     1
290
     0
176
     1
290
     0
176
     1
 90
       50
176
     1
 40
0.0
176
     1
 40
1.0
176
     1
 90
        0
176
     1
 62
    18
420
        0
176
     1
 90
       50
176
     1
 90
        3
176
     1
 62
     5
420
      255
176
     1
290
     0
176
     1
 90
       50
176
     1
 90
       50
176
     1
 90
       50
176
     1
290
     0
176
     1
 90
       50
176
     1
 62
   256
176
     0
 40
1.0
176
     0
 90
        2
176
     1
  1
strokes_ogs.tif
176
     1
290
     0
176
     1
 40
1.0
176
     1
 40
1.0
176
     1
  0
VISUALSTYLE
  5
35
102
{ACAD_REACTORS
330
29
102
}
330
29
100
AcDbVisualStyle
  2
Brighten
 70
    12
177
     3
291
     1
 70
    58
 90
        2
176
     1
 90
        2
176
     1
 90
        0
176
     1
 90
        0
176
     1
 40
0.6
176
     1
 40
30.0
176
     1
 62
     7
420
 16777215
176
     1
 90
        1
176
     1
 90
        4
176
     1
 62
     7
176
     1
 62
   257
176
     1
 90
        1
176
     1
 90
        1
176
     1
 40
1.0
176
     1
 90
        8
176
     1
 62
     7
176
     1
 40
1.0
176
     1
 90
        1
176
     1
 90
        6
176
     1
 90
        2
176
     1
 62
     7
176
     1
 90
        5
176
     1
 90
        0
176
     1
 90
        0
176
     1
290
     0
176
     1
 90
        1
176
     1
 40
50.0
176
     1
 90
        0
176
     1
290
     0
176
     1
290
     1
176
     1
290
     1
176
     1
290
     0
176
     1
290
     0
176
     1
290
     0
176
     1
290
     0
176
     1
290
     0
176
     1
290
     0
176
     1
 90
       50
176
     1
 40
0.0
176
     1
 40
1.0
176
     1
 90
        0
176
     1
 62
    18
420
        0
176
     1
 90
       50
176
     1
 90
        3
176
     1
 62
     5
420
      255
176
     1
290
     0
176
     1
 90
       50
176
     1
 90
       50
176
     1
 90
       50
176
     1
290
     0
176
     1
 90
       50
176
     1
 62
   256
176
     0
 40
1.0
176
     0
 90
        2
176
     1
  1
strokes_ogs.tif
176
     1
290
     0
176
     1
 40
1.0
176
     1
 40
1.0
176
     1
  0
VISUALSTYLE
  5
39
102
{ACAD_REACTORS
330
29
102
}
330
29
100
AcDbVisualStyle
  2
ColorChange
 70
    16
177
     3
291
     1
 70
    58
 90
        2
176
     1
 90
        2
176
     1
 90
        3
176
     1
 90
        0
176
     1
 40
0.6
176
     1
 40
30.0
176
     1
 62
     8
420
  8421504
176
     1
 90
        1
176
     1
 90
        4
176
     1
 62
     7
176
     1
 62
   257
176
     1
 90
        1
176
     1
 90
        1
176
     1
 40
1.0
176
     1
 90
        8
176
     1
 62
     8
420
  8421504
176
     1
 40
1.0
176
     1
 90
        1
176
     1
 90
        6
176
     1
 90
        2
176
     1
 62
     7
176
     1
 90
        5
176
     1
 90
        0
176
     1
 90
        0
176
     1
290
     0
176
     1
 90
        1
176
     1
 40
0.0
176
     1
 90
        0
176
     1
290
     0
176
     1
290
     1
176
     1
290
     1
176
     1
290
     0
176
     1
290
     0
176
     1
290
     0
176
     1
290
     0
176
     1
290
     0
176
     1
290
     0
176
     1
 90
       50
176
     1
 40
0.0
176
     1
 40
1.0
176
     1
 90
        0
176
     1
 62
    18
420
        0
176
     1
 90
       50
176
     1
 90
        3
176
     1
 62
     5
420
      255
176
     1
290
     0
176
     1
 90
       50
176
     1
 90
       50
176
     1
 90
       50
176
     1
290
     0
176
     1
 90
       50
176
     1
 62
   256
176
     0
 40
1.0
176
     0
 90
        2
176
     1
  1
strokes_ogs.tif
176
     1
290
     0
176
     1
 40
1.0
176
     1
 40
1.0
176
     1
  0
VISUALSTYLE
  5
32
102
{ACAD_REACTORS
330
29
102
}
330
29
100
AcDbVisualStyle
  2
Conceptual
 70
     9
177
     3
291
     0
 70
    58
 90
        3
176
     1
 90
        2
176
     1
 90
        0
176
     1
 90
        0
176
     1
 40
0.6
176
     1
 40
30.0
176
     1
 62
     7
420
 16777215
176
     1
 90
        2
176
     1
 90
        2
176
     1
 62
     7
176
     1
 62
   257
176
     1
 90
        1
176
     1
 90
        1
176
     1
 40
179.0
176
     1
 90
        8
176
     1
 62
     7
176
     1
 40
1.0
176
     1
 90
        1
176
     1
 90
        6
176
     1
 90
        2
176
     1
 62
     7
176
     1
 90
        3
176
     1
 90
        0
176
     1
 90
        0
176
     1
290
     0
176
     1
 90
        1
176
     1
 40
0.0
176
     1
 90
        0
176
     1
290
     0
176
     1
290
     1
176
     1
290
     1
176
     1
290
     0
176
     1
290
     0
176
     1
290
     0
176
     1
290
     0
176
     1
290
     0
176
     1
290
     0
176
     1
 90
       50
176
     1
 40
0.0
176
     1
 40
1.0
176
     1
 90
        0
176
     1
 62
    18
420
        0
176
     1
 90
       50
176
     1
 90
        3
176
     1
 62
     5
420
      255
176
     1
290
     0
176
     1
 90
       50
176
     1
 90
       50
176
     1
 90
       50
176
     1
290
     0
176
     1
 90
       50
176
     1
 62
   256
176
     0
 40
1.0
176
     0
 90
        2
176
     1
  1
strokes_ogs.tif
176
     1
290
     0
176
     1
 40
1.0
176
     1
 40
1.0
176
     1
  0
VISUALSTYLE
  5
34
102
{ACAD_REACTORS
330
29
102
}
330
29
100
AcDbVisualStyle
  2
Dim
 70
    11
177
     3
291
     1
 70
    58
 90
        2
176
     1
 90
        2
176
     1
 90
        0
176
     1
 90
        0
176
     1
 40
0.6
176
     1
 40
30.0
176
     1
 62
     7
420
 16777215
176
     1
 90
        1
176
     1
 90
        4
176
     1
 62
     7
176
     1
 62
   257
176
     1
 90
        1
176
     1
 90
        1
176
     1
 40
1.0
176
     1
 90
        8
176
     1
 62
     7
176
     1
 40
1.0
176
     1
 90
        1
176
     1
 90
        6
176
     1
 90
        2
176
     1
 62
     7
176
     1
 90
        5
176
     1
 90
        0
176
     1
 90
        0
176
     1
290
     0
176
     1
 90
        1
176
     1
 40
-50.0
176
     1
 90
        0
176
     1
290
     0
176
     1
290
     1
176
     1
290
     1
176
     1
290
     0
176
     1
290
     0
176
     1
290
     0
176
     1
290
     0
176
     1
290
     0
176
     1
290
     0
176
     1
 90
       50
176
     1
 40
0.0
176
     1
 40
1.0
176
     1
 90
        0
176
     1
 62
    18
420
        0
176
     1
 90
       50
176
     1
 90
        3
176
     1
 62
     5
420
      255
176
     1
290
     0
176
     1
 90
       50
176
     1
 90
       50
176
     1
 90
       50
176
     1
290
     0
176
     1
 90
       50
176
     1
 62
   256
176
     0
 40
1.0
176
     0
 90
        2
176
     1
  1
strokes_ogs.tif
176
     1
290
     0
176
     1
 40
1.0
176
     1
 40
1.0
176
     1
  0
VISUALSTYLE
  5
41
102
{ACAD_REACTORS
330
29
102
}
330
29
100
AcDbVisualStyle
  2
EdgeColorOff
 70
    22
177
     3
291
     1
 70
    58
 90
        2
176
     0
 90
        2
176
     0
 90
        0
176
     0
 90
        0
176
     0
 40
0.6
176
     0
 40
30.0
176
     0
 62
     7
420
 16777215
176
     0
 90
        1
176
     0
 90
        4
176
     0
 62
     7
176
     0
 62
   257
176
     0
 90
        1
176
     0
 90
        1
176
     0
 40
1.0
176
     0
 90
        8
176
     2
 62
     7
176
     0
 40
1.0
176
     0
 90
        1
176
     0
 90
        6
176
     0
 90
        2
176
     0
 62
     7
176
     0
 90
        5
176
     0
 90
        0
176
     0
 90
        0
176
     0
290
     0
176
     0
 90
        1
176
     0
 40
0.0
176
     0
 90
        0
176
     0
290
     0
176
     0
290
     1
176
     0
290
     1
176
     0
290
     0
176
     0
290
     0
176
     0
290
     0
176
     0
290
     0
176
     0
290
     0
176
     0
290
     0
176
     0
 90
       50
176
     0
 40
0.0
176
     0
 40
1.0
176
     0
 90
        0
176
     0
 62
    18
420
        0
176
     0
 90
       50
176
     0
 90
        3
176
     0
 62
     5
420
      255
176
     0
290
     0
176
     0
 90
       50
176
     0
 90
       50
176
     0
 90
       50
176
     0
290
     0
176
     0
 90
       50
176
     0
 62
   256
176
     0
 40
1.0
176
     0
 90
        2
176
     0
  1
strokes_ogs.tif
176
     0
290
     0
176
     0
 40
1.0
176
     0
 40
1.0
176
     0
  0
VISUALSTYLE
  5
38
102
{ACAD_REACTORS
330
29
102
}
330
29
100
AcDbVisualStyle
  2
Facepattern
 70
    15
177
     3
291
     1
 70
    58
 90
        2
176
     1
 90
        2
176
     1
 90
        0
176
     1
 90
        0
176
     1
 40
0.6
176
     1
 40
30.0
176
     1
 62
     7
420
 16777215
176
     1
 90
        1
176
     1
 90
        4
176
     1
 62
     7
176
     1
 62
   257
176
     1
 90
        1
176
     1
 90
        1
176
     1
 40
1.0
176
     1
 90
        8
176
     1
 62
     7
176
     1
 40
1.0
176
     1
 90
        1
176
     1
 90
        6
176
     1
 90
        2
176
     1
 62
     7
176
     1
 90
        5
176
     1
 90
        0
176
     1
 90
        0
176
     1
290
     0
176
     1
 90
        1
176
     1
 40
0.0
176
     1
 90
        0
176
     1
290
     0
176
     1
290
     1
176
     1
290
     1
176
     1
290
     0
176
     1
290
     0
176
     1
290
     0
176
     1
290
     0
176
     1
290
     0
176
     1
290
     0
176
     1
 90
       50
176
     1
 40
0.0
176
     1
 40
1.0
176
     1
 90
        0
176
     1
 62
    18
420
        0
176
     1
 90
       50
176
     1
 90
        3
176
     1
 62
     5
420
      255
176
     1
290
     0
176
     1
 90
       50
176
     1
 90
       50
176
     1
 90
       50
176
     1
290
     0
176
     1
 90
       50
176
     1
 62
   256
176
     0
 40
1.0
176
     0
 90
        2
176
     1
  1
strokes_ogs.tif
176
     1
290
     0
176
     1
 40
1.0
176
     1
 40
1.0
176
     1
  0
VISUALSTYLE
  5
2A
102
{ACAD_REACTORS
330
29
102
}
330
29
100
AcDbVisualStyle
  2
Flat
 70
     0
177
     3
291
     1
 70
    58
 90
        2
176
     1
 90
        1
176
     1
 90
        1
176
     1
 90
        2
176
     1
 40
0.6
176
     1
 40
30.0
176
     1
 62
     7
420
 16777215
176
     1
 90
        0
176
     1
 90
        0
176
     1
 62
     7
176
     1
 62
   257
176
     1
 90
        1
176
     1
 90
        1
176
     1
 40
1.0
176
     1
 90
        8
176
     1
 62
     7
176
     1
 40
1.0
176
     1
 90
        1
176
     1
 90
        6
176
     1
 90
        2
176
     1
 62
     7
176
     1
 90
        5
176
     1
 90
        0
176
     1
 90
        0
176
     1
290
     0
176
     1
 90
       13
176
     1
 40
0.0
176
     1
 90
        0
176
     1
290
     0
176
     1
290
     1
176
     1
290
     1
176
     1
290
     0
176
     1
290
     0
176
     1
290
     0
176
     1
290
     0
176
     1
290
     0
176
     1
290
     0
176
     1
 90
       50
176
     1
 40
0.0
176
     1
 40
1.0
176
     1
 90
        0
176
     1
 62
    18
420
        0
176
     1
 90
       50
176
     1
 90
        3
176
     1
 62
     5
420
      255
176
     1
290
     0
176
     1
 90
       50
176
     1
 90
       50
176
     1
 90
       50
176
     1
290
     0
176
     1
 90
       50
176
     1
 62
   256
176
     0
 40
1.0
176
     0
 90
        2
176
     1
  1
strokes_ogs.tif
176
     1
290
     0
176
     1
 40
1.0
176
     1
 40
1.0
176
     1
  0
VISUALSTYLE
  5
2B
102
{ACAD_REACTORS
330
29
102
}
330
29
100
AcDbVisualStyle
  2
FlatWithEdges
 70
     1
177
     3
291
     1
 70
    58
 90
        2
176
     1
 90
        1
176
     1
 90
        1
176
     1
 90
        2
176
     1
 40
0.6
176
     1
 40
30.0
176
     1
 62
     7
420
 16777215
176
     1
 90
        1
176
     1
 90
        0
176
     1
 62
     7
176
     1
 62
   257
176
     1
 90
        1
176
     1
 90
        1
176
     1
 40
1.0
176
     1
 90
        0
176
     1
 62
   257
176
     1
 40
1.0
176
     1
 90
        1
176
     1
 90
        6
176
     1
 90
        2
176
     1
 62
     7
176
     1
 90
        5
176
     1
 90
        0
176
     1
 90
        0
176
     1
290
     0
176
     1
 90
       13
176
     1
 40
0.0
176
     1
 90
        0
176
     1
290
     0
176
     1
290
     1
176
     1
290
     1
176
     1
290
     0
176
     1
290
     0
176
     1
290
     0
176
     1
290
     0
176
     1
290
     0
176
     1
290
     0
176
     1
 90
       50
176
     1
 40
0.0
176
     1
 40
1.0
176
     1
 90
        0
176
     1
 62
    18
420
        0
176
     1
 90
       50
176
     1
 90
        3
176
     1
 62
     5
420
      255
176
     1
290
     0
176
     1
 90
       50
176
     1
 90
       50
176
     1
 90
       50
176
     1
290
     0
176
     1
 90
       50
176
     1
 62
   256
176
     0
 40
1.0
176
     0
 90
        2
176
     1
  1
strokes_ogs.tif
176
     1
290
     0
176
     1
 40
1.0
176
     1
 40
1.0
176
     1
  0
VISUALSTYLE
  5
2C
102
{ACAD_REACTORS
330
29
102
}
330
29
100
AcDbVisualStyle
  2
Gouraud
 70
     2
177
     3
291
     1
 70
    58
 90
        2
176
     1
 90
        2
176
     1
 90
        1
176
     1
 90
        2
176
     1
 40
0.6
176
     1
 40
30.0
176
     1
 62
     7
420
 16777215
176
     1
 90
        0
176
     1
 90
        0
176
     1
 62
     7
176
     1
 62
   257
176
     1
 90
        1
176
     1
 90
        1
176
     1
 40
1.0
176
     1
 90
        0
176
     1
 62
     7
176
     1
 40
1.0
176
     1
 90
        1
176
     1
 90
        6
176
     1
 90
        2
176
     1
 62
     7
176
     1
 90
        5
176
     1
 90
        0
176
     1
 90
        0
176
     1
290
     0
176
     1
 90
       13
176
     1
 40
0.0
176
     1
 90
        0
176
     1
290
     0
176
     1
290
     1
176
     1
290
     1
176
     1
290
     0
176
     1
290
     0
176
     1
290
     0
176
     1
290
     0
176
     1
290
     0
176
     1
290
     0
176
     1
 90
       50
176
     1
 40
0.0
176
     1
 40
1.0
176
     1
 90
        0
176
     1
 62
    18
420
        0
176
     1
 90
       50
176
     1
 90
        3
176
     1
 62
     5
420
      255
176
     1
290
     0
176
     1
 90
       50
176
     1
 90
       50
176
     1
 90
       50
176
     1
290
     0
176
     1
 90
       50
176
     1
 62
   256
176
     0
 40
1.0
176
     0
 90
        2
176
     1
  1
strokes_ogs.tif
176
     1
290
     0
176
     1
 40
1.0
176
     1
 40
1.0
176
     1
  0
VISUALSTYLE
  5
2D
102
{ACAD_REACTORS
330
29
102
}
330
29
100
AcDbVisualStyle
  2
GouraudWithEdges
 70
     3
177
     3
291
     1
 70
    58
 90
        2
176
     1
 90
        2
176
     1
 90
        1
176
     1
 90
        2
176
     1
 40
0.6
176
     1
 40
30.0
176
     1
 62
     7
420
 16777215
176
     1
 90
        1
176
     1
 90
        0
176
     1
 62
     7
176
     1
 62
   257
176
     1
 90
        1
176
     1
 90
        1
176
     1
 40
1.0
176
     1
 90
        0
176
     1
 62
   257
176
     1
 40
1.0
176
     1
 90
        1
176
     1
 90
        6
176
     1
 90
        2
176
     1
 62
     7
176
     1
 90
        5
176
     1
 90
        0
176
     1
 90
        0
176
     1
290
     0
176
     1
 90
       13
176
     1
 40
0.0
176
     1
 90
        0
176
     1
290
     0
176
     1
290
     1
176
     1
290
     1
176
     1
290
     0
176
     1
290
     0
176
     1
290
     0
176
     1
290
     0
176
     1
290
     0
176
     1
290
     0
176
     1
 90
       50
176
     1
 40
0.0
176
     1
 40
1.0
176
     1
 90
        0
176
     1
 62
    18
420
        0
176
     1
 90
       50
176
     1
 90
        3
176
     1
 62
     5
420
      255
176
     1
290
     0
176
     1
 90
       50
176
     1
 90
       50
176
     1
 90
       50
176
     1
290
     0
176
     1
 90
       50
176
     1
 62
   256
176
     0
 40
1.0
176
     0
 90
        2
176
     1
  1
strokes_ogs.tif
176
     1
290
     0
176
     1
 40
1.0
176
     1
 40
1.0
176
     1
  0
VISUALSTYLE
  5
31
102
{ACAD_REACTORS
330
29
102
}
330
29
100
AcDbVisualStyle
  2
Hidden
 70
     6
177
     3
291
     0
 70
    58
 90
        1
176
     1
 90
        2
176
     1
 90
        2
176
     1
 90
        0
176
     1
 40
0.6
176
     1
 40
30.0
176
     1
 62
     7
420
 16777215
176
     1
 90
        2
176
     1
 90
        2
176
     1
 62
     7
176
     1
 62
   257
176
     1
 90
        2
176
     1
 90
        1
176
     1
 40
40.0
176
     1
 90
        0
176
     1
 62
   257
176
     1
 40
1.0
176
     1
 90
        1
176
     1
 90
        6
176
     1
 90
        2
176
     1
 62
     7
176
     1
 90
        3
176
     1
 90
        0
176
     1
 90
        0
176
     1
290
     0
176
     1
 90
        1
176
     1
 40
0.0
176
     1
 90
        0
176
     1
290
     0
176
     1
290
     1
176
     1
290
     1
176
     1
290
     0
176
     1
290
     0
176
     1
290
     0
176
     1
290
     0
176
     1
290
     0
176
     1
290
     0
176
     1
 90
       50
176
     1
 40
0.0
176
     1
 40
1.0
176
     1
 90
        0
176
     1
 62
    18
420
        0
176
     1
 90
       50
176
     1
 90
        3
176
     1
 62
     5
420
      255
176
     1
290
     0
176
     1
 90
       50
176
     1
 90
       50
176
     1
 90
       50
176
     1
290
     0
176
     1
 90
       50
176
     1
 62
   256
176
     0
 40
1.0
176
     0
 90
        2
176
     1
  1
strokes_ogs.tif
176
     1
290
     0
176
     1
 40
1.0
176
     1
 40
1.0
176
     1
  0
VISUALSTYLE
  5
3F
102
{ACAD_REACTORS
330
29
102
}
330
29
100
AcDbVisualStyle
  2
JitterOff
 70
    20
177
     3
291
     1
 70
    58
 90
        2
176
     0
 90
        2
176
     0
 90
        0
176
     0
 90
        0
176
     0
 40
0.6
176
     0
 40
30.0
176
     0
 62
     7
420
 16777215
176
     0
 90
        1
176
     0
 90
        4
176
     0
 62
     7
176
     0
 62
   257
176
     0
 90
        1
176
     0
 90
        1
176
     0
 40
1.0
176
     0
 90
       10
176
     2
 62
     7
176
     0
 40
1.0
176
     0
 90
        1
176
     0
 90
        6
176
     0
 90
        2
176
     0
 62
     7
176
     0
 90
        5
176
     0
 90
        0
176
     0
 90
        0
176
     0
290
     0
176
     0
 90
        1
176
     0
 40
0.0
176
     0
 90
        0
176
     0
290
     0
176
     0
290
     1
176
     0
290
     1
176
     0
290
     0
176
     0
290
     0
176
     0
290
     0
176
     0
290
     0
176
     0
290
     0
176
     0
290
     0
176
     0
 90
       50
176
     0
 40
0.0
176
     0
 40
1.0
176
     0
 90
        0
176
     0
 62
    18
420
        0
176
     0
 90
       50
176
     0
 90
        3
176
     0
 62
     5
420
      255
176
     0
290
     0
176
     0
 90
       50
176
     0
 90
       50
176
     0
 90
       50
176
     0
290
     0
176
     0
 90
       50
176
     0
 62
   256
176
     0
 40
1.0
176
     0
 90
        2
176
     0
  1
strokes_ogs.tif
176
     0
290
     0
176
     0
 40
1.0
176
     0
 40
1.0
176
     0
  0
VISUALSTYLE
  5
37
102
{ACAD_REACTORS
330
29
102
}
330
29
100
AcDbVisualStyle
  2
Linepattern
 70
    14
177
     3
291
     1
 70
    58
 90
        2
176
     1
 90
        2
176
     1
 90
        0
176
     1
 90
        0
176
     1
 40
0.6
176
     1
 40
30.0
176
     1
 62
     7
420
 16777215
176
     1
 90
        1
176
     1
 90
        4
176
     1
 62
     7
176
     1
 62
   257
176
     1
 90
        7
176
     1
 90
        7
176
     1
 40
1.0
176
     1
 90
        8
176
     1
 62
     7
176
     1
 40
1.0
176
     1
 90
        1
176
     1
 90
        6
176
     1
 90
        2
176
     1
 62
     7
176
     1
 90
        5
176
     1
 90
        0
176
     1
 90
        0
176
     1
290
     0
176
     1
 90
        1
176
     1
 40
0.0
176
     1
 90
        0
176
     1
290
     0
176
     1
290
     1
176
     1
290
     1
176
     1
290
     0
176
     1
290
     0
176
     1
290
     0
176
     1
290
     0
176
     1
290
     0
176
     1
290
     0
176
     1
 90
       50
176
     1
 40
0.0
176
     1
 40
1.0
176
     1
 90
        0
176
     1
 62
    18
420
        0
176
     1
 90
       50
176
     1
 90
        3
176
     1
 62
     5
420
      255
176
     1
290
     0
176
     1
 90
       50
176
     1
 90
       50
176
     1
 90
       50
176
     1
290
     0
176
     1
 90
       50
176
     1
 62
   256
176
     0
 40
1.0
176
     0
 90
        2
176
     1
  1
strokes_ogs.tif
176
     1
290
     0
176
     1
 40
1.0
176
     1
 40
1.0
176
     1
  0
VISUALSTYLE
  5
40
102
{ACAD_REACTORS
330
29
102
}
330
29
100
AcDbVisualStyle
  2
OverhangOff
 70
    21
177
     3
291
     1
 70
    58
 90
        2
176
     0
 90
        2
176
     0
 90
        0
176
     0
 90
        0
176
     0
 40
0.6
176
     0
 40
30.0
176
     0
 62
     7
420
 16777215
176
     0
 90
        1
176
     0
 90
        4
176
     0
 62
     7
176
     0
 62
   257
176
     0
 90
        1
176
     0
 90
        1
176
     0
 40
1.0
176
     0
 90
        9
176
     2
 62
     7
176
     0
 40
1.0
176
     0
 90
        1
176
     0
 90
        6
176
     0
 90
        2
176
     0
 62
     7
176
     0
 90
        5
176
     0
 90
        0
176
     0
 90
        0
176
     0
290
     0
176
     0
 90
        1
176
     0
 40
0.0
176
     0
 90
        0
176
     0
290
     0
176
     0
290
     1
176
     0
290
     1
176
     0
290
     0
176
     0
290
     0
176
     0
290
     0
176
     0
290
     0
176
     0
290
     0
176
     0
290
     0
176
     0
 90
       50
176
     0
 40
0.0
176
     0
 40
1.0
176
     0
 90
        0
176
     0
 62
    18
420
        0
176
     0
 90
       50
176
     0
 90
        3
176
     0
 62
     5
420
      255
176
     0
290
     0
176
     0
 90
       50
176
     0
 90
       50
176
     0
 90
       50
176
     0
290
     0
176
     0
 90
       50
176
     0
 62
   256
176
     0
 40
1.0
176
     0
 90
        2
176
     0
  1
strokes_ogs.tif
176
     0
290
     0
176
     0
 40
1.0
176
     0
 40
1.0
176
     0
  0
VISUALSTYLE
  5
33
102
{ACAD_REACTORS
330
29
102
}
330
29
100
AcDbVisualStyle
  2
Realistic
 70
     8
177
     3
291
     0
 70
    58
 90
        2
176
     1
 90
        3
176
     1
 90
        0
176
     1
 90
        2
176
     1
 40
0.6
176
     1
 40
30.0
176
     1
 62
     7
420
 16777215
176
     1
 90
        0
176
     1
 90
        0
176
     1
 62
     7
176
     1
 62
   257
176
     1
 90
        1
176
     1
 90
        1
176
     1
 40
1.0
176
     1
 90
        8
176
     1
 62
   257
176
     1
 40
1.0
176
     1
 90
        1
176
     1
 90
        6
176
     1
 90
        2
176
     1
 62
     7
176
     1
 90
        3
176
     1
 90
        0
176
     1
 90
        0
176
     1
290
     0
176
     1
 90
       13
176
     1
 40
0.0
176
     1
 90
        0
176
     1
290
     0
176
     1
290
     1
176
     1
290
     1
176
     1
290
     0
176
     1
290
     0
176
     1
290
     0
176
     1
290
     0
176
     1
290
     0
176
     1
290
     0
176
     1
 90
       50
176
     1
 40
0.0
176
     1
 40
1.0
176
     1
 90
        0
176
     1
 62
    18
420
        0
176
     1
 90
       50
176
     1
 90
        3
176
     1
 62
     5
420
      255
176
     1
290
     0
176
     1
 90
       50
176
     1
 90
       50
176
     1
 90
       50
176
     1
290
     0
176
     1
 90
       50
176
     1
 62
   256
176
     0
 40
1.0
176
     0
 90
        2
176
     1
  1
strokes_ogs.tif
176
     1
290
     0
176
     1
 40
1.0
176
     1
 40
1.0
176
     1
  0
VISUALSTYLE
  5
3E
102
{ACAD_REACTORS
330
29
102
}
330
29
100
AcDbVisualStyle
  2
Shaded
 70
    27
177
     3
291
     0
 70
    58
 90
        2
176
     1
 90
        2
176
     1
 90
        1
176
     1
 90
        2
176
     1
 40
0.6
176
     1
 40
30.0
176
     1
 62
     7
420
 16777215
176
     1
 90
        0
176
     1
 90
        4
176
     1
 62
     7
176
     1
 62
   257
176
     1
 90
        1
176
     1
 90
        1
176
     1
 40
1.0
176
     1
 90
        8
176
     1
 62
   257
176
     1
 40
1.0
176
     1
 90
        1
176
     1
 90
        6
176
     1
 90
        2
176
     1
 62
     8
420
  7895160
176
     1
 90
        3
176
     1
 90
        0
176
     1
 90
        0
176
     1
290
     0
176
     1
 90
        5
176
     1
 40
0.0
176
     1
 90
        0
176
     1
290
     0
176
     1
290
     1
176
     1
290
     1
176
     1
290
     0
176
     1
290
     0
176
     1
290
     0
176
     1
290
     0
176
     1
290
     0
176
     1
290
     0
176
     1
 90
       50
176
     1
 40
0.0
176
     1
 40
1.0
176
     1
 90
        0
176
     1
 62
    18
420
        0
176
     1
 90
       50
176
     1
 90
        3
176
     1
 62
     5
420
      255
176
     1
290
     0
176
     1
 90
       50
176
     1
 90
       50
176
     1
 90
       50
176
     1
290
     0
176
     1
 90
       50
176
     1
 62
   256
176
     0
 40
1.0
176
     0
 90
        2
176
     1
  1
strokes_ogs.tif
176
     1
290
     0
176
     1
 40
1.0
176
     1
 40
1.0
176
     1
  0
VISUALSTYLE
  5
3D
102
{ACAD_REACTORS
330
29
102
}
330
29
100
AcDbVisualStyle
  2
Shaded with edges
 70
    26
177
     3
291
     0
 70
    58
 90
        2
176
     1
 90
        2
176
     1
 90
        1
176
     1
 90
        2
176
     1
 40
0.6
176
     1
 40
30.0
176
     1
 62
     7
420
 16777215
176
     1
 90
        1
176
     1
 90
        2
176
     1
 62
     7
176
     1
 62
   257
176
     1
 90
        2
176
     1
 90
        1
176
     1
 40
1.0
176
     1
 90
        8
176
     1
 62
   257
176
     1
 40
1.0
176
     1
 90
        1
176
     1
 90
        6
176
     1
 90
        2
176
     1
 62
     7
176
     1
 90
        3
176
     1
 90
        0
176
     1
 90
        0
176
     1
290
     0
176
     1
 90
        5
176
     1
 40
0.0
176
     1
 90
        0
176
     1
290
     0
176
     1
290
     1
176
     1
290
     1
176
     1
290
     0
176
     1
290
     0
176
     1
290
     0
176
     1
290
     0
176
     1
290
     0
176
     1
290
     0
176
     1
 90
       50
176
     1
 40
0.0
176
     1
 40
1.0
176
     1
 90
        0
176
     1
 62
    18
420
        0
176
     1
 90
       50
176
     1
 90
        3
176
     1
 62
     5
420
      255
176
     1
290
     0
176
     1
 90
       50
176
     1
 90
       50
176
     1
 90
       50
176
     1
290
     0
176
     1
 90
       50
176
     1
 62
   256
176
     0
 40
1.0
176
     0
 90
        2
176
     1
  1
strokes_ogs.tif
176
     1
290
     0
176
     1
 40
1.0
176
     1
 40
1.0
176
     1
  0
VISUALSTYLE
  5
3A
102
{ACAD_REACTORS
330
29
102
}
330
29
100
AcDbVisualStyle
  2
Shades of Gray
 70
    23
177
     3
291
     0
 70
    58
 90
        2
176
     1
 90
        2
176
     1
 90
        3
176
     1
 90
        0
176
     1
 40
0.6
176
     1
 40
30.0
176
     1
 62
     7
420
 16777215
176
     1
 90
        2
176
     1
 90
        2
176
     1
 62
     7
176
     1
 62
     7
176
     1
 90
        1
176
     1
 90
        1
176
     1
 40
40.0
176
     1
 90
        8
176
     1
 62
     7
176
     1
 40
1.0
176
     1
 90
        1
176
     1
 90
        6
176
     1
 90
        2
176
     1
 62
     7
176
     1
 90
        3
176
     1
 90
        0
176
     1
 90
        0
176
     1
290
     0
176
     1
 90
        1
176
     1
 40
0.0
176
     1
 90
        0
176
     1
290
     0
176
     1
290
     1
176
     1
290
     1
176
     1
290
     0
176
     1
290
     0
176
     1
290
     0
176
     1
290
     0
176
     1
290
     0
176
     1
290
     0
176
     1
 90
       50
176
     1
 40
0.0
176
     1
 40
1.0
176
     1
 90
        0
176
     1
 62
    18
420
        0
176
     1
 90
       50
176
     1
 90
        3
176
     1
 62
     5
420
      255
176
     1
290
     0
176
     1
 90
       50
176
     1
 90
       50
176
     1
 90
       50
176
     1
290
     0
176
     1
 90
       50
176
     1
 62
   256
176
     0
 40
1.0
176
     0
 90
        2
176
     1
  1
strokes_ogs.tif
176
     1
290
     0
176
     1
 40
1.0
176
     1
 40
1.0
176
     1
  0
VISUALSTYLE
  5
3B
102
{ACAD_REACTORS
330
29
102
}
330
29
100
AcDbVisualStyle
  2
Sketchy
 70
    24
177
     3
291
     0
 70
    58
 90
        1
176
     1
 90
        2
176
     1
 90
        2
176
     1
 90
        0
176
     1
 40
0.6
176
     1
 40
30.0
176
     1
 62
     7
420
 16777215
176
     1
 90
        2
176
     1
 90
        2
176
     1
 62
     7
176
     1
 62
     7
176
     1
 90
        1
176
     1
 90
        1
176
     1
 40
40.0
176
     1
 90
       11
176
     1
 62
     7
176
     1
 40
1.0
176
     1
 90
        1
176
     1
 90
        6
176
     1
 90
        2
176
     1
 62
     7
176
     1
 90
        6
176
     1
 90
        0
176
     1
 90
        0
176
     1
290
     0
176
     1
 90
        1
176
     1
 40
0.0
176
     1
 90
        0
176
     1
290
     0
176
     1
290
     1
176
     1
290
     1
176
     1
290
     0
176
     1
290
     0
176
     1
290
     0
176
     1
290
     0
176
     1
290
     0
176
     1
290
     0
176
     1
 90
       50
176
     1
 40
0.0
176
     1
 40
1.0
176
     1
 90
        0
176
     1
 62
    18
420
        0
176
     1
 90
       50
176
     1
 90
        3
176
     1
 62
     5
420
      255
176
     1
290
     0
176
     1
 90
       50
176
     1
 90
       50
176
     1
 90
       50
176
     1
290
     0
176
     1
 90
       50
176
     1
 62
   256
176
     0
 40
1.0
176
     0
 90
        2
176
     1
  1
strokes_ogs.tif
176
     1
290
     0
176
     1
 40
1.0
176
     1
 40
1.0
176
     1
  0
VISUALSTYLE
  5
36
102
{ACAD_REACTORS
330
29
102
}
330
29
100
AcDbVisualStyle
  2
Thicken
 70
    13
177
     3
291
     1
 70
    58
 90
        2
176
     1
 90
        2
176
     1
 90
        0
176
     1
 90
        0
176
     1
 40
0.6
176
     1
 40
30.0
176
     1
 62
     7
420
 16777215
176
     1
 90
        1
176
     1
 90
        4
176
     1
 62
     7
176
     1
 62
   257
176
     1
 90
        1
176
     1
 90
        1
176
     1
 40
1.0
176
     1
 90
       12
176
     1
 62
     7
176
     1
 40
1.0
176
     1
 90
        1
176
     1
 90
        6
176
     1
 90
        2
176
     1
 62
     7
176
     1
 90
        5
176
     1
 90
        0
176
     1
 90
        0
176
     1
290
     0
176
     1
 90
        1
176
     1
 40
0.0
176
     1
 90
        0
176
     1
290
     0
176
     1
290
     1
176
     1
290
     1
176
     1
290
     0
176
     1
290
     0
176
     1
290
     0
176
     1
290
     0
176
     1
290
     0
176
     1
290
     0
176
     1
 90
       50
176
     1
 40
0.0
176
     1
 40
1.0
176
     1
 90
        0
176
     1
 62
    18
420
        0
176
     1
 90
       50
176
     1
 90
        3
176
     1
 62
     5
420
      255
176
     1
290
     0
176
     1
 90
       50
176
     1
 90
       50
176
     1
 90
       50
176
     1
290
     0
176
     1
 90
       50
176
     1
 62
   256
176
     0
 40
1.0
176
     0
 90
        2
176
     1
  1
strokes_ogs.tif
176
     1
290
     0
176
     1
 40
1.0
176
     1
 40
1.0
176
     1
  0
VISUALSTYLE
  5
30
102
{ACAD_REACTORS
330
29
102
}
330
29
100
AcDbVisualStyle
  2
Wireframe
 70
     5
177
     3
291
     0
 70
    58
 90
        0
176
     1
 90
        2
176
     1
 90
        0
176
     1
 90
        0
176
     1
 40
0.6
176
     1
 40
30.0
176
     1
 62
     7
420
 16777215
176
     1
 90
        1
176
     1
 90
        4
176
     1
 62
     7
176
     1
 62
   257
176
     1
 90
        1
176
     1
 90
        1
176
     1
 40
1.0
176
     1
 90
        0
176
     1
 62
   257
176
     1
 40
1.0
176
     1
 90
        1
176
     1
 90
        6
176
     1
 90
        2
176
     1
 62
     7
176
     1
 90
        3
176
     1
 90
        0
176
     1
 90
        0
176
     1
290
     0
176
     1
 90
        1
176
     1
 40
0.0
176
     1
 90
        0
176
     1
290
     0
176
     1
290
     1
176
     1
290
     1
176
     1
290
     0
176
     1
290
     0
176
     1
290
     0
176
     1
290
     0
176
     1
290
     0
176
     1
290
     0
176
     1
 90
       50
176
     1
 40
0.0
176
     1
 40
1.0
176
     1
 90
        0
176
     1
 62
    18
420
        0
176
     1
 90
       50
176
     1
 90
        3
176
     1
 62
     5
420
      255
176
     1
290
     0
176
     1
 90
       50
176
     1
 90
       50
176
     1
 90
       50
176
     1
290
     0
176
     1
 90
       50
176
     1
 62
   256
176
     0
 40
1.0
176
     0
 90
        2
176
     1
  1
strokes_ogs.tif
176
     1
290
     0
176
     1
 40
1.0
176
     1
 40
1.0
176
     1
  0
VISUALSTYLE
  5
3C
102
{ACAD_REACTORS
330
29
102
}
330
29
100
AcDbVisualStyle
  2
X-Ray
 70
    25
177
     3
291
     0
 70
    58
 90
        2
176
     1
 90
        2
176
     1
 90
        1
176
     1
 90
        1
176
     1
 40
0.5
176
     1
 40
30.0
176
     1
 62
     7
420
 16777215
176
     1
 90
        1
176
     1
 90
        0
176
     1
 62
     7
176
     1
 62
   257
176
     1
 90
        1
176
     1
 90
        1
176
     1
 40
1.0
176
     1
 90
        8
176
     1
 62
     7
176
     1
 40
1.0
176
     1
 90
        1
176
     1
 90
        6
176
     1
 90
        2
176
     1
 62
     7
176
     1
 90
        3
176
     1
 90
        0
176
     1
 90
        0
176
     1
290
     0
176
     1
 90
       13
176
     1
 40
0.0
176
     1
 90
        0
176
     1
290
     0
176
     1
290
     1
176
     1
290
     1
176
     1
290
     0
176
     1
290
     0
176
     1
290
     0
176
     1
290
     0
176
     1
290
     0
176
     1
290
     0
176
     1
 90
       50
176
     1
 40
0.0
176
     1
 40
1.0
176
     1
 90
        0
176
     1
 62
    18
420
        0
176
     1
 90
       50
176
     1
 90
        3
176
     1
 62
     5
420
      255
176
     1
290
     0
176
     1
 90
       50
176
     1
 90
       50
176
     1
 90
       50
176
     1
290
     0
176
     1
 90
       50
176
     1
 62
   256
176
     0
 40
1.0
176
     0
 90
        2
176
     1
  1
strokes_ogs.tif
176
     1
290
     0
176
     1
 40
1.0
176
     1
 40
1.0
176
     1
  0
DICTIONARYVAR
  5
DB
102
{ACAD_REACTORS
330
D6
102
}
330
D6
100
DictionaryVariables
280
     0
  1
1:1
  0
DICTIONARYVAR
  5
D8
102
{ACAD_REACTORS
330
D6
102
}
330
D6
100
DictionaryVariables
280
     0
  1
STANDARD
  0
DICTIONARYVAR
  5
D7
102
{ACAD_REACTORS
330
D6
102
}
330
D6
100
DictionaryVariables
280
     0
  1
STANDARD
  0
DICTIONARYVAR
  5
D9
102
{ACAD_REACTORS
330
D6
102
}
330
D6
100
DictionaryVariables
280
     0
  1
Imperial24
  0
DICTIONARYVAR
  5
DA
102
{ACAD_REACTORS
330
D6
102
}
330
D6
100
DictionaryVariables
280
     0
  1
Imperial24
  0
DICTIONARY
  5
1A
330
19
100
AcDbDictionary
280
     1
281
     1
  3
BUMPTILE
360
1C
  3
DIFFUSETILE
360
1B
  3
OPACITYTILE
360
1F
  3
REFLECTIONTILE
360
1E
  3
REFRACTIONTILE
360
20
  3
SPECULARTILE
360
1D
  0
DICTIONARY
  5
12
330
11
100
AcDbDictionary
280
     1
281
     1
  3
BUMPTILE
360
14
  3
DIFFUSETILE
360
13
  3
OPACITYTILE
360
17
  3
REFLECTIONTILE
360
16
  3
REFRACTIONTILE
360
18
  3
SPECULARTILE
360
15
  0
DICTIONARY
  5
22
330
21
100
AcDbDictionary
280
     1
281
     1
  3
BUMPTILE
360
24
  3
DIFFUSETILE
360
23
  3
OPACITYTILE
360
27
  3
REFLECTIONTILE
360
26
  3
REFRACTIONTILE
360
28
  3
SPECULARTILE
360
25
  0
DICTIONARY
  5
DC
330
65
100
AcDbDictionary
280
     1
281
     1
  3
ACAD_ROUNDTRIP_2008_TABLESTYLE_CELLSTYLEMAP
360
DD
  0
XRECORD
  5
1C
102
{ACAD_REACTORS
330
1A
102
}
330
1A
100
AcDbXrecord
280
     1
270
     1
271
     1
  0
XRECORD
  5
1B
102
{ACAD_REACTORS
330
1A
102
}
330
1A
100
AcDbXrecord
280
     1
270
     1
271
     1
  0
XRECORD
  5
1F
102
{ACAD_REACTORS
330
1A
102
}
330
1A
100
AcDbXrecord
280
     1
270
     1
271
     1
  0
XRECORD
  5
1E
102
{ACAD_REACTORS
330
1A
102
}
330
1A
100
AcDbXrecord
280
     1
270
     1
271
     1
  0
XRECORD
  5
20
102
{ACAD_REACTORS
330
1A
102
}
330
1A
100
AcDbXrecord
280
     1
270
     1
271
     1
  0
XRECORD
  5
1D
102
{ACAD_REACTORS
330
1A
102
}
330
1A
100
AcDbXrecord
280
     1
270
     1
271
     1
  0
XRECORD
  5
14
102
{ACAD_REACTORS
330
12
102
}
330
12
100
AcDbXrecord
280
     1
270
     1
271
     1
  0
XRECORD
  5
13
102
{ACAD_REACTORS
330
12
102
}
330
12
100
AcDbXrecord
280
     1
270
     1
271
     1
  0
XRECORD
  5
17
102
{ACAD_REACTORS
330
12
102
}
330
12
100
AcDbXrecord
280
     1
270
     1
271
     1
  0
XRECORD
  5
16
102
{ACAD_REACTORS
330
12
102
}
330
12
100
AcDbXrecord
280
     1
270
     1
271
     1
  0
XRECORD
  5
18
102
{ACAD_REACTORS
330
12
102
}
330
12
100
AcDbXrecord
280
     1
270
     1
271
     1
  0
XRECORD
  5
15
102
{ACAD_REACTORS
330
12
102
}
330
12
100
AcDbXrecord
280
     1
270
     1
271
     1
  0
XRECORD
  5
24
102
{ACAD_REACTORS
330
22
102
}
330
22
100
AcDbXrecord
280
     1
270
     1
271
     1
  0
XRECORD
  5
23
102
{ACAD_REACTORS
330
22
102
}
330
22
100
AcDbXrecord
280
     1
270
     1
271
     1
  0
XRECORD
  5
27
102
{ACAD_REACTORS
330
22
102
}
330
22
100
AcDbXrecord
280
     1
270
     1
271
     1
  0
XRECORD
  5
26
102
{ACAD_REACTORS
330
22
102
}
330
22
100
AcDbXrecord
280
     1
270
     1
271
     1
  0
XRECORD
  5
28
102
{ACAD_REACTORS
330
22
102
}
330
22
100
AcDbXrecord
280
     1
270
     1
271
     1
  0
XRECORD
  5
25
102
{ACAD_REACTORS
330
22
102
}
330
22
100
AcDbXrecord
280
     1
270
     1
271
     1
  0
CELLSTYLEMAP
  5
DD
102
{ACAD_REACTORS
330
DC
102
}
330
DC
100
AcDbCellStyleMap
 90
        3
300
CELLSTYLE
  1
TABLEFORMAT_BEGIN
 90
        5
170
     1
 91
        0
 92
    32768
 62
   257
 93
        1
300
CONTENTFORMAT
  1
CONTENTFORMAT_BEGIN
 90
        0
 91
        0
 92
      512
 93
        0
300

 40
0.0
140
1.0
 94
        5
 62
     0
340
55
144
0.25
309
CONTENTFORMAT_END
171
     0
 94
        0
309
TABLEFORMAT_END
  1
CELLSTYLE_BEGIN
 90
        1
 91
        1
300
_TITLE
309
CELLSTYLE_END
300
CELLSTYLE
  1
TABLEFORMAT_BEGIN
 90
        5
170
     1
 91
        0
 92
        0
 62
   257
 93
        1
300
CONTENTFORMAT
  1
CONTENTFORMAT_BEGIN
 90
        0
 91
        0
 92
      512
 93
        0
300

 40
0.0
140
1.0
 94
        5
 62
     0
340
55
144
0.18
309
CONTENTFORMAT_END
171
     0
 94
        0
309
TABLEFORMAT_END
  1
CELLSTYLE_BEGIN
 90
        2
 91
        1
300
_HEADER
309
CELLSTYLE_END
300
CELLSTYLE
  1
TABLEFORMAT_BEGIN
 90
        5
170
     1
 91
        0
 92
        0
 62
   257
 93
        1
300
CONTENTFORMAT
  1
CONTENTFORMAT_BEGIN
 90
        0
 91
        0
 92
      512
 93
        0
300

 40
0.0
140
1.0
 94
        2
 62
     0
340
55
144
0.18
309
CONTENTFORMAT_END
171
     0
 94
        0
309
TABLEFORMAT_END
  1
CELLSTYLE_BEGIN
 90
        3
 91
        2
300
_DATA
309
CELLSTYLE_END
  0
ENDSEC
  0
EOF
