  0
SECTION
  2
HEADER
  9
$ACADVER
  1
AC1024
  9
$ACADMAINTVER
 70
     6
  9
$DWGCODEPAGE
  3
ANSI_1252
  9
$INSBASE
 10
0.0
 20
0.0
 30
0.0
  9
$EXTMIN
 10
1.000000000000000E+20
 20
1.000000000000000E+20
 30
1.000000000000000E+20
  9
$EXTMAX
 10
-1.000000000000000E+20
 20
-1.000000000000000E+20
 30
-1.000000000000000E+20
  9
$LIMMIN
 10
0.0
 20
0.0
  9
$LIMMAX
 10
12.0
 20
9.0
  9
$ORTHOMODE
 70
     0
  9
$REGENMODE
 70
     1
  9
$FILLMODE
 70
     1
  9
$QTEXTMODE
 70
     0
  9
$MIRRTEXT
 70
     1
  9
$LTSCALE
 40
1.0
  9
$ATTMODE
 70
     1
  9
$TEXTSIZE
 40
0.2
  9
$TRACEWID
 40
0.05
  9
$TEXTSTYLE
  7
Standard
  9
$CLAYER
  8
0
  9
$CELTYPE
  6
ByLayer
  9
$CECOLOR
 62
   256
  9
$CELTSCALE
 40
1.0
  9
$DISPSILH
 70
     0
  9
$DIMSCALE
 40
1.0
  9
$DIMASZ
 40
0.18
  9
$DIMEXO
 40
0.0625
  9
$DIMDLI
 40
0.38
  9
$DIMRND
 40
0.0
  9
$DIMDLE
 40
0.0
  9
$DIMEXE
 40
0.18
  9
$DIMTP
 40
0.0
  9
$DIMTM
 40
0.0
  9
$DIMTXT
 40
0.18
  9
$DIMCEN
 40
0.09
  9
$DIMTSZ
 40
0.0
  9
$DIMTOL
 70
     0
  9
$DIMLIM
 70
     0
  9
$DIMTIH
 70
     1
  9
$DIMTOH
 70
     1
  9
$DIMSE1
 70
     0
  9
$DIMSE2
 70
     0
  9
$DIMTAD
 70
     0
  9
$DIMZIN
 70
     0
  9
$DIMBLK
  1

  9
$DIMASO
 70
     1
  9
$DIMSHO
 70
     1
  9
$DIMPOST
  1

  9
$DIMAPOST
  1

  9
$DIMALT
 70
     0
  9
$DIMALTD
 70
     2
  9
$DIMALTF
 40
25.4
  9
$DIMLFAC
 40
1.0
  9
$DIMTOFL
 70
     0
  9
$DIMTVP
 40
0.0
  9
$DIMTIX
 70
     0
  9
$DIMSOXD
 70
     0
  9
$DIMSAH
 70
     0
  9
$DIMBLK1
  1

  9
$DIMBLK2
  1

  9
$DIMSTYLE
  2
Standard
  9
$DIMCLRD
 70
     0
  9
$DIMCLRE
 70
     0
  9
$DIMCLRT
 70
     0
  9
$DIMTFAC
 40
1.0
  9
$DIMGAP
 40
0.09
  9
$DIMJUST
 70
     0
  9
$DIMSD1
 70
     0
  9
$DIMSD2
 70
     0
  9
$DIMTOLJ
 70
     1
  9
$DIMTZIN
 70
     0
  9
$DIMALTZ
 70
     0
  9
$DIMALTTZ
 70
     0
  9
$DIMUPT
 70
     0
  9
$DIMDEC
 70
     4
  9
$DIMTDEC
 70
     4
  9
$DIMALTU
 70
     2
  9
$DIMALTTD
 70
     2
  9
$DIMTXSTY
  7
Standard
  9
$DIMAUNIT
 70
     0
  9
$DIMADEC
 70
     0
  9
$DIMALTRND
 40
0.0
  9
$DIMAZIN
 70
     0
  9
$DIMDSEP
 70
    46
  9
$DIMATFIT
 70
     3
  9
$DIMFRAC
 70
     0
  9
$DIMLDRBLK
  1

  9
$DIMLUNIT
 70
     2
  9
$DIMLWD
 70
    -2
  9
$DIMLWE
 70
    -2
  9
$DIMTMOVE
 70
     0
  9
$DIMFXL
 40
1.0
  9
$DIMFXLON
 70
     0
  9
$DIMJOGANG
 40
0.7853981633974483
  9
$DIMTFILL
 70
     0
  9
$DIMTFILLCLR
 70
     0
  9
$DIMARCSYM
 70
     0
  9
$DIMLTYPE
  6

  9
$DIMLTEX1
  6

  9
$DIMLTEX2
  6

  9
$DIMTXTDIRECTION
 70
     0
  9
$LUNITS
 70
     2
  9
$LUPREC
 70
     4
  9
$SKETCHINC
 40
0.1
  9
$FILLETRAD
 40
0.5
  9
$AUNITS
 70
     0
  9
$AUPREC
 70
     0
  9
$MENU
  1
.
  9
$ELEVATION
 40
0.0
  9
$PELEVATION
 40
0.0
  9
$THICKNESS
 40
0.0
  9
$LIMCHECK
 70
     0
  9
$CHAMFERA
 40
0.5
  9
$CHAMFERB
 40
0.5
  9
$CHAMFERC
 40
1.0
  9
$CHAMFERD
 40
0.0
  9
$SKPOLY
 70
     0
  9
$TDCREATE
 40
2458788.654775613
  9
$TDUCREATE
 40
2458788.113108947
  9
$TDUPDATE
 40
2458788.654775729
  9
$TDUUPDATE
 40
2458788.113109062
  9
$TDINDWG
 40
0.0000000116
  9
$TDUSRTIMER
 40
0.0000000116
  9
$USRTIMER
 70
     1
  9
$ANGBASE
 50
0.0
  9
$ANGDIR
 70
     0
  9
$PDMODE
 70
     0
  9
$PDSIZE
 40
0.0
  9
$PLINEWID
 40
0.0
  9
$SPLFRAME
 70
     0
  9
$SPLINETYPE
 70
     6
  9
$SPLINESEGS
 70
     8
  9
$HANDSEED
  5
1ED
  9
$SURFTAB1
 70
     6
  9
$SURFTAB2
 70
     6
  9
$SURFTYPE
 70
     6
  9
$SURFU
 70
     6
  9
$SURFV
 70
     6
  9
$UCSBASE
  2

  9
$UCSNAME
  2

  9
$UCSORG
 10
0.0
 20
0.0
 30
0.0
  9
$UCSXDIR
 10
1.0
 20
0.0
 30
0.0
  9
$UCSYDIR
 10
0.0
 20
1.0
 30
0.0
  9
$UCSORTHOREF
  2

  9
$UCSORTHOVIEW
 70
     0
  9
$UCSORGTOP
 10
0.0
 20
0.0
 30
0.0
  9
$UCSORGBOTTOM
 10
0.0
 20
0.0
 30
0.0
  9
$UCSORGLEFT
 10
0.0
 20
0.0
 30
0.0
  9
$UCSORGRIGHT
 10
0.0
 20
0.0
 30
0.0
  9
$UCSORGFRONT
 10
0.0
 20
0.0
 30
0.0
  9
$UCSORGBACK
 10
0.0
 20
0.0
 30
0.0
  9
$PUCSBASE
  2

  9
$PUCSNAME
  2

  9
$PUCSORG
 10
0.0
 20
0.0
 30
0.0
  9
$PUCSXDIR
 10
1.0
 20
0.0
 30
0.0
  9
$PUCSYDIR
 10
0.0
 20
1.0
 30
0.0
  9
$PUCSORTHOREF
  2

  9
$PUCSORTHOVIEW
 70
     0
  9
$PUCSORGTOP
 10
0.0
 20
0.0
 30
0.0
  9
$PUCSORGBOTTOM
 10
0.0
 20
0.0
 30
0.0
  9
$PUCSORGLEFT
 10
0.0
 20
0.0
 30
0.0
  9
$PUCSORGRIGHT
 10
0.0
 20
0.0
 30
0.0
  9
$PUCSORGFRONT
 10
0.0
 20
0.0
 30
0.0
  9
$PUCSORGBACK
 10
0.0
 20
0.0
 30
0.0
  9
$USERI1
 70
     0
  9
$USERI2
 70
     0
  9
$USERI3
 70
     0
  9
$USERI4
 70
     0
  9
$USERI5
 70
     0
  9
$USERR1
 40
0.0
  9
$USERR2
 40
0.0
  9
$USERR3
 40
0.0
  9
$USERR4
 40
0.0
  9
$USERR5
 40
0.0
  9
$WORLDVIEW
 70
     1
  9
$SHADEDGE
 70
     3
  9
$SHADEDIF
 70
    70
  9
$TILEMODE
 70
     1
  9
$MAXACTVP
 70
    64
  9
$PINSBASE
 10
0.0
 20
0.0
 30
0.0
  9
$PLIMCHECK
 70
     0
  9
$PEXTMIN
 10
1.000000000000000E+20
 20
1.000000000000000E+20
 30
1.000000000000000E+20
  9
$PEXTMAX
 10
-1.000000000000000E+20
 20
-1.000000000000000E+20
 30
-1.000000000000000E+20
  9
$PLIMMIN
 10
0.0
 20
0.0
  9
$PLIMMAX
 10
12.0
 20
9.0
  9
$UNITMODE
 70
     0
  9
$VISRETAIN
 70
     1
  9
$PLINEGEN
 70
     0
  9
$PSLTSCALE
 70
     1
  9
$TREEDEPTH
 70
  3020
  9
$CMLSTYLE
  2
Standard
  9
$CMLJUST
 70
     0
  9
$CMLSCALE
 40
1.0
  9
$PROXYGRAPHICS
 70
     1
  9
$MEASUREMENT
 70
     0
  9
$CELWEIGHT
370
    -1
  9
$ENDCAPS
280
     0
  9
$JOINSTYLE
280
     0
  9
$LWDISPLAY
290
     1
  9
$INSUNITS
 70
     1
  9
$HYPERLINKBASE
  1

  9
$STYLESHEET
  1

  9
$XEDIT
290
     1
  9
$CEPSNTYPE
380
     0
  9
$PSTYLEMODE
290
     1
  9
$FINGERPRINTGUID
  2
{D9C636C3-7B05-468D-A3D5-CEC6989D3F6E}
  9
$VERSIONGUID
  2
{FAEB1C32-E019-11D5-929B-00C0DF256EC4}
  9
$EXTNAMES
290
     1
  9
$PSVPSCALE
 40
0.0
  9
$OLESTARTUP
290
     0
  9
$SORTENTS
280
   127
  9
$INDEXCTL
280
     0
  9
$HIDETEXT
280
     1
  9
$XCLIPFRAME
280
     2
  9
$HALOGAP
280
     0
  9
$OBSCOLOR
 70
   257
  9
$OBSLTYPE
280
     0
  9
$INTERSECTIONDISPLAY
280
     0
  9
$INTERSECTIONCOLOR
 70
   257
  9
$DIMASSOC
280
     2
  9
$PROJECTNAME
  1

  9
$CAMERADISPLAY
290
     0
  9
$LENSLENGTH
 40
50.0
  9
$CAMERAHEIGHT
 40
0.0
  9
$STEPSPERSEC
 40
2.0
  9
$STEPSIZE
 40
6.0
  9
$3DDWFPREC
 40
2.0
  9
$PSOLWIDTH
 40
0.25
  9
$PSOLHEIGHT
 40
4.0
  9
$LOFTANG1
 40
1.570796326794897
  9
$LOFTANG2
 40
1.570796326794897
  9
$LOFTMAG1
 40
0.0
  9
$LOFTMAG2
 40
0.0
  9
$LOFTPARAM
 70
     7
  9
$LOFTNORMALS
280
     1
  9
$LATITUDE
 40
37.795
  9
$LONGITUDE
 40
-122.394
  9
$NORTHDIRECTION
 40
0.0
  9
$TIMEZONE
 70
 -8000
  9
$LIGHTGLYPHDISPLAY
280
     1
  9
$TILEMODELIGHTSYNCH
280
     1
  9
$CMATERIAL
347
3C
  9
$SOLIDHIST
280
     1
  9
$SHOWHIST
280
     1
  9
$DWFFRAME
280
     2
  9
$DGNFRAME
280
     2
  9
$REALWORLDSCALE
290
     1
  9
$INTERFERECOLOR
 62
   256
  9
$CSHADOW
280
     0
  9
$SHADOWPLANELOCATION
 40
0.0
  0
ENDSEC
  0
SECTION
  2
CLASSES
  0
CLASS
  1
ACDBDICTIONARYWDFLT
  2
AcDbDictionaryWithDefault
  3
ObjectDBX Classes
 90
        0
 91
        4
280
     0
281
     0
  0
CLASS
  1
VISUALSTYLE
  2
AcDbVisualStyle
  3
ObjectDBX Classes
 90
     4095
 91
        4
280
     0
281
     0
  0
CLASS
  1
MATERIAL
  2
AcDbMaterial
  3
ObjectDBX Classes
 90
     1153
 91
        4
280
     0
281
     0
  0
CLASS
  1
SUN
  2
AcDbSun
  3
SCENEOE
 90
     1024
 91
        4
280
     0
281
     0
  0
ENDSEC
  0
SECTION
  2
TABLES
  0
TABLE
  2
VPORT
  5
8
330
0
100
AcDbSymbolTable
 70
     1
  0
VPORT
  5
29
330
8
100
AcDbSymbolTableRecord
100
AcDbViewportTableRecord
  2
*Active
 70
     0
 10
0.0
 20
0.0
 11
1.0
 21
1.0
 12
0.0
 22
0.0
 13
0.0
 23
0.0
 14
0.5
 24
0.5
 15
0.5
 25
0.5
 16
0.0
 26
0.0
 36
1.0
 17
4.243055555555555
 27
5.506944444444444
 37
0.0
 40
11.69291338582677
 41
0.7070707070707065
 42
50.0
 43
0.0
 44
0.0
 50
0.0
 51
0.0
 71
     0
 72
   100
 73
     1
 74
     3
 75
     0
 76
     0
 77
     0
 78
     0
281
     0
 65
     1
110
0.0
120
0.0
130
0.0
111
1.0
121
0.0
131
0.0
112
0.0
122
1.0
132
0.0
 79
     0
146
0.0
 60
     3
 61
     5
292
     1
282
     1
141
0.0
142
0.0
 63
   250
361
3F
  0
ENDTAB
  0
TABLE
  2
LTYPE
  5
5
330
0
100
AcDbSymbolTable
 70
     2
  0
LTYPE
  5
14
330
5
100
AcDbSymbolTableRecord
100
AcDbLinetypeTableRecord
  2
ByBlock
 70
     0
  3

 72
    65
 73
     0
 40
0.0
  0
LTYPE
  5
15
330
5
100
AcDbSymbolTableRecord
100
AcDbLinetypeTableRecord
  2
ByLayer
 70
     0
  3

 72
    65
 73
     0
 40
0.0
  0
LTYPE
  5
16
330
5
100
AcDbSymbolTableRecord
100
AcDbLinetypeTableRecord
  2
Continuous
 70
     0
  3
Solid line
 72
    65
 73
     0
 40
0.0
  0
LTYPE
  5
12B
330
5
100
AcDbSymbolTableRecord
100
AcDbLinetypeTableRecord
  2
AI-Linetype-1
 70
     0
  3
Adobe Illustrator Linetype No. 1
 72
    65
 73
     6
 40
0.5544128517309824
 49
0.147843427128262
 74
     0
 49
-0.0369608567820655
 74
     0
 49
0.147843427128262
 74
     0
 49
-0.0369608567820655
 74
     0
 49
0.147843427128262
 74
     0
 49
-0.0369608567820655
 74
     0
  0
ENDTAB
  0
TABLE
  2
LAYER
  5
2
330
0
100
AcDbSymbolTable
 70
     3
  0
LAYER
  5
10
330
2
100
AcDbSymbolTableRecord
100
AcDbLayerTableRecord
  2
0
 70
     0
 62
     7
  6
Continuous
370
    -3
390
F
347
3E
  0
LAYER
  5
40
330
2
100
AcDbSymbolTableRecord
100
AcDbLayerTableRecord
  2
Layer 1
 70
     0
 62
     7
  6
Continuous
370
    -3
390
F
347
3E
  0
LAYER
  5
1D5
330
2
100
AcDbSymbolTableRecord
100
AcDbLayerTableRecord
  2
callout
 70
     0
 62
     7
  6
Continuous
370
    -3
390
F
347
3E
  0
ENDTAB
  0
TABLE
  2
STYLE
  5
3
330
0
100
AcDbSymbolTable
 70
     1
  0
STYLE
  5
11
330
3
100
AcDbSymbolTableRecord
100
AcDbTextStyleTableRecord
  2
Standard
 70
     0
 40
0.0
 41
1.0
 50
0.0
 71
     0
 42
0.2
  3
txt
  4

  0
ENDTAB
  0
TABLE
  2
VIEW
  5
6
330
0
100
AcDbSymbolTable
 70
     0
  0
ENDTAB
  0
TABLE
  2
UCS
  5
7
330
0
100
AcDbSymbolTable
 70
     0
  0
ENDTAB
  0
TABLE
  2
APPID
  5
9
330
0
100
AcDbSymbolTable
 70
     1
  0
APPID
  5
12
330
9
100
AcDbSymbolTableRecord
100
AcDbRegAppTableRecord
  2
ACAD
 70
     0
  0
ENDTAB
  0
TABLE
  2
DIMSTYLE
  5
A
330
0
100
AcDbSymbolTable
 70
     1
100
AcDbDimStyleTable
  0
DIMSTYLE
105
27
330
A
100
AcDbSymbolTableRecord
100
AcDbDimStyleTableRecord
  2
Standard
 70
     0
178
     0
340
11
  0
ENDTAB
  0
TABLE
  2
BLOCK_RECORD
  5
1
330
0
100
AcDbSymbolTable
 70
     5
  0
BLOCK_RECORD
  5
1F
330
1
100
AcDbSymbolTableRecord
100
AcDbBlockTableRecord
  2
*Model_Space
340
22
 70
     0
280
     1
281
     0
  0
BLOCK_RECORD
  5
1B
330
1
100
AcDbSymbolTableRecord
100
AcDbBlockTableRecord
  2
*Paper_Space
340
1E
 70
     0
280
     1
281
     0
  0
BLOCK_RECORD
  5
23
330
1
100
AcDbSymbolTableRecord
100
AcDbBlockTableRecord
  2
*Paper_Space0
340
26
 70
     0
280
     1
281
     0
  0
BLOCK_RECORD
  5
139
330
1
100
AcDbSymbolTableRecord
100
AcDbBlockTableRecord
  2
block 2
340
0
102
{BLKREFS
331
13A
102
}
 70
     0
280
     1
281
     0
  0
BLOCK_RECORD
  5
143
330
1
100
AcDbSymbolTableRecord
100
AcDbBlockTableRecord
  2
block 3
340
0
102
{BLKREFS
331
144
102
}
 70
     0
280
     1
281
     0
  0
BLOCK_RECORD
  5
15D
330
1
100
AcDbSymbolTableRecord
100
AcDbBlockTableRecord
  2
block 4
340
0
102
{BLKREFS
331
15E
102
}
 70
     0
280
     1
281
     0
  0
BLOCK_RECORD
  5
167
330
1
100
AcDbSymbolTableRecord
100
AcDbBlockTableRecord
  2
block 5
340
0
102
{BLKREFS
331
168
102
}
 70
     0
280
     1
281
     0
  0
ENDTAB
  0
ENDSEC
  0
SECTION
  2
BLOCKS
  0
BLOCK
  5
20
330
1F
100
AcDbEntity
  8
0
100
AcDbBlockBegin
  2
*Model_Space
 70
     0
 10
0.0
 20
0.0
 30
0.0
  3
*Model_Space
  1

  0
ENDBLK
  5
21
330
1F
100
AcDbEntity
  8
0
100
AcDbBlockEnd
  0
BLOCK
  5
1C
330
1B
100
AcDbEntity
 67
     1
  8
0
100
AcDbBlockBegin
  2
*Paper_Space
 70
     0
 10
0.0
 20
0.0
 30
0.0
  3
*Paper_Space
  1

  0
ENDBLK
  5
1D
330
1B
100
AcDbEntity
 67
     1
  8
0
100
AcDbBlockEnd
  0
BLOCK
  5
24
330
23
100
AcDbEntity
  8
0
100
AcDbBlockBegin
  2
*Paper_Space0
 70
     0
 10
0.0
 20
0.0
 30
0.0
  3
*Paper_Space0
  1

  0
ENDBLK
  5
25
330
23
100
AcDbEntity
  8
0
100
AcDbBlockEnd
  0
BLOCK
  5
13B
330
139
100
AcDbEntity
  8
0
100
AcDbBlockBegin
  2
block 2
 70
     0
 10
0.0
 20
0.0
 30
0.0
  3
block 2
  1

  0
SPLINE
  5
13D
330
139
100
AcDbEntity
  8
Layer 1
 62
     7
420
 16777215
370
    35
100
AcDbSpline
210
0.0
220
0.0
230
1.0
 70
    11
 71
     3
 72
    17
 73
    13
 74
     0
 42
0.0000000001
 43
0.0000000001
 12
1.0
 22
0.0
 32
0.0
 13
1.0
 23
0.0
 33
0.0
 40
0.0
 40
0.0
 40
0.0
 40
0.0
 40
1.0
 40
1.0
 40
1.0
 40
2.0
 40
2.0
 40
2.0
 40
3.0
 40
3.0
 40
3.0
 40
4.0
 40
4.0
 40
4.0
 40
4.0
 10
5.492308071675299
 20
5.576245147615686
 30
0.0
 10
5.481524742395676
 20
5.576097304197977
 30
0.0
 10
5.472658757439553
 20
5.585437090531134
 30
0.0
 10
5.47250167380821
 20
5.597123410261221
 30
0.0
 10
5.472344590176893
 20
5.60879842015394
 30
0.0
 10
5.480937988831607
 20
5.618385141771417
 30
0.0
 10
5.491698217577222
 20
5.618530675135755
 30
0.0
 10
5.502481546856845
 20
5.618690068820468
 30
0.0
 10
5.511326741332368
 20
5.609338972649968
 30
0.0
 10
5.511483824963685
 20
5.597663962757224
 30
0.0
 10
5.511640908595028
 20
5.585988952864505
 30
0.0
 10
5.503047509940289
 20
5.576402231247003
 30
0.0
 10
5.492308071675299
 20
5.576245147615686
 30
0.0
  0
HATCH
  5
13E
330
139
100
AcDbEntity
  8
Layer 1
 62
   254
420
 13358815
100
AcDbHatch
 10
0.0
 20
0.0
 30
0.0
210
0.0
220
0.0
230
1.0
  2
SOLID
 70
     1
 71
     0
 91
        1
 92
        1
 93
        1
 72
     4
 94
        3
 73
     0
 74
     1
 95
       17
 96
       13
 40
0.0
 40
0.0
 40
0.0
 40
0.0
 40
1.0
 40
1.0
 40
1.0
 40
2.0
 40
2.0
 40
2.0
 40
3.0
 40
3.0
 40
3.0
 40
4.0
 40
4.0
 40
4.0
 40
4.0
 10
5.492308071675299
 20
5.576245147615686
 10
5.481524742395676
 20
5.576097304197977
 10
5.472658757439553
 20
5.585437090531134
 10
5.47250167380821
 20
5.597123410261221
 10
5.472344590176893
 20
5.60879842015394
 10
5.480937988831607
 20
5.618385141771417
 10
5.491698217577222
 20
5.618530675135755
 10
5.502481546856845
 20
5.618690068820468
 10
5.511326741332368
 20
5.609338972649968
 10
5.511483824963685
 20
5.597663962757224
 10
5.511640908595028
 20
5.585988952864505
 10
5.503047509940289
 20
5.576402231247003
 10
5.492308071675299
 20
5.576245147615686
 97
        0
 97
        0
 75
     2
 76
     1
 98
        0
  0
SPLINE
  5
13F
330
139
100
AcDbEntity
  8
Layer 1
 62
     7
420
 16777215
370
    35
100
AcDbSpline
210
0.0
220
0.0
230
1.0
 70
    11
 71
     3
 72
    38
 73
    34
 74
     0
 42
0.0000000001
 43
0.0000000001
 12
1.0
 22
0.0
 32
0.0
 13
1.0
 23
0.0
 33
0.0
 40
0.0
 40
0.0
 40
0.0
 40
0.0
 40
1.0
 40
1.0
 40
1.0
 40
2.0
 40
2.0
 40
2.0
 40
3.0
 40
3.0
 40
3.0
 40
4.0
 40
4.0
 40
4.0
 40
5.0
 40
5.0
 40
5.0
 40
6.0
 40
6.0
 40
6.0
 40
7.0
 40
7.0
 40
7.0
 40
8.0
 40
8.0
 40
8.0
 40
9.0
 40
9.0
 40
9.0
 40
10.0
 40
10.0
 40
10.0
 40
11.0
 40
11.0
 40
11.0
 40
11.0
 10
5.434986406562883
 20
5.447263315925865
 30
0.0
 10
5.434986406562883
 20
5.447263315925865
 30
0.0
 10
5.42201314665835
 20
5.557023432971164
 30
0.0
 10
5.42201314665835
 20
5.557023432971164
 30
0.0
 10
5.420615746423664
 20
5.565697443783038
 30
0.0
 10
5.421539767807745
 20
5.571010566607204
 30
0.0
 10
5.428534427411654
 20
5.576684057762021
 30
0.0
 10
5.436723566721057
 20
5.583327771345631
 30
0.0
 10
5.459734008656445
 20
5.598599534384953
 30
0.0
 10
5.491991594359257
 20
5.599052304851713
 30
0.0
 10
5.524230699634851
 20
5.599502765265066
 30
0.0
 10
5.547375124667547
 20
5.584602920823436
 30
0.0
 10
5.555744448142301
 20
5.578194832686803
 30
0.0
 10
5.562873272940275
 20
5.572724626231345
 30
0.0
 10
5.563956687985713
 20
5.567434603941188
 30
0.0
 10
5.562806281391608
 20
5.558716462402799
 30
0.0
 10
5.562806281391608
 20
5.558716462402799
 30
0.0
 10
5.553106367157422
 20
5.448774327827904
 30
0.0
 10
5.553106367157422
 20
5.448774327827904
 30
0.0
 10
5.552722898292737
 20
5.444994843485296
 30
0.0
 10
5.550893335998504
 20
5.443417077011847
 30
0.0
 10
5.54683457217152
 20
5.440979970672944
 30
0.0
 10
5.54683457217152
 20
5.440979970672944
 30
0.0
 10
5.559398952623951
 20
4.54435584329604
 30
0.0
 10
5.559398952623951
 20
4.54435584329604
 30
0.0
 10
5.559398952623951
 20
4.54435584329604
 30
0.0
 10
5.451002006797605
 20
4.542731875754574
 30
0.0
 10
5.451002006797605
 20
4.542731875754574
 30
0.0
 10
5.451002006797605
 20
4.542731875754574
 30
0.0
 10
5.438437626345199
 20
5.440843677522253
 30
0.0
 10
5.438437626345199
 20
5.440843677522253
 30
0.0
 10
5.436316997322339
 20
5.442389103248059
 30
0.0
 10
5.435007379480465
 20
5.445412963151006
 30
0.0
 10
5.434986406562883
 20
5.447263315925865
 30
0.0
  0
HATCH
  5
140
330
139
100
AcDbEntity
  8
Layer 1
 62
   254
420
 13358815
100
AcDbHatch
 10
0.0
 20
0.0
 30
0.0
210
0.0
220
0.0
230
1.0
  2
SOLID
 70
     1
 71
     0
 91
        1
 92
        1
 93
        1
 72
     4
 94
        3
 73
     0
 74
     1
 95
       38
 96
       34
 40
0.0
 40
0.0
 40
0.0
 40
0.0
 40
1.0
 40
1.0
 40
1.0
 40
2.0
 40
2.0
 40
2.0
 40
3.0
 40
3.0
 40
3.0
 40
4.0
 40
4.0
 40
4.0
 40
5.0
 40
5.0
 40
5.0
 40
6.0
 40
6.0
 40
6.0
 40
7.0
 40
7.0
 40
7.0
 40
8.0
 40
8.0
 40
8.0
 40
9.0
 40
9.0
 40
9.0
 40
10.0
 40
10.0
 40
10.0
 40
11.0
 40
11.0
 40
11.0
 40
11.0
 10
5.434986406562883
 20
5.447263315925865
 10
5.434986406562883
 20
5.447263315925865
 10
5.42201314665835
 20
5.557023432971164
 10
5.42201314665835
 20
5.557023432971164
 10
5.420615746423664
 20
5.565697443783038
 10
5.421539767807745
 20
5.571010566607204
 10
5.428534427411654
 20
5.576684057762021
 10
5.436723566721057
 20
5.583327771345631
 10
5.459734008656445
 20
5.598599534384953
 10
5.491991594359257
 20
5.599052304851713
 10
5.524230699634851
 20
5.599502765265066
 10
5.547375124667547
 20
5.584602920823436
 10
5.555744448142301
 20
5.578194832686803
 10
5.562873272940275
 20
5.572724626231345
 10
5.563956687985713
 20
5.567434603941188
 10
5.562806281391608
 20
5.558716462402799
 10
5.562806281391608
 20
5.558716462402799
 10
5.553106367157422
 20
5.448774327827904
 10
5.553106367157422
 20
5.448774327827904
 10
5.552722898292737
 20
5.444994843485296
 10
5.550893335998504
 20
5.443417077011847
 10
5.54683457217152
 20
5.440979970672944
 10
5.54683457217152
 20
5.440979970672944
 10
5.559398952623951
 20
4.54435584329604
 10
5.559398952623951
 20
4.54435584329604
 10
5.559398952623951
 20
4.54435584329604
 10
5.451002006797605
 20
4.542731875754574
 10
5.451002006797605
 20
4.542731875754574
 10
5.451002006797605
 20
4.542731875754574
 10
5.438437626345199
 20
5.440843677522253
 10
5.438437626345199
 20
5.440843677522253
 10
5.436316997322339
 20
5.442389103248059
 10
5.435007379480465
 20
5.445412963151006
 10
5.434986406562883
 20
5.447263315925865
 97
        0
 97
        0
 75
     2
 76
     1
 98
        0
  0
SPLINE
  5
141
330
139
100
AcDbEntity
  8
Layer 1
 62
     7
420
 16777215
370
    25
100
AcDbSpline
210
0.0
220
0.0
230
1.0
 70
     8
 71
     3
 72
    11
 73
     7
 74
     0
 42
0.0000000001
 43
0.0000000001
 12
1.0
 22
0.0
 32
0.0
 13
1.0
 23
0.0
 33
0.0
 40
0.0
 40
0.0
 40
0.0
 40
0.0
 40
1.0
 40
1.0
 40
1.0
 40
2.0
 40
2.0
 40
2.0
 40
2.0
 10
5.435189691262242
 20
5.446269992963076
 30
0.0
 10
5.43505358054967
 20
5.455891365381603
 30
0.0
 10
5.461334875663902
 20
5.464588716439392
 30
0.0
 10
5.493911248736165
 20
5.465050727119761
 30
0.0
 10
5.526462395968312
 20
5.465501187533113
 30
0.0
 10
5.552970074006731
 20
5.458069745739496
 30
0.0
 10
5.553106367157422
 20
5.448446063267586
 30
0.0
  0
SPLINE
  5
142
330
139
100
AcDbEntity
  8
Layer 1
 62
     7
420
 16777215
370
    25
100
AcDbSpline
210
0.0
220
0.0
230
1.0
 70
     8
 71
     3
 72
    11
 73
     7
 74
     0
 42
0.0000000001
 43
0.0000000001
 12
1.0
 22
0.0
 32
0.0
 13
1.0
 23
0.0
 33
0.0
 40
0.0
 40
0.0
 40
0.0
 40
0.0
 40
1.0
 40
1.0
 40
1.0
 40
2.0
 40
2.0
 40
2.0
 40
2.0
 10
5.438571609442508
 20
5.440517959992601
 30
0.0
 10
5.438460726879208
 20
5.449349294147699
 30
0.0
 10
5.462552273806649
 20
5.456850037543366
 30
0.0
 10
5.492444364826016
 20
5.457268157209076
 30
0.0
 10
5.522311045257967
 20
5.457686276874811
 30
0.0
 10
5.546654388006194
 20
5.450860069072481
 30
0.0
 10
5.546765270569469
 20
5.442040285184374
 30
0.0
  0
ENDBLK
  5
13C
330
139
100
AcDbEntity
  8
0
100
AcDbBlockEnd
  0
BLOCK
  5
145
330
143
100
AcDbEntity
  8
0
100
AcDbBlockBegin
  2
block 3
 70
     0
 10
0.0
 20
0.0
 30
0.0
  3
block 3
  1

  0
SPLINE
  5
147
330
143
100
AcDbEntity
  8
Layer 1
 62
     7
420
 16777215
370
    30
100
AcDbSpline
210
0.0
220
0.0
230
1.0
 70
    11
 71
     3
 72
    65
 73
    61
 74
     0
 42
0.0000000001
 43
0.0000000001
 12
1.0
 22
0.0
 32
0.0
 13
1.0
 23
0.0
 33
0.0
 40
0.0
 40
0.0
 40
0.0
 40
0.0
 40
1.0
 40
1.0
 40
1.0
 40
2.0
 40
2.0
 40
2.0
 40
3.0
 40
3.0
 40
3.0
 40
4.0
 40
4.0
 40
4.0
 40
5.0
 40
5.0
 40
5.0
 40
6.0
 40
6.0
 40
6.0
 40
7.0
 40
7.0
 40
7.0
 40
8.0
 40
8.0
 40
8.0
 40
9.0
 40
9.0
 40
9.0
 40
10.0
 40
10.0
 40
10.0
 40
11.0
 40
11.0
 40
11.0
 40
12.0
 40
12.0
 40
12.0
 40
13.0
 40
13.0
 40
13.0
 40
14.0
 40
14.0
 40
14.0
 40
15.0
 40
15.0
 40
15.0
 40
16.0
 40
16.0
 40
16.0
 40
17.0
 40
17.0
 40
17.0
 40
18.0
 40
18.0
 40
18.0
 40
19.0
 40
19.0
 40
19.0
 40
20.0
 40
20.0
 40
20.0
 40
20.0
 10
5.551323005931232
 20
5.367178384592054
 30
0.0
 10
5.551323005931232
 20
5.367178384592054
 30
0.0
 10
5.574874000362645
 20
5.359892476162764
 30
0.0
 10
5.574874000362645
 20
5.359892476162764
 30
0.0
 10
5.574874000362645
 20
5.359892476162764
 30
0.0
 10
5.58398947108617
 20
5.348746468499055
 30
0.0
 10
5.58398947108617
 20
5.348746468499055
 30
0.0
 10
5.58398947108617
 20
5.348746468499055
 30
0.0
 10
5.584710207747523
 20
5.29705209347344
 30
0.0
 10
5.584710207747523
 20
5.29705209347344
 30
0.0
 10
5.584710207747523
 20
5.29705209347344
 30
0.0
 10
5.576363984806802
 20
5.28769175708933
 30
0.0
 10
5.576363984806802
 20
5.28769175708933
 30
0.0
 10
5.576363984806802
 20
5.28769175708933
 30
0.0
 10
5.570588851302293
 20
5.285016715250018
 30
0.0
 10
5.570588851302293
 20
5.285016715250018
 30
0.0
 10
5.570588851302293
 20
5.285016715250018
 30
0.0
 10
5.550218800405168
 20
5.28895535630012
 30
0.0
 10
5.550218800405168
 20
5.28895535630012
 30
0.0
 10
5.54663128747216
 20
5.289800835845173
 30
0.0
 10
5.546968555268828
 20
5.292619100995378
 30
0.0
 10
5.545187504096045
 20
5.294402462221569
 30
0.0
 10
5.540179308320931
 20
5.300200696260086
 30
0.0
 10
5.517619326798896
 20
5.306775341631717
 30
0.0
 10
5.492174088577991
 20
5.306414739910957
 30
0.0
 10
5.466703439769693
 20
5.306065921847297
 30
0.0
 10
5.449130863542146
 20
5.301281801252141
 30
0.0
 10
5.446920142436611
 20
5.299445308797709
 30
0.0
 10
5.444709604013142
 20
5.297606506289867
 30
0.0
 10
5.439338547171903
 20
5.297075194007448
 30
0.0
 10
5.435323674359552
 20
5.297019752725823
 30
0.0
 10
5.435323674359552
 20
5.297019752725823
 30
0.0
 10
5.317970651494432
 20
5.313508913907905
 30
0.0
 10
5.317970651494432
 20
5.313508913907905
 30
0.0
 10
5.317970651494432
 20
5.313508913907905
 30
0.0
 10
5.306127007703354
 20
5.328173132902571
 30
0.0
 10
5.306127007703354
 20
5.328173132902571
 30
0.0
 10
5.306127007703354
 20
5.328173132902571
 30
0.0
 10
5.305293078425317
 20
5.38746989367352
 30
0.0
 10
5.305293078425317
 20
5.38746989367352
 30
0.0
 10
5.305293078425317
 20
5.38746989367352
 30
0.0
 10
5.316730152817652
 20
5.400272209626337
 30
0.0
 10
5.316730152817652
 20
5.400272209626337
 30
0.0
 10
5.316730152817652
 20
5.400272209626337
 30
0.0
 10
5.413916591389175
 20
5.380306418074522
 30
0.0
 10
5.413916591389175
 20
5.380306418074522
 30
0.0
 10
5.423503313248855
 20
5.37850250156978
 30
0.0
 10
5.431736161426543
 20
5.376055919815195
 30
0.0
 10
5.436677365653016
 20
5.382214522184413
 30
0.0
 10
5.440874915269306
 20
5.387423692605479
 30
0.0
 10
5.4609745073332
 20
5.396234236279977
 30
0.0
 10
5.490910673216401
 20
5.396652355945687
 30
0.0
 10
5.520823370867194
 20
5.397068165558013
 30
0.0
 10
5.555224686126873
 20
5.390807920839127
 30
0.0
 10
5.555384265289578
 20
5.378627009251406
 30
0.0
 10
5.555427970826233
 20
5.374914753434697
 30
0.0
 10
5.553263450788765
 20
5.372851875746897
 30
0.0
 10
5.552270127825977
 20
5.372151929566144
 30
0.0
 10
5.551279114916597
 20
5.371463533652407
 30
0.0
 10
5.551279114916597
 20
5.369998959795667
 30
0.0
 10
5.551323005931232
 20
5.367178384592054
 30
0.0
  0
HATCH
  5
148
330
143
100
AcDbEntity
  8
Layer 1
 62
   254
420
 13358815
100
AcDbHatch
 10
0.0
 20
0.0
 30
0.0
210
0.0
220
0.0
230
1.0
  2
SOLID
 70
     1
 71
     0
 91
        1
 92
        1
 93
        1
 72
     4
 94
        3
 73
     0
 74
     1
 95
       65
 96
       61
 40
0.0
 40
0.0
 40
0.0
 40
0.0
 40
1.0
 40
1.0
 40
1.0
 40
2.0
 40
2.0
 40
2.0
 40
3.0
 40
3.0
 40
3.0
 40
4.0
 40
4.0
 40
4.0
 40
5.0
 40
5.0
 40
5.0
 40
6.0
 40
6.0
 40
6.0
 40
7.0
 40
7.0
 40
7.0
 40
8.0
 40
8.0
 40
8.0
 40
9.0
 40
9.0
 40
9.0
 40
10.0
 40
10.0
 40
10.0
 40
11.0
 40
11.0
 40
11.0
 40
12.0
 40
12.0
 40
12.0
 40
13.0
 40
13.0
 40
13.0
 40
14.0
 40
14.0
 40
14.0
 40
15.0
 40
15.0
 40
15.0
 40
16.0
 40
16.0
 40
16.0
 40
17.0
 40
17.0
 40
17.0
 40
18.0
 40
18.0
 40
18.0
 40
19.0
 40
19.0
 40
19.0
 40
20.0
 40
20.0
 40
20.0
 40
20.0
 10
5.551323005931232
 20
5.367178384592054
 10
5.551323005931232
 20
5.367178384592054
 10
5.574874000362645
 20
5.359892476162764
 10
5.574874000362645
 20
5.359892476162764
 10
5.574874000362645
 20
5.359892476162764
 10
5.58398947108617
 20
5.348746468499055
 10
5.58398947108617
 20
5.348746468499055
 10
5.58398947108617
 20
5.348746468499055
 10
5.584710207747523
 20
5.29705209347344
 10
5.584710207747523
 20
5.29705209347344
 10
5.584710207747523
 20
5.29705209347344
 10
5.576363984806802
 20
5.28769175708933
 10
5.576363984806802
 20
5.28769175708933
 10
5.576363984806802
 20
5.28769175708933
 10
5.570588851302293
 20
5.285016715250018
 10
5.570588851302293
 20
5.285016715250018
 10
5.570588851302293
 20
5.285016715250018
 10
5.550218800405168
 20
5.28895535630012
 10
5.550218800405168
 20
5.28895535630012
 10
5.54663128747216
 20
5.289800835845173
 10
5.546968555268828
 20
5.292619100995378
 10
5.545187504096045
 20
5.294402462221569
 10
5.540179308320931
 20
5.300200696260086
 10
5.517619326798896
 20
5.306775341631717
 10
5.492174088577991
 20
5.306414739910957
 10
5.466703439769693
 20
5.306065921847297
 10
5.449130863542146
 20
5.301281801252141
 10
5.446920142436611
 20
5.299445308797709
 10
5.444709604013142
 20
5.297606506289867
 10
5.439338547171903
 20
5.297075194007448
 10
5.435323674359552
 20
5.297019752725823
 10
5.435323674359552
 20
5.297019752725823
 10
5.317970651494432
 20
5.313508913907905
 10
5.317970651494432
 20
5.313508913907905
 10
5.317970651494432
 20
5.313508913907905
 10
5.306127007703354
 20
5.328173132902571
 10
5.306127007703354
 20
5.328173132902571
 10
5.306127007703354
 20
5.328173132902571
 10
5.305293078425317
 20
5.38746989367352
 10
5.305293078425317
 20
5.38746989367352
 10
5.305293078425317
 20
5.38746989367352
 10
5.316730152817652
 20
5.400272209626337
 10
5.316730152817652
 20
5.400272209626337
 10
5.316730152817652
 20
5.400272209626337
 10
5.413916591389175
 20
5.380306418074522
 10
5.413916591389175
 20
5.380306418074522
 10
5.423503313248855
 20
5.37850250156978
 10
5.431736161426543
 20
5.376055919815195
 10
5.436677365653016
 20
5.382214522184413
 10
5.440874915269306
 20
5.387423692605479
 10
5.4609745073332
 20
5.396234236279977
 10
5.490910673216401
 20
5.396652355945687
 10
5.520823370867194
 20
5.397068165558013
 10
5.555224686126873
 20
5.390807920839127
 10
5.555384265289578
 20
5.378627009251406
 10
5.555427970826233
 20
5.374914753434697
 10
5.553263450788765
 20
5.372851875746897
 10
5.552270127825977
 20
5.372151929566144
 10
5.551279114916597
 20
5.371463533652407
 10
5.551279114916597
 20
5.369998959795667
 10
5.551323005931232
 20
5.367178384592054
 97
        0
 97
        0
 75
     2
 76
     1
 98
        0
  0
SPLINE
  5
149
330
143
100
AcDbEntity
  8
Layer 1
 62
     7
420
 16777215
370
    20
100
AcDbSpline
210
0.0
220
0.0
230
1.0
 70
     8
 71
     3
 72
    14
 73
    10
 74
     0
 42
0.0000000001
 43
0.0000000001
 12
1.0
 22
0.0
 32
0.0
 13
1.0
 23
0.0
 33
0.0
 40
0.0
 40
0.0
 40
0.0
 40
0.0
 40
1.0
 40
1.0
 40
1.0
 40
2.0
 40
2.0
 40
2.0
 40
3.0
 40
3.0
 40
3.0
 40
3.0
 10
5.489646890156412
 20
5.393956759218276
 30
0.0
 10
5.470561228950701
 20
5.393695487591382
 30
0.0
 10
5.44870119360942
 20
5.387231958173136
 30
0.0
 10
5.439294656157269
 20
5.377441951856276
 30
0.0
 10
5.435977601933751
 20
5.374972504769756
 30
0.0
 10
5.431105516847865
 20
5.371204807671398
 30
0.0
 10
5.424540345079928
 20
5.37271558259618
 30
0.0
 10
5.421202317914322
 20
5.373494070592591
 30
0.0
 10
5.390363105000207
 20
5.381909595135363
 30
0.0
 10
5.388355668594031
 20
5.381886494601354
 30
0.0
  0
SPLINE
  5
14A
330
143
100
AcDbEntity
  8
Layer 1
 62
     7
420
 16777215
370
    20
100
AcDbSpline
210
0.0
220
0.0
230
1.0
 70
    11
 71
     3
 72
    17
 73
    13
 74
     0
 42
0.0000000001
 43
0.0000000001
 12
1.0
 22
0.0
 32
0.0
 13
1.0
 23
0.0
 33
0.0
 40
0.0
 40
0.0
 40
0.0
 40
0.0
 40
1.0
 40
1.0
 40
1.0
 40
2.0
 40
2.0
 40
2.0
 40
3.0
 40
3.0
 40
3.0
 40
4.0
 40
4.0
 40
4.0
 40
4.0
 10
5.523847230770166
 20
5.343761373257949
 30
0.0
 10
5.519920139987081
 20
5.343717482243315
 30
0.0
 10
5.516695305438159
 20
5.346875325243596
 30
0.0
 10
5.516628313889517
 20
5.350846307041289
 30
0.0
 10
5.516582112821475
 20
5.354803428518582
 30
0.0
 10
5.51971703986467
 20
5.358065223921939
 30
0.0
 10
5.523644130746889
 20
5.358120665203564
 30
0.0
 10
5.527568726800458
 20
5.358176106485214
 30
0.0
 10
5.53079356134938
 20
5.355006713217941
 30
0.0
 10
5.530862862951431
 20
5.35104728168724
 30
0.0
 10
5.530906753966065
 20
5.347078609942955
 30
0.0
 10
5.527772011499817
 20
5.343819124593008
 30
0.0
 10
5.523847230770166
 20
5.343761373257949
 30
0.0
  0
SPLINE
  5
14B
330
143
100
AcDbEntity
  8
Layer 1
 62
     7
420
 16777215
370
    35
100
AcDbSpline
210
0.0
220
0.0
230
1.0
 70
    11
 71
     3
 72
    23
 73
    19
 74
     0
 42
0.0000000001
 43
0.0000000001
 12
1.0
 22
0.0
 32
0.0
 13
1.0
 23
0.0
 33
0.0
 40
0.0
 40
0.0
 40
0.0
 40
0.0
 40
1.0
 40
1.0
 40
1.0
 40
2.0
 40
2.0
 40
2.0
 40
3.0
 40
3.0
 40
3.0
 40
4.0
 40
4.0
 40
4.0
 40
5.0
 40
5.0
 40
5.0
 40
6.0
 40
6.0
 40
6.0
 40
6.0
 10
5.527975296199176
 20
5.347912539220993
 30
0.0
 10
5.527975296199176
 20
5.34686377497658
 30
0.0
 10
5.527772011499817
 20
5.345882002280809
 30
0.0
 10
5.527365442101098
 20
5.344978771400696
 30
0.0
 10
5.526349018604302
 20
5.344371227356027
 30
0.0
 10
5.525198612010223
 20
5.343987758491317
 30
0.0
 10
5.523937322852817
 20
5.343976208224325
 30
0.0
 10
5.520100324152432
 20
5.343918456889266
 30
0.0
 10
5.516919380618143
 20
5.347032408874914
 30
0.0
 10
5.516875674108633
 20
5.350913298589931
 30
0.0
 10
5.516852573574018
 20
5.351962062834369
 30
0.0
 10
5.517101874836877
 20
5.352955385797132
 30
0.0
 10
5.517485343701588
 20
5.353856306623836
 30
0.0
 10
5.518499457144975
 20
5.354454845049481
 30
0.0
 10
5.519649863739081
 20
5.354838079319607
 30
0.0
 10
5.52091346294987
 20
5.354861179853615
 30
0.0
 10
5.52474815159687
 20
5.35490507086825
 30
0.0
 10
5.527905994597126
 20
5.351804979203052
 30
0.0
 10
5.527975296199176
 20
5.347912539220993
 30
0.0
  0
SPLINE
  5
14C
330
143
100
AcDbEntity
  8
Layer 1
 62
     7
420
 16777215
370
    20
100
AcDbSpline
210
0.0
220
0.0
230
1.0
 70
    11
 71
     3
 72
    17
 73
    13
 74
     0
 42
0.0000000001
 43
0.0000000001
 12
1.0
 22
0.0
 32
0.0
 13
1.0
 23
0.0
 33
0.0
 40
0.0
 40
0.0
 40
0.0
 40
0.0
 40
1.0
 40
1.0
 40
1.0
 40
2.0
 40
2.0
 40
2.0
 40
3.0
 40
3.0
 40
3.0
 40
4.0
 40
4.0
 40
4.0
 40
4.0
 10
5.425510567508682
 20
5.334523469704132
 30
0.0
 10
5.421789071478366
 20
5.334468028422482
 30
0.0
 10
5.418721502586322
 20
5.337478028005029
 30
0.0
 10
5.418652200982529
 20
5.341245725103388
 30
0.0
 10
5.41863122847811
 20
5.345013422201721
 30
0.0
 10
5.421609069411513
 20
5.348104273653335
 30
0.0
 10
5.425307282809323
 20
5.348159714934986
 30
0.0
 10
5.429051879373648
 20
5.348205916003027
 30
0.0
 10
5.432119812655249
 20
5.345205156634089
 30
0.0
 10
5.432166013724478
 20
5.34143745953573
 30
0.0
 10
5.432212214793682
 20
5.337669762437397
 30
0.0
 10
5.429232245830058
 20
5.334569670772175
 30
0.0
 10
5.425510567508682
 20
5.334523469704132
 30
0.0
  0
SPLINE
  5
14D
330
143
100
AcDbEntity
  8
Layer 1
 62
     7
420
 16777215
370
    30
100
AcDbSpline
210
0.0
220
0.0
230
1.0
 70
    11
 71
     3
 72
    23
 73
    19
 74
     0
 42
0.0000000001
 43
0.0000000001
 12
1.0
 22
0.0
 32
0.0
 13
1.0
 23
0.0
 33
0.0
 40
0.0
 40
0.0
 40
0.0
 40
0.0
 40
1.0
 40
1.0
 40
1.0
 40
2.0
 40
2.0
 40
2.0
 40
3.0
 40
3.0
 40
3.0
 40
4.0
 40
4.0
 40
4.0
 40
5.0
 40
5.0
 40
5.0
 40
6.0
 40
6.0
 40
6.0
 40
6.0
 10
5.429121180975699
 20
5.338471350967817
 30
0.0
 10
5.429141971456324
 20
5.337489578272046
 30
0.0
 10
5.42891789627634
 20
5.336554006644317
 30
0.0
 10
5.428557527945663
 20
5.335708527099263
 30
0.0
 10
5.427587305516909
 20
5.335144874069227
 30
0.0
 10
5.42650389047147
 20
5.334782195685142
 30
0.0
 10
5.425307282809323
 20
5.334770645418126
 30
0.0
 10
5.421698979395715
 20
5.334715204136475
 30
0.0
 10
5.418742111041385
 20
5.337637655859504
 30
0.0
 10
5.418675301517093
 20
5.34129192617143
 30
0.0
 10
5.418652200982529
 20
5.342282939080784
 30
0.0
 10
5.418878404192102
 20
5.34320927049493
 30
0.0
 10
5.419238772522779
 20
5.344054750039984
 30
0.0
 10
5.420185894417525
 20
5.344629953337036
 30
0.0
 10
5.421292409996997
 20
5.344978771400696
 30
0.0
 10
5.422489017659118
 20
5.34500187193473
 30
0.0
 10
5.426097321072752
 20
5.345048073002746
 30
0.0
 10
5.429051879373648
 20
5.342125855449467
 30
0.0
 10
5.429121180975699
 20
5.338471350967817
 30
0.0
  0
POLYLINE
  5
14E
330
143
100
AcDbEntity
  8
Layer 1
 62
     7
420
 16777215
370
    35
100
AcDb2dPolyline
 66
     1
 10
0.0
 20
0.0
 30
0.0
  0
VERTEX
  5
14F
330
14E
100
AcDbEntity
  8
Layer 1
 62
     7
420
 16777215
370
    35
100
AcDbVertex
100
AcDb2dVertex
 10
5.551459299081949
 20
5.370618054107354
 30
0.0
  0
VERTEX
  5
150
330
14E
100
AcDbEntity
  8
Layer 1
 62
     7
420
 16777215
370
    35
100
AcDbVertex
100
AcDb2dVertex
 10
5.552540404073978
 20
5.293228955093455
 30
0.0
  0
SEQEND
  5
151
330
14E
100
AcDbEntity
  8
Layer 1
 62
     7
420
 16777215
370
    35
  0
SPLINE
  5
152
330
143
100
AcDbEntity
  8
Layer 1
 62
     7
420
 16777215
370
    20
100
AcDbSpline
210
0.0
220
0.0
230
1.0
 70
    11
 71
     3
 72
    26
 73
    22
 74
     0
 42
0.0000000001
 43
0.0000000001
 12
1.0
 22
0.0
 32
0.0
 13
1.0
 23
0.0
 33
0.0
 40
0.0
 40
0.0
 40
0.0
 40
0.0
 40
1.0
 40
1.0
 40
1.0
 40
2.0
 40
2.0
 40
2.0
 40
3.0
 40
3.0
 40
3.0
 40
4.0
 40
4.0
 40
4.0
 40
5.0
 40
5.0
 40
5.0
 40
6.0
 40
6.0
 40
6.0
 40
7.0
 40
7.0
 40
7.0
 40
7.0
 10
5.463771982002805
 20
5.35399283435744
 30
0.0
 10
5.463702680400729
 20
5.357376828008202
 30
0.0
 10
5.458017638978895
 20
5.357972821785855
 30
0.0
 10
5.452988652723156
 20
5.357905830237213
 30
0.0
 10
5.447957356414033
 20
5.357838838688545
 30
0.0
 10
5.436520282021698
 20
5.354791878251565
 30
0.0
 10
5.433586514201402
 20
5.349344772330116
 30
0.0
 10
5.431308801547226
 20
5.345080413750389
 30
0.0
 10
5.431918655645303
 20
5.342892793178862
 30
0.0
 10
5.431939446125903
 20
5.340862256238678
 30
0.0
 10
5.431985647193945
 20
5.338831719298494
 30
0.0
 10
5.433856790449403
 20
5.335639225497212
 30
0.0
 10
5.437377311833769
 20
5.335685426565229
 30
0.0
 10
5.437331110765727
 20
5.339069889004804
 30
0.0
 10
5.438617810510524
 20
5.342125855449467
 30
0.0
 10
5.4406252469167
 20
5.34317461969388
 30
0.0
 10
5.442609582788842
 20
5.344211833671301
 30
0.0
 10
5.449627525023541
 20
5.345847351479784
 30
0.0
 10
5.453326103419537
 20
5.345893552547826
 30
0.0
 10
5.45885387831034
 20
5.345972094363484
 30
0.0
 10
5.463862074085455
 20
5.347392777205591
 30
0.0
 10
5.463771982002805
 20
5.35399283435744
 30
0.0
  0
POLYLINE
  5
153
330
143
100
AcDbEntity
  8
Layer 1
 62
     7
420
 16777215
370
    20
100
AcDb2dPolyline
 66
     1
 10
0.0
 20
0.0
 30
0.0
  0
VERTEX
  5
154
330
153
100
AcDbEntity
  8
Layer 1
 62
     7
420
 16777215
370
    20
100
AcDbVertex
100
AcDb2dVertex
 10
5.437377311833769
 20
5.335685426565229
 30
0.0
  0
VERTEX
  5
155
330
153
100
AcDbEntity
  8
Layer 1
 62
     7
420
 16777215
370
    20
100
AcDbVertex
100
AcDb2dVertex
 10
5.437783881232487
 20
5.307271769723027
 30
0.0
  0
SEQEND
  5
156
330
153
100
AcDbEntity
  8
Layer 1
 62
     7
420
 16777215
370
    20
  0
POLYLINE
  5
157
330
143
100
AcDbEntity
  8
Layer 1
 62
     7
420
 16777215
370
    20
100
AcDb2dPolyline
 66
     1
 10
0.0
 20
0.0
 30
0.0
  0
VERTEX
  5
158
330
157
100
AcDbEntity
  8
Layer 1
 62
     7
420
 16777215
370
    20
100
AcDbVertex
100
AcDb2dVertex
 10
5.436834449284333
 20
5.374824661352022
 30
0.0
  0
VERTEX
  5
159
330
157
100
AcDbEntity
  8
Layer 1
 62
     7
420
 16777215
370
    20
100
AcDbVertex
100
AcDb2dVertex
 10
5.437127826066368
 20
5.353225662045158
 30
0.0
  0
SEQEND
  5
15A
330
157
100
AcDbEntity
  8
Layer 1
 62
     7
420
 16777215
370
    20
  0
SPLINE
  5
15B
330
143
100
AcDbEntity
  8
Layer 1
 62
     7
420
 16777215
370
    20
100
AcDbSpline
210
0.0
220
0.0
230
1.0
 70
     8
 71
     3
 72
     8
 73
     4
 74
     0
 42
0.0000000001
 43
0.0000000001
 12
1.0
 22
0.0
 32
0.0
 13
1.0
 23
0.0
 33
0.0
 40
0.0
 40
0.0
 40
0.0
 40
0.0
 40
1.0
 40
1.0
 40
1.0
 40
1.0
 10
5.551279114916597
 20
5.371634477604149
 30
0.0
 10
5.551186712780539
 20
5.377723778371293
 30
0.0
 10
5.554300664766161
 20
5.386116202380056
 30
0.0
 10
5.525198612010223
 20
5.39106919239306
 30
0.0
  0
SPLINE
  5
15C
330
143
100
AcDbEntity
  8
Layer 1
 62
     7
420
 16777215
370
    20
100
AcDbSpline
210
0.0
220
0.0
230
1.0
 70
     8
 71
     3
 72
    32
 73
    28
 74
     0
 42
0.0000000001
 43
0.0000000001
 12
1.0
 22
0.0
 32
0.0
 13
1.0
 23
0.0
 33
0.0
 40
0.0
 40
0.0
 40
0.0
 40
0.0
 40
1.0
 40
1.0
 40
1.0
 40
2.0
 40
2.0
 40
2.0
 40
3.0
 40
3.0
 40
3.0
 40
4.0
 40
4.0
 40
4.0
 40
5.0
 40
5.0
 40
5.0
 40
6.0
 40
6.0
 40
6.0
 40
7.0
 40
7.0
 40
7.0
 40
8.0
 40
8.0
 40
8.0
 40
9.0
 40
9.0
 40
9.0
 40
9.0
 10
5.576363984806802
 20
5.288232309585333
 30
0.0
 10
5.576363984806802
 20
5.288232309585333
 30
0.0
 10
5.553873304886817
 20
5.292438916830027
 30
0.0
 10
5.553873304886817
 20
5.292438916830027
 30
0.0
 10
5.551863558427258
 20
5.292857036495762
 30
0.0
 10
5.552180035743302
 20
5.293487681074439
 30
0.0
 10
5.550375884036485
 20
5.296398348360728
 30
0.0
 10
5.548525531261652
 20
5.29929746538
 30
0.0
 10
5.542163644193074
 20
5.303053612211316
 30
0.0
 10
5.536455502237206
 20
5.304712230553832
 30
0.0
 10
5.530186017304711
 20
5.306922951659367
 30
0.0
 10
5.509973050038903
 20
5.311829505084789
 30
0.0
 10
5.492083996495315
 20
5.311580252828864
 30
0.0
 10
5.474215733432351
 20
5.311332843603395
 30
0.0
 10
5.451048207865647
 20
5.307170127373334
 30
0.0
 10
5.445949920007857
 20
5.304395986567745
 30
0.0
 10
5.443489713134946
 20
5.303448864649099
 30
0.0
 10
5.441752735584158
 20
5.301621379102218
 30
0.0
 10
5.43658727357034
 20
5.301554620811758
 30
0.0
 10
5.438978178841201
 20
5.301586728301193
 30
0.0
 10
5.321287888179413
 20
5.317604638589298
 30
0.0
 10
5.321287888179413
 20
5.317604638589298
 30
0.0
 10
5.321287888179413
 20
5.317604638589298
 30
0.0
 10
5.310257383185798
 20
5.331150791737501
 30
0.0
 10
5.310257383185798
 20
5.331150791737501
 30
0.0
 10
5.310257383185798
 20
5.331150791737501
 30
0.0
 10
5.309377252839694
 20
5.392704474682002
 30
0.0
 10
5.309377252839694
 20
5.392704474682002
 30
0.0
  0
ENDBLK
  5
146
330
143
100
AcDbEntity
  8
0
100
AcDbBlockEnd
  0
BLOCK
  5
15F
330
15D
100
AcDbEntity
  8
0
100
AcDbBlockBegin
  2
block 4
 70
     0
 10
0.0
 20
0.0
 30
0.0
  3
block 4
  1

  0
SPLINE
  5
161
330
15D
100
AcDbEntity
  8
Layer 1
 62
     7
420
 16777215
370
    35
100
AcDbSpline
210
0.0
220
0.0
230
1.0
 70
    11
 71
     3
 72
    17
 73
    13
 74
     0
 42
0.0000000001
 43
0.0000000001
 12
1.0
 22
0.0
 32
0.0
 13
1.0
 23
0.0
 33
0.0
 40
0.0
 40
0.0
 40
0.0
 40
0.0
 40
1.0
 40
1.0
 40
1.0
 40
2.0
 40
2.0
 40
2.0
 40
3.0
 40
3.0
 40
3.0
 40
4.0
 40
4.0
 40
4.0
 40
4.0
 10
6.06095543717063
 20
5.380047692093513
 30
0.0
 10
6.053512445109996
 20
5.379946049743845
 30
0.0
 10
6.047353842740803
 20
5.38610465211304
 30
0.0
 10
6.047263948562001
 20
5.393797129941074
 30
0.0
 10
6.047127457507409
 20
5.401489607769084
 30
0.0
 10
6.053105875711278
 20
5.407819154090021
 30
0.0
 10
6.06057196830592
 20
5.407920796439712
 30
0.0
 10
6.068017270419937
 20
5.408031679002988
 30
0.0
 10
6.074152970838264
 20
5.401873076633769
 30
0.0
 10
6.07428906540584
 20
5.394180598805759
 30
0.0
 10
6.074379157488516
 20
5.386476570710733
 30
0.0
 10
6.06842403825706
 20
5.380160884710196
 30
0.0
 10
6.06095543717063
 20
5.380047692093513
 30
0.0
  0
HATCH
  5
162
330
15D
100
AcDbEntity
  8
Layer 1
 62
   254
420
 13358815
100
AcDbHatch
 10
0.0
 20
0.0
 30
0.0
210
0.0
220
0.0
230
1.0
  2
SOLID
 70
     1
 71
     0
 91
        1
 92
        1
 93
        1
 72
     4
 94
        3
 73
     0
 74
     1
 95
       17
 96
       13
 40
0.0
 40
0.0
 40
0.0
 40
0.0
 40
1.0
 40
1.0
 40
1.0
 40
2.0
 40
2.0
 40
2.0
 40
3.0
 40
3.0
 40
3.0
 40
4.0
 40
4.0
 40
4.0
 40
4.0
 10
6.06095543717063
 20
5.380047692093513
 10
6.053512445109996
 20
5.379946049743845
 10
6.047353842740803
 20
5.38610465211304
 10
6.047263948562001
 20
5.393797129941074
 10
6.047127457507409
 20
5.401489607769084
 10
6.053105875711278
 20
5.407819154090021
 10
6.06057196830592
 20
5.407920796439712
 10
6.068017270419937
 20
5.408031679002988
 10
6.074152970838264
 20
5.401873076633769
 10
6.07428906540584
 20
5.394180598805759
 10
6.074379157488516
 20
5.386476570710733
 10
6.06842403825706
 20
5.380160884710196
 10
6.06095543717063
 20
5.380047692093513
 97
        0
 97
        0
 75
     2
 76
     1
 98
        0
  0
SPLINE
  5
163
330
15D
100
AcDbEntity
  8
Layer 1
 62
     7
420
 16777215
370
    35
100
AcDbSpline
210
0.0
220
0.0
230
1.0
 70
    11
 71
     3
 72
    38
 73
    34
 74
     0
 42
0.0000000001
 43
0.0000000001
 12
1.0
 22
0.0
 32
0.0
 13
1.0
 23
0.0
 33
0.0
 40
0.0
 40
0.0
 40
0.0
 40
0.0
 40
1.0
 40
1.0
 40
1.0
 40
2.0
 40
2.0
 40
2.0
 40
3.0
 40
3.0
 40
3.0
 40
4.0
 40
4.0
 40
4.0
 40
5.0
 40
5.0
 40
5.0
 40
6.0
 40
6.0
 40
6.0
 40
7.0
 40
7.0
 40
7.0
 40
8.0
 40
8.0
 40
8.0
 40
9.0
 40
9.0
 40
9.0
 40
10.0
 40
10.0
 40
10.0
 40
11.0
 40
11.0
 40
11.0
 40
11.0
 10
6.021183444996748
 20
5.29500076605263
 30
0.0
 10
6.021183444996748
 20
5.29500076605263
 30
0.0
 10
6.012250271246962
 20
5.367347018490388
 30
0.0
 10
6.012250271246962
 20
5.367347018490388
 30
0.0
 10
6.011280048818182
 20
5.373066710713247
 30
0.0
 10
6.011936103984302
 20
5.376573371777213
 30
0.0
 10
6.016761805540682
 20
5.380306418074522
 30
0.0
 10
6.022446846962516
 20
5.38469551953795
 30
0.0
 10
6.038397765701979
 20
5.394767352369828
 30
0.0
 10
6.060752152471271
 20
5.395083829685872
 30
0.0
 10
6.083085748759913
 20
5.395400307001915
 30
0.0
 10
6.099126759582052
 20
5.385587200151045
 30
0.0
 10
6.104922882927641
 20
5.381366967860382
 30
0.0
 10
6.109886988327667
 20
5.377758429172318
 30
0.0
 10
6.110607724989046
 20
5.374272558589003
 30
0.0
 10
6.109820196263172
 20
5.368532075885519
 30
0.0
 10
6.109820196263172
 20
5.368532075885519
 30
0.0
 10
6.1030286390903
 20
5.296049530297043
 30
0.0
 10
6.1030286390903
 20
5.296049530297043
 30
0.0
 10
6.102758163529693
 20
5.293568532943507
 30
0.0
 10
6.101494564318904
 20
5.292517458645685
 30
0.0
 10
6.098697089649325
 20
5.290916591638228
 30
0.0
 10
6.098697089649325
 20
5.290916591638228
 30
0.0
 10
6.109029958515596
 20
4.553291129854238
 30
0.0
 10
6.109029958515596
 20
4.553291129854238
 30
0.0
 10
6.109029958515596
 20
4.553291129854238
 30
0.0
 10
6.033907021888884
 20
4.552161513740733
 30
0.0
 10
6.033907021888884
 20
4.552161513740733
 30
0.0
 10
6.033907021888884
 20
4.552161513740733
 30
0.0
 10
6.023576463075996
 20
5.290771058273927
 30
0.0
 10
6.023576463075996
 20
5.290771058273927
 30
0.0
 10
6.022086478631839
 20
5.291785171717316
 30
0.0
 10
6.021206545531337
 20
5.293769740651012
 30
0.0
 10
6.021183444996748
 20
5.29500076605263
 30
0.0
  0
HATCH
  5
164
330
15D
100
AcDbEntity
  8
Layer 1
 62
   254
420
 13358815
100
AcDbHatch
 10
0.0
 20
0.0
 30
0.0
210
0.0
220
0.0
230
1.0
  2
SOLID
 70
     1
 71
     0
 91
        1
 92
        1
 93
        1
 72
     4
 94
        3
 73
     0
 74
     1
 95
       38
 96
       34
 40
0.0
 40
0.0
 40
0.0
 40
0.0
 40
1.0
 40
1.0
 40
1.0
 40
2.0
 40
2.0
 40
2.0
 40
3.0
 40
3.0
 40
3.0
 40
4.0
 40
4.0
 40
4.0
 40
5.0
 40
5.0
 40
5.0
 40
6.0
 40
6.0
 40
6.0
 40
7.0
 40
7.0
 40
7.0
 40
8.0
 40
8.0
 40
8.0
 40
9.0
 40
9.0
 40
9.0
 40
10.0
 40
10.0
 40
10.0
 40
11.0
 40
11.0
 40
11.0
 40
11.0
 10
6.021183444996748
 20
5.29500076605263
 10
6.021183444996748
 20
5.29500076605263
 10
6.012250271246962
 20
5.367347018490388
 10
6.012250271246962
 20
5.367347018490388
 10
6.011280048818182
 20
5.373066710713247
 10
6.011936103984302
 20
5.376573371777213
 10
6.016761805540682
 20
5.380306418074522
 10
6.022446846962516
 20
5.38469551953795
 10
6.038397765701979
 20
5.394767352369828
 10
6.060752152471271
 20
5.395083829685872
 10
6.083085748759913
 20
5.395400307001915
 10
6.099126759582052
 20
5.385587200151045
 10
6.104922882927641
 20
5.381366967860382
 10
6.109886988327667
 20
5.377758429172318
 10
6.110607724989046
 20
5.374272558589003
 10
6.109820196263172
 20
5.368532075885519
 10
6.109820196263172
 20
5.368532075885519
 10
6.1030286390903
 20
5.296049530297043
 10
6.1030286390903
 20
5.296049530297043
 10
6.102758163529693
 20
5.293568532943507
 10
6.101494564318904
 20
5.292517458645685
 10
6.098697089649325
 20
5.290916591638228
 10
6.098697089649325
 20
5.290916591638228
 10
6.109029958515596
 20
4.553291129854238
 10
6.109029958515596
 20
4.553291129854238
 10
6.109029958515596
 20
4.553291129854238
 10
6.033907021888884
 20
4.552161513740733
 10
6.033907021888884
 20
4.552161513740733
 10
6.033907021888884
 20
4.552161513740733
 10
6.023576463075996
 20
5.290771058273927
 10
6.023576463075996
 20
5.290771058273927
 10
6.022086478631839
 20
5.291785171717316
 10
6.021206545531337
 20
5.293769740651012
 10
6.021183444996748
 20
5.29500076605263
 97
        0
 97
        0
 75
     2
 76
     1
 98
        0
  0
SPLINE
  5
165
330
15D
100
AcDbEntity
  8
Layer 1
 62
     7
420
 16777215
370
    18
100
AcDbSpline
210
0.0
220
0.0
230
1.0
 70
     8
 71
     3
 72
    11
 73
     7
 74
     0
 42
0.0000000001
 43
0.0000000001
 12
1.0
 22
0.0
 32
0.0
 13
1.0
 23
0.0
 33
0.0
 40
0.0
 40
0.0
 40
0.0
 40
0.0
 40
1.0
 40
1.0
 40
1.0
 40
2.0
 40
2.0
 40
2.0
 40
2.0
 10
6.021319540902444
 20
5.29434471088651
 30
0.0
 10
6.021229646065952
 20
5.300685807474489
 30
0.0
 10
6.039458080213408
 20
5.306437840444965
 30
0.0
 10
6.06201575168206
 20
5.306754317761033
 30
0.0
 10
6.084598833738103
 20
5.307068485023668
 30
0.0
 10
6.102938347695044
 20
5.302185032132254
 30
0.0
 10
6.1030286390903
 20
5.295834695330692
 30
0.0
  0
SPLINE
  5
166
330
15D
100
AcDbEntity
  8
Layer 1
 62
     7
420
 16777215
370
    25
100
AcDbSpline
210
0.0
220
0.0
230
1.0
 70
     8
 71
     3
 72
    11
 73
     7
 74
     0
 42
0.0000000001
 43
0.0000000001
 12
1.0
 22
0.0
 32
0.0
 13
1.0
 23
0.0
 33
0.0
 40
0.0
 40
0.0
 40
0.0
 40
0.0
 40
1.0
 40
1.0
 40
1.0
 40
2.0
 40
2.0
 40
2.0
 40
2.0
 10
6.023666555158671
 20
5.290556223307552
 30
0.0
 10
6.023597253556621
 20
5.296375247826719
 30
0.0
 10
6.040315110025479
 20
5.301328002320184
 30
0.0
 10
6.061001638238673
 20
5.301621379102218
 30
0.0
 10
6.081711266985849
 20
5.301914755884227
 30
0.0
 10
6.098563106552016
 20
5.297426322124541
 30
0.0
 10
6.098653198634691
 20
5.29160498755199
 30
0.0
  0
ENDBLK
  5
160
330
15D
100
AcDbEntity
  8
0
100
AcDbBlockEnd
  0
BLOCK
  5
169
330
167
100
AcDbEntity
  8
0
100
AcDbBlockBegin
  2
block 5
 70
     0
 10
0.0
 20
0.0
 30
0.0
  3
block 5
  1

  0
SPLINE
  5
16B
330
167
100
AcDbEntity
  8
Layer 1
 62
     7
420
 16777215
370
    30
100
AcDbSpline
210
0.0
220
0.0
230
1.0
 70
    11
 71
     3
 72
    50
 73
    46
 74
     0
 42
0.0000000001
 43
0.0000000001
 12
1.0
 22
0.0
 32
0.0
 13
1.0
 23
0.0
 33
0.0
 40
0.0
 40
0.0
 40
0.0
 40
0.0
 40
1.0
 40
1.0
 40
1.0
 40
2.0
 40
2.0
 40
2.0
 40
3.0
 40
3.0
 40
3.0
 40
4.0
 40
4.0
 40
4.0
 40
5.0
 40
5.0
 40
5.0
 40
6.0
 40
6.0
 40
6.0
 40
7.0
 40
7.0
 40
7.0
 40
8.0
 40
8.0
 40
8.0
 40
9.0
 40
9.0
 40
9.0
 40
10.0
 40
10.0
 40
10.0
 40
11.0
 40
11.0
 40
11.0
 40
12.0
 40
12.0
 40
12.0
 40
13.0
 40
13.0
 40
13.0
 40
14.0
 40
14.0
 40
14.0
 40
15.0
 40
15.0
 40
15.0
 40
15.0
 10
6.102284602582333
 20
5.263158989962145
 30
0.0
 10
6.102984548763086
 20
5.263632550909506
 30
0.0
 10
6.104788700469903
 20
5.265593786247639
 30
0.0
 10
6.10474249940186
 20
5.268164875683851
 30
0.0
 10
6.10463161683856
 20
5.276615051027672
 30
0.0
 10
6.080560860391743
 20
5.280946401156042
 30
0.0
 10
6.059601745877166
 20
5.280653024374007
 30
0.0
 10
6.038668041950005
 20
5.280359647591998
 30
0.0
 10
6.024590576519409
 20
5.274256486504428
 30
0.0
 10
6.021659118752495
 20
5.270648183090795
 30
0.0
 10
6.018205588916796
 20
5.26637250661348
 30
0.0
 10
6.012430455412287
 20
5.268074783601175
 30
0.0
 10
6.005708200013032
 20
5.269317592331364
 30
0.0
 10
6.005708200013032
 20
5.269317592331364
 30
0.0
 10
5.937716398237677
 20
5.28314557199456
 30
0.0
 10
5.937716398237677
 20
5.28314557199456
 30
0.0
 10
5.937716398237677
 20
5.28314557199456
 30
0.0
 10
5.929684342559615
 20
5.274279587038436
 30
0.0
 10
5.929684342559615
 20
5.274279587038436
 30
0.0
 10
5.929684342559615
 20
5.274279587038436
 30
0.0
 10
5.93027109612366
 20
5.233177038390951
 30
0.0
 10
5.93027109612366
 20
5.233177038390951
 30
0.0
 10
5.93027109612366
 20
5.233177038390951
 30
0.0
 10
5.938550327515738
 20
5.222620094077986
 30
0.0
 10
5.938550327515738
 20
5.222620094077986
 30
0.0
 10
5.938550327515738
 20
5.222620094077986
 30
0.0
 10
6.020709686804366
 20
5.211203578902137
 30
0.0
 10
6.020709686804366
 20
5.211203578902137
 30
0.0
 10
6.023507161473945
 20
5.211238229703162
 30
0.0
 10
6.027274858572304
 20
5.211610148300855
 30
0.0
 10
6.028808734031094
 20
5.212885297778636
 30
0.0
 10
6.030365710023918
 20
5.214148896989425
 30
0.0
 10
6.042659814228323
 20
5.21747537388804
 30
0.0
 10
6.060481876223244
 20
5.217724859655416
 30
0.0
 10
6.078303938218192
 20
5.217972035369408
 30
0.0
 10
6.092651679896814
 20
5.214262089606109
 30
0.0
 10
6.097592884123261
 20
5.209681253710338
 30
0.0
 10
6.098856483334051
 20
5.208440755033558
 30
0.0
 10
6.100411149273466
 20
5.206680725202887
 30
0.0
 10
6.100457350341508
 20
5.204527524570898
 30
0.0
 10
6.102148309431615
 20
5.204548315051523
 30
0.0
 10
6.103074840159504
 20
5.205768023247679
 30
0.0
 10
6.1030286390903
 20
5.207877102003522
 30
0.0
 10
6.1030286390903
 20
5.207877102003522
 30
0.0
 10
6.102284602582333
 20
5.263158989962145
 30
0.0
 10
6.102284602582333
 20
5.263158989962145
 30
0.0
  0
HATCH
  5
16C
330
167
100
AcDbEntity
  8
Layer 1
 62
   254
420
 13358815
100
AcDbHatch
 10
0.0
 20
0.0
 30
0.0
210
0.0
220
0.0
230
1.0
  2
SOLID
 70
     1
 71
     0
 91
        1
 92
        1
 93
        1
 72
     4
 94
        3
 73
     0
 74
     1
 95
       50
 96
       46
 40
0.0
 40
0.0
 40
0.0
 40
0.0
 40
1.0
 40
1.0
 40
1.0
 40
2.0
 40
2.0
 40
2.0
 40
3.0
 40
3.0
 40
3.0
 40
4.0
 40
4.0
 40
4.0
 40
5.0
 40
5.0
 40
5.0
 40
6.0
 40
6.0
 40
6.0
 40
7.0
 40
7.0
 40
7.0
 40
8.0
 40
8.0
 40
8.0
 40
9.0
 40
9.0
 40
9.0
 40
10.0
 40
10.0
 40
10.0
 40
11.0
 40
11.0
 40
11.0
 40
12.0
 40
12.0
 40
12.0
 40
13.0
 40
13.0
 40
13.0
 40
14.0
 40
14.0
 40
14.0
 40
15.0
 40
15.0
 40
15.0
 40
15.0
 10
6.102284602582333
 20
5.263158989962145
 10
6.102984548763086
 20
5.263632550909506
 10
6.104788700469903
 20
5.265593786247639
 10
6.10474249940186
 20
5.268164875683851
 10
6.10463161683856
 20
5.276615051027672
 10
6.080560860391743
 20
5.280946401156042
 10
6.059601745877166
 20
5.280653024374007
 10
6.038668041950005
 20
5.280359647591998
 10
6.024590576519409
 20
5.274256486504428
 10
6.021659118752495
 20
5.270648183090795
 10
6.018205588916796
 20
5.26637250661348
 10
6.012430455412287
 20
5.268074783601175
 10
6.005708200013032
 20
5.269317592331364
 10
6.005708200013032
 20
5.269317592331364
 10
5.937716398237677
 20
5.28314557199456
 10
5.937716398237677
 20
5.28314557199456
 10
5.937716398237677
 20
5.28314557199456
 10
5.929684342559615
 20
5.274279587038436
 10
5.929684342559615
 20
5.274279587038436
 10
5.929684342559615
 20
5.274279587038436
 10
5.93027109612366
 20
5.233177038390951
 10
5.93027109612366
 20
5.233177038390951
 10
5.93027109612366
 20
5.233177038390951
 10
5.938550327515738
 20
5.222620094077986
 10
5.938550327515738
 20
5.222620094077986
 10
5.938550327515738
 20
5.222620094077986
 10
6.020709686804366
 20
5.211203578902137
 10
6.020709686804366
 20
5.211203578902137
 10
6.023507161473945
 20
5.211238229703162
 10
6.027274858572304
 20
5.211610148300855
 10
6.028808734031094
 20
5.212885297778636
 10
6.030365710023918
 20
5.214148896989425
 10
6.042659814228323
 20
5.21747537388804
 10
6.060481876223244
 20
5.217724859655416
 10
6.078303938218192
 20
5.217972035369408
 10
6.092651679896814
 20
5.214262089606109
 10
6.097592884123261
 20
5.209681253710338
 10
6.098856483334051
 20
5.208440755033558
 10
6.100411149273466
 20
5.206680725202887
 10
6.100457350341508
 20
5.204527524570898
 10
6.102148309431615
 20
5.204548315051523
 10
6.103074840159504
 20
5.205768023247679
 10
6.1030286390903
 20
5.207877102003522
 10
6.1030286390903
 20
5.207877102003522
 10
6.102284602582333
 20
5.263158989962145
 10
6.102284602582333
 20
5.263158989962145
 97
        0
 97
        0
 75
     2
 76
     1
 98
        0
  0
SPLINE
  5
16D
330
167
100
AcDbEntity
  8
Layer 1
 62
     7
420
 16777215
370
    18
100
AcDbSpline
210
0.0
220
0.0
230
1.0
 70
     8
 71
     3
 72
    14
 73
    10
 74
     0
 42
0.0000000001
 43
0.0000000001
 12
1.0
 22
0.0
 32
0.0
 13
1.0
 23
0.0
 33
0.0
 40
0.0
 40
0.0
 40
0.0
 40
0.0
 40
1.0
 40
1.0
 40
1.0
 40
2.0
 40
2.0
 40
2.0
 40
3.0
 40
3.0
 40
3.0
 40
3.0
 10
6.058744914258997
 20
5.27795719205412
 30
0.0
 10
6.04539029734926
 20
5.277765457621753
 30
0.0
 10
6.030095433775892
 20
5.273297814342666
 30
0.0
 10
6.023486370993345
 20
5.266497017127752
 30
0.0
 10
6.021183444996748
 20
5.264794507770628
 30
0.0
 10
6.017755128503445
 20
5.262177217266374
 30
0.0
 10
6.013176602661082
 20
5.263225981510787
 30
0.0
 10
6.010852688938863
 20
5.263766534006814
 30
0.0
 10
5.989239829311575
 20
5.269599418846383
 30
0.0
 10
5.987842247003477
 20
5.269576318312349
 30
0.0
  0
SPLINE
  5
16E
330
167
100
AcDbEntity
  8
Layer 1
 62
     7
420
 16777215
370
    18
100
AcDbSpline
210
0.0
220
0.0
230
1.0
 70
    11
 71
     3
 72
    17
 73
    13
 74
     0
 42
0.0000000001
 43
0.0000000001
 12
1.0
 22
0.0
 32
0.0
 13
1.0
 23
0.0
 33
0.0
 40
0.0
 40
0.0
 40
0.0
 40
0.0
 40
1.0
 40
1.0
 40
1.0
 40
2.0
 40
2.0
 40
2.0
 40
3.0
 40
3.0
 40
3.0
 40
4.0
 40
4.0
 40
4.0
 40
4.0
 10
6.082681489414603
 20
5.244006337207767
 30
0.0
 10
6.079928104488671
 20
5.243960136139726
 30
0.0
 10
6.077673293639489
 20
5.246159538837042
 30
0.0
 10
6.077627092571447
 20
5.248912890633215
 30
0.0
 10
6.077583201556814
 20
5.251652613967735
 30
0.0
 10
6.079793922662348
 20
5.25391877635492
 30
0.0
 10
6.082522095729877
 20
5.253953427155945
 30
0.0
 10
6.085275679384848
 20
5.25398807795697
 30
0.0
 10
6.087553392039025
 20
5.251800457385469
 30
0.0
 10
6.087576492573033
 20
5.249047105662258
 30
0.0
 10
6.087597481976419
 20
5.246307150395978
 30
0.0
 10
6.085409662482132
 20
5.244038677955384
 30
0.0
 10
6.082681489414603
 20
5.244006337207767
 30
0.0
  0
SPLINE
  5
16F
330
167
100
AcDbEntity
  8
Layer 1
 62
     7
420
 16777215
370
    30
100
AcDbSpline
210
0.0
220
0.0
230
1.0
 70
    11
 71
     3
 72
    23
 73
    19
 74
     0
 42
0.0000000001
 43
0.0000000001
 12
1.0
 22
0.0
 32
0.0
 13
1.0
 23
0.0
 33
0.0
 40
0.0
 40
0.0
 40
0.0
 40
0.0
 40
1.0
 40
1.0
 40
1.0
 40
2.0
 40
2.0
 40
2.0
 40
3.0
 40
3.0
 40
3.0
 40
4.0
 40
4.0
 40
4.0
 40
5.0
 40
5.0
 40
5.0
 40
6.0
 40
6.0
 40
6.0
 40
6.0
 10
6.085569056166857
 20
5.246882353693031
 30
0.0
 10
6.085569056166857
 20
5.246159538837042
 30
0.0
 10
6.085409662482132
 20
5.245470911064507
 30
0.0
 10
6.085139386234131
 20
5.24484026648583
 30
0.0
 10
6.084418649572777
 20
5.244422146820094
 30
0.0
 10
6.083628611309349
 20
5.244163420839085
 30
0.0
 10
6.082725380429236
 20
5.244151870572093
 30
0.0
 10
6.080041098376341
 20
5.244117219771068
 30
0.0
 10
6.077830377270806
 20
5.246260949327936
 30
0.0
 10
6.07778417620279
 20
5.248956781647848
 30
0.0
 10
6.07778417620279
 20
5.249689068576218
 30
0.0
 10
6.077943569887515
 20
5.250365914222938
 30
0.0
 10
6.078213846135516
 20
5.250998868855049
 30
0.0
 10
6.078934781500796
 20
5.251416988520759
 30
0.0
 10
6.079724621060298
 20
5.251675714501769
 30
0.0
 10
6.080604751406377
 20
5.251687264768785
 30
0.0
 10
6.083312133993306
 20
5.251731155783419
 30
0.0
 10
6.085522855098841
 20
5.249578417958092
 30
0.0
 10
6.085569056166857
 20
5.246882353693031
 30
0.0
  0
SPLINE
  5
170
330
167
100
AcDbEntity
  8
Layer 1
 62
     7
420
 16777215
370
    18
100
AcDbSpline
210
0.0
220
0.0
230
1.0
 70
    11
 71
     3
 72
    17
 73
    13
 74
     0
 42
0.0000000001
 43
0.0000000001
 12
1.0
 22
0.0
 32
0.0
 13
1.0
 23
0.0
 33
0.0
 40
0.0
 40
0.0
 40
0.0
 40
0.0
 40
1.0
 40
1.0
 40
1.0
 40
2.0
 40
2.0
 40
2.0
 40
3.0
 40
3.0
 40
3.0
 40
4.0
 40
4.0
 40
4.0
 40
4.0
 10
6.013853448307802
 20
5.237586698804155
 30
0.0
 10
6.01121305726954
 20
5.237554358056538
 30
0.0
 10
6.009069327712672
 20
5.239640336278348
 30
0.0
 10
6.009048537232047
 20
5.242246076515585
 30
0.0
 10
6.009002336164005
 20
5.244863367019838
 30
0.0
 10
6.011099864652857
 20
5.247004786523322
 30
0.0
 10
6.013694054623076
 20
5.247039437324347
 30
0.0
 10
6.016311345127329
 20
5.247074088125373
 30
0.0
 10
6.018455074684198
 20
5.24498579985013
 30
0.0
 10
6.018498965698831
 20
5.242380059612893
 30
0.0
 10
6.018522066232864
 20
5.239765079162049
 30
0.0
 10
6.01644783540342
 20
5.23762134960518
 30
0.0
 10
6.013853448307802
 20
5.237586698804155
 30
0.0
  0
SPLINE
  5
171
330
167
100
AcDbEntity
  8
Layer 1
 62
     7
420
 16777215
370
    25
100
AcDbSpline
210
0.0
220
0.0
230
1.0
 70
    11
 71
     3
 72
    23
 73
    19
 74
     0
 42
0.0000000001
 43
0.0000000001
 12
1.0
 22
0.0
 32
0.0
 13
1.0
 23
0.0
 33
0.0
 40
0.0
 40
0.0
 40
0.0
 40
0.0
 40
1.0
 40
1.0
 40
1.0
 40
2.0
 40
2.0
 40
2.0
 40
3.0
 40
3.0
 40
3.0
 40
4.0
 40
4.0
 40
4.0
 40
5.0
 40
5.0
 40
5.0
 40
6.0
 40
6.0
 40
6.0
 40
6.0
 10
6.016357546195372
 20
5.240328732192084
 30
0.0
 10
6.016378533799625
 20
5.239640336278348
 30
0.0
 10
6.016221253044654
 20
5.238998373110562
 30
0.0
 10
6.015974077330662
 20
5.238411387868609
 30
0.0
 10
6.015297231683942
 20
5.238016368736882
 30
0.0
 10
6.014530491031463
 20
5.237766882969506
 30
0.0
 10
6.013694054623076
 20
5.237755332702489
 30
0.0
 10
6.011169166254906
 20
5.237722991954848
 30
0.0
 10
6.009092428246681
 20
5.23974197862804
 30
0.0
 10
6.009048537232047
 20
5.242278649024001
 30
0.0
 10
6.009048537232047
 20
5.242966813176963
 30
0.0
 10
6.009182520329356
 20
5.243611318076066
 30
0.0
 10
6.009452796577357
 20
5.24419807164011
 30
0.0
 10
6.010108851743476
 20
5.244590780718428
 30
0.0
 10
6.010875789472871
 20
5.24484026648583
 30
0.0
 10
6.011709718750934
 20
5.244851816752822
 30
0.0
 10
6.014257707653112
 20
5.244884157500463
 30
0.0
 10
6.016311345127329
 20
5.242853620560279
 30
0.0
 10
6.016357546195372
 20
5.240328732192084
 30
0.0
  0
SPLINE
  5
172
330
167
100
AcDbEntity
  8
Layer 1
 62
     7
420
 16777215
370
    18
100
AcDbSpline
210
0.0
220
0.0
230
1.0
 70
    11
 71
     3
 72
    26
 73
    22
 74
     0
 42
0.0000000001
 43
0.0000000001
 12
1.0
 22
0.0
 32
0.0
 13
1.0
 23
0.0
 33
0.0
 40
0.0
 40
0.0
 40
0.0
 40
0.0
 40
1.0
 40
1.0
 40
1.0
 40
2.0
 40
2.0
 40
2.0
 40
3.0
 40
3.0
 40
3.0
 40
4.0
 40
4.0
 40
4.0
 40
5.0
 40
5.0
 40
5.0
 40
6.0
 40
6.0
 40
6.0
 40
7.0
 40
7.0
 40
7.0
 40
7.0
 10
6.040608486807514
 20
5.251088960937699
 30
0.0
 10
6.040585386273506
 20
5.253436207236569
 30
0.0
 10
6.036591501576064
 20
5.253852016859406
 30
0.0
 10
6.033073092610821
 20
5.253796343524628
 30
0.0
 10
6.029554881279889
 20
5.253750142456586
 30
0.0
 10
6.021545926135811
 20
5.251641063700744
 30
0.0
 10
6.019492288661619
 20
5.247861816335393
 30
0.0
 10
6.017891421654162
 20
5.244907258034472
 30
0.0
 10
6.018318978706146
 20
5.243384932842698
 30
0.0
 10
6.018342079240761
 20
5.241975800267583
 30
0.0
 10
6.01836517977535
 20
5.240575907906102
 30
0.0
 10
6.019695573360978
 20
5.238365186800567
 30
0.0
 10
6.022153667450033
 20
5.238399837601592
 30
0.0
 10
6.022109579165847
 20
5.240744541804411
 30
0.0
 10
6.023010499992552
 20
5.242853620560279
 30
0.0
 10
6.024433492888066
 20
5.243588217542032
 30
0.0
 10
6.025807974662156
 20
5.244308954203411
 30
0.0
 10
6.030726078354594
 20
5.245438570316891
 30
0.0
 10
6.033299477844214
 20
5.245470911064507
 30
0.0
 10
6.037178057505849
 20
5.245528662399566
 30
0.0
 10
6.040675478356181
 20
5.246508125041928
 30
0.0
 10
6.040608486807514
 20
5.251088960937699
 30
0.0
  0
POLYLINE
  5
173
330
167
100
AcDbEntity
  8
Layer 1
 62
     7
420
 16777215
370
    25
100
AcDb2dPolyline
 66
     1
 10
0.0
 20
0.0
 30
0.0
  0
VERTEX
  5
174
330
173
100
AcDbEntity
  8
Layer 1
 62
     7
420
 16777215
370
    25
100
AcDbVertex
100
AcDb2dVertex
 10
6.022153667450033
 20
5.238399837601592
 30
0.0
  0
VERTEX
  5
175
330
173
100
AcDbEntity
  8
Layer 1
 62
     7
420
 16777215
370
    25
100
AcDbVertex
100
AcDb2dVertex
 10
6.022426056481915
 20
5.218693003195717
 30
0.0
  0
SEQEND
  5
176
330
173
100
AcDbEntity
  8
Layer 1
 62
     7
420
 16777215
370
    25
  0
POLYLINE
  5
177
330
167
100
AcDbEntity
  8
Layer 1
 62
     7
420
 16777215
370
    25
100
AcDb2dPolyline
 66
     1
 10
0.0
 20
0.0
 30
0.0
  0
VERTEX
  5
178
330
177
100
AcDbEntity
  8
Layer 1
 62
     7
420
 16777215
370
    25
100
AcDbVertex
100
AcDb2dVertex
 10
6.021793101849804
 20
5.263935167905148
 30
0.0
  0
VERTEX
  5
179
330
177
100
AcDbEntity
  8
Layer 1
 62
     7
420
 16777215
370
    25
100
AcDbVertex
100
AcDb2dVertex
 10
6.021973286015155
 20
5.250548640411377
 30
0.0
  0
SEQEND
  5
17A
330
177
100
AcDbEntity
  8
Layer 1
 62
     7
420
 16777215
370
    25
  0
SPLINE
  5
17B
330
167
100
AcDbEntity
  8
Layer 1
 62
     7
420
 16777215
370
    18
100
AcDbSpline
210
0.0
220
0.0
230
1.0
 70
     8
 71
     3
 72
     8
 73
     4
 74
     0
 42
0.0000000001
 43
0.0000000001
 12
1.0
 22
0.0
 32
0.0
 13
1.0
 23
0.0
 33
0.0
 40
0.0
 40
0.0
 40
0.0
 40
0.0
 40
1.0
 40
1.0
 40
1.0
 40
1.0
 10
6.101471463784896
 20
5.262763970830443
 30
0.0
 10
6.101404472236254
 20
5.266982128342129
 30
0.0
 10
6.103592092807755
 20
5.272801152861271
 30
0.0
 10
6.083222041910631
 20
5.276231582162962
 30
0.0
  0
SPLINE
  5
17C
330
167
100
AcDbEntity
  8
Layer 1
 62
     7
420
 16777215
370
    18
100
AcDbSpline
210
0.0
220
0.0
230
1.0
 70
     8
 71
     3
 72
    29
 73
    25
 74
     0
 42
0.0000000001
 43
0.0000000001
 12
1.0
 22
0.0
 32
0.0
 13
1.0
 23
0.0
 33
0.0
 40
0.0
 40
0.0
 40
0.0
 40
0.0
 40
1.0
 40
1.0
 40
1.0
 40
2.0
 40
2.0
 40
2.0
 40
3.0
 40
3.0
 40
3.0
 40
4.0
 40
4.0
 40
4.0
 40
5.0
 40
5.0
 40
5.0
 40
6.0
 40
6.0
 40
6.0
 40
7.0
 40
7.0
 40
7.0
 40
8.0
 40
8.0
 40
8.0
 40
8.0
 10
6.103682184890431
 20
5.208429204766566
 30
0.0
 10
6.102261502048324
 20
5.2087225815486
 30
0.0
 10
6.1025109878157
 20
5.209161491694936
 30
0.0
 10
6.101224288070903
 20
5.211182788421511
 30
0.0
 10
6.099937588326106
 20
5.213190224827687
 30
0.0
 10
6.095493045581027
 20
5.216336748666359
 30
0.0
 10
6.091478371789486
 20
5.217498474422048
 30
0.0
 10
6.087102931625673
 20
5.219020799613847
 30
0.0
 10
6.072958474646409
 20
5.221873715565076
 30
0.0
 10
6.060437985208611
 20
5.221693531399725
 30
0.0
 10
6.047940596304847
 20
5.221524897501391
 30
0.0
 10
6.031696300783349
 20
5.218637330749137
 30
0.0
 10
6.028131888384374
 20
5.216708436158645
 30
0.0
 10
6.026417828760233
 20
5.216054691045908
 30
0.0
 10
6.025200430617486
 20
5.214791091835145
 30
0.0
 10
6.021589817150445
 20
5.214735650553494
 30
0.0
 10
6.023259985759952
 20
5.214756441034094
 30
0.0
 10
5.940874241237958
 20
5.225856247629786
 30
0.0
 10
5.940874241237958
 20
5.225856247629786
 30
0.0
 10
5.940874241237958
 20
5.225856247629786
 30
0.0
 10
5.933158662875914
 20
5.235241994601311
 30
0.0
 10
5.933158662875914
 20
5.235241994601311
 30
0.0
 10
5.933158662875914
 20
5.235241994601311
 30
0.0
 10
5.932548808777836
 20
5.27789967337968
 30
0.0
 10
5.932548808777836
 20
5.27789967337968
 30
0.0
  0
ENDBLK
  5
16A
330
167
100
AcDbEntity
  8
0
100
AcDbBlockEnd
  0
ENDSEC
  0
SECTION
  2
ENTITIES
  0
POLYLINE
  5
41
330
1F
100
AcDbEntity
  8
Layer 1
 62
     7
420
 16777215
370
    35
100
AcDb2dPolyline
 66
     1
 10
0.0
 20
0.0
 30
0.0
  0
VERTEX
  5
42
330
41
100
AcDbEntity
  8
Layer 1
 62
     7
420
 16777215
370
    35
100
AcDbVertex
100
AcDb2dVertex
 10
2.38490277738179
 20
5.286980260641561
 30
0.0
  0
VERTEX
  5
43
330
41
100
AcDbEntity
  8
Layer 1
 62
     7
420
 16777215
370
    35
100
AcDbVertex
100
AcDb2dVertex
 10
2.343349536790103
 20
5.170867736453197
 30
0.0
  0
VERTEX
  5
44
330
41
100
AcDbEntity
  8
Layer 1
 62
     7
420
 16777215
370
    35
100
AcDbVertex
100
AcDb2dVertex
 10
2.439653459825952
 20
5.039462658744873
 30
0.0
  0
VERTEX
  5
45
330
41
100
AcDbEntity
  8
Layer 1
 62
     7
420
 16777215
370
    35
100
AcDbVertex
100
AcDb2dVertex
 10
2.16576418152628
 20
4.726725319154992
 30
0.0
  0
VERTEX
  5
46
330
41
100
AcDbEntity
  8
Layer 1
 62
     7
420
 16777215
370
    35
100
AcDbVertex
100
AcDb2dVertex
 10
2.258300300695825
 20
4.499598558636055
 30
0.0
  0
VERTEX
  5
47
330
41
100
AcDbEntity
  8
Layer 1
 62
     7
420
 16777215
370
    35
100
AcDbVertex
100
AcDb2dVertex
 10
2.834134242324164
 20
4.507676815382157
 30
0.0
  0
VERTEX
  5
48
330
41
100
AcDbEntity
  8
Layer 1
 62
     7
420
 16777215
370
    35
100
AcDbVertex
100
AcDb2dVertex
 10
2.865165307187921
 20
4.468378186910639
 30
0.0
  0
VERTEX
  5
49
330
41
100
AcDbEntity
  8
Layer 1
 62
     7
420
 16777215
370
    35
100
AcDbVertex
100
AcDb2dVertex
 10
2.919509195948093
 20
4.542981361521975
 30
0.0
  0
VERTEX
  5
4A
330
41
100
AcDbEntity
  8
Layer 1
 62
     7
420
 16777215
370
    35
100
AcDbVertex
100
AcDb2dVertex
 10
2.948521156621394
 20
4.509120598758297
 30
0.0
  0
VERTEX
  5
4B
330
41
100
AcDbEntity
  8
Layer 1
 62
     7
420
 16777215
370
    35
100
AcDbVertex
100
AcDb2dVertex
 10
4.912865995879908
 20
4.53673266707008
 30
0.0
  0
VERTEX
  5
4C
330
41
100
AcDbEntity
  8
Layer 1
 62
     7
420
 16777215
370
    35
100
AcDbVertex
100
AcDb2dVertex
 10
4.944053857611126
 20
4.497434038598562
 30
0.0
  0
VERTEX
  5
4D
330
41
100
AcDbEntity
  8
Layer 1
 62
     7
420
 16777215
370
    35
100
AcDbVertex
100
AcDb2dVertex
 10
4.998534157039304
 20
4.571901134884759
 30
0.0
  0
VERTEX
  5
4E
330
41
100
AcDbEntity
  8
Layer 1
 62
     7
420
 16777215
370
    35
100
AcDbVertex
100
AcDb2dVertex
 10
5.027726301877919
 20
4.538040157295502
 30
0.0
  0
VERTEX
  5
4F
330
41
100
AcDbEntity
  8
Layer 1
 62
     7
420
 16777215
370
    35
100
AcDbVertex
100
AcDb2dVertex
 10
6.074875818969909
 20
4.552725166770793
 30
0.0
  0
VERTEX
  5
50
330
41
100
AcDbEntity
  8
Layer 1
 62
     7
420
 16777215
370
    35
100
AcDbVertex
100
AcDb2dVertex
 10
6.063912305524935
 20
5.335967253080248
 30
0.0
  0
VERTEX
  5
51
330
41
100
AcDbEntity
  8
Layer 1
 62
     7
420
 16777215
370
    35
100
AcDbVertex
100
AcDb2dVertex
 10
6.031562317686039
 20
5.346762367027142
 30
0.0
  0
VERTEX
  5
52
330
41
100
AcDbEntity
  8
Layer 1
 62
     7
420
 16777215
370
    35
100
AcDbVertex
100
AcDb2dVertex
 10
6.026598012925559
 20
5.345385340799415
 30
0.0
  0
VERTEX
  5
53
330
41
100
AcDbEntity
  8
Layer 1
 62
     7
420
 16777215
370
    35
100
AcDbVertex
100
AcDb2dVertex
 10
6.0263947282262
 20
5.348487742518046
 30
0.0
  0
VERTEX
  5
54
330
41
100
AcDbEntity
  8
Layer 1
 62
     7
420
 16777215
370
    35
100
AcDbVertex
100
AcDb2dVertex
 10
5.968169832233697
 20
5.367922456722226
 30
0.0
  0
VERTEX
  5
55
330
41
100
AcDbEntity
  8
Layer 1
 62
     7
420
 16777215
370
    35
100
AcDbVertex
100
AcDb2dVertex
 10
5.963658297939976
 20
5.366524639479343
 30
0.0
  0
VERTEX
  5
56
330
41
100
AcDbEntity
  8
Layer 1
 62
     7
420
 16777215
370
    35
100
AcDbVertex
100
AcDb2dVertex
 10
5.963568205857301
 20
5.369456097246231
 30
0.0
  0
VERTEX
  5
57
330
41
100
AcDbEntity
  8
Layer 1
 62
     7
420
 16777215
370
    35
100
AcDbVertex
100
AcDb2dVertex
 10
5.896140251198125
 20
5.392094620583925
 30
0.0
  0
VERTEX
  5
58
330
41
100
AcDbEntity
  8
Layer 1
 62
     7
420
 16777215
370
    35
100
AcDbVertex
100
AcDb2dVertex
 10
5.890838484554832
 20
5.390040983109732
 30
0.0
  0
VERTEX
  5
59
330
41
100
AcDbEntity
  8
Layer 1
 62
     7
420
 16777215
370
    35
100
AcDbVertex
100
AcDb2dVertex
 10
5.89070219140414
 20
5.393774029407041
 30
0.0
  0
VERTEX
  5
5A
330
41
100
AcDbEntity
  8
Layer 1
 62
     7
420
 16777215
370
    35
100
AcDbVertex
100
AcDb2dVertex
 10
5.821040413208266
 20
5.41688611369212
 30
0.0
  0
VERTEX
  5
5B
330
41
100
AcDbEntity
  8
Layer 1
 62
     7
420
 16777215
370
    35
100
AcDbVertex
100
AcDb2dVertex
 10
5.815242179023269
 20
5.414867127018927
 30
0.0
  0
VERTEX
  5
5C
330
41
100
AcDbEntity
  8
Layer 1
 62
     7
420
 16777215
370
    35
100
AcDbVertex
100
AcDb2dVertex
 10
5.815265279557858
 20
5.418962851700345
 30
0.0
  0
VERTEX
  5
5D
330
41
100
AcDbEntity
  8
Layer 1
 62
     7
420
 16777215
370
    35
100
AcDbVertex
100
AcDb2dVertex
 10
5.736150378609712
 20
5.44536676208299
 30
0.0
  0
VERTEX
  5
5E
330
41
100
AcDbEntity
  8
Layer 1
 62
     7
420
 16777215
370
    35
100
AcDbVertex
100
AcDb2dVertex
 10
5.729495114759124
 20
5.443065948894779
 30
0.0
  0
VERTEX
  5
5F
330
41
100
AcDbEntity
  8
Layer 1
 62
     7
420
 16777215
370
    35
100
AcDbVertex
100
AcDb2dVertex
 10
5.729405022676448
 20
5.447612133989524
 30
0.0
  0
VERTEX
  5
60
330
41
100
AcDbEntity
  8
Layer 1
 62
     7
420
 16777215
370
    35
100
AcDbVertex
100
AcDb2dVertex
 10
5.63420541193462
 20
5.479421569332392
 30
0.0
  0
VERTEX
  5
61
330
41
100
AcDbEntity
  8
Layer 1
 62
     7
420
 16777215
370
    35
100
AcDbVertex
100
AcDb2dVertex
 10
5.627527234850428
 20
5.477063004809148
 30
0.0
  0
VERTEX
  5
62
330
41
100
AcDbEntity
  8
Layer 1
 62
     7
420
 16777215
370
    35
100
AcDbVertex
100
AcDb2dVertex
 10
5.627436955467323
 20
5.481643840704944
 30
0.0
  0
VERTEX
  5
63
330
41
100
AcDbEntity
  8
Layer 1
 62
     7
420
 16777215
370
    35
100
AcDbVertex
100
AcDb2dVertex
 10
5.366925303185477
 20
5.568608111069326
 30
0.0
  0
VERTEX
  5
64
330
41
100
AcDbEntity
  8
Layer 1
 62
     7
420
 16777215
370
    35
100
AcDbVertex
100
AcDb2dVertex
 10
5.359639394756186
 20
5.566961042993827
 30
0.0
  0
VERTEX
  5
65
330
41
100
AcDbEntity
  8
Layer 1
 62
     7
420
 16777215
370
    35
100
AcDbVertex
100
AcDb2dVertex
 10
5.359526202139502
 20
5.571068558008947
 30
0.0
  0
VERTEX
  5
66
330
41
100
AcDbEntity
  8
Layer 1
 62
     7
420
 16777215
370
    35
100
AcDbVertex
100
AcDb2dVertex
 10
5.185708543974038
 20
5.629089929235394
 30
0.0
  0
VERTEX
  5
67
330
41
100
AcDbEntity
  8
Layer 1
 62
     7
420
 16777215
370
    35
100
AcDbVertex
100
AcDb2dVertex
 10
5.178106334175784
 20
5.626156161415111
 30
0.0
  0
VERTEX
  5
68
330
41
100
AcDbEntity
  8
Layer 1
 62
     7
420
 16777215
370
    35
100
AcDbVertex
100
AcDb2dVertex
 10
5.178025306359611
 20
5.631649468404602
 30
0.0
  0
VERTEX
  5
69
330
41
100
AcDbEntity
  8
Layer 1
 62
     7
420
 16777215
370
    35
100
AcDbVertex
100
AcDb2dVertex
 10
4.949503443758076
 20
5.707922811625419
 30
0.0
  0
VERTEX
  5
6A
330
41
100
AcDbEntity
  8
Layer 1
 62
     7
420
 16777215
370
    35
100
AcDbVertex
100
AcDb2dVertex
 10
4.941741664131945
 20
5.703986480628751
 30
0.0
  0
VERTEX
  5
6B
330
41
100
AcDbEntity
  8
Layer 1
 62
     7
420
 16777215
370
    35
100
AcDbVertex
100
AcDb2dVertex
 10
4.941607511058615
 20
5.710549585933576
 30
0.0
  0
VERTEX
  5
6C
330
41
100
AcDbEntity
  8
Layer 1
 62
     7
420
 16777215
370
    35
100
AcDbVertex
100
AcDb2dVertex
 10
4.670592045958756
 20
5.801013343611392
 30
0.0
  0
VERTEX
  5
6D
330
41
100
AcDbEntity
  8
Layer 1
 62
     7
420
 16777215
370
    35
100
AcDbVertex
100
AcDb2dVertex
 10
4.661615178439332
 20
5.796996160745658
 30
0.0
  0
VERTEX
  5
6E
330
41
100
AcDbEntity
  8
Layer 1
 62
     7
420
 16777215
370
    35
100
AcDbVertex
100
AcDb2dVertex
 10
4.661467335021623
 20
5.804057993994976
 30
0.0
  0
VERTEX
  5
6F
330
41
100
AcDbEntity
  8
Layer 1
 62
     7
420
 16777215
370
    35
100
AcDbVertex
100
AcDb2dVertex
 10
4.303443708542747
 20
5.92355243636358
 30
0.0
  0
VERTEX
  5
70
330
41
100
AcDbEntity
  8
Layer 1
 62
     7
420
 16777215
370
    35
100
AcDbVertex
100
AcDb2dVertex
 10
4.29276202161279
 20
5.918680533739171
 30
0.0
  0
VERTEX
  5
71
330
41
100
AcDbEntity
  8
Layer 1
 62
     7
420
 16777215
370
    35
100
AcDbVertex
100
AcDb2dVertex
 10
4.292602627928065
 20
5.927174600097613
 30
0.0
  0
VERTEX
  5
72
330
41
100
AcDbEntity
  8
Layer 1
 62
     7
420
 16777215
370
    35
100
AcDbVertex
100
AcDb2dVertex
 10
3.916431221924616
 20
6.049986279151224
 30
0.0
  0
VERTEX
  5
73
330
41
100
AcDbEntity
  8
Layer 1
 62
     7
420
 16777215
370
    35
100
AcDbVertex
100
AcDb2dVertex
 10
3.099349163332085
 20
5.976431868784326
 30
0.0
  0
VERTEX
  5
74
330
41
100
AcDbEntity
  8
Layer 1
 62
     7
420
 16777215
370
    35
100
AcDbVertex
100
AcDb2dVertex
 10
3.099430015201152
 20
5.971130296227178
 30
0.0
  0
VERTEX
  5
75
330
41
100
AcDbEntity
  8
Layer 1
 62
     7
420
 16777215
370
    35
100
AcDbVertex
100
AcDb2dVertex
 10
3.088330208605473
 20
5.975438545821539
 30
0.0
  0
VERTEX
  5
76
330
41
100
AcDbEntity
  8
Layer 1
 62
     7
420
 16777215
370
    35
100
AcDbVertex
100
AcDb2dVertex
 10
2.616055960980083
 20
5.932926633068115
 30
0.0
  0
VERTEX
  5
77
330
41
100
AcDbEntity
  8
Layer 1
 62
     7
420
 16777215
370
    35
100
AcDbVertex
100
AcDb2dVertex
 10
2.569718599793254
 20
5.803448139896899
 30
0.0
  0
VERTEX
  5
78
330
41
100
AcDbEntity
  8
Layer 1
 62
     7
420
 16777215
370
    35
100
AcDbVertex
100
AcDb2dVertex
 10
2.287559540008829
 20
5.782401243353042
 30
0.0
  0
VERTEX
  5
79
330
41
100
AcDbEntity
  8
Layer 1
 62
     7
420
 16777215
370
    35
100
AcDbVertex
100
AcDb2dVertex
 10
2.290121286305697
 20
5.599581307080724
 30
0.0
  0
VERTEX
  5
7A
330
41
100
AcDbEntity
  8
Layer 1
 62
     7
420
 16777215
370
    35
100
AcDbVertex
100
AcDb2dVertex
 10
2.256112680124311
 20
5.566554473595109
 30
0.0
  0
VERTEX
  5
7B
330
41
100
AcDbEntity
  8
Layer 1
 62
     7
420
 16777215
370
    35
100
AcDbVertex
100
AcDb2dVertex
 10
2.323801864904024
 20
5.518685547002885
 30
0.0
  0
VERTEX
  5
7C
330
41
100
AcDbEntity
  8
Layer 1
 62
     7
420
 16777215
370
    35
100
AcDbVertex
100
AcDb2dVertex
 10
2.291710603046138
 20
5.485681814051304
 30
0.0
  0
VERTEX
  5
7D
330
41
100
AcDbEntity
  8
Layer 1
 62
     7
420
 16777215
370
    35
100
AcDbVertex
100
AcDb2dVertex
 10
2.29424935173472
 20
5.304779222102474
 30
0.0
  0
VERTEX
  5
7E
330
41
100
AcDbEntity
  8
Layer 1
 62
     7
420
 16777215
370
    35
100
AcDbVertex
100
AcDb2dVertex
 10
2.341432192466603
 20
5.285582678333463
 30
0.0
  0
VERTEX
  5
7F
330
41
100
AcDbEntity
  8
Layer 1
 62
     7
420
 16777215
370
    35
100
AcDbVertex
100
AcDb2dVertex
 10
2.38490277738179
 20
5.286980260641561
 30
0.0
  0
SEQEND
  5
81
330
41
100
AcDbEntity
  8
Layer 1
 62
     7
420
 16777215
370
    35
  0
HATCH
  5
80
330
1F
100
AcDbEntity
  8
Layer 1
 62
    43
420
 15510365
100
AcDbHatch
 10
0.0
 20
0.0
 30
0.0
210
0.0
220
0.0
230
1.0
  2
SOLID
 70
     1
 71
     0
 91
        1
 92
        1
 93
       61
 72
     1
 10
2.38490277738179
 20
5.286980260641561
 11
2.343349536790103
 21
5.170867736453197
 72
     1
 10
2.343349536790103
 20
5.170867736453197
 11
2.439653459825952
 21
5.039462658744873
 72
     1
 10
2.439653459825952
 20
5.039462658744873
 11
2.16576418152628
 21
4.726725319154992
 72
     1
 10
2.16576418152628
 20
4.726725319154992
 11
2.258300300695825
 21
4.499598558636055
 72
     1
 10
2.258300300695825
 20
4.499598558636055
 11
2.834134242324164
 21
4.507676815382157
 72
     1
 10
2.834134242324164
 20
4.507676815382157
 11
2.865165307187921
 21
4.468378186910639
 72
     1
 10
2.865165307187921
 20
4.468378186910639
 11
2.919509195948093
 21
4.542981361521975
 72
     1
 10
2.919509195948093
 20
4.542981361521975
 11
2.948521156621394
 21
4.509120598758297
 72
     1
 10
2.948521156621394
 20
4.509120598758297
 11
4.912865995879908
 21
4.53673266707008
 72
     1
 10
4.912865995879908
 20
4.53673266707008
 11
4.944053857611126
 21
4.497434038598562
 72
     1
 10
4.944053857611126
 20
4.497434038598562
 11
4.998534157039304
 21
4.571901134884759
 72
     1
 10
4.998534157039304
 20
4.571901134884759
 11
5.027726301877919
 21
4.538040157295502
 72
     1
 10
5.027726301877919
 20
4.538040157295502
 11
6.074875818969909
 21
4.552725166770793
 72
     1
 10
6.074875818969909
 20
4.552725166770793
 11
6.063912305524935
 21
5.335967253080248
 72
     1
 10
6.063912305524935
 20
5.335967253080248
 11
6.031562317686039
 21
5.346762367027142
 72
     1
 10
6.031562317686039
 20
5.346762367027142
 11
6.026598012925559
 21
5.345385340799415
 72
     1
 10
6.026598012925559
 20
5.345385340799415
 11
6.0263947282262
 21
5.348487742518046
 72
     1
 10
6.0263947282262
 20
5.348487742518046
 11
5.968169832233697
 21
5.367922456722226
 72
     1
 10
5.968169832233697
 20
5.367922456722226
 11
5.963658297939976
 21
5.366524639479343
 72
     1
 10
5.963658297939976
 20
5.366524639479343
 11
5.963568205857301
 21
5.369456097246231
 72
     1
 10
5.963568205857301
 20
5.369456097246231
 11
5.896140251198125
 21
5.392094620583925
 72
     1
 10
5.896140251198125
 20
5.392094620583925
 11
5.890838484554832
 21
5.390040983109732
 72
     1
 10
5.890838484554832
 20
5.390040983109732
 11
5.89070219140414
 21
5.393774029407041
 72
     1
 10
5.89070219140414
 20
5.393774029407041
 11
5.821040413208266
 21
5.41688611369212
 72
     1
 10
5.821040413208266
 20
5.41688611369212
 11
5.815242179023269
 21
5.414867127018927
 72
     1
 10
5.815242179023269
 20
5.414867127018927
 11
5.815265279557858
 21
5.418962851700345
 72
     1
 10
5.815265279557858
 20
5.418962851700345
 11
5.736150378609712
 21
5.44536676208299
 72
     1
 10
5.736150378609712
 20
5.44536676208299
 11
5.729495114759124
 21
5.443065948894779
 72
     1
 10
5.729495114759124
 20
5.443065948894779
 11
5.729405022676448
 21
5.447612133989524
 72
     1
 10
5.729405022676448
 20
5.447612133989524
 11
5.63420541193462
 21
5.479421569332392
 72
     1
 10
5.63420541193462
 20
5.479421569332392
 11
5.627527234850428
 21
5.477063004809148
 72
     1
 10
5.627527234850428
 20
5.477063004809148
 11
5.627436955467323
 21
5.481643840704944
 72
     1
 10
5.627436955467323
 20
5.481643840704944
 11
5.366925303185477
 21
5.568608111069326
 72
     1
 10
5.366925303185477
 20
5.568608111069326
 11
5.359639394756186
 21
5.566961042993827
 72
     1
 10
5.359639394756186
 20
5.566961042993827
 11
5.359526202139502
 21
5.571068558008947
 72
     1
 10
5.359526202139502
 20
5.571068558008947
 11
5.185708543974038
 21
5.629089929235394
 72
     1
 10
5.185708543974038
 20
5.629089929235394
 11
5.178106334175784
 21
5.626156161415111
 72
     1
 10
5.178106334175784
 20
5.626156161415111
 11
5.178025306359611
 21
5.631649468404602
 72
     1
 10
5.178025306359611
 20
5.631649468404602
 11
4.949503443758076
 21
5.707922811625419
 72
     1
 10
4.949503443758076
 20
5.707922811625419
 11
4.941741664131945
 21
5.703986480628751
 72
     1
 10
4.941741664131945
 20
5.703986480628751
 11
4.941607511058615
 21
5.710549585933576
 72
     1
 10
4.941607511058615
 20
5.710549585933576
 11
4.670592045958756
 21
5.801013343611392
 72
     1
 10
4.670592045958756
 20
5.801013343611392
 11
4.661615178439332
 21
5.796996160745658
 72
     1
 10
4.661615178439332
 20
5.796996160745658
 11
4.661467335021623
 21
5.804057993994976
 72
     1
 10
4.661467335021623
 20
5.804057993994976
 11
4.303443708542747
 21
5.92355243636358
 72
     1
 10
4.303443708542747
 20
5.92355243636358
 11
4.29276202161279
 21
5.918680533739171
 72
     1
 10
4.29276202161279
 20
5.918680533739171
 11
4.292602627928065
 21
5.927174600097613
 72
     1
 10
4.292602627928065
 20
5.927174600097613
 11
3.916431221924616
 21
6.049986279151224
 72
     1
 10
3.916431221924616
 20
6.049986279151224
 11
3.099349163332085
 21
5.976431868784326
 72
     1
 10
3.099349163332085
 20
5.976431868784326
 11
3.099430015201152
 21
5.971130296227178
 72
     1
 10
3.099430015201152
 20
5.971130296227178
 11
3.088330208605473
 21
5.975438545821539
 72
     1
 10
3.088330208605473
 20
5.975438545821539
 11
2.616055960980083
 21
5.932926633068115
 72
     1
 10
2.616055960980083
 20
5.932926633068115
 11
2.569718599793254
 21
5.803448139896899
 72
     1
 10
2.569718599793254
 20
5.803448139896899
 11
2.287559540008829
 21
5.782401243353042
 72
     1
 10
2.287559540008829
 20
5.782401243353042
 11
2.290121286305697
 21
5.599581307080724
 72
     1
 10
2.290121286305697
 20
5.599581307080724
 11
2.256112680124311
 21
5.566554473595109
 72
     1
 10
2.256112680124311
 20
5.566554473595109
 11
2.323801864904024
 21
5.518685547002885
 72
     1
 10
2.323801864904024
 20
5.518685547002885
 11
2.291710603046138
 21
5.485681814051304
 72
     1
 10
2.291710603046138
 20
5.485681814051304
 11
2.29424935173472
 21
5.304779222102474
 72
     1
 10
2.29424935173472
 20
5.304779222102474
 11
2.341432192466603
 21
5.285582678333463
 72
     1
 10
2.341432192466603
 20
5.285582678333463
 11
2.38490277738179
 21
5.286980260641561
 97
        0
 75
     2
 76
     1
 98
        0
  0
POLYLINE
  5
82
330
1F
100
AcDbEntity
  8
Layer 1
370
     0
100
AcDb2dPolyline
 66
     1
 10
0.0
 20
0.0
 30
0.0
  0
VERTEX
  5
83
330
82
100
AcDbEntity
  8
Layer 1
370
     0
100
AcDbVertex
100
AcDb2dVertex
 10
3.765397620461145
 20
5.873957899880211
 30
0.0
  0
VERTEX
  5
84
330
82
100
AcDbEntity
  8
Layer 1
370
     0
100
AcDbVertex
100
AcDb2dVertex
 10
3.698972034892222
 20
5.900149285349888
 30
0.0
  0
VERTEX
  5
85
330
82
100
AcDbEntity
  8
Layer 1
370
     0
100
AcDbVertex
100
AcDb2dVertex
 10
2.290470207368634
 20
5.78071952447653
 30
0.0
  0
VERTEX
  5
86
330
82
100
AcDbEntity
  8
Layer 1
370
     0
100
AcDbVertex
100
AcDb2dVertex
 10
2.290121286305697
 20
5.599581307080724
 30
0.0
  0
VERTEX
  5
87
330
82
100
AcDbEntity
  8
Layer 1
370
     0
100
AcDbVertex
100
AcDb2dVertex
 10
2.256112680124311
 20
5.566554473595109
 30
0.0
  0
VERTEX
  5
88
330
82
100
AcDbEntity
  8
Layer 1
370
     0
100
AcDbVertex
100
AcDb2dVertex
 10
2.323801864904024
 20
5.518685547002885
 30
0.0
  0
VERTEX
  5
89
330
82
100
AcDbEntity
  8
Layer 1
370
     0
100
AcDbVertex
100
AcDb2dVertex
 10
2.291710603046138
 20
5.485681814051304
 30
0.0
  0
VERTEX
  5
8A
330
82
100
AcDbEntity
  8
Layer 1
370
     0
100
AcDbVertex
100
AcDb2dVertex
 10
2.29424935173472
 20
5.304779222102474
 30
0.0
  0
VERTEX
  5
8B
330
82
100
AcDbEntity
  8
Layer 1
370
     0
100
AcDbVertex
100
AcDb2dVertex
 10
2.341432192466603
 20
5.285582678333463
 30
0.0
  0
VERTEX
  5
8C
330
82
100
AcDbEntity
  8
Layer 1
370
     0
100
AcDbVertex
100
AcDb2dVertex
 10
3.789207340873556
 20
5.344845022655211
 30
0.0
  0
VERTEX
  5
8D
330
82
100
AcDbEntity
  8
Layer 1
370
     0
100
AcDbVertex
100
AcDb2dVertex
 10
3.765397620461145
 20
5.873957899880211
 30
0.0
  0
SEQEND
  5
8F
330
82
100
AcDbEntity
  8
Layer 1
370
     0
  0
HATCH
  5
8E
330
1F
100
AcDbEntity
  8
Layer 1
 62
   253
420
 12564370
100
AcDbHatch
 10
0.0
 20
0.0
 30
0.0
210
0.0
220
0.0
230
1.0
  2
SOLID
 70
     1
 71
     0
 91
        1
 92
        1
 93
       10
 72
     1
 10
3.765397620461145
 20
5.873957899880211
 11
3.698972034892222
 21
5.900149285349888
 72
     1
 10
3.698972034892222
 20
5.900149285349888
 11
2.290470207368634
 21
5.78071952447653
 72
     1
 10
2.290470207368634
 20
5.78071952447653
 11
2.290121286305697
 21
5.599581307080724
 72
     1
 10
2.290121286305697
 20
5.599581307080724
 11
2.256112680124311
 21
5.566554473595109
 72
     1
 10
2.256112680124311
 20
5.566554473595109
 11
2.323801864904024
 21
5.518685547002885
 72
     1
 10
2.323801864904024
 20
5.518685547002885
 11
2.291710603046138
 21
5.485681814051304
 72
     1
 10
2.291710603046138
 20
5.485681814051304
 11
2.29424935173472
 21
5.304779222102474
 72
     1
 10
2.29424935173472
 20
5.304779222102474
 11
2.341432192466603
 21
5.285582678333463
 72
     1
 10
2.341432192466603
 20
5.285582678333463
 11
3.789207340873556
 21
5.344845022655211
 72
     1
 10
3.789207340873556
 20
5.344845022655211
 11
3.765397620461145
 21
5.873957899880211
 97
        0
 75
     2
 76
     1
 98
        0
  0
SPLINE
  5
90
330
1F
100
AcDbEntity
  8
Layer 1
 62
     7
420
 16777215
370
    13
100
AcDbSpline
210
0.0
220
0.0
230
1.0
 70
     8
 71
     3
 72
     8
 73
     4
 74
     0
 42
0.0000000001
 43
0.0000000001
 12
1.0
 22
0.0
 32
0.0
 13
1.0
 23
0.0
 33
0.0
 40
0.0
 40
0.0
 40
0.0
 40
0.0
 40
1.0
 40
1.0
 40
1.0
 40
1.0
 10
3.780309015169804
 20
5.493136356378929
 30
0.0
 10
3.778819030725635
 20
5.46247963768355
 30
0.0
 10
3.756462333902959
 20
5.367381669291413
 30
0.0
 10
3.756598627053664
 20
5.357815738154537
 30
0.0
  0
POLYLINE
  5
91
330
1F
100
AcDbEntity
  8
Layer 1
 62
     7
420
 16777215
370
    35
100
AcDb2dPolyline
 66
     1
 10
0.0
 20
0.0
 30
0.0
  0
VERTEX
  5
92
330
91
100
AcDbEntity
  8
Layer 1
 62
     7
420
 16777215
370
    35
100
AcDbVertex
100
AcDb2dVertex
 10
6.157192261889855
 20
4.554058067583633
 30
0.0
  0
VERTEX
  5
93
330
91
100
AcDbEntity
  8
Layer 1
 62
     7
420
 16777215
370
    35
100
AcDbVertex
100
AcDb2dVertex
 10
5.027726301877919
 20
4.538220555435575
 30
0.0
  0
VERTEX
  5
94
330
91
100
AcDbEntity
  8
Layer 1
 62
     7
420
 16777215
370
    35
100
AcDbVertex
100
AcDb2dVertex
 10
4.998534157039304
 20
4.571787727442496
 30
0.0
  0
VERTEX
  5
95
330
91
100
AcDbEntity
  8
Layer 1
 62
     7
420
 16777215
370
    35
100
AcDbVertex
100
AcDb2dVertex
 10
4.944053857611126
 20
4.497320845981878
 30
0.0
  0
VERTEX
  5
96
330
91
100
AcDbEntity
  8
Layer 1
 62
     7
420
 16777215
370
    35
100
AcDbVertex
100
AcDb2dVertex
 10
4.912865995879908
 20
4.536619474453397
 30
0.0
  0
VERTEX
  5
97
330
91
100
AcDbEntity
  8
Layer 1
 62
     7
420
 16777215
370
    35
100
AcDbVertex
100
AcDb2dVertex
 10
2.948745231801341
 20
4.509231481321573
 30
0.0
  0
VERTEX
  5
98
330
91
100
AcDbEntity
  8
Layer 1
 62
     7
420
 16777215
370
    35
100
AcDbVertex
100
AcDb2dVertex
 10
2.919520865105508
 20
4.542145122190504
 30
0.0
  0
VERTEX
  5
99
330
91
100
AcDbEntity
  8
Layer 1
 62
     7
420
 16777215
370
    35
100
AcDbVertex
100
AcDb2dVertex
 10
2.865174429884228
 20
4.467541947579194
 30
0.0
  0
VERTEX
  5
9A
330
91
100
AcDbEntity
  8
Layer 1
 62
     7
420
 16777215
370
    35
100
AcDbVertex
100
AcDb2dVertex
 10
2.833977158692834
 20
4.507766907464833
 30
0.0
  0
VERTEX
  5
9B
330
91
100
AcDbEntity
  8
Layer 1
 62
     7
420
 16777215
370
    35
100
AcDbVertex
100
AcDb2dVertex
 10
2.156198250389404
 20
4.498110884245281
 30
0.0
  0
SEQEND
  5
9C
330
91
100
AcDbEntity
  8
Layer 1
 62
     7
420
 16777215
370
    35
  0
POLYLINE
  5
9D
330
1F
100
AcDbEntity
  8
Layer 1
 62
     7
420
 16777215
370
    35
100
AcDb2dPolyline
 66
     1
 10
0.0
 20
0.0
 30
0.0
  0
VERTEX
  5
9E
330
9D
100
AcDbEntity
  8
Layer 1
 62
     7
420
 16777215
370
    35
100
AcDbVertex
100
AcDb2dVertex
 10
5.627436955467323
 20
5.481643840704944
 30
0.0
  0
VERTEX
  5
9F
330
9D
100
AcDbEntity
  8
Layer 1
 62
     7
420
 16777215
370
    35
100
AcDbVertex
100
AcDb2dVertex
 10
5.640521097935157
 20
4.547469795281686
 30
0.0
  0
SEQEND
  5
A0
330
9D
100
AcDbEntity
  8
Layer 1
 62
     7
420
 16777215
370
    35
  0
POLYLINE
  5
A1
330
1F
100
AcDbEntity
  8
Layer 1
 62
     7
420
 16777215
370
    25
100
AcDb2dPolyline
 66
     1
 10
0.0
 20
0.0
 30
0.0
  0
VERTEX
  5
A2
330
A1
100
AcDbEntity
  8
Layer 1
 62
     7
420
 16777215
370
    25
100
AcDbVertex
100
AcDb2dVertex
 10
5.633845043603944
 20
5.479657194779393
 30
0.0
  0
VERTEX
  5
A3
330
A1
100
AcDbEntity
  8
Layer 1
 62
     7
420
 16777215
370
    25
100
AcDbVertex
100
AcDb2dVertex
 10
5.646906085537744
 20
4.547559887364337
 30
0.0
  0
SEQEND
  5
A4
330
A1
100
AcDbEntity
  8
Layer 1
 62
     7
420
 16777215
370
    25
  0
POLYLINE
  5
A5
330
1F
100
AcDbEntity
  8
Layer 1
 62
     7
420
 16777215
370
    35
100
AcDb2dPolyline
 66
     1
 10
0.0
 20
0.0
 30
0.0
  0
VERTEX
  5
A6
330
A5
100
AcDbEntity
  8
Layer 1
 62
     7
420
 16777215
370
    35
100
AcDbVertex
100
AcDb2dVertex
 10
5.359570093154136
 20
5.567887374407948
 30
0.0
  0
VERTEX
  5
A7
330
A5
100
AcDbEntity
  8
Layer 1
 62
     7
420
 16777215
370
    35
100
AcDbVertex
100
AcDb2dVertex
 10
5.373940935366767
 20
4.542778076822615
 30
0.0
  0
SEQEND
  5
A8
330
A5
100
AcDbEntity
  8
Layer 1
 62
     7
420
 16777215
370
    35
  0
POLYLINE
  5
A9
330
1F
100
AcDbEntity
  8
Layer 1
 62
     7
420
 16777215
370
    25
100
AcDb2dPolyline
 66
     1
 10
0.0
 20
0.0
 30
0.0
  0
VERTEX
  5
AA
330
A9
100
AcDbEntity
  8
Layer 1
 62
     7
420
 16777215
370
    25
100
AcDbVertex
100
AcDb2dVertex
 10
5.366765909500751
 20
5.568596800806568
 30
0.0
  0
VERTEX
  5
AB
330
A9
100
AcDbEntity
  8
Layer 1
 62
     7
420
 16777215
370
    25
100
AcDbVertex
100
AcDb2dVertex
 10
5.381136932789458
 20
4.542868168905266
 30
0.0
  0
SEQEND
  5
AC
330
A9
100
AcDbEntity
  8
Layer 1
 62
     7
420
 16777215
370
    25
  0
POLYLINE
  5
AD
330
1F
100
AcDbEntity
  8
Layer 1
 62
     7
420
 16777215
370
    35
100
AcDb2dPolyline
 66
     1
 10
0.0
 20
0.0
 30
0.0
  0
VERTEX
  5
AE
330
AD
100
AcDbEntity
  8
Layer 1
 62
     7
420
 16777215
370
    35
100
AcDbVertex
100
AcDb2dVertex
 10
5.178025306359611
 20
5.628761901652347
 30
0.0
  0
VERTEX
  5
AF
330
AD
100
AcDbEntity
  8
Layer 1
 62
     7
420
 16777215
370
    35
100
AcDbVertex
100
AcDb2dVertex
 10
5.19326472865133
 20
4.541198000295783
 30
0.0
  0
SEQEND
  5
B0
330
AD
100
AcDbEntity
  8
Layer 1
 62
     7
420
 16777215
370
    35
  0
POLYLINE
  5
B1
330
1F
100
AcDbEntity
  8
Layer 1
 62
     7
420
 16777215
370
    25
100
AcDb2dPolyline
 66
     1
 10
0.0
 20
0.0
 30
0.0
  0
VERTEX
  5
B2
330
B1
100
AcDbEntity
  8
Layer 1
 62
     7
420
 16777215
370
    25
100
AcDbVertex
100
AcDb2dVertex
 10
5.185505259274678
 20
5.628424633855679
 30
0.0
  0
VERTEX
  5
B3
330
B1
100
AcDbEntity
  8
Layer 1
 62
     7
420
 16777215
370
    25
100
AcDbVertex
100
AcDb2dVertex
 10
5.200730821245972
 20
4.541311192912468
 30
0.0
  0
SEQEND
  5
B4
330
B1
100
AcDbEntity
  8
Layer 1
 62
     7
420
 16777215
370
    25
  0
POLYLINE
  5
B5
330
1F
100
AcDbEntity
  8
Layer 1
 62
     7
420
 16777215
370
    35
100
AcDb2dPolyline
 66
     1
 10
0.0
 20
0.0
 30
0.0
  0
VERTEX
  5
B6
330
B5
100
AcDbEntity
  8
Layer 1
 62
     7
420
 16777215
370
    35
100
AcDbVertex
100
AcDb2dVertex
 10
4.941686052874275
 20
5.707786518474728
 30
0.0
  0
VERTEX
  5
B7
330
B5
100
AcDbEntity
  8
Layer 1
 62
     7
420
 16777215
370
    35
100
AcDbVertex
100
AcDb2dVertex
 10
4.958346158008099
 20
4.518143667345738
 30
0.0
  0
SEQEND
  5
B8
330
B5
100
AcDbEntity
  8
Layer 1
 62
     7
420
 16777215
370
    35
  0
POLYLINE
  5
B9
330
1F
100
AcDbEntity
  8
Layer 1
 62
     7
420
 16777215
370
    25
100
AcDb2dPolyline
 66
     1
 10
0.0
 20
0.0
 30
0.0
  0
VERTEX
  5
BA
330
B9
100
AcDbEntity
  8
Layer 1
 62
     7
420
 16777215
370
    25
100
AcDbVertex
100
AcDb2dVertex
 10
4.949457242688898
 20
5.706726203963298
 30
0.0
  0
VERTEX
  5
BB
330
B9
100
AcDbEntity
  8
Layer 1
 62
     7
420
 16777215
370
    25
100
AcDbVertex
100
AcDb2dVertex
 10
4.965969334234059
 20
4.527979874730641
 30
0.0
  0
SEQEND
  5
BC
330
B9
100
AcDbEntity
  8
Layer 1
 62
     7
420
 16777215
370
    25
  0
POLYLINE
  5
BD
330
1F
100
AcDbEntity
  8
Layer 1
 62
     7
420
 16777215
370
    35
100
AcDb2dPolyline
 66
     1
 10
0.0
 20
0.0
 30
0.0
  0
VERTEX
  5
BE
330
BD
100
AcDbEntity
  8
Layer 1
 62
     7
420
 16777215
370
    35
100
AcDbVertex
100
AcDb2dVertex
 10
4.661670782621816
 20
5.80023485561498
 30
0.0
  0
VERTEX
  5
BF
330
BD
100
AcDbEntity
  8
Layer 1
 62
     7
420
 16777215
370
    35
100
AcDbVertex
100
AcDb2dVertex
 10
4.679414139900246
 20
4.534002183949142
 30
0.0
  0
SEQEND
  5
C0
330
BD
100
AcDbEntity
  8
Layer 1
 62
     7
420
 16777215
370
    35
  0
POLYLINE
  5
C1
330
1F
100
AcDbEntity
  8
Layer 1
 62
     7
420
 16777215
370
    25
100
AcDb2dPolyline
 66
     1
 10
0.0
 20
0.0
 30
0.0
  0
VERTEX
  5
C2
330
C1
100
AcDbEntity
  8
Layer 1
 62
     7
420
 16777215
370
    25
100
AcDbVertex
100
AcDb2dVertex
 10
4.670536604677105
 20
5.800470481061969
 30
0.0
  0
VERTEX
  5
C3
330
C1
100
AcDbEntity
  8
Layer 1
 62
     7
420
 16777215
370
    25
100
AcDbVertex
100
AcDb2dVertex
 10
4.688280124856369
 20
4.53413847709986
 30
0.0
  0
SEQEND
  5
C4
330
C1
100
AcDbEntity
  8
Layer 1
 62
     7
420
 16777215
370
    25
  0
POLYLINE
  5
C5
330
1F
100
AcDbEntity
  8
Layer 1
 62
     7
420
 16777215
370
    35
100
AcDb2dPolyline
 66
     1
 10
0.0
 20
0.0
 30
0.0
  0
VERTEX
  5
C6
330
C5
100
AcDbEntity
  8
Layer 1
 62
     7
420
 16777215
370
    35
100
AcDbVertex
100
AcDb2dVertex
 10
4.292794362360433
 20
5.923520095615964
 30
0.0
  0
VERTEX
  5
C7
330
C5
100
AcDbEntity
  8
Layer 1
 62
     7
420
 16777215
370
    35
100
AcDbVertex
100
AcDb2dVertex
 10
4.312330483979496
 20
4.528857695023336
 30
0.0
  0
SEQEND
  5
C8
330
C5
100
AcDbEntity
  8
Layer 1
 62
     7
420
 16777215
370
    35
  0
POLYLINE
  5
C9
330
1F
100
AcDbEntity
  8
Layer 1
 62
     7
420
 16777215
370
    25
100
AcDb2dPolyline
 66
     1
 10
0.0
 20
0.0
 30
0.0
  0
VERTEX
  5
CA
330
C9
100
AcDbEntity
  8
Layer 1
 62
     7
420
 16777215
370
    25
100
AcDbVertex
100
AcDb2dVertex
 10
4.303342066193055
 20
5.922898691250869
 30
0.0
  0
VERTEX
  5
CB
330
C9
100
AcDbEntity
  8
Layer 1
 62
     7
420
 16777215
370
    25
100
AcDbVertex
100
AcDb2dVertex
 10
4.322866637545126
 20
4.529017088708062
 30
0.0
  0
SEQEND
  5
CC
330
C9
100
AcDbEntity
  8
Layer 1
 62
     7
420
 16777215
370
    25
  0
POLYLINE
  5
CD
330
1F
100
AcDbEntity
  8
Layer 1
 62
     7
420
 16777215
370
    35
100
AcDb2dPolyline
 66
     1
 10
0.0
 20
0.0
 30
0.0
  0
VERTEX
  5
CE
330
CD
100
AcDbEntity
  8
Layer 1
 62
     7
420
 16777215
370
    35
100
AcDbVertex
100
AcDb2dVertex
 10
5.729405022676448
 20
5.446214551681451
 30
0.0
  0
VERTEX
  5
CF
330
CD
100
AcDbEntity
  8
Layer 1
 62
     7
420
 16777215
370
    35
100
AcDbVertex
100
AcDb2dVertex
 10
5.741948612648255
 20
4.549837600018514
 30
0.0
  0
SEQEND
  5
D0
330
CD
100
AcDbEntity
  8
Layer 1
 62
     7
420
 16777215
370
    35
  0
POLYLINE
  5
D1
330
1F
100
AcDbEntity
  8
Layer 1
 62
     7
420
 16777215
370
    25
100
AcDb2dPolyline
 66
     1
 10
0.0
 20
0.0
 30
0.0
  0
VERTEX
  5
D2
330
D1
100
AcDbEntity
  8
Layer 1
 62
     7
420
 16777215
370
    25
100
AcDbVertex
100
AcDb2dVertex
 10
5.735790010279035
 20
5.444227905755901
 30
0.0
  0
VERTEX
  5
D3
330
D1
100
AcDbEntity
  8
Layer 1
 62
     7
420
 16777215
370
    25
100
AcDbVertex
100
AcDb2dVertex
 10
5.748354390731467
 20
4.547876578899099
 30
0.0
  0
SEQEND
  5
D4
330
D1
100
AcDbEntity
  8
Layer 1
 62
     7
420
 16777215
370
    25
  0
POLYLINE
  5
D5
330
1F
100
AcDbEntity
  8
Layer 1
 62
     7
420
 16777215
370
    35
100
AcDb2dPolyline
 66
     1
 10
0.0
 20
0.0
 30
0.0
  0
VERTEX
  5
D6
330
D5
100
AcDbEntity
  8
Layer 1
 62
     7
420
 16777215
370
    35
100
AcDbVertex
100
AcDb2dVertex
 10
5.815288380092422
 20
5.417260342343196
 30
0.0
  0
VERTEX
  5
D7
330
D5
100
AcDbEntity
  8
Layer 1
 62
     7
420
 16777215
370
    35
100
AcDbVertex
100
AcDb2dVertex
 10
5.827425208621864
 20
4.549454131153829
 30
0.0
  0
SEQEND
  5
D8
330
D5
100
AcDbEntity
  8
Layer 1
 62
     7
420
 16777215
370
    35
  0
POLYLINE
  5
D9
330
1F
100
AcDbEntity
  8
Layer 1
 62
     7
420
 16777215
370
    25
100
AcDb2dPolyline
 66
     1
 10
0.0
 20
0.0
 30
0.0
  0
VERTEX
  5
DA
330
D9
100
AcDbEntity
  8
Layer 1
 62
     7
420
 16777215
370
    25
100
AcDbVertex
100
AcDb2dVertex
 10
5.821400589349953
 20
5.415273696417645
 30
0.0
  0
VERTEX
  5
DB
330
D9
100
AcDbEntity
  8
Layer 1
 62
     7
420
 16777215
370
    25
100
AcDbVertex
100
AcDb2dVertex
 10
5.833514701893137
 20
4.550177177868591
 30
0.0
  0
SEQEND
  5
DC
330
D9
100
AcDbEntity
  8
Layer 1
 62
     7
420
 16777215
370
    25
  0
POLYLINE
  5
DD
330
1F
100
AcDbEntity
  8
Layer 1
 62
     7
420
 16777215
370
    35
100
AcDb2dPolyline
 66
     1
 10
0.0
 20
0.0
 30
0.0
  0
VERTEX
  5
DE
330
DD
100
AcDbEntity
  8
Layer 1
 62
     7
420
 16777215
370
    35
100
AcDbVertex
100
AcDb2dVertex
 10
6.02599046888089
 20
5.348409200702386
 30
0.0
  0
VERTEX
  5
DF
330
DD
100
AcDbEntity
  8
Layer 1
 62
     7
420
 16777215
370
    35
100
AcDbVertex
100
AcDb2dVertex
 10
6.037134166491215
 20
4.552387898974126
 30
0.0
  0
SEQEND
  5
E0
330
DD
100
AcDbEntity
  8
Layer 1
 62
     7
420
 16777215
370
    35
  0
POLYLINE
  5
E1
330
1F
100
AcDbEntity
  8
Layer 1
 62
     7
420
 16777215
370
    25
100
AcDb2dPolyline
 66
     1
 10
0.0
 20
0.0
 30
0.0
  0
VERTEX
  5
E2
330
E1
100
AcDbEntity
  8
Layer 1
 62
     7
420
 16777215
370
    25
100
AcDbVertex
100
AcDb2dVertex
 10
6.031832791448121
 20
5.346413314563228
 30
0.0
  0
VERTEX
  5
E3
330
E1
100
AcDbEntity
  8
Layer 1
 62
     7
420
 16777215
370
    25
100
AcDbVertex
100
AcDb2dVertex
 10
6.042932400529732
 20
4.552454890522768
 30
0.0
  0
SEQEND
  5
E4
330
E1
100
AcDbEntity
  8
Layer 1
 62
     7
420
 16777215
370
    25
  0
POLYLINE
  5
E5
330
1F
100
AcDbEntity
  8
Layer 1
 62
     7
420
 16777215
370
    35
100
AcDb2dPolyline
 66
     1
 10
0.0
 20
0.0
 30
0.0
  0
VERTEX
  5
E6
330
E5
100
AcDbEntity
  8
Layer 1
 62
     7
420
 16777215
370
    35
100
AcDbVertex
100
AcDb2dVertex
 10
5.962464000331238
 20
5.369467647513248
 30
0.0
  0
VERTEX
  5
E7
330
E5
100
AcDbEntity
  8
Layer 1
 62
     7
420
 16777215
370
    35
100
AcDbVertex
100
AcDb2dVertex
 10
5.973921865204198
 20
4.552140723260132
 30
0.0
  0
SEQEND
  5
E8
330
E5
100
AcDbEntity
  8
Layer 1
 62
     7
420
 16777215
370
    35
  0
POLYLINE
  5
E9
330
1F
100
AcDbEntity
  8
Layer 1
 62
     7
420
 16777215
370
    25
100
AcDb2dPolyline
 66
     1
 10
0.0
 20
0.0
 30
0.0
  0
VERTEX
  5
EA
330
E9
100
AcDbEntity
  8
Layer 1
 62
     7
420
 16777215
370
    25
100
AcDbVertex
100
AcDb2dVertex
 10
5.96830632129364
 20
5.367471761374089
 30
0.0
  0
VERTEX
  5
EB
330
E9
100
AcDbEntity
  8
Layer 1
 62
     7
420
 16777215
370
    25
100
AcDbVertex
100
AcDb2dVertex
 10
5.979720099242715
 20
4.552230815342808
 30
0.0
  0
SEQEND
  5
EC
330
E9
100
AcDbEntity
  8
Layer 1
 62
     7
420
 16777215
370
    25
  0
POLYLINE
  5
ED
330
1F
100
AcDbEntity
  8
Layer 1
 62
     7
420
 16777215
370
    35
100
AcDb2dPolyline
 66
     1
 10
0.0
 20
0.0
 30
0.0
  0
VERTEX
  5
EE
330
ED
100
AcDbEntity
  8
Layer 1
 62
     7
420
 16777215
370
    35
100
AcDbVertex
100
AcDb2dVertex
 10
5.890568208306831
 20
5.392387997365959
 30
0.0
  0
VERTEX
  5
EF
330
ED
100
AcDbEntity
  8
Layer 1
 62
     7
420
 16777215
370
    35
100
AcDbVertex
100
AcDb2dVertex
 10
5.902365651029842
 20
4.551124299763337
 30
0.0
  0
SEQEND
  5
F0
330
ED
100
AcDbEntity
  8
Layer 1
 62
     7
420
 16777215
370
    35
  0
POLYLINE
  5
F1
330
1F
100
AcDbEntity
  8
Layer 1
 62
     7
420
 16777215
370
    25
100
AcDb2dPolyline
 66
     1
 10
0.0
 20
0.0
 30
0.0
  0
VERTEX
  5
F2
330
F1
100
AcDbEntity
  8
Layer 1
 62
     7
420
 16777215
370
    25
100
AcDbVertex
100
AcDb2dVertex
 10
5.896433433894016
 20
5.390392111226801
 30
0.0
  0
VERTEX
  5
F3
330
F1
100
AcDbEntity
  8
Layer 1
 62
     7
420
 16777215
370
    25
100
AcDbVertex
100
AcDb2dVertex
 10
5.90818467554901
 20
4.551304483928662
 30
0.0
  0
SEQEND
  5
F4
330
F1
100
AcDbEntity
  8
Layer 1
 62
     7
420
 16777215
370
    25
  0
POLYLINE
  5
F5
330
1F
100
AcDbEntity
  8
Layer 1
 62
     7
420
 16777215
370
    35
100
AcDb2dPolyline
 66
     1
 10
0.0
 20
0.0
 30
0.0
  0
VERTEX
  5
F6
330
F5
100
AcDbEntity
  8
Layer 1
 62
     7
420
 16777215
370
    35
100
AcDbVertex
100
AcDb2dVertex
 10
2.569718599793254
 20
5.803448139896899
 30
0.0
  0
VERTEX
  5
F7
330
F5
100
AcDbEntity
  8
Layer 1
 62
     7
420
 16777215
370
    35
100
AcDbVertex
100
AcDb2dVertex
 10
3.698972034892222
 20
5.900149285349888
 30
0.0
  0
VERTEX
  5
F8
330
F5
100
AcDbEntity
  8
Layer 1
 62
     7
420
 16777215
370
    35
100
AcDbVertex
100
AcDb2dVertex
 10
3.775977665041422
 20
5.870596772180584
 30
0.0
  0
VERTEX
  5
F9
330
F5
100
AcDbEntity
  8
Layer 1
 62
     7
420
 16777215
370
    35
100
AcDbVertex
100
AcDb2dVertex
 10
3.783275123737717
 20
5.349885324826143
 30
0.0
  0
VERTEX
  5
FA
330
F5
100
AcDbEntity
  8
Layer 1
 62
     7
420
 16777215
370
    35
100
AcDbVertex
100
AcDb2dVertex
 10
2.38490277738179
 20
5.286980260641561
 30
0.0
  0
SEQEND
  5
FB
330
F5
100
AcDbEntity
  8
Layer 1
 62
     7
420
 16777215
370
    35
  0
POLYLINE
  5
FC
330
1F
100
AcDbEntity
  8
Layer 1
 62
     7
420
 16777215
370
    25
100
AcDb2dPolyline
 66
     1
 10
0.0
 20
0.0
 30
0.0
  0
VERTEX
  5
FD
330
FC
100
AcDbEntity
  8
Layer 1
 62
     7
420
 16777215
370
    25
100
AcDbVertex
100
AcDb2dVertex
 10
3.698972034892222
 20
5.900149285349888
 30
0.0
  0
VERTEX
  5
FE
330
FC
100
AcDbEntity
  8
Layer 1
 62
     7
420
 16777215
370
    25
100
AcDbVertex
100
AcDb2dVertex
 10
3.706415026952843
 20
5.369229712012864
 30
0.0
  0
VERTEX
  5
FF
330
FC
100
AcDbEntity
  8
Layer 1
 62
     7
420
 16777215
370
    25
100
AcDbVertex
100
AcDb2dVertex
 10
2.29424935173472
 20
5.304779222102474
 30
0.0
  0
SEQEND
  5
100
330
FC
100
AcDbEntity
  8
Layer 1
 62
     7
420
 16777215
370
    25
  0
POLYLINE
  5
101
330
1F
100
AcDbEntity
  8
Layer 1
 62
     7
420
 16777215
370
    25
100
AcDb2dPolyline
 66
     1
 10
0.0
 20
0.0
 30
0.0
  0
VERTEX
  5
102
330
101
100
AcDbEntity
  8
Layer 1
 62
     7
420
 16777215
370
    25
100
AcDbVertex
100
AcDb2dVertex
 10
3.706415026952843
 20
5.369229712012864
 30
0.0
  0
VERTEX
  5
103
330
101
100
AcDbEntity
  8
Layer 1
 62
     7
420
 16777215
370
    25
100
AcDbVertex
100
AcDb2dVertex
 10
3.783275123737717
 20
5.349885324826143
 30
0.0
  0
SEQEND
  5
104
330
101
100
AcDbEntity
  8
Layer 1
 62
     7
420
 16777215
370
    25
  0
SPLINE
  5
105
330
1F
100
AcDbEntity
  8
Layer 1
 62
     7
420
 16777215
370
    13
100
AcDbSpline
210
0.0
220
0.0
230
1.0
 70
     8
 71
     3
 72
    11
 73
     7
 74
     0
 42
0.0000000001
 43
0.0000000001
 12
1.0
 22
0.0
 32
0.0
 13
1.0
 23
0.0
 33
0.0
 40
0.0
 40
0.0
 40
0.0
 40
0.0
 40
1.0
 40
1.0
 40
1.0
 40
2.0
 40
2.0
 40
2.0
 40
2.0
 10
3.721497365613232
 20
5.888654707712097
 30
0.0
 10
3.720097473251737
 20
5.852254948170247
 30
0.0
 10
3.717921542006972
 20
5.802445576720515
 30
0.0
 10
3.712619830390091
 20
5.770772679640004
 30
0.0
 10
3.707318396624803
 20
5.739110842603205
 30
0.0
 10
3.699106017989518
 20
5.642308054800524
 30
0.0
 10
3.699106017989518
 20
5.642308054800524
 30
0.0
  0
SPLINE
  5
106
330
1F
100
AcDbEntity
  8
Layer 1
 62
     7
420
 16777215
370
    13
100
AcDbSpline
210
0.0
220
0.0
230
1.0
 70
     8
 71
     3
 72
    14
 73
    10
 74
     0
 42
0.0000000001
 43
0.0000000001
 12
1.0
 22
0.0
 32
0.0
 13
1.0
 23
0.0
 33
0.0
 40
0.0
 40
0.0
 40
0.0
 40
0.0
 40
1.0
 40
1.0
 40
1.0
 40
2.0
 40
2.0
 40
2.0
 40
3.0
 40
3.0
 40
3.0
 40
3.0
 10
3.745196203462354
 20
5.881333900392178
 30
0.0
 10
3.743784760833844
 20
5.844934388939931
 30
0.0
 10
3.73827066336374
 20
5.777831957724275
 30
0.0
 10
3.732969090806591
 20
5.74617061028928
 30
0.0
 10
3.727667518249455
 20
5.714497223606966
 30
0.0
 10
3.715890866007044
 20
5.581264893657817
 30
0.0
 10
3.715890866007044
 20
5.581264893657817
 30
0.0
 10
3.714400881562874
 20
5.550605864909054
 30
0.0
 10
3.707216615483263
 20
5.517003828126386
 30
0.0
 10
3.704477030868816
 20
5.507394005974876
 30
0.0
  0
SPLINE
  5
107
330
1F
100
AcDbEntity
  8
Layer 1
 62
     7
420
 16777215
370
    13
100
AcDbSpline
210
0.0
220
0.0
230
1.0
 70
     8
 71
     3
 72
    14
 73
    10
 74
     0
 42
0.0000000001
 43
0.0000000001
 12
1.0
 22
0.0
 32
0.0
 13
1.0
 23
0.0
 33
0.0
 40
0.0
 40
0.0
 40
0.0
 40
0.0
 40
1.0
 40
1.0
 40
1.0
 40
2.0
 40
2.0
 40
2.0
 40
3.0
 40
3.0
 40
3.0
 40
3.0
 10
3.765397620461145
 20
5.873957899880211
 30
0.0
 10
3.763997728099651
 20
5.837558388427977
 30
0.0
 10
3.756058074557649
 20
5.754867716856918
 30
0.0
 10
3.7507565020005
 20
5.723206124931772
 30
0.0
 10
3.745454929443351
 20
5.691532982739608
 30
0.0
 10
3.733678277200953
 20
5.558298342737063
 30
0.0
 10
3.733678277200953
 20
5.558298342737063
 30
0.0
 10
3.732202153077196
 20
5.527641624041684
 30
0.0
 10
3.709360345040143
 20
5.431820608934786
 30
0.0
 10
3.706629861919206
 20
5.422210786783277
 30
0.0
  0
SPLINE
  5
108
330
1F
100
AcDbEntity
  8
Layer 1
 62
     7
420
 16777215
370
    13
100
AcDbSpline
210
0.0
220
0.0
230
1.0
 70
     8
 71
     3
 72
    14
 73
    10
 74
     0
 42
0.0000000001
 43
0.0000000001
 12
1.0
 22
0.0
 32
0.0
 13
1.0
 23
0.0
 33
0.0
 40
0.0
 40
0.0
 40
0.0
 40
0.0
 40
1.0
 40
1.0
 40
1.0
 40
2.0
 40
2.0
 40
2.0
 40
3.0
 40
3.0
 40
3.0
 40
3.0
 10
3.776224840755402
 20
5.818574369571921
 30
0.0
 10
3.774827258447317
 20
5.782174858119661
 30
0.0
 10
3.766885294851906
 20
5.699495736815644
 30
0.0
 10
3.76158372229477
 20
5.667822594623481
 30
0.0
 10
3.756282149737621
 20
5.636161002698322
 30
0.0
 10
3.744507807548631
 20
5.502917122482156
 30
0.0
 10
3.744507807548631
 20
5.502917122482156
 30
0.0
 10
3.743029373371453
 20
5.47226964400041
 30
0.0
 10
3.720199115601417
 20
5.376448628893513
 30
0.0
 10
3.717459531314919
 20
5.366838806742003
 30
0.0
  0
SPLINE
  5
109
330
1F
100
AcDbEntity
  8
Layer 1
 62
     7
420
 16777215
370
    13
100
AcDbSpline
210
0.0
220
0.0
230
1.0
 70
     8
 71
     3
 72
    11
 73
     7
 74
     0
 42
0.0000000001
 43
0.0000000001
 12
1.0
 22
0.0
 32
0.0
 13
1.0
 23
0.0
 33
0.0
 40
0.0
 40
0.0
 40
0.0
 40
0.0
 40
1.0
 40
1.0
 40
1.0
 40
2.0
 40
2.0
 40
2.0
 40
2.0
 10
3.778255377695599
 20
5.639579881732995
 30
0.0
 10
3.77295380513845
 20
5.607918289807836
 30
0.0
 10
3.765871181408518
 20
5.498437928936078
 30
0.0
 10
3.765871181408518
 20
5.498437928936078
 30
0.0
 10
3.764392747231366
 20
5.467781210240698
 30
0.0
 10
3.741562489461317
 20
5.371960195133801
 30
0.0
 10
3.738822766126772
 20
5.362350372982291
 30
0.0
  0
SPLINE
  5
10A
330
1F
100
AcDbEntity
  8
Layer 1
 62
     7
420
 16777215
370
    13
100
AcDbSpline
210
0.0
220
0.0
230
1.0
 70
     8
 71
     3
 72
     8
 73
     4
 74
     0
 42
0.0000000001
 43
0.0000000001
 12
1.0
 22
0.0
 32
0.0
 13
1.0
 23
0.0
 33
0.0
 40
0.0
 40
0.0
 40
0.0
 40
0.0
 40
1.0
 40
1.0
 40
1.0
 40
1.0
 10
3.781334678880209
 20
5.401378725205783
 30
0.0
 10
3.776776943518446
 20
5.377871621789027
 30
0.0
 10
3.772570336273752
 20
5.358277748834906
 30
0.0
 10
3.771408379412643
 20
5.354195884473913
 30
0.0
  0
POLYLINE
  5
10B
330
1F
100
AcDbEntity
  8
Layer 1
 62
     7
420
 16777215
370
    35
100
AcDb2dPolyline
 66
     1
 10
0.0
 20
0.0
 30
0.0
  0
VERTEX
  5
10C
330
10B
100
AcDbEntity
  8
Layer 1
 62
     7
420
 16777215
370
    35
100
AcDbVertex
100
AcDb2dVertex
 10
6.081621174903173
 20
5.165499172347406
 30
0.0
  0
VERTEX
  5
10D
330
10B
100
AcDbEntity
  8
Layer 1
 62
     7
420
 16777215
370
    35
100
AcDbVertex
100
AcDb2dVertex
 10
6.07977082212834
 20
5.296962001390764
 30
0.0
  0
VERTEX
  5
10E
330
10B
100
AcDbEntity
  8
Layer 1
 62
     7
420
 16777215
370
    35
100
AcDbVertex
100
AcDb2dVertex
 10
4.097444696436721
 20
5.868194316642707
 30
0.0
  0
VERTEX
  5
10F
330
10B
100
AcDbEntity
  8
Layer 1
 62
     7
420
 16777215
370
    35
100
AcDbVertex
100
AcDb2dVertex
 10
4.053736176021149
 20
5.857884795622732
 30
0.0
  0
VERTEX
  5
110
330
10B
100
AcDbEntity
  8
Layer 1
 62
     7
420
 16777215
370
    35
100
AcDbVertex
100
AcDb2dVertex
 10
4.060978193435807
 20
5.344845022655211
 30
0.0
  0
VERTEX
  5
111
330
10B
100
AcDbEntity
  8
Layer 1
 62
     7
420
 16777215
370
    35
100
AcDbVertex
100
AcDb2dVertex
 10
6.06634710181043
 20
5.160400884489617
 30
0.0
  0
VERTEX
  5
112
330
10B
100
AcDbEntity
  8
Layer 1
 62
     7
420
 16777215
370
    35
100
AcDbVertex
100
AcDb2dVertex
 10
6.081621174903173
 20
5.165499172347406
 30
0.0
  0
SEQEND
  5
114
330
10B
100
AcDbEntity
  8
Layer 1
 62
     7
420
 16777215
370
    35
  0
HATCH
  5
113
330
1F
100
AcDbEntity
  8
Layer 1
 62
   253
420
 12564370
100
AcDbHatch
 10
0.0
 20
0.0
 30
0.0
210
0.0
220
0.0
230
1.0
  2
SOLID
 70
     1
 71
     0
 91
        1
 92
        1
 93
        6
 72
     1
 10
6.081621174903173
 20
5.165499172347406
 11
6.07977082212834
 21
5.296962001390764
 72
     1
 10
6.07977082212834
 20
5.296962001390764
 11
4.097444696436721
 21
5.868194316642707
 72
     1
 10
4.097444696436721
 20
5.868194316642707
 11
4.053736176021149
 21
5.857884795622732
 72
     1
 10
4.053736176021149
 20
5.857884795622732
 11
4.060978193435807
 21
5.344845022655212
 72
     1
 10
4.060978193435807
 20
5.344845022655211
 11
6.066347101810429
 21
5.160400884489617
 72
     1
 10
6.06634710181043
 20
5.160400884489617
 11
6.081621174903174
 21
5.165499172347406
 97
        0
 75
     2
 76
     1
 98
        0
  0
POLYLINE
  5
115
330
1F
100
AcDbEntity
  8
Layer 1
 62
     7
420
 16777215
370
    25
100
AcDb2dPolyline
 66
     1
 10
0.0
 20
0.0
 30
0.0
  0
VERTEX
  5
116
330
115
100
AcDbEntity
  8
Layer 1
 62
     7
420
 16777215
370
    25
100
AcDbVertex
100
AcDb2dVertex
 10
4.097691872150714
 20
5.867358077311261
 30
0.0
  0
VERTEX
  5
117
330
115
100
AcDbEntity
  8
Layer 1
 62
     7
420
 16777215
370
    25
100
AcDbVertex
100
AcDb2dVertex
 10
4.104698264118371
 20
5.367155284058046
 30
0.0
  0
VERTEX
  5
118
330
115
100
AcDbEntity
  8
Layer 1
 62
     7
420
 16777215
370
    25
100
AcDbVertex
100
AcDb2dVertex
 10
6.081621174903173
 20
5.165385979730723
 30
0.0
  0
SEQEND
  5
119
330
115
100
AcDbEntity
  8
Layer 1
 62
     7
420
 16777215
370
    25
  0
POLYLINE
  5
11A
330
1F
100
AcDbEntity
  8
Layer 1
 62
     7
420
 16777215
370
    13
100
AcDb2dPolyline
 66
     1
 10
0.0
 20
0.0
 30
0.0
  0
VERTEX
  5
11B
330
11A
100
AcDbEntity
  8
Layer 1
 62
     7
420
 16777215
370
    13
100
AcDbVertex
100
AcDb2dVertex
 10
4.104698264118371
 20
5.367155284058046
 30
0.0
  0
VERTEX
  5
11C
330
11A
100
AcDbEntity
  8
Layer 1
 62
     7
420
 16777215
370
    13
100
AcDbVertex
100
AcDb2dVertex
 10
4.060978193435807
 20
5.344845022655211
 30
0.0
  0
SEQEND
  5
11D
330
11A
100
AcDbEntity
  8
Layer 1
 62
     7
420
 16777215
370
    13
  0
SPLINE
  5
11E
330
1F
100
AcDbEntity
  8
Layer 1
 62
     7
420
 16777215
370
    35
100
AcDbSpline
210
0.0
220
0.0
230
1.0
 70
    11
 71
     3
 72
    17
 73
    13
 74
     0
 42
0.0000000001
 43
0.0000000001
 12
1.0
 22
0.0
 32
0.0
 13
1.0
 23
0.0
 33
0.0
 40
0.0
 40
0.0
 40
0.0
 40
0.0
 40
1.0
 40
1.0
 40
1.0
 40
2.0
 40
2.0
 40
2.0
 40
3.0
 40
3.0
 40
3.0
 40
4.0
 40
4.0
 40
4.0
 40
4.0
 10
3.937330419653209
 20
6.145139943393966
 30
0.0
 10
3.908038941778348
 20
6.144733119426292
 30
0.0
 10
3.883933390668012
 20
6.169402179704169
 30
0.0
 10
3.883506174031418
 20
6.200241392618282
 30
0.0
 10
3.883076360855941
 20
6.231078295478987
 30
0.0
 10
3.906470271656025
 20
6.256412651136593
 30
0.0
 10
3.935764058844319
 20
6.256819220535312
 30
0.0
 10
3.965067086246234
 20
6.25722578993403
 30
0.0
 10
3.989160943227059
 20
6.23255672965614
 30
0.0
 10
3.989599853373407
 20
6.201729067009043
 30
0.0
 10
3.990029523306147
 20
6.170880613881321
 30
0.0
 10
3.966624062239045
 20
6.145546258223728
 30
0.0
 10
3.937330419653209
 20
6.145139943393966
 30
0.0
  0
HATCH
  5
11F
330
1F
100
AcDbEntity
  8
Layer 1
 62
   254
420
 13358815
100
AcDbHatch
 10
0.0
 20
0.0
 30
0.0
210
0.0
220
0.0
230
1.0
  2
SOLID
 70
     1
 71
     0
 91
        1
 92
        1
 93
        1
 72
     4
 94
        3
 73
     0
 74
     1
 95
       17
 96
       13
 40
0.0
 40
0.0
 40
0.0
 40
0.0
 40
1.0
 40
1.0
 40
1.0
 40
2.0
 40
2.0
 40
2.0
 40
3.0
 40
3.0
 40
3.0
 40
4.0
 40
4.0
 40
4.0
 40
4.0
 10
3.937330419653209
 20
6.145139943393966
 10
3.908038941778348
 20
6.144733119426292
 10
3.883933390668012
 20
6.169402179704169
 10
3.883506174031418
 20
6.200241392618282
 10
3.883076360855941
 20
6.231078295478987
 10
3.906470271656025
 20
6.256412651136593
 10
3.935764058844319
 20
6.256819220535312
 10
3.965067086246234
 20
6.25722578993403
 10
3.989160943227059
 20
6.23255672965614
 10
3.989599853373407
 20
6.201729067009043
 10
3.990029523306147
 20
6.170880613881321
 10
3.966624062239045
 20
6.145546258223728
 10
3.937330419653209
 20
6.145139943393966
 97
        0
 97
        0
 75
     2
 76
     1
 98
        0
  0
SPLINE
  5
120
330
1F
100
AcDbEntity
  8
Layer 1
 62
     7
420
 16777215
370
    35
100
AcDbSpline
210
0.0
220
0.0
230
1.0
 70
    11
 71
     3
 72
    38
 73
    34
 74
     0
 42
0.0000000001
 43
0.0000000001
 12
1.0
 22
0.0
 32
0.0
 13
1.0
 23
0.0
 33
0.0
 40
0.0
 40
0.0
 40
0.0
 40
0.0
 40
1.0
 40
1.0
 40
1.0
 40
2.0
 40
2.0
 40
2.0
 40
3.0
 40
3.0
 40
3.0
 40
4.0
 40
4.0
 40
4.0
 40
5.0
 40
5.0
 40
5.0
 40
6.0
 40
6.0
 40
6.0
 40
7.0
 40
7.0
 40
7.0
 40
8.0
 40
8.0
 40
8.0
 40
9.0
 40
9.0
 40
9.0
 40
10.0
 40
10.0
 40
10.0
 40
11.0
 40
11.0
 40
11.0
 40
11.0
 10
3.77321253111946
 20
5.804293619441952
 30
0.0
 10
3.77321253111946
 20
5.804293619441952
 30
0.0
 10
3.736498852404553
 20
6.094145259980147
 30
0.0
 10
3.736498852404553
 20
6.094145259980147
 30
0.0
 10
3.732539420873864
 20
6.117065609832858
 30
0.0
 10
3.73519136217913
 20
6.13110842446243
 30
0.0
 10
3.755166393944541
 20
6.146098360986747
 30
0.0
 10
3.778571855011642
 20
6.163661697000685
 30
0.0
 10
3.844364485948492
 20
6.204076081265283
 30
0.0
 10
3.936507896039706
 20
6.205363037100406
 30
0.0
 10
4.028651306130933
 20
6.206658720968499
 30
0.0
 10
4.094714361894098
 20
6.167371642763984
 30
0.0
 10
4.11860478559725
 20
6.150476166886935
 30
0.0
 10
4.138986386761391
 20
6.136049628688903
 30
0.0
 10
4.142044897465389
 20
6.122085609861529
 30
0.0
 10
4.138727660780394
 20
6.099063363672586
 30
0.0
 10
4.138727660780394
 20
6.099063363672586
 30
0.0
 10
4.110685922535873
 20
5.808659620371373
 30
0.0
 10
4.110685922535873
 20
5.808659620371373
 30
0.0
 10
4.109581717009809
 20
5.798678125438755
 30
0.0
 10
4.104314795253686
 20
5.794480512591083
 30
0.0
 10
4.092764528244642
 20
5.788063184240855
 30
0.0
 10
4.092764528244642
 20
5.788063184240855
 30
0.0
 10
4.110438746821879
 20
4.526039429873132
 30
0.0
 10
4.110438746821879
 20
4.526039429873132
 30
0.0
 10
4.110438746821879
 20
4.526039429873132
 30
0.0
 10
3.800725267134958
 20
4.521414702962702
 30
0.0
 10
3.800725267134958
 20
4.521414702962702
 30
0.0
 10
3.800725267134958
 20
4.521414702962702
 30
0.0
 10
3.78301639775672
 20
5.787363238060126
 30
0.0
 10
3.78301639775672
 20
5.787363238060126
 30
0.0
 10
3.77699177848481
 20
5.791424557573856
 30
0.0
 10
3.77328183272151
 20
5.799398616283548
 30
0.0
 10
3.77321253111946
 20
5.804293619441952
 30
0.0
  0
HATCH
  5
121
330
1F
100
AcDbEntity
  8
Layer 1
 62
   254
420
 13358815
100
AcDbHatch
 10
0.0
 20
0.0
 30
0.0
210
0.0
220
0.0
230
1.0
  2
SOLID
 70
     1
 71
     0
 91
        1
 92
        1
 93
        1
 72
     4
 94
        3
 73
     0
 74
     1
 95
       38
 96
       34
 40
0.0
 40
0.0
 40
0.0
 40
0.0
 40
1.0
 40
1.0
 40
1.0
 40
2.0
 40
2.0
 40
2.0
 40
3.0
 40
3.0
 40
3.0
 40
4.0
 40
4.0
 40
4.0
 40
5.0
 40
5.0
 40
5.0
 40
6.0
 40
6.0
 40
6.0
 40
7.0
 40
7.0
 40
7.0
 40
8.0
 40
8.0
 40
8.0
 40
9.0
 40
9.0
 40
9.0
 40
10.0
 40
10.0
 40
10.0
 40
11.0
 40
11.0
 40
11.0
 40
11.0
 10
3.77321253111946
 20
5.804293619441952
 10
3.77321253111946
 20
5.804293619441952
 10
3.736498852404553
 20
6.094145259980147
 10
3.736498852404553
 20
6.094145259980147
 10
3.732539420873864
 20
6.117065609832858
 10
3.73519136217913
 20
6.13110842446243
 10
3.755166393944541
 20
6.146098360986747
 10
3.778571855011642
 20
6.163661697000685
 10
3.844364485948492
 20
6.204076081265283
 10
3.936507896039706
 20
6.205363037100406
 10
4.028651306130933
 20
6.206658720968499
 10
4.094714361894098
 20
6.167371642763984
 10
4.11860478559725
 20
6.150476166886935
 10
4.138986386761391
 20
6.136049628688903
 10
4.142044897465389
 20
6.122085609861529
 10
4.138727660780394
 20
6.099063363672586
 10
4.138727660780394
 20
6.099063363672586
 10
4.110685922535873
 20
5.808659620371373
 10
4.110685922535873
 20
5.808659620371373
 10
4.109581717009809
 20
5.798678125438755
 10
4.104314795253686
 20
5.794480512591083
 10
4.092764528244642
 20
5.788063184240855
 10
4.092764528244642
 20
5.788063184240855
 10
4.110438746821879
 20
4.526039429873132
 10
4.110438746821879
 20
4.526039429873132
 10
4.110438746821879
 20
4.526039429873132
 10
3.800725267134958
 20
4.521414702962702
 10
3.800725267134958
 20
4.521414702962702
 10
3.800725267134958
 20
4.521414702962702
 10
3.78301639775672
 20
5.787363238060126
 10
3.78301639775672
 20
5.787363238060126
 10
3.77699177848481
 20
5.791424557573856
 10
3.77328183272151
 20
5.799398616283548
 10
3.77321253111946
 20
5.804293619441952
 97
        0
 97
        0
 75
     2
 76
     1
 98
        0
  0
SPLINE
  5
122
330
1F
100
AcDbEntity
  8
Layer 1
 62
     7
420
 16777215
370
    35
100
AcDbSpline
210
0.0
220
0.0
230
1.0
 70
    11
 71
     3
 72
    65
 73
    61
 74
     0
 42
0.0000000001
 43
0.0000000001
 12
1.0
 22
0.0
 32
0.0
 13
1.0
 23
0.0
 33
0.0
 40
0.0
 40
0.0
 40
0.0
 40
0.0
 40
1.0
 40
1.0
 40
1.0
 40
2.0
 40
2.0
 40
2.0
 40
3.0
 40
3.0
 40
3.0
 40
4.0
 40
4.0
 40
4.0
 40
5.0
 40
5.0
 40
5.0
 40
6.0
 40
6.0
 40
6.0
 40
7.0
 40
7.0
 40
7.0
 40
8.0
 40
8.0
 40
8.0
 40
9.0
 40
9.0
 40
9.0
 40
10.0
 40
10.0
 40
10.0
 40
11.0
 40
11.0
 40
11.0
 40
12.0
 40
12.0
 40
12.0
 40
13.0
 40
13.0
 40
13.0
 40
14.0
 40
14.0
 40
14.0
 40
15.0
 40
15.0
 40
15.0
 40
16.0
 40
16.0
 40
16.0
 40
17.0
 40
17.0
 40
17.0
 40
18.0
 40
18.0
 40
18.0
 40
19.0
 40
19.0
 40
19.0
 40
20.0
 40
20.0
 40
20.0
 40
20.0
 10
4.103873575053941
 20
5.699507530393981
 30
0.0
 10
4.103873575053941
 20
5.699507530393981
 30
0.0
 10
4.171179290968944
 20
5.678910850952144
 30
0.0
 10
4.171179290968944
 20
5.678910850952144
 30
0.0
 10
4.171179290968944
 20
5.678910850952144
 30
0.0
 10
4.197155841472269
 20
5.647362451643681
 30
0.0
 10
4.197155841472269
 20
5.647362451643681
 30
0.0
 10
4.197155841472269
 20
5.647362451643681
 30
0.0
 10
4.199017744514119
 20
5.514636023389534
 30
0.0
 10
4.199017744514119
 20
5.514636023389534
 30
0.0
 10
4.199017744514119
 20
5.514636023389534
 30
0.0
 10
4.175127322842349
 20
5.488128160603815
 30
0.0
 10
4.175127322842349
 20
5.488128160603815
 30
0.0
 10
4.175127322842349
 20
5.488128160603815
 30
0.0
 10
4.15861260046313
 20
5.482161292666938
 30
0.0
 10
4.15861260046313
 20
5.482161292666938
 30
0.0
 10
4.15861260046313
 20
5.482161292666938
 30
0.0
 10
4.100547098155326
 20
5.487721829166276
 30
0.0
 10
4.100547098155326
 20
5.487721829166276
 30
0.0
 10
4.090304321371731
 20
5.490135597009965
 30
0.0
 10
4.091320744868527
 20
5.496532134879569
 30
0.0
 10
4.086141605141671
 20
5.501563431188717
 30
0.0
 10
4.071874715332115
 20
5.517962500288124
 30
0.0
 10
4.00756975878605
 20
5.528632875945757
 30
0.0
 10
3.934826177163194
 20
5.527606973240659
 30
0.0
 10
3.862073355326717
 20
5.526592859797271
 30
0.0
 10
3.811811213410225
 20
5.513044396595685
 30
0.0
 10
3.805507077676705
 20
5.507844466388241
 30
0.0
 10
3.799200631889764
 20
5.502656086447764
 30
0.0
 10
3.783894218049404
 20
5.501156861789998
 30
0.0
 10
3.772413252642435
 20
5.500999778158656
 30
0.0
 10
3.772413252642435
 20
5.500999778158656
 30
0.0
 10
3.4309573291613
 20
5.487282919008849
 30
0.0
 10
3.4309573291613
 20
5.487282919008849
 30
0.0
 10
3.4309573291613
 20
5.487282919008849
 30
0.0
 10
3.397221309281336
 20
5.526378024830895
 30
0.0
 10
3.397221309281336
 20
5.526378024830895
 30
0.0
 10
3.397221309281336
 20
5.526378024830895
 30
0.0
 10
3.395269314156811
 20
5.665489440687653
 30
0.0
 10
3.395269314156811
 20
5.665489440687653
 30
0.0
 10
3.395269314156811
 20
5.665489440687653
 30
0.0
 10
3.427947329578753
 20
5.701685667440541
 30
0.0
 10
3.427947329578753
 20
5.701685667440541
 30
0.0
 10
3.427947329578753
 20
5.701685667440541
 30
0.0
 10
3.717064373135157
 20
5.715952557250097
 30
0.0
 10
3.717064373135157
 20
5.715952557250097
 30
0.0
 10
3.749864821387405
 20
5.718163278355632
 30
0.0
 10
3.762228367372876
 20
5.724559816225224
 30
0.0
 10
3.776349583639103
 20
5.741986859088456
 30
0.0
 10
3.788283319512832
 20
5.756741170165797
 30
0.0
 10
3.845741277775952
 20
5.781657406157668
 30
0.0
 10
3.931240974283583
 20
5.782851703766394
 30
0.0
 10
4.016750057613598
 20
5.784048311428529
 30
0.0
 10
4.114984931916625
 20
5.766362542584298
 30
0.0
 10
4.115470043131002
 20
5.731903475989573
 30
0.0
 10
4.115615576495328
 20
5.721378872690947
 30
0.0
 10
4.109401532844458
 20
5.715536747637783
 30
0.0
 10
4.106557857106838
 20
5.713584752513245
 30
0.0
 10
4.103704941155607
 20
5.71163275738872
 30
0.0
 10
4.10377193270425
 20
5.707481591425676
 30
0.0
 10
4.103873575053941
 20
5.699507530393981
 30
0.0
  0
HATCH
  5
123
330
1F
100
AcDbEntity
  8
Layer 1
 62
   254
420
 13358815
100
AcDbHatch
 10
0.0
 20
0.0
 30
0.0
210
0.0
220
0.0
230
1.0
  2
SOLID
 70
     1
 71
     0
 91
        1
 92
        1
 93
        1
 72
     4
 94
        3
 73
     0
 74
     1
 95
       65
 96
       61
 40
0.0
 40
0.0
 40
0.0
 40
0.0
 40
1.0
 40
1.0
 40
1.0
 40
2.0
 40
2.0
 40
2.0
 40
3.0
 40
3.0
 40
3.0
 40
4.0
 40
4.0
 40
4.0
 40
5.0
 40
5.0
 40
5.0
 40
6.0
 40
6.0
 40
6.0
 40
7.0
 40
7.0
 40
7.0
 40
8.0
 40
8.0
 40
8.0
 40
9.0
 40
9.0
 40
9.0
 40
10.0
 40
10.0
 40
10.0
 40
11.0
 40
11.0
 40
11.0
 40
12.0
 40
12.0
 40
12.0
 40
13.0
 40
13.0
 40
13.0
 40
14.0
 40
14.0
 40
14.0
 40
15.0
 40
15.0
 40
15.0
 40
16.0
 40
16.0
 40
16.0
 40
17.0
 40
17.0
 40
17.0
 40
18.0
 40
18.0
 40
18.0
 40
19.0
 40
19.0
 40
19.0
 40
20.0
 40
20.0
 40
20.0
 40
20.0
 10
4.103873575053941
 20
5.699507530393981
 10
4.103873575053941
 20
5.699507530393981
 10
4.171179290968944
 20
5.678910850952144
 10
4.171179290968944
 20
5.678910850952144
 10
4.171179290968944
 20
5.678910850952144
 10
4.197155841472269
 20
5.647362451643681
 10
4.197155841472269
 20
5.647362451643681
 10
4.197155841472269
 20
5.647362451643681
 10
4.199017744514119
 20
5.514636023389534
 10
4.199017744514119
 20
5.514636023389534
 10
4.199017744514119
 20
5.514636023389534
 10
4.175127322842349
 20
5.488128160603815
 10
4.175127322842349
 20
5.488128160603815
 10
4.175127322842349
 20
5.488128160603815
 10
4.15861260046313
 20
5.482161292666938
 10
4.15861260046313
 20
5.482161292666938
 10
4.15861260046313
 20
5.482161292666938
 10
4.100547098155326
 20
5.487721829166276
 10
4.100547098155326
 20
5.487721829166276
 10
4.090304321371731
 20
5.490135597009965
 10
4.091320744868527
 20
5.496532134879569
 10
4.086141605141671
 20
5.501563431188717
 10
4.071874715332115
 20
5.517962500288124
 10
4.00756975878605
 20
5.528632875945757
 10
3.934826177163194
 20
5.527606973240659
 10
3.862073355326717
 20
5.526592859797271
 10
3.811811213410225
 20
5.513044396595685
 10
3.805507077676705
 20
5.507844466388241
 10
3.799200631889764
 20
5.502656086447764
 10
3.783894218049404
 20
5.501156861789998
 10
3.772413252642435
 20
5.500999778158656
 10
3.772413252642435
 20
5.500999778158656
 10
3.4309573291613
 20
5.487282919008849
 10
3.4309573291613
 20
5.487282919008849
 10
3.4309573291613
 20
5.487282919008849
 10
3.397221309281336
 20
5.526378024830895
 10
3.397221309281336
 20
5.526378024830895
 10
3.397221309281336
 20
5.526378024830895
 10
3.395269314156811
 20
5.665489440687653
 10
3.395269314156811
 20
5.665489440687653
 10
3.395269314156811
 20
5.665489440687653
 10
3.427947329578753
 20
5.701685667440541
 10
3.427947329578753
 20
5.701685667440541
 10
3.427947329578753
 20
5.701685667440541
 10
3.717064373135157
 20
5.715952557250097
 10
3.717064373135157
 20
5.715952557250097
 10
3.749864821387405
 20
5.718163278355632
 10
3.762228367372876
 20
5.724559816225224
 10
3.776349583639103
 20
5.741986859088456
 10
3.788283319512832
 20
5.756741170165797
 10
3.845741277775952
 20
5.781657406157668
 10
3.931240974283583
 20
5.782851703766394
 10
4.016750057613598
 20
5.784048311428529
 10
4.114984931916625
 20
5.766362542584298
 10
4.115470043131002
 20
5.731903475989573
 10
4.115615576495328
 20
5.721378872690947
 10
4.109401532844458
 20
5.715536747637783
 10
4.106557857106838
 20
5.713584752513245
 10
4.103704941155607
 20
5.71163275738872
 10
4.10377193270425
 20
5.707481591425676
 10
4.103873575053941
 20
5.699507530393981
 97
        0
 97
        0
 75
     2
 76
     1
 98
        0
  0
SPLINE
  5
124
330
1F
100
AcDbEntity
  8
Layer 1
 62
     7
420
 16777215
370
    25
100
AcDbSpline
210
0.0
220
0.0
230
1.0
 70
     8
 71
     3
 72
    14
 73
    10
 74
     0
 42
0.0000000001
 43
0.0000000001
 12
1.0
 22
0.0
 32
0.0
 13
1.0
 23
0.0
 33
0.0
 40
0.0
 40
0.0
 40
0.0
 40
0.0
 40
1.0
 40
1.0
 40
1.0
 40
2.0
 40
2.0
 40
2.0
 40
3.0
 40
3.0
 40
3.0
 40
3.0
 10
3.927586469801933
 20
5.777619432811307
 30
0.0
 10
3.873126960854354
 20
5.776852495081912
 30
0.0
 10
3.78975020342298
 20
5.750152897863838
 30
0.0
 10
3.776846245120497
 20
5.714238497625956
 30
0.0
 10
3.774365247766961
 20
5.709096318753546
 30
0.0
 10
3.740638468100592
 20
5.705587347636197
 30
0.0
 10
3.734253619970306
 20
5.705497255553533
 30
0.0
 10
3.724486574715165
 20
5.705360962402816
 30
0.0
 10
3.642888558403178
 20
5.712083217802071
 30
0.0
 10
3.637148075699694
 20
5.712004919613466
 30
0.0
  0
SPLINE
  5
125
330
1F
100
AcDbEntity
  8
Layer 1
 62
     7
420
 16777215
370
    25
100
AcDbSpline
210
0.0
220
0.0
230
1.0
 70
     8
 71
     3
 72
    26
 73
    22
 74
     0
 42
0.0000000001
 43
0.0000000001
 12
1.0
 22
0.0
 32
0.0
 13
1.0
 23
0.0
 33
0.0
 40
0.0
 40
0.0
 40
0.0
 40
0.0
 40
1.0
 40
1.0
 40
1.0
 40
2.0
 40
2.0
 40
2.0
 40
3.0
 40
3.0
 40
3.0
 40
4.0
 40
4.0
 40
4.0
 40
5.0
 40
5.0
 40
5.0
 40
6.0
 40
6.0
 40
6.0
 40
7.0
 40
7.0
 40
7.0
 40
7.0
 10
4.175127322842349
 20
5.488128160603815
 30
0.0
 10
4.175127322842349
 20
5.488128160603815
 30
0.0
 10
4.110979299317894
 20
5.49600082259715
 30
0.0
 10
4.110979299317894
 20
5.49600082259715
 30
0.0
 10
4.105215716080389
 20
5.497197430259297
 30
0.0
 10
4.106197488776161
 20
5.49897848143208
 30
0.0
 10
4.1009860083017
 20
5.507202271542509
 30
0.0
 10
4.095762977560197
 20
5.51542606165295
 30
0.0
 10
4.077592097501602
 20
5.526017656500218
 30
0.0
 10
4.061248469683808
 20
5.530732475493323
 30
0.0
 10
4.043292571870881
 20
5.536969619678175
 30
0.0
 10
3.985663522376727
 20
5.542924937348036
 30
0.0
 10
3.934613652250227
 20
5.542201890633274
 30
0.0
 10
3.883573022337322
 20
5.541492704238913
 30
0.0
 10
3.817327620933737
 20
5.529716051996527
 30
0.0
 10
3.802755804075155
 20
5.521843390003166
 30
0.0
 10
3.795772512641495
 20
5.519202998964905
 30
0.0
 10
3.790741216332359
 20
5.514026169291456
 30
0.0
 10
3.776067757124085
 20
5.51381133432508
 30
0.0
 10
3.761391987862415
 20
5.513608049625721
 30
0.0
 10
3.4225094638709
 20
5.498010569056734
 30
0.0
 10
3.4225094638709
 20
5.498010569056734
 30
0.0
  0
POLYLINE
  5
126
330
1F
100
AcDbEntity
  8
Layer 1
 62
     7
420
 16777215
370
    35
100
AcDb2dPolyline
 66
     1
 10
0.0
 20
0.0
 30
0.0
  0
VERTEX
  5
127
330
126
100
AcDbEntity
  8
Layer 1
 62
     7
420
 16777215
370
    35
100
AcDbVertex
100
AcDb2dVertex
 10
4.104222393117602
 20
5.709253402384863
 30
0.0
  0
VERTEX
  5
128
330
126
100
AcDbEntity
  8
Layer 1
 62
     7
420
 16777215
370
    35
100
AcDbVertex
100
AcDb2dVertex
 10
4.107179261471932
 20
5.498234644236693
 30
0.0
  0
SEQEND
  5
129
330
126
100
AcDbEntity
  8
Layer 1
 62
     7
420
 16777215
370
    35
  0
SPLINE
  5
12A
330
1F
100
AcDbEntity
  8
Layer 1
  6
AI-Linetype-1
 62
     7
420
 16777215
370
    25
100
AcDbSpline
210
0.0
220
0.0
230
1.0
 70
    11
 71
     3
 72
    26
 73
    22
 74
     0
 42
0.0000000001
 43
0.0000000001
 12
1.0
 22
0.0
 32
0.0
 13
1.0
 23
0.0
 33
0.0
 40
0.0
 40
0.0
 40
0.0
 40
0.0
 40
1.0
 40
1.0
 40
1.0
 40
2.0
 40
2.0
 40
2.0
 40
3.0
 40
3.0
 40
3.0
 40
4.0
 40
4.0
 40
4.0
 40
5.0
 40
5.0
 40
5.0
 40
6.0
 40
6.0
 40
6.0
 40
7.0
 40
7.0
 40
7.0
 40
7.0
 10
3.853692481584972
 20
5.662183754269663
 30
0.0
 10
3.853558498487662
 20
5.67174968540654
 30
0.0
 10
3.837258903758955
 20
5.673440644496673
 30
0.0
 10
3.8228994697389
 20
5.673237359797313
 30
0.0
 10
3.808540177793272
 20
5.673034317740517
 30
0.0
 10
3.775829821623701
 20
5.664438366389832
 30
0.0
 10
3.767472188727449
 20
5.648997969452163
 30
0.0
 10
3.760941527449075
 20
5.636939490694734
 30
0.0
 10
3.762701788141233
 20
5.630746237524489
 30
0.0
 10
3.762780329956904
 20
5.625005754821005
 30
0.0
 10
3.762858871772575
 20
5.619265272117521
 30
0.0
 10
3.768250536412375
 20
5.610242203530055
 30
0.0
 10
3.778301578763628
 20
5.610387736894381
 30
0.0
 10
3.778165285612936
 20
5.619953668031258
 30
0.0
 10
3.781875231376223
 20
5.628593267754013
 30
0.0
 10
3.787583373332104
 20
5.631547826054922
 30
0.0
 10
3.793279965020941
 20
5.634502626024995
 30
0.0
 10
3.813324298388415
 20
5.63911787105264
 30
0.0
 10
3.823846591633633
 20
5.639263404416952
 30
0.0
 10
3.839649666955387
 20
5.639478239383316
 30
0.0
 10
3.853953517619377
 20
5.643516212729676
 30
0.0
 10
3.853692481584972
 20
5.662183754269663
 30
0.0
  0
POLYLINE
  5
12C
330
1F
100
AcDbEntity
  8
Layer 1
 62
     7
420
 16777215
370
    35
100
AcDb2dPolyline
 66
     1
 10
0.0
 20
0.0
 30
0.0
  0
VERTEX
  5
12D
330
12C
100
AcDbEntity
  8
Layer 1
 62
     7
420
 16777215
370
    35
100
AcDbVertex
100
AcDb2dVertex
 10
3.778301578763628
 20
5.610387736894381
 30
0.0
  0
VERTEX
  5
12E
330
12C
100
AcDbEntity
  8
Layer 1
 62
     7
420
 16777215
370
    35
100
AcDbVertex
100
AcDb2dVertex
 10
3.779428884823712
 20
5.529974777977511
 30
0.0
  0
SEQEND
  5
12F
330
12C
100
AcDbEntity
  8
Layer 1
 62
     7
420
 16777215
370
    35
  0
POLYLINE
  5
130
330
1F
100
AcDbEntity
  8
Layer 1
 62
     7
420
 16777215
370
    35
100
AcDb2dPolyline
 66
     1
 10
0.0
 20
0.0
 30
0.0
  0
VERTEX
  5
131
330
130
100
AcDbEntity
  8
Layer 1
 62
     7
420
 16777215
370
    35
100
AcDbVertex
100
AcDb2dVertex
 10
3.776846245120497
 20
5.714238497625956
 30
0.0
  0
VERTEX
  5
132
330
130
100
AcDbEntity
  8
Layer 1
 62
     7
420
 16777215
370
    35
100
AcDbVertex
100
AcDb2dVertex
 10
3.777601632582888
 20
5.659996133698162
 30
0.0
  0
SEQEND
  5
133
330
130
100
AcDbEntity
  8
Layer 1
 62
     7
420
 16777215
370
    35
  0
SPLINE
  5
134
330
1F
100
AcDbEntity
  8
Layer 1
 62
     7
420
 16777215
370
    25
100
AcDbSpline
210
0.0
220
0.0
230
1.0
 70
    11
 71
     3
 72
    17
 73
    13
 74
     0
 42
0.0000000001
 43
0.0000000001
 12
1.0
 22
0.0
 32
0.0
 13
1.0
 23
0.0
 33
0.0
 40
0.0
 40
0.0
 40
0.0
 40
0.0
 40
1.0
 40
1.0
 40
1.0
 40
2.0
 40
2.0
 40
2.0
 40
3.0
 40
3.0
 40
3.0
 40
4.0
 40
4.0
 40
4.0
 40
4.0
 10
3.757795234715811
 20
5.587592129925345
 30
0.0
 10
3.750698750665454
 20
5.587490487575678
 30
0.0
 10
3.744833664817861
 20
5.594991230971345
 30
0.0
 10
3.74469954198096
 20
5.604342327141845
 30
0.0
 10
3.744574799097272
 20
5.613681873045354
 30
0.0
 10
3.750225189718081
 20
5.621339700072339
 30
0.0
 10
3.757321673768426
 20
5.621441342422031
 30
0.0
 10
3.764427398032391
 20
5.621543226113494
 30
0.0
 10
3.770292623619576
 20
5.614042241376031
 30
0.0
 10
3.770417366503263
 20
5.604702936388902
 30
0.0
 10
3.770551349600573
 20
5.595351599302021
 30
0.0
 10
3.764900958979752
 20
5.587693772275037
 30
0.0
 10
3.757795234715811
 20
5.587592129925345
 30
0.0
  0
SPLINE
  5
135
330
1F
100
AcDbEntity
  8
Layer 1
 62
     7
420
 16777215
370
    35
100
AcDbSpline
210
0.0
220
0.0
230
1.0
 70
    11
 71
     3
 72
    23
 73
    19
 74
     0
 42
0.0000000001
 43
0.0000000001
 12
1.0
 22
0.0
 32
0.0
 13
1.0
 23
0.0
 33
0.0
 40
0.0
 40
0.0
 40
0.0
 40
0.0
 40
1.0
 40
1.0
 40
1.0
 40
2.0
 40
2.0
 40
2.0
 40
3.0
 40
3.0
 40
3.0
 40
4.0
 40
4.0
 40
4.0
 40
5.0
 40
5.0
 40
5.0
 40
6.0
 40
6.0
 40
6.0
 40
6.0
 10
3.762419961626228
 20
5.614910821455118
 30
0.0
 10
3.764619132464734
 20
5.614945472256143
 30
0.0
 10
3.766661219671934
 20
5.614166984259731
 30
0.0
 10
3.768476921645755
 20
5.612903626172485
 30
0.0
 10
3.769581127171818
 20
5.610478070039309
 30
0.0
 10
3.770281073352559
 20
5.607691904574469
 30
0.0
 10
3.770315724153584
 20
5.604658804457888
 30
0.0
 10
3.770449707250893
 20
5.59540935063708
 30
0.0
 10
3.764854757911722
 20
5.587827755372346
 30
0.0
 10
3.757816165263976
 20
5.587737663289671
 30
0.0
 10
3.755628404624922
 20
5.587705322542054
 30
0.0
 10
3.753574767150705
 20
5.588472260271449
 30
0.0
 10
3.751759065176884
 20
5.589735859482238
 30
0.0
 10
3.75065499953746
 20
5.592170655767732
 30
0.0
 10
3.749966463737084
 20
5.59495658017032
 30
0.0
 10
3.749920262669042
 20
5.597980680819849
 30
0.0
 10
3.749786279571746
 20
5.6072298938941
 30
0.0
 10
3.755381228910917
 20
5.614809179105426
 30
0.0
 10
3.762419961626228
 20
5.614910821455118
 30
0.0
  0
SPLINE
  5
136
330
1F
100
AcDbEntity
  8
Layer 1
 62
     7
420
 16777215
370
    25
100
AcDbSpline
210
0.0
220
0.0
230
1.0
 70
     8
 71
     3
 72
    11
 73
     7
 74
     0
 42
0.0000000001
 43
0.0000000001
 12
1.0
 22
0.0
 32
0.0
 13
1.0
 23
0.0
 33
0.0
 40
0.0
 40
0.0
 40
0.0
 40
0.0
 40
1.0
 40
1.0
 40
1.0
 40
2.0
 40
2.0
 40
2.0
 40
2.0
 10
3.773799284683516
 20
5.801678638991107
 30
0.0
 10
3.773438916352827
 20
5.827091782998764
 30
0.0
 10
3.848550302712561
 20
5.850146116531176
 30
0.0
 10
3.941594633630491
 20
5.85145335963984
 30
0.0
 10
4.03462987139527
 20
5.852751609651642
 30
0.0
 10
4.1103371044722
 20
5.833203937765549
 30
0.0
 10
4.110697472802864
 20
5.807791040292285
 30
0.0
  0
SPLINE
  5
137
330
1F
100
AcDbEntity
  8
Layer 1
 62
     7
420
 16777215
370
    25
100
AcDbSpline
210
0.0
220
0.0
230
1.0
 70
     8
 71
     3
 72
    11
 73
     7
 74
     0
 42
0.0000000001
 43
0.0000000001
 12
1.0
 22
0.0
 32
0.0
 13
1.0
 23
0.0
 33
0.0
 40
0.0
 40
0.0
 40
0.0
 40
0.0
 40
1.0
 40
1.0
 40
1.0
 40
2.0
 40
2.0
 40
2.0
 40
2.0
 10
3.783443757636051
 20
5.786506208248056
 30
0.0
 10
3.7831180401064
 20
5.809821577232482
 30
0.0
 10
3.852045413509485
 20
5.829697276701621
 30
0.0
 10
3.937399721257002
 20
5.830891574310347
 30
0.0
 10
4.022751429742723
 20
5.832088181972481
 30
0.0
 10
4.092210115428214
 20
5.814152927360864
 30
0.0
 10
4.092538143011274
 20
5.790837558376451
 30
0.0
  0
SPLINE
  5
138
330
1F
100
AcDbEntity
  8
Layer 1
 62
     7
420
 16777215
370
    25
100
AcDbSpline
210
0.0
220
0.0
230
1.0
 70
     8
 71
     3
 72
     8
 73
     4
 74
     0
 42
0.0000000001
 43
0.0000000001
 12
1.0
 22
0.0
 32
0.0
 13
1.0
 23
0.0
 33
0.0
 40
0.0
 40
0.0
 40
0.0
 40
0.0
 40
1.0
 40
1.0
 40
1.0
 40
1.0
 10
4.103704941155607
 20
5.712117868603096
 30
0.0
 10
4.103455455388207
 20
5.72934162676697
 30
0.0
 10
4.11232144034433
 20
5.755454470420974
 30
0.0
 10
4.029180308359943
 20
5.769462634249521
 30
0.0
  0
INSERT
  5
13A
330
1F
100
AcDbEntity
  8
Layer 1
100
AcDbBlockReference
  2
block 2
 10
0.0
 20
0.0
 30
0.0
  0
INSERT
  5
144
330
1F
100
AcDbEntity
  8
Layer 1
100
AcDbBlockReference
  2
block 3
 10
0.0
 20
0.0
 30
0.0
  0
INSERT
  5
15E
330
1F
100
AcDbEntity
  8
Layer 1
100
AcDbBlockReference
  2
block 4
 10
0.0
 20
0.0
 30
0.0
  0
INSERT
  5
168
330
1F
100
AcDbEntity
  8
Layer 1
100
AcDbBlockReference
  2
block 5
 10
0.0
 20
0.0
 30
0.0
  0
POLYLINE
  5
17D
330
1F
100
AcDbEntity
  8
Layer 1
 62
     7
420
 16777215
370
    35
100
AcDb2dPolyline
 66
     1
 10
0.0
 20
0.0
 30
0.0
  0
VERTEX
  5
17E
330
17D
100
AcDbEntity
  8
Layer 1
 62
     7
420
 16777215
370
    35
100
AcDbVertex
100
AcDb2dVertex
 10
3.09928217178343
 20
5.971818692140914
 30
0.0
  0
VERTEX
  5
17F
330
17D
100
AcDbEntity
  8
Layer 1
 62
     7
420
 16777215
370
    35
100
AcDbVertex
100
AcDb2dVertex
 10
3.101007781674575
 20
5.849335040670363
 30
0.0
  0
SEQEND
  5
180
330
17D
100
AcDbEntity
  8
Layer 1
 62
     7
420
 16777215
370
    35
  0
POLYLINE
  5
181
330
1F
100
AcDbEntity
  8
Layer 1
 62
     7
420
 16777215
370
    35
100
AcDb2dPolyline
 66
     1
 10
0.0
 20
0.0
 30
0.0
  0
VERTEX
  5
182
330
181
100
AcDbEntity
  8
Layer 1
 62
     7
420
 16777215
370
    35
100
AcDbVertex
100
AcDb2dVertex
 10
3.108429983254584
 20
5.319048421965438
 30
0.0
  0
VERTEX
  5
183
330
181
100
AcDbEntity
  8
Layer 1
 62
     7
420
 16777215
370
    35
100
AcDbVertex
100
AcDb2dVertex
 10
3.119733198497834
 20
4.512142148607861
 30
0.0
  0
SEQEND
  5
184
330
181
100
AcDbEntity
  8
Layer 1
 62
     7
420
 16777215
370
    35
  0
POLYLINE
  5
185
330
1F
100
AcDbEntity
  8
Layer 1
 62
     7
420
 16777215
370
    25
100
AcDb2dPolyline
 66
     1
 10
0.0
 20
0.0
 30
0.0
  0
VERTEX
  5
186
330
185
100
AcDbEntity
  8
Layer 1
 62
     7
420
 16777215
370
    25
100
AcDbVertex
100
AcDb2dVertex
 10
3.088667476402128
 20
5.974807901242849
 30
0.0
  0
VERTEX
  5
187
330
185
100
AcDbEntity
  8
Layer 1
 62
     7
420
 16777215
370
    25
100
AcDbVertex
100
AcDb2dVertex
 10
3.090450837628332
 20
5.848228772159258
 30
0.0
  0
SEQEND
  5
188
330
185
100
AcDbEntity
  8
Layer 1
 62
     7
420
 16777215
370
    25
  0
POLYLINE
  5
189
330
1F
100
AcDbEntity
  8
Layer 1
 62
     7
420
 16777215
370
    25
100
AcDb2dPolyline
 66
     1
 10
0.0
 20
0.0
 30
0.0
  0
VERTEX
  5
18A
330
189
100
AcDbEntity
  8
Layer 1
 62
     7
420
 16777215
370
    25
100
AcDbVertex
100
AcDb2dVertex
 10
3.097849938674307
 20
5.319859250709467
 30
0.0
  0
VERTEX
  5
18B
330
189
100
AcDbEntity
  8
Layer 1
 62
     7
420
 16777215
370
    25
100
AcDbVertex
100
AcDb2dVertex
 10
3.109173820449958
 20
4.511285332090109
 30
0.0
  0
SEQEND
  5
18C
330
189
100
AcDbEntity
  8
Layer 1
 62
     7
420
 16777215
370
    25
  0
SPLINE
  5
18D
330
1F
100
AcDbEntity
  8
Layer 1
 62
     7
420
 16777215
370
    35
100
AcDbSpline
210
0.0
220
0.0
230
1.0
 70
    11
 71
     3
 72
    17
 73
    13
 74
     0
 42
0.0000000001
 43
0.0000000001
 12
1.0
 22
0.0
 32
0.0
 13
1.0
 23
0.0
 33
0.0
 40
0.0
 40
0.0
 40
0.0
 40
0.0
 40
1.0
 40
1.0
 40
1.0
 40
2.0
 40
2.0
 40
2.0
 40
3.0
 40
3.0
 40
3.0
 40
4.0
 40
4.0
 40
4.0
 40
4.0
 10
3.59666683588302
 20
5.564163568324248
 30
0.0
 10
3.585328957790377
 20
5.564006484692931
 30
0.0
 10
3.576000962153886
 20
5.573717949194108
 30
0.0
 10
3.575832328255564
 20
5.585866520034212
 30
0.0
 10
3.575663694357242
 20
5.598015090874317
 30
0.0
 10
3.584721413745708
 20
5.607985281356504
 30
0.0
 10
3.596045295521359
 20
5.608142364987821
 30
0.0
 10
3.607380727564027
 20
5.608313308939564
 30
0.0
 10
3.616708723200519
 20
5.598590294171345
 30
0.0
 10
3.616879803659433
 20
5.586441723331265
 30
0.0
 10
3.617048301050583
 20
5.57429315249116
 30
0.0
 10
3.608002131929108
 20
5.564323201905254
 30
0.0
 10
3.59666683588302
 20
5.564163568324248
 30
0.0
  0
POLYLINE
  5
18E
330
1F
100
AcDbEntity
  8
Layer 1
 62
     7
420
 16777215
370
    25
100
AcDb2dPolyline
 66
     1
 10
0.0
 20
0.0
 30
0.0
  0
VERTEX
  5
18F
330
18E
100
AcDbEntity
  8
Layer 1
 62
     7
420
 16777215
370
    25
100
AcDbVertex
100
AcDb2dVertex
 10
3.611566680701066
 20
5.572736176498337
 30
0.0
  0
VERTEX
  5
190
330
18E
100
AcDbEntity
  8
Layer 1
 62
     7
420
 16777215
370
    25
100
AcDbVertex
100
AcDb2dVertex
 10
3.585758627723104
 20
5.606192679916703
 30
0.0
  0
SEQEND
  5
191
330
18E
100
AcDbEntity
  8
Layer 1
 62
     7
420
 16777215
370
    25
  0
POLYLINE
  5
192
330
1F
100
AcDbEntity
  8
Layer 1
 62
     7
420
 16777215
370
    25
100
AcDb2dPolyline
 66
     1
 10
0.0
 20
0.0
 30
0.0
  0
VERTEX
  5
193
330
192
100
AcDbEntity
  8
Layer 1
 62
     7
420
 16777215
370
    25
100
AcDbVertex
100
AcDb2dVertex
 10
3.604844425131988
 20
5.565595801433371
 30
0.0
  0
VERTEX
  5
194
330
192
100
AcDbEntity
  8
Layer 1
 62
     7
420
 16777215
370
    25
100
AcDbVertex
100
AcDb2dVertex
 10
3.579024822056858
 20
5.599052304851713
 30
0.0
  0
SEQEND
  5
195
330
192
100
AcDbEntity
  8
Layer 1
 62
     7
420
 16777215
370
    25
  0
SPLINE
  5
196
330
1F
100
AcDbEntity
  8
Layer 1
 62
     7
420
 16777215
370
    35
100
AcDbSpline
210
0.0
220
0.0
230
1.0
 70
    11
 71
     3
 72
    17
 73
    13
 74
     0
 42
0.0000000001
 43
0.0000000001
 12
1.0
 22
0.0
 32
0.0
 13
1.0
 23
0.0
 33
0.0
 40
0.0
 40
0.0
 40
0.0
 40
0.0
 40
1.0
 40
1.0
 40
1.0
 40
2.0
 40
2.0
 40
2.0
 40
3.0
 40
3.0
 40
3.0
 40
4.0
 40
4.0
 40
4.0
 40
4.0
 10
4.160419062223329
 20
5.592995344832186
 30
0.0
 10
4.151349792567847
 20
5.592870601948485
 30
0.0
 10
4.143860599439196
 20
5.602616717250712
 30
0.0
 10
4.143689655487454
 20
5.614765288090792
 30
0.0
 10
4.14352102158912
 20
5.626911548877488
 30
0.0
 10
4.150739938469769
 20
5.636860948879075
 30
0.0
 10
4.15979765785826
 20
5.636985691762775
 30
0.0
 10
4.168867077965311
 20
5.637119674860072
 30
0.0
 10
4.176356120642392
 20
5.627375869611253
 30
0.0
 10
4.176524754540726
 20
5.615227298771161
 30
0.0
 10
4.176695698492469
 20
5.603078727931057
 30
0.0
 10
4.169486021825429
 20
5.593129568553498
 30
0.0
 10
4.160419062223329
 20
5.592995344832186
 30
0.0
  0
POLYLINE
  5
197
330
1F
100
AcDbEntity
  8
Layer 1
 62
     7
420
 16777215
370
    25
100
AcDb2dPolyline
 66
     1
 10
0.0
 20
0.0
 30
0.0
  0
VERTEX
  5
198
330
197
100
AcDbEntity
  8
Layer 1
 62
     7
420
 16777215
370
    25
100
AcDbVertex
100
AcDb2dVertex
 10
4.172318147296033
 20
5.601533302205249
 30
0.0
  0
VERTEX
  5
199
330
197
100
AcDbEntity
  8
Layer 1
 62
     7
420
 16777215
370
    25
100
AcDbVertex
100
AcDb2dVertex
 10
4.15157617780124
 20
5.635068347439275
 30
0.0
  0
SEQEND
  5
19A
330
197
100
AcDbEntity
  8
Layer 1
 62
     7
420
 16777215
370
    25
  0
POLYLINE
  5
19B
330
1F
100
AcDbEntity
  8
Layer 1
 62
     7
420
 16777215
370
    25
100
AcDb2dPolyline
 66
     1
 10
0.0
 20
0.0
 30
0.0
  0
VERTEX
  5
19C
330
19B
100
AcDbEntity
  8
Layer 1
 62
     7
420
 16777215
370
    25
100
AcDbVertex
100
AcDb2dVertex
 10
4.166961133457258
 20
5.594416027674293
 30
0.0
  0
VERTEX
  5
19D
330
19B
100
AcDbEntity
  8
Layer 1
 62
     7
420
 16777215
370
    25
100
AcDbVertex
100
AcDb2dVertex
 10
4.146216853909032
 20
5.627939522641301
 30
0.0
  0
SEQEND
  5
19E
330
19B
100
AcDbEntity
  8
Layer 1
 62
     7
420
 16777215
370
    25
  0
SPLINE
  5
19F
330
1F
100
AcDbEntity
  8
Layer 1
 62
     7
420
 16777215
370
    35
100
AcDbSpline
210
0.0
220
0.0
230
1.0
 70
    11
 71
     3
 72
    17
 73
    13
 74
     0
 42
0.0000000001
 43
0.0000000001
 12
1.0
 22
0.0
 32
0.0
 13
1.0
 23
0.0
 33
0.0
 40
0.0
 40
0.0
 40
0.0
 40
0.0
 40
1.0
 40
1.0
 40
1.0
 40
2.0
 40
2.0
 40
2.0
 40
3.0
 40
3.0
 40
3.0
 40
4.0
 40
4.0
 40
4.0
 40
4.0
 10
3.477802902096528
 20
5.621441342422031
 30
0.0
 10
3.466465160000464
 20
5.621284258790689
 30
0.0
 10
3.457137164363972
 20
5.631007273558894
 30
0.0
 10
3.456968530465638
 20
5.643155844398986
 30
0.0
 10
3.456799896567304
 20
5.655302105185683
 30
0.0
 10
3.465846065688778
 20
5.665274605721278
 30
0.0
 10
3.477181497731446
 20
5.665431689352608
 30
0.0
 10
3.488516929774101
 20
5.665591083037333
 30
0.0
 10
3.497833375143589
 20
5.655877308482736
 30
0.0
 10
3.498015869362323
 20
5.643731047696039
 30
0.0
 10
3.498184503260656
 20
5.631582476855947
 30
0.0
 10
3.489126783872178
 20
5.621600736106731
 30
0.0
 10
3.477802902096528
 20
5.621441342422031
 30
0.0
  0
POLYLINE
  5
1A0
330
1F
100
AcDbEntity
  8
Layer 1
 62
     7
420
 16777215
370
    25
100
AcDb2dPolyline
 66
     1
 10
0.0
 20
0.0
 30
0.0
  0
VERTEX
  5
1A1
330
1A0
100
AcDbEntity
  8
Layer 1
 62
     7
420
 16777215
370
    25
100
AcDbVertex
100
AcDb2dVertex
 10
3.471023028184782
 20
5.622975459258795
 30
0.0
  0
VERTEX
  5
1A2
330
1A0
100
AcDbEntity
  8
Layer 1
 62
     7
420
 16777215
370
    25
100
AcDbVertex
100
AcDb2dVertex
 10
3.491090329263708
 20
5.660164767596497
 30
0.0
  0
SEQEND
  5
1A3
330
1A0
100
AcDbEntity
  8
Layer 1
 62
     7
420
 16777215
370
    25
  0
POLYLINE
  5
1A4
330
1F
100
AcDbEntity
  8
Layer 1
 62
     7
420
 16777215
370
    25
100
AcDb2dPolyline
 66
     1
 10
0.0
 20
0.0
 30
0.0
  0
VERTEX
  5
1A5
330
1A4
100
AcDbEntity
  8
Layer 1
 62
     7
420
 16777215
370
    25
100
AcDbVertex
100
AcDb2dVertex
 10
3.461773441541393
 20
5.626213912750144
 30
0.0
  0
VERTEX
  5
1A6
330
1A4
100
AcDbEntity
  8
Layer 1
 62
     7
420
 16777215
370
    25
100
AcDbVertex
100
AcDb2dVertex
 10
3.481840875442888
 20
5.663401394811634
 30
0.0
  0
SEQEND
  5
1A7
330
1A4
100
AcDbEntity
  8
Layer 1
 62
     7
420
 16777215
370
    25
  0
SPLINE
  5
1A8
330
1F
100
AcDbEntity
  8
Layer 1
 62
     7
420
 16777215
370
    35
100
AcDbSpline
210
0.0
220
0.0
230
1.0
 70
    11
 71
     3
 72
    17
 73
    13
 74
     0
 42
0.0000000001
 43
0.0000000001
 12
1.0
 22
0.0
 32
0.0
 13
1.0
 23
0.0
 33
0.0
 40
0.0
 40
0.0
 40
0.0
 40
0.0
 40
1.0
 40
1.0
 40
1.0
 40
2.0
 40
2.0
 40
2.0
 40
3.0
 40
3.0
 40
3.0
 40
4.0
 40
4.0
 40
4.0
 40
4.0
 10
5.400649772798462
 20
5.314052010031244
 30
0.0
 10
5.395551666380925
 20
5.313982708427425
 30
0.0
 10
5.391333327428962
 20
5.318360026051701
 30
0.0
 10
5.39126633588032
 20
5.323818682240168
 30
0.0
 10
5.391199344331653
 20
5.329288888695651
 30
0.0
 10
5.395258108158638
 20
5.333779866581026
 30
0.0
 10
5.400356577578021
 20
5.333846624057387
 30
0.0
 10
5.405456993927601
 20
5.333925165873072
 30
0.0
 10
5.409652050905278
 20
5.329549924730044
 30
0.0
 10
5.409719042453944
 20
5.324079718274561
 30
0.0
 10
5.40980913453662
 20
5.318618752032686
 30
0.0
 10
5.405748060656227
 20
5.314130318273
 30
0.0
 10
5.400649772798462
 20
5.314052010031244
 30
0.0
  0
POLYLINE
  5
1A9
330
1F
100
AcDbEntity
  8
Layer 1
 62
     7
420
 16777215
370
    20
100
AcDb2dPolyline
 66
     1
 10
0.0
 20
0.0
 30
0.0
  0
VERTEX
  5
1AA
330
1A9
100
AcDbEntity
  8
Layer 1
 62
     7
420
 16777215
370
    20
100
AcDbVertex
100
AcDb2dVertex
 10
5.407351237717092
 20
5.317921115905341
 30
0.0
  0
VERTEX
  5
1AB
330
1A9
100
AcDbEntity
  8
Layer 1
 62
     7
420
 16777215
370
    20
100
AcDbVertex
100
AcDb2dVertex
 10
5.395733979159407
 20
5.332966493711309
 30
0.0
  0
SEQEND
  5
1AC
330
1A9
100
AcDbEntity
  8
Layer 1
 62
     7
420
 16777215
370
    20
  0
POLYLINE
  5
1AD
330
1F
100
AcDbEntity
  8
Layer 1
 62
     7
420
 16777215
370
    20
100
AcDb2dPolyline
 66
     1
 10
0.0
 20
0.0
 30
0.0
  0
VERTEX
  5
1AE
330
1AD
100
AcDbEntity
  8
Layer 1
 62
     7
420
 16777215
370
    20
100
AcDbVertex
100
AcDb2dVertex
 10
5.404304277280112
 20
5.314705521570027
 30
0.0
  0
VERTEX
  5
1AF
330
1AD
100
AcDbEntity
  8
Layer 1
 62
     7
420
 16777215
370
    20
100
AcDbVertex
100
AcDb2dVertex
 10
5.392687200090273
 20
5.329764759696419
 30
0.0
  0
SEQEND
  5
1B0
330
1AD
100
AcDbEntity
  8
Layer 1
 62
     7
420
 16777215
370
    20
  0
SPLINE
  5
1B1
330
1F
100
AcDbEntity
  8
Layer 1
 62
     7
420
 16777215
370
    30
100
AcDbSpline
210
0.0
220
0.0
230
1.0
 70
    11
 71
     3
 72
    17
 73
    13
 74
     0
 42
0.0000000001
 43
0.0000000001
 12
1.0
 22
0.0
 32
0.0
 13
1.0
 23
0.0
 33
0.0
 40
0.0
 40
0.0
 40
0.0
 40
0.0
 40
1.0
 40
1.0
 40
1.0
 40
2.0
 40
2.0
 40
2.0
 40
3.0
 40
3.0
 40
3.0
 40
4.0
 40
4.0
 40
4.0
 40
4.0
 10
5.567927855578242
 20
5.332347633435726
 30
0.0
 10
5.563820394834996
 20
5.332289648064589
 30
0.0
 10
5.560482367669389
 20
5.336678749528017
 30
0.0
 10
5.560392275586714
 20
5.342137405716484
 30
0.0
 10
5.560325284038072
 20
5.347607612171966
 30
0.0
 10
5.563573219121003
 20
5.35208680571807
 30
0.0
 10
5.567634293001396
 20
5.352142246999695
 30
0.0
 10
5.571716343252874
 20
5.352197688281345
 30
0.0
 10
5.575100385596013
 20
5.347810896871326
 30
0.0
 10
5.57516737714468
 20
5.342352240682859
 30
0.0
 10
5.57523667874673
 20
5.336882034227377
 30
0.0
 10
5.571986433610391
 20
5.332402840681273
 30
0.0
 10
5.567927855578242
 20
5.332347633435726
 30
0.0
  0
POLYLINE
  5
1B2
330
1F
100
AcDbEntity
  8
Layer 1
 62
     7
420
 16777215
370
    20
100
AcDb2dPolyline
 66
     1
 10
0.0
 20
0.0
 30
0.0
  0
VERTEX
  5
1B3
330
1B2
100
AcDbEntity
  8
Layer 1
 62
     7
420
 16777215
370
    20
100
AcDbVertex
100
AcDb2dVertex
 10
5.573273133355188
 20
5.336182322179588
 30
0.0
  0
VERTEX
  5
1B4
330
1B2
100
AcDbEntity
  8
Layer 1
 62
     7
420
 16777215
370
    20
100
AcDbVertex
100
AcDb2dVertex
 10
5.564384047865056
 20
5.350393536574529
 30
0.0
  0
SEQEND
  5
1B5
330
1B2
100
AcDbEntity
  8
Layer 1
 62
     7
420
 16777215
370
    20
  0
POLYLINE
  5
1B6
330
1F
100
AcDbEntity
  8
Layer 1
 62
     7
420
 16777215
370
    20
100
AcDb2dPolyline
 66
     1
 10
0.0
 20
0.0
 30
0.0
  0
VERTEX
  5
1B7
330
1B6
100
AcDbEntity
  8
Layer 1
 62
     7
420
 16777215
370
    20
100
AcDbVertex
100
AcDb2dVertex
 10
5.570859127550319
 20
5.333428504391677
 30
0.0
  0
VERTEX
  5
1B8
330
1B6
100
AcDbEntity
  8
Layer 1
 62
     7
420
 16777215
370
    20
100
AcDbVertex
100
AcDb2dVertex
 10
5.56151958164681
 20
5.34806962285231
 30
0.0
  0
SEQEND
  5
1B9
330
1B6
100
AcDbEntity
  8
Layer 1
 62
     7
420
 16777215
370
    20
  0
SPLINE
  5
1BA
330
1F
100
AcDbEntity
  8
Layer 1
 62
     7
420
 16777215
370
    30
100
AcDbSpline
210
0.0
220
0.0
230
1.0
 70
    11
 71
     3
 72
    17
 73
    13
 74
     0
 42
0.0000000001
 43
0.0000000001
 12
1.0
 22
0.0
 32
0.0
 13
1.0
 23
0.0
 33
0.0
 40
0.0
 40
0.0
 40
0.0
 40
0.0
 40
1.0
 40
1.0
 40
1.0
 40
2.0
 40
2.0
 40
2.0
 40
3.0
 40
3.0
 40
3.0
 40
4.0
 40
4.0
 40
4.0
 40
4.0
 10
5.33038025836893
 20
5.366670172843669
 30
0.0
 10
5.325279840122726
 20
5.366603181295002
 30
0.0
 10
5.321084603480054
 20
5.370966872171013
 30
0.0
 10
5.321017611931413
 20
5.376439388679905
 30
0.0
 10
5.320927519848738
 20
5.381898280156216
 30
0.0
 10
5.324988593729105
 20
5.386398028895074
 30
0.0
 10
5.330086881586895
 20
5.386465020443741
 30
0.0
 10
5.335185169444685
 20
5.386534322045791
 30
0.0
 10
5.33940332695637
 20
5.382156770849355
 30
0.0
 10
5.339470318505037
 20
5.376698114660889
 30
0.0
 10
5.33953731005368
 20
5.371227908205431
 30
0.0
 10
5.335478546226694
 20
5.366737164392311
 30
0.0
 10
5.33038025836893
 20
5.366670172843669
 30
0.0
  0
POLYLINE
  5
1BB
330
1F
100
AcDbEntity
  8
Layer 1
 62
     7
420
 16777215
370
    20
100
AcDb2dPolyline
 66
     1
 10
0.0
 20
0.0
 30
0.0
  0
VERTEX
  5
1BC
330
1BB
100
AcDbEntity
  8
Layer 1
 62
     7
420
 16777215
370
    20
100
AcDbVertex
100
AcDb2dVertex
 10
5.32733329793195
 20
5.367358568757405
 30
0.0
  0
VERTEX
  5
1BD
330
1BB
100
AcDbEntity
  8
Layer 1
 62
     7
420
 16777215
370
    20
100
AcDbVertex
100
AcDb2dVertex
 10
5.33635636651939
 20
5.384085665439872
 30
0.0
  0
SEQEND
  5
1BE
330
1BB
100
AcDbEntity
  8
Layer 1
 62
     7
420
 16777215
370
    20
  0
POLYLINE
  5
1BF
330
1F
100
AcDbEntity
  8
Layer 1
 62
     7
420
 16777215
370
    20
100
AcDb2dPolyline
 66
     1
 10
0.0
 20
0.0
 30
0.0
  0
VERTEX
  5
1C0
330
1BF
100
AcDbEntity
  8
Layer 1
 62
     7
420
 16777215
370
    20
100
AcDbVertex
100
AcDb2dVertex
 10
5.323161341488281
 20
5.368813902400537
 30
0.0
  0
VERTEX
  5
1C1
330
1BF
100
AcDbEntity
  8
Layer 1
 62
     7
420
 16777215
370
    20
100
AcDbVertex
100
AcDb2dVertex
 10
5.332207510609755
 20
5.38555254935002
 30
0.0
  0
SEQEND
  5
1C2
330
1BF
100
AcDbEntity
  8
Layer 1
 62
     7
420
 16777215
370
    20
  0
SPLINE
  5
1C3
330
1F
100
AcDbEntity
  8
Layer 1
 62
     7
420
 16777215
370
    30
100
AcDbSpline
210
0.0
220
0.0
230
1.0
 70
    11
 71
     3
 72
    17
 73
    13
 74
     0
 42
0.0000000001
 43
0.0000000001
 12
1.0
 22
0.0
 32
0.0
 13
1.0
 23
0.0
 33
0.0
 40
0.0
 40
0.0
 40
0.0
 40
0.0
 40
1.0
 40
1.0
 40
1.0
 40
2.0
 40
2.0
 40
2.0
 40
3.0
 40
3.0
 40
3.0
 40
4.0
 40
4.0
 40
4.0
 40
4.0
 10
5.997385077606319
 20
5.224920676002057
 30
0.0
 10
5.994157933004013
 20
5.224874474934015
 30
0.0
 10
5.99154064249976
 20
5.227785142220278
 30
0.0
 10
5.991473650951118
 20
5.231416546167919
 30
0.0
 10
5.991429956429834
 20
5.235050260168969
 30
0.0
 10
5.993977748838662
 20
5.238037159217507
 30
0.0
 10
5.997205090080241
 20
5.238083360285549
 30
0.0
 10
6.000406627455883
 20
5.238129561353566
 30
0.0
 10
6.003047018494144
 20
5.235218894067303
 30
0.0
 10
6.003114010042812
 20
5.231587490119662
 30
0.0
 10
6.003160211110854
 20
5.227942225851621
 30
0.0
 10
6.000586811621234
 20
5.22496456701669
 30
0.0
 10
5.997385077606319
 20
5.224920676002057
 30
0.0
  0
POLYLINE
  5
1C4
330
1F
100
AcDbEntity
  8
Layer 1
 62
     7
420
 16777215
370
    18
100
AcDb2dPolyline
 66
     1
 10
0.0
 20
0.0
 30
0.0
  0
VERTEX
  5
1C5
330
1C4
100
AcDbEntity
  8
Layer 1
 62
     7
420
 16777215
370
    18
100
AcDbVertex
100
AcDb2dVertex
 10
6.00160323511803
 20
5.227480215171251
 30
0.0
  0
VERTEX
  5
1C6
330
1C4
100
AcDbEntity
  8
Layer 1
 62
     7
420
 16777215
370
    18
100
AcDbVertex
100
AcDb2dVertex
 10
5.994294422720486
 20
5.237496838361444
 30
0.0
  0
SEQEND
  5
1C7
330
1C4
100
AcDbEntity
  8
Layer 1
 62
     7
420
 16777215
370
    18
  0
POLYLINE
  5
1C8
330
1F
100
AcDbEntity
  8
Layer 1
 62
     7
420
 16777215
370
    18
100
AcDb2dPolyline
 66
     1
 10
0.0
 20
0.0
 30
0.0
  0
VERTEX
  5
1C9
330
1C8
100
AcDbEntity
  8
Layer 1
 62
     7
420
 16777215
370
    18
100
AcDbVertex
100
AcDb2dVertex
 10
5.999708991328538
 20
5.225348035881376
 30
0.0
  0
VERTEX
  5
1CA
330
1C8
100
AcDbEntity
  8
Layer 1
 62
     7
420
 16777215
370
    18
100
AcDbVertex
100
AcDb2dVertex
 10
5.99237707834853
 20
5.235364427431628
 30
0.0
  0
SEQEND
  5
1CB
330
1C8
100
AcDbEntity
  8
Layer 1
 62
     7
420
 16777215
370
    18
  0
SPLINE
  5
1CC
330
1F
100
AcDbEntity
  8
Layer 1
 62
     7
420
 16777215
370
    30
100
AcDbSpline
210
0.0
220
0.0
230
1.0
 70
    11
 71
     3
 72
    17
 73
    13
 74
     0
 42
0.0000000001
 43
0.0000000001
 12
1.0
 22
0.0
 32
0.0
 13
1.0
 23
0.0
 33
0.0
 40
0.0
 40
0.0
 40
0.0
 40
0.0
 40
1.0
 40
1.0
 40
1.0
 40
2.0
 40
2.0
 40
2.0
 40
3.0
 40
3.0
 40
3.0
 40
4.0
 40
4.0
 40
4.0
 40
4.0
 10
5.948950187930677
 20
5.258566603799358
 30
0.0
 10
5.945723043328345
 20
5.258522712784725
 30
0.0
 10
5.943084962343492
 20
5.261431070017579
 30
0.0
 10
5.94303876127545
 20
5.265076334285646
 30
0.0
 10
5.942994870260817
 20
5.268707738233287
 30
0.0
 10
5.945542859162995
 20
5.271685629571872
 30
0.0
 10
5.948770003765326
 20
5.271729288082851
 30
0.0
 10
5.951974243330293
 20
5.271775489150867
 30
0.0
 10
5.954635229352511
 20
5.268864821864605
 30
0.0
 10
5.954679120367144
 20
5.265233417916963
 30
0.0
 10
5.954725321435186
 20
5.261602013969322
 30
0.0
 10
5.952154231998975
 20
5.2586128048674
 30
0.0
 10
5.948950187930677
 20
5.258566603799358
 30
0.0
  0
POLYLINE
  5
1CD
330
1F
100
AcDbEntity
  8
Layer 1
 62
     7
420
 16777215
370
    18
100
AcDb2dPolyline
 66
     1
 10
0.0
 20
0.0
 30
0.0
  0
VERTEX
  5
1CE
330
1CD
100
AcDbEntity
  8
Layer 1
 62
     7
420
 16777215
370
    18
100
AcDbVertex
100
AcDb2dVertex
 10
5.947009743073143
 20
5.259028614479702
 30
0.0
  0
VERTEX
  5
1CF
330
1CD
100
AcDbEntity
  8
Layer 1
 62
     7
420
 16777215
370
    18
100
AcDbVertex
100
AcDb2dVertex
 10
5.952694784495002
 20
5.270151521609401
 30
0.0
  0
SEQEND
  5
1D0
330
1CD
100
AcDbEntity
  8
Layer 1
 62
     7
420
 16777215
370
    18
  0
POLYLINE
  5
1D1
330
1F
100
AcDbEntity
  8
Layer 1
 62
     7
420
 16777215
370
    18
100
AcDb2dPolyline
 66
     1
 10
0.0
 20
0.0
 30
0.0
  0
VERTEX
  5
1D2
330
1D1
100
AcDbEntity
  8
Layer 1
 62
     7
420
 16777215
370
    18
100
AcDbVertex
100
AcDb2dVertex
 10
5.944392452568914
 20
5.259998836908481
 30
0.0
  0
VERTEX
  5
1D3
330
1D1
100
AcDbEntity
  8
Layer 1
 62
     7
420
 16777215
370
    18
100
AcDbVertex
100
AcDb2dVertex
 10
5.950077493990748
 20
5.271121744038155
 30
0.0
  0
SEQEND
  5
1D4
330
1D1
100
AcDbEntity
  8
Layer 1
 62
     7
420
 16777215
370
    18
  0
MTEXT
  5
1D6
330
1F
100
AcDbEntity
  8
callout
 62
   250
420
  2236191
100
AcDbMText
 10
3.15591992272271
 20
3.413730303446452
 30
0.0
 40
0.118
 41
0.0
 46
0.0
 71
     7
 72
     1
  1
\fHelvetica Neue LT Std 55 Roman|b0|i0|c0|p34;\W1;SIMPSON Strong-Tie\H0.068794;®\H0.118; ^C
 73
     1
 44
1.0
  0
MTEXT
  5
1D7
330
1F
100
AcDbEntity
  8
callout
 62
   250
420
  2236191
100
AcDbMText
 10
2.716378635830349
 20
3.213738441467285
 30
0.0
 40
0.118
 41
0.0
 46
0.0
 71
     7
 72
     1
  1
\fHelvetica Neue LT Std 55 Roman|b0|i0|c0|p34;\W1;PGT Steel Fence Post Connection 
 73
     1
 44
1.0
  0
MTEXT
  5
1D8
330
1F
100
AcDbEntity
  8
callout
 62
   250
420
  2236191
100
AcDbMText
 10
2.885759936438666
 20
4.148329310946994
 30
0.0
 40
0.118
 41
0.0
 46
0.0
 71
     7
 72
     1
  1
\fHelvetica Neue LT Std 57 Condensed|b0|i0|c0|p34;\W1;Steel Fence Post
 73
     1
 44
1.0
  0
MTEXT
  5
1D9
330
1F
100
AcDbEntity
  8
callout
 62
   250
420
  2236191
100
AcDbMText
 10
4.775922351413302
 20
6.049988375769721
 30
0.0
 40
0.118
 41
0.0
 46
0.0
 71
     7
 72
     1
  1
\fHelvetica Neue LT Std 57 Condensed|b0|i0|c0|p34;\W1;PGT2Z-R
 73
     1
 44
1.0
  0
MTEXT
  5
1DA
330
1F
100
AcDbEntity
  8
callout
 62
   250
420
  2236191
100
AcDbMText
 10
2.716785113016764
 20
6.205396016438802
 30
0.0
 40
0.118
 41
0.0
 46
0.0
 71
     7
 72
     1
  1
\fHelvetica Neue LT Std 57 Condensed|b0|i0|c0|p34;\W1;Fence Rail
 73
     1
 44
1.0
  0
POLYLINE
  5
1DB
330
1F
100
AcDbEntity
  8
callout
 62
   250
420
  2236191
370
    18
100
AcDb2dPolyline
 66
     1
 10
0.0
 20
0.0
 30
0.0
  0
VERTEX
  5
1DC
330
1DB
100
AcDbEntity
  8
callout
 62
   250
420
  2236191
370
    18
100
AcDbVertex
100
AcDb2dVertex
 10
3.296370967741887
 20
4.329973118279591
 30
0.0
  0
VERTEX
  5
1DD
330
1DB
100
AcDbEntity
  8
callout
 62
   250
420
  2236191
370
    18
100
AcDbVertex
100
AcDb2dVertex
 10
3.790283826346745
 20
4.862753149553302
 30
0.0
  0
SEQEND
  5
1DE
330
1DB
100
AcDbEntity
  8
callout
 62
   250
420
  2236191
370
    18
  0
POLYLINE
  5
1DF
330
1F
100
AcDbEntity
  8
callout
 62
   250
420
  2236191
370
    18
100
AcDb2dPolyline
 66
     1
 10
0.0
 20
0.0
 30
0.0
  0
VERTEX
  5
1E0
330
1DF
100
AcDbEntity
  8
callout
 62
   250
420
  2236191
370
    18
100
AcDbVertex
100
AcDb2dVertex
 10
4.833269966973199
 20
5.974807901242849
 30
0.0
  0
VERTEX
  5
1E1
330
1DF
100
AcDbEntity
  8
callout
 62
   250
420
  2236191
370
    18
100
AcDbVertex
100
AcDb2dVertex
 10
4.143686760159249
 20
5.687117315662059
 30
0.0
  0
SEQEND
  5
1E2
330
1DF
100
AcDbEntity
  8
callout
 62
   250
420
  2236191
370
    18
  0
POLYLINE
  5
1E3
330
1F
100
AcDbEntity
  8
callout
 62
   250
420
  2236191
370
    18
100
AcDb2dPolyline
 66
     1
 10
0.0
 20
0.0
 30
0.0
  0
VERTEX
  5
1E4
330
1E3
100
AcDbEntity
  8
callout
 62
   250
420
  2236191
370
    18
100
AcDbVertex
100
AcDb2dVertex
 10
5.131496415770622
 20
5.971818692140914
 30
0.0
  0
VERTEX
  5
1E5
330
1E3
100
AcDbEntity
  8
callout
 62
   250
420
  2236191
370
    18
100
AcDbVertex
100
AcDb2dVertex
 10
5.384613419269473
 20
5.398416365787953
 30
0.0
  0
SEQEND
  5
1E6
330
1E3
100
AcDbEntity
  8
callout
 62
   250
420
  2236191
370
    18
  0
POLYLINE
  5
1E7
330
1F
100
AcDbEntity
  8
callout
 62
   250
420
  2236191
370
    18
100
AcDb2dPolyline
 66
     1
 10
0.0
 20
0.0
 30
0.0
  0
VERTEX
  5
1E8
330
1E7
100
AcDbEntity
  8
callout
 62
   250
420
  2236191
370
    18
100
AcDbVertex
100
AcDb2dVertex
 10
3.000332189343781
 20
6.154878052957289
 30
0.0
  0
VERTEX
  5
1E9
330
1E7
100
AcDbEntity
  8
callout
 62
   250
420
  2236191
370
    18
100
AcDbVertex
100
AcDb2dVertex
 10
3.247983870967674
 20
5.867358077311261
 30
0.0
  0
SEQEND
  5
1EA
330
1E7
100
AcDbEntity
  8
callout
 62
   250
420
  2236191
370
    18
  0
ENDSEC
  0
SECTION
  2
OBJECTS
  0
DICTIONARY
  5
C
330
0
100
AcDbDictionary
281
     1
  3
ACAD_GROUP
350
D
  3
ACAD_LAYOUT
350
1A
  3
ACAD_MATERIAL
350
3B
  3
ACAD_MLEADERSTYLE
350
1EC
  3
ACAD_MLINESTYLE
350
17
  3
ACAD_PLOTSETTINGS
350
19
  3
ACAD_PLOTSTYLENAME
350
E
  3
ACAD_TABLESTYLE
350
1EB
  3
ACAD_VISUALSTYLE
350
2A
  0
SUN
  5
3F
330
29
100
AcDbSun
 90
        1
290
     0
 63
     7
421
 16777215
 40
1.0
291
     1
 91
  2455826
 92
 54000000
292
     0
 70
     2
 71
   256
280
     1
  0
DICTIONARY
  5
D
102
{ACAD_REACTORS
330
C
102
}
330
C
100
AcDbDictionary
281
     1
  0
DICTIONARY
  5
1A
102
{ACAD_REACTORS
330
C
102
}
330
C
100
AcDbDictionary
281
     1
  3
Layout1
350
1E
  3
Layout2
350
26
  3
Model
350
22
  0
DICTIONARY
  5
3B
102
{ACAD_REACTORS
330
C
102
}
330
C
100
AcDbDictionary
281
     1
  3
ByBlock
350
3D
  3
ByLayer
350
3C
  3
Global
350
3E
  0
DICTIONARY
  5
1EC
102
{ACAD_REACTORS
330
C
102
}
330
C
100
AcDbDictionary
281
     1
  0
DICTIONARY
  5
17
102
{ACAD_REACTORS
330
C
102
}
330
C
100
AcDbDictionary
281
     1
  3
Standard
350
18
  0
DICTIONARY
  5
19
102
{ACAD_REACTORS
330
C
102
}
330
C
100
AcDbDictionary
281
     1
  0
ACDBDICTIONARYWDFLT
  5
E
102
{ACAD_REACTORS
330
C
102
}
330
C
100
AcDbDictionary
281
     1
  3
Normal
350
F
100
AcDbDictionaryWithDefault
340
F
  0
DICTIONARY
  5
1EB
102
{ACAD_REACTORS
330
C
102
}
330
C
100
AcDbDictionary
281
     1
  0
DICTIONARY
  5
2A
102
{ACAD_REACTORS
330
C
102
}
330
C
100
AcDbDictionary
281
     1
  3
2dWireframe
350
2F
  3
3D Hidden
350
31
  3
3dWireframe
350
30
  3
Basic
350
32
  3
Brighten
350
36
  3
ColorChange
350
3A
  3
Conceptual
350
34
  3
Dim
350
35
  3
Facepattern
350
39
  3
Flat
350
2B
  3
FlatWithEdges
350
2C
  3
Gouraud
350
2D
  3
GouraudWithEdges
350
2E
  3
Linepattern
350
38
  3
Realistic
350
33
  3
Thicken
350
37
  0
LAYOUT
  5
1E
102
{ACAD_REACTORS
330
1A
102
}
330
1A
100
AcDbPlotSettings
  1

  2
none_device
  4

  6

 40
0.0
 41
0.0
 42
0.0
 43
0.0
 44
0.0
 45
0.0
 46
0.0
 47
0.0
 48
0.0
 49
0.0
140
0.0
141
0.0
142
1.0
143
1.0
 70
   688
 72
     0
 73
     0
 74
     5
  7

 75
    16
 76
     0
 77
     2
 78
   300
147
1.0
148
0.0
149
0.0
100
AcDbLayout
  1
Layout1
 70
     1
 71
     1
 10
0.0
 20
0.0
 11
12.0
 21
9.0
 12
0.0
 22
0.0
 32
0.0
 14
1.000000000000000E+20
 24
1.000000000000000E+20
 34
1.000000000000000E+20
 15
-1.000000000000000E+20
 25
-1.000000000000000E+20
 35
-1.000000000000000E+20
146
0.0
 13
0.0
 23
0.0
 33
0.0
 16
1.0
 26
0.0
 36
0.0
 17
0.0
 27
1.0
 37
0.0
 76
     0
330
1B
  0
LAYOUT
  5
26
102
{ACAD_REACTORS
330
1A
102
}
330
1A
100
AcDbPlotSettings
  1

  2
none_device
  4

  6

 40
0.0
 41
0.0
 42
0.0
 43
0.0
 44
0.0
 45
0.0
 46
0.0
 47
0.0
 48
0.0
 49
0.0
140
0.0
141
0.0
142
1.0
143
1.0
 70
   688
 72
     0
 73
     0
 74
     5
  7

 75
    16
 76
     0
 77
     2
 78
   300
147
1.0
148
0.0
149
0.0
100
AcDbLayout
  1
Layout2
 70
     1
 71
     2
 10
0.0
 20
0.0
 11
0.0
 21
0.0
 12
0.0
 22
0.0
 32
0.0
 14
0.0
 24
0.0
 34
0.0
 15
0.0
 25
0.0
 35
0.0
146
0.0
 13
0.0
 23
0.0
 33
0.0
 16
1.0
 26
0.0
 36
0.0
 17
0.0
 27
1.0
 37
0.0
 76
     0
330
23
  0
LAYOUT
  5
22
102
{ACAD_REACTORS
330
1A
102
}
330
1A
100
AcDbPlotSettings
  1

  2
none_device
  4

  6

 40
0.0
 41
0.0
 42
0.0
 43
0.0
 44
0.0
 45
0.0
 46
0.0
 47
0.0
 48
0.0
 49
0.0
140
0.0
141
0.0
142
1.0
143
1.0
 70
  1712
 72
     0
 73
     0
 74
     0
  7

 75
     0
 76
     0
 77
     2
 78
   300
147
1.0
148
0.0
149
0.0
100
AcDbLayout
  1
Model
 70
     1
 71
     0
 10
0.0
 20
0.0
 11
12.0
 21
9.0
 12
0.0
 22
0.0
 32
0.0
 14
1.000000000000000E+20
 24
1.000000000000000E+20
 34
1.000000000000000E+20
 15
-1.000000000000000E+20
 25
-1.000000000000000E+20
 35
-1.000000000000000E+20
146
0.0
 13
0.0
 23
0.0
 33
0.0
 16
1.0
 26
0.0
 36
0.0
 17
0.0
 27
1.0
 37
0.0
 76
     0
330
1F
331
29
  0
MATERIAL
  5
3D
102
{ACAD_REACTORS
330
3B
102
}
330
3B
100
AcDbMaterial
  1
ByBlock
 72
     1
 94
      127
  0
MATERIAL
  5
3C
102
{ACAD_REACTORS
330
3B
102
}
330
3B
100
AcDbMaterial
  1
ByLayer
 72
     1
 94
      127
  0
MATERIAL
  5
3E
102
{ACAD_REACTORS
330
3B
102
}
330
3B
100
AcDbMaterial
  1
Global
 72
     1
 94
      127
  0
MLINESTYLE
  5
18
102
{ACAD_REACTORS
330
17
102
}
330
17
100
AcDbMlineStyle
  2
Standard
 70
     0
  3

 62
   256
 51
90.0
 52
90.0
 71
     2
 49
0.5
 62
   256
  6
BYLAYER
 49
-0.5
 62
   256
  6
BYLAYER
  0
ACDBPLACEHOLDER
  5
F
102
{ACAD_REACTORS
330
E
102
}
330
E
  0
VISUALSTYLE
  5
2F
102
{ACAD_REACTORS
330
2A
102
}
330
2A
100
AcDbVisualStyle
  2
2dWireframe
 70
     4
177
     2
291
     0
 71
     0
176
     1
 72
     2
176
     1
 73
     0
176
     1
 90
        0
176
     1
 40
-0.6
176
     1
 41
-30.0
176
     1
 62
     5
 63
     7
421
 16777215
176
     1
 74
     1
176
     1
 91
        4
176
     1
 64
     7
176
     1
 65
   257
176
     1
 75
     1
176
     1
175
     1
176
     1
 42
1.0
176
     1
 92
        0
176
     1
 66
   257
176
     1
 43
1.0
176
     1
 76
     1
176
     1
 77
     6
176
     1
 78
     2
176
     1
 67
     7
176
     1
 79
     5
176
     1
170
     0
176
     1
171
     0
176
     1
290
     0
176
     1
 93
        1
176
     1
 44
0.0
176
     1
173
     0
176
     1
  0
VISUALSTYLE
  5
31
102
{ACAD_REACTORS
330
2A
102
}
330
2A
100
AcDbVisualStyle
  2
3D Hidden
 70
     6
177
     2
291
     0
 71
     1
176
     1
 72
     2
176
     1
 73
     2
176
     1
 90
        0
176
     1
 40
-0.6
176
     1
 41
-30.0
176
     1
 62
     5
 63
     7
421
 16777215
176
     1
 74
     2
176
     1
 91
        2
176
     1
 64
     7
176
     1
 65
   257
176
     1
 75
     2
176
     1
175
     1
176
     1
 42
40.0
176
     1
 92
        0
176
     1
 66
   257
176
     1
 43
1.0
176
     1
 76
     1
176
     1
 77
     6
176
     1
 78
     2
176
     1
 67
     7
176
     1
 79
     3
176
     1
170
     0
176
     1
171
     0
176
     1
290
     0
176
     1
 93
        1
176
     1
 44
0.0
176
     1
173
     0
176
     1
  0
VISUALSTYLE
  5
30
102
{ACAD_REACTORS
330
2A
102
}
330
2A
100
AcDbVisualStyle
  2
3dWireframe
 70
     5
177
     2
291
     0
 71
     0
176
     1
 72
     2
176
     1
 73
     0
176
     1
 90
        0
176
     1
 40
-0.6
176
     1
 41
-30.0
176
     1
 62
     5
 63
     7
421
 16777215
176
     1
 74
     1
176
     1
 91
        4
176
     1
 64
     7
176
     1
 65
   257
176
     1
 75
     1
176
     1
175
     1
176
     1
 42
1.0
176
     1
 92
        0
176
     1
 66
   257
176
     1
 43
1.0
176
     1
 76
     1
176
     1
 77
     6
176
     1
 78
     2
176
     1
 67
     7
176
     1
 79
     5
176
     1
170
     0
176
     1
171
     0
176
     1
290
     0
176
     1
 93
        1
176
     1
 44
0.0
176
     1
173
     0
176
     1
  0
VISUALSTYLE
  5
32
102
{ACAD_REACTORS
330
2A
102
}
330
2A
100
AcDbVisualStyle
  2
Basic
 70
     7
177
     2
291
     1
 71
     1
176
     1
 72
     0
176
     1
 73
     1
176
     1
 90
        0
176
     1
 40
-0.6
176
     1
 41
-30.0
176
     1
 62
     5
 63
     7
421
 16777215
176
     1
 74
     0
176
     1
 91
        4
176
     1
 64
     7
176
     1
 65
   257
176
     1
 75
     1
176
     1
175
     1
176
     1
 42
1.0
176
     1
 92
        8
176
     1
 66
     7
176
     1
 43
1.0
176
     1
 76
     1
176
     1
 77
     6
176
     1
 78
     2
176
     1
 67
     7
176
     1
 79
     5
176
     1
170
     0
176
     1
171
     0
176
     1
290
     0
176
     1
 93
        1
176
     1
 44
0.0
176
     1
173
     0
176
     1
  0
VISUALSTYLE
  5
36
102
{ACAD_REACTORS
330
2A
102
}
330
2A
100
AcDbVisualStyle
  2
Brighten
 70
    12
177
     2
291
     1
 71
     2
176
     1
 72
     2
176
     1
 73
     0
176
     1
 90
        0
176
     1
 40
-0.6
176
     1
 41
-30.0
176
     1
 62
     5
 63
     7
421
 16777215
176
     1
 74
     1
176
     1
 91
        4
176
     1
 64
     7
176
     1
 65
   257
176
     1
 75
     1
176
     1
175
     1
176
     1
 42
1.0
176
     1
 92
        8
176
     1
 66
     7
176
     1
 43
1.0
176
     1
 76
     1
176
     1
 77
     6
176
     1
 78
     2
176
     1
 67
     7
176
     1
 79
     5
176
     1
170
     0
176
     1
171
     0
176
     1
290
     0
176
     1
 93
        1
176
     1
 44
50.0
176
     1
173
     0
176
     1
  0
VISUALSTYLE
  5
3A
102
{ACAD_REACTORS
330
2A
102
}
330
2A
100
AcDbVisualStyle
  2
ColorChange
 70
    16
177
     2
291
     1
 71
     2
176
     1
 72
     2
176
     1
 73
     3
176
     1
 90
        0
176
     1
 40
-0.6
176
     1
 41
-30.0
176
     1
 62
     5
 63
     8
421
  8421504
176
     1
 74
     1
176
     1
 91
        4
176
     1
 64
     7
176
     1
 65
   257
176
     1
 75
     1
176
     1
175
     1
176
     1
 42
1.0
176
     1
 92
        8
176
     1
 66
     8
424
  8421504
176
     1
 43
1.0
176
     1
 76
     1
176
     1
 77
     6
176
     1
 78
     2
176
     1
 67
     7
176
     1
 79
     5
176
     1
170
     0
176
     1
171
     0
176
     1
290
     0
176
     1
 93
        1
176
     1
 44
0.0
176
     1
173
     0
176
     1
  0
VISUALSTYLE
  5
34
102
{ACAD_REACTORS
330
2A
102
}
330
2A
100
AcDbVisualStyle
  2
Conceptual
 70
     9
177
     2
291
     0
 71
     3
176
     1
 72
     2
176
     1
 73
     0
176
     1
 90
        0
176
     1
 40
-0.6
176
     1
 41
-30.0
176
     1
 62
     5
 63
     7
421
 16777215
176
     1
 74
     2
176
     1
 91
        2
176
     1
 64
     7
176
     1
 65
   257
176
     1
 75
     1
176
     1
175
     1
176
     1
 42
40.0
176
     1
 92
        8
176
     1
 66
     7
176
     1
 43
1.0
176
     1
 76
     1
176
     1
 77
     6
176
     1
 78
     2
176
     1
 67
     7
176
     1
 79
     3
176
     1
170
     0
176
     1
171
     0
176
     1
290
     0
176
     1
 93
        1
176
     1
 44
0.0
176
     1
173
     0
176
     1
  0
VISUALSTYLE
  5
35
102
{ACAD_REACTORS
330
2A
102
}
330
2A
100
AcDbVisualStyle
  2
Dim
 70
    11
177
     2
291
     1
 71
     2
176
     1
 72
     2
176
     1
 73
     0
176
     1
 90
        0
176
     1
 40
-0.6
176
     1
 41
-30.0
176
     1
 62
     5
 63
     7
421
 16777215
176
     1
 74
     1
176
     1
 91
        4
176
     1
 64
     7
176
     1
 65
   257
176
     1
 75
     1
176
     1
175
     1
176
     1
 42
1.0
176
     1
 92
        8
176
     1
 66
     7
176
     1
 43
1.0
176
     1
 76
     1
176
     1
 77
     6
176
     1
 78
     2
176
     1
 67
     7
176
     1
 79
     5
176
     1
170
     0
176
     1
171
     0
176
     1
290
     0
176
     1
 93
        1
176
     1
 44
-50.0
176
     1
173
     0
176
     1
  0
VISUALSTYLE
  5
39
102
{ACAD_REACTORS
330
2A
102
}
330
2A
100
AcDbVisualStyle
  2
Facepattern
 70
    15
177
     2
291
     1
 71
     2
176
     1
 72
     2
176
     1
 73
     0
176
     1
 90
        0
176
     1
 40
-0.6
176
     1
 41
-30.0
176
     1
 62
     5
 63
     7
421
 16777215
176
     1
 74
     1
176
     1
 91
        4
176
     1
 64
     7
176
     1
 65
   257
176
     1
 75
     1
176
     1
175
     1
176
     1
 42
1.0
176
     1
 92
        8
176
     1
 66
     7
176
     1
 43
1.0
176
     1
 76
     1
176
     1
 77
     6
176
     1
 78
     2
176
     1
 67
     7
176
     1
 79
     5
176
     1
170
     0
176
     1
171
     0
176
     1
290
     0
176
     1
 93
        1
176
     1
 44
0.0
176
     1
173
     0
176
     1
  0
VISUALSTYLE
  5
2B
102
{ACAD_REACTORS
330
2A
102
}
330
2A
100
AcDbVisualStyle
  2
Flat
 70
     0
177
     2
291
     1
 71
     2
176
     1
 72
     1
176
     1
 73
     1
176
     1
 90
        2
176
     1
 40
-0.6
176
     1
 41
30.0
176
     1
 62
     5
 63
     7
421
 16777215
176
     1
 74
     0
176
     1
 91
        4
176
     1
 64
     7
176
     1
 65
   257
176
     1
 75
     1
176
     1
175
     1
176
     1
 42
1.0
176
     1
 92
        8
176
     1
 66
     7
176
     1
 43
1.0
176
     1
 76
     1
176
     1
 77
     6
176
     1
 78
     2
176
     1
 67
     7
176
     1
 79
     5
176
     1
170
     0
176
     1
171
     0
176
     1
290
     0
176
     1
 93
       13
176
     1
 44
0.0
176
     1
173
     0
176
     1
  0
VISUALSTYLE
  5
2C
102
{ACAD_REACTORS
330
2A
102
}
330
2A
100
AcDbVisualStyle
  2
FlatWithEdges
 70
     1
177
     2
291
     1
 71
     2
176
     1
 72
     1
176
     1
 73
     1
176
     1
 90
        2
176
     1
 40
-0.6
176
     1
 41
30.0
176
     1
 62
     5
 63
     7
421
 16777215
176
     1
 74
     1
176
     1
 91
        4
176
     1
 64
     7
176
     1
 65
   257
176
     1
 75
     1
176
     1
175
     1
176
     1
 42
1.0
176
     1
 92
        0
176
     1
 66
   257
176
     1
 43
1.0
176
     1
 76
     1
176
     1
 77
     6
176
     1
 78
     2
176
     1
 67
     7
176
     1
 79
     5
176
     1
170
     0
176
     1
171
     0
176
     1
290
     0
176
     1
 93
       13
176
     1
 44
0.0
176
     1
173
     0
176
     1
  0
VISUALSTYLE
  5
2D
102
{ACAD_REACTORS
330
2A
102
}
330
2A
100
AcDbVisualStyle
  2
Gouraud
 70
     2
177
     2
291
     1
 71
     2
176
     1
 72
     2
176
     1
 73
     1
176
     1
 90
        2
176
     1
 40
-0.6
176
     1
 41
30.0
176
     1
 62
     5
 63
     7
421
 16777215
176
     1
 74
     0
176
     1
 91
        4
176
     1
 64
     7
176
     1
 65
   257
176
     1
 75
     1
176
     1
175
     1
176
     1
 42
1.0
176
     1
 92
        0
176
     1
 66
     7
176
     1
 43
1.0
176
     1
 76
     1
176
     1
 77
     6
176
     1
 78
     2
176
     1
 67
     7
176
     1
 79
     5
176
     1
170
     0
176
     1
171
     0
176
     1
290
     0
176
     1
 93
       13
176
     1
 44
0.0
176
     1
173
     0
176
     1
  0
VISUALSTYLE
  5
2E
102
{ACAD_REACTORS
330
2A
102
}
330
2A
100
AcDbVisualStyle
  2
GouraudWithEdges
 70
     3
177
     2
291
     1
 71
     2
176
     1
 72
     2
176
     1
 73
     1
176
     1
 90
        2
176
     1
 40
-0.6
176
     1
 41
30.0
176
     1
 62
     5
 63
     7
421
 16777215
176
     1
 74
     1
176
     1
 91
        4
176
     1
 64
     7
176
     1
 65
   257
176
     1
 75
     1
176
     1
175
     1
176
     1
 42
1.0
176
     1
 92
        0
176
     1
 66
   257
176
     1
 43
1.0
176
     1
 76
     1
176
     1
 77
     6
176
     1
 78
     2
176
     1
 67
     7
176
     1
 79
     5
176
     1
170
     0
176
     1
171
     0
176
     1
290
     0
176
     1
 93
       13
176
     1
 44
0.0
176
     1
173
     0
176
     1
  0
VISUALSTYLE
  5
38
102
{ACAD_REACTORS
330
2A
102
}
330
2A
100
AcDbVisualStyle
  2
Linepattern
 70
    14
177
     2
291
     1
 71
     2
176
     1
 72
     2
176
     1
 73
     0
176
     1
 90
        0
176
     1
 40
-0.6
176
     1
 41
-30.0
176
     1
 62
     5
 63
     7
421
 16777215
176
     1
 74
     1
176
     1
 91
        4
176
     1
 64
     7
176
     1
 65
   257
176
     1
 75
     7
176
     1
175
     7
176
     1
 42
1.0
176
     1
 92
        8
176
     1
 66
     7
176
     1
 43
1.0
176
     1
 76
     1
176
     1
 77
     6
176
     1
 78
     2
176
     1
 67
     7
176
     1
 79
     5
176
     1
170
     0
176
     1
171
     0
176
     1
290
     0
176
     1
 93
        1
176
     1
 44
0.0
176
     1
173
     0
176
     1
  0
VISUALSTYLE
  5
33
102
{ACAD_REACTORS
330
2A
102
}
330
2A
100
AcDbVisualStyle
  2
Realistic
 70
     8
177
     2
291
     0
 71
     2
176
     1
 72
     2
176
     1
 73
     0
176
     1
 90
        0
176
     1
 40
-0.6
176
     1
 41
-30.0
176
     1
 62
     5
 63
     7
421
 16777215
176
     1
 74
     1
176
     1
 91
        0
176
     1
 64
     7
176
     1
 65
   257
176
     1
 75
     1
176
     1
175
     1
176
     1
 42
1.0
176
     1
 92
        8
176
     1
 66
     8
424
  7895160
176
     1
 43
1.0
176
     1
 76
     1
176
     1
 77
     6
176
     1
 78
     2
176
     1
 67
     7
176
     1
 79
     5
176
     1
170
     0
176
     1
171
     0
176
     1
290
     0
176
     1
 93
       13
176
     1
 44
0.0
176
     1
173
     0
176
     1
  0
VISUALSTYLE
  5
37
102
{ACAD_REACTORS
330
2A
102
}
330
2A
100
AcDbVisualStyle
  2
Thicken
 70
    13
177
     2
291
     1
 71
     2
176
     1
 72
     2
176
     1
 73
     0
176
     1
 90
        0
176
     1
 40
-0.6
176
     1
 41
-30.0
176
     1
 62
     5
 63
     7
421
 16777215
176
     1
 74
     1
176
     1
 91
        4
176
     1
 64
     7
176
     1
 65
   257
176
     1
 75
     1
176
     1
175
     1
176
     1
 42
1.0
176
     1
 92
       12
176
     1
 66
     7
176
     1
 43
1.0
176
     1
 76
     1
176
     1
 77
     6
176
     1
 78
     2
176
     1
 67
     7
176
     1
 79
     5
176
     1
170
     0
176
     1
171
     0
176
     1
290
     0
176
     1
 93
        1
176
     1
 44
0.0
176
     1
173
     0
176
     1
  0
ENDSEC
  0
EOF
