  0
SECTION
  2
HEADER
  9
$ACADVER
  1
AC1032
  9
$ACADMAINTVER
 90
      228
  9
$DWGCODEPAGE
  3
ANSI_1252
  9
$REQUIREDVERSIONS
160
                 0
  9
$INSBASE
 10
0.0
 20
0.0
 30
0.0
  9
$EXTMIN
 10
1.000000000000000E+20
 20
1.000000000000000E+20
 30
1.000000000000000E+20
  9
$EXTMAX
 10
-1.000000000000000E+20
 20
-1.000000000000000E+20
 30
-1.000000000000000E+20
  9
$LIMMIN
 10
0.0
 20
0.0
  9
$LIMMAX
 10
12.0
 20
9.0
  9
$ORTHOMODE
 70
     0
  9
$REGENMODE
 70
     1
  9
$FILLMODE
 70
     1
  9
$QTEXTMODE
 70
     0
  9
$MIRRTEXT
 70
     0
  9
$LTSCALE
 40
1.0
  9
$ATTMODE
 70
     1
  9
$TEXTSIZE
 40
0.2
  9
$TRACEWID
 40
0.05
  9
$TEXTSTYLE
  7
Standard
  9
$CLAYER
  8
0
  9
$CELTYPE
  6
ByLayer
  9
$CECOLOR
 62
   256
  9
$CELTSCALE
 40
1.0
  9
$DISPSILH
 70
     0
  9
$DIMSCALE
 40
1.0
  9
$DIMASZ
 40
0.18
  9
$DIMEXO
 40
0.0625
  9
$DIMDLI
 40
0.38
  9
$DIMRND
 40
0.0
  9
$DIMDLE
 40
0.0
  9
$DIMEXE
 40
0.18
  9
$DIMTP
 40
0.0
  9
$DIMTM
 40
0.0
  9
$DIMTXT
 40
0.18
  9
$DIMCEN
 40
0.09
  9
$DIMTSZ
 40
0.0
  9
$DIMTOL
 70
     0
  9
$DIMLIM
 70
     0
  9
$DIMTIH
 70
     1
  9
$DIMTOH
 70
     1
  9
$DIMSE1
 70
     0
  9
$DIMSE2
 70
     0
  9
$DIMTAD
 70
     0
  9
$DIMZIN
 70
     0
  9
$DIMBLK
  1

  9
$DIMASO
 70
     1
  9
$DIMSHO
 70
     1
  9
$DIMPOST
  1

  9
$DIMAPOST
  1

  9
$DIMALT
 70
     0
  9
$DIMALTD
 70
     2
  9
$DIMALTF
 40
25.4
  9
$DIMLFAC
 40
1.0
  9
$DIMTOFL
 70
     0
  9
$DIMTVP
 40
0.0
  9
$DIMTIX
 70
     0
  9
$DIMSOXD
 70
     0
  9
$DIMSAH
 70
     0
  9
$DIMBLK1
  1

  9
$DIMBLK2
  1

  9
$DIMSTYLE
  2
Standard
  9
$DIMCLRD
 70
     0
  9
$DIMCLRE
 70
     0
  9
$DIMCLRT
 70
     0
  9
$DIMTFAC
 40
1.0
  9
$DIMGAP
 40
0.09
  9
$DIMJUST
 70
     0
  9
$DIMSD1
 70
     0
  9
$DIMSD2
 70
     0
  9
$DIMTOLJ
 70
     1
  9
$DIMTZIN
 70
     0
  9
$DIMALTZ
 70
     0
  9
$DIMALTTZ
 70
     0
  9
$DIMUPT
 70
     0
  9
$DIMDEC
 70
     4
  9
$DIMTDEC
 70
     4
  9
$DIMALTU
 70
     2
  9
$DIMALTTD
 70
     2
  9
$DIMTXSTY
  7
Standard
  9
$DIMAUNIT
 70
     0
  9
$DIMADEC
 70
     0
  9
$DIMALTRND
 40
0.0
  9
$DIMAZIN
 70
     0
  9
$DIMDSEP
 70
    46
  9
$DIMATFIT
 70
     3
  9
$DIMFRAC
 70
     0
  9
$DIMLDRBLK
  1

  9
$DIMLUNIT
 70
     2
  9
$DIMLWD
 70
    -2
  9
$DIMLWE
 70
    -2
  9
$DIMTMOVE
 70
     0
  9
$DIMFXL
 40
1.0
  9
$DIMFXLON
 70
     0
  9
$DIMJOGANG
 40
0.7853981633974483
  9
$DIMTFILL
 70
     0
  9
$DIMTFILLCLR
 70
     0
  9
$DIMARCSYM
 70
     0
  9
$DIMLTYPE
  6

  9
$DIMLTEX1
  6

  9
$DIMLTEX2
  6

  9
$DIMTXTDIRECTION
 70
     0
  9
$LUNITS
 70
     2
  9
$LUPREC
 70
     4
  9
$SKETCHINC
 40
0.1
  9
$FILLETRAD
 40
0.0
  9
$AUNITS
 70
     0
  9
$AUPREC
 70
     0
  9
$MENU
  1
.
  9
$ELEVATION
 40
0.0
  9
$PELEVATION
 40
0.0
  9
$THICKNESS
 40
0.0
  9
$LIMCHECK
 70
     0
  9
$CHAMFERA
 40
0.0
  9
$CHAMFERB
 40
0.0
  9
$CHAMFERC
 40
0.0
  9
$CHAMFERD
 40
0.0
  9
$SKPOLY
 70
     0
  9
$TDCREATE
 40
2459860.626701389
  9
$TDUCREATE
 40
2459860.085034722
  9
$TDUPDATE
 40
2459860.626701389
  9
$TDUUPDATE
 40
2459860.085034722
  9
$TDINDWG
 40
0.0000000000
  9
$TDUSRTIMER
 40
0.0000000000
  9
$USRTIMER
 70
     1
  9
$ANGBASE
 50
0.0
  9
$ANGDIR
 70
     0
  9
$PDMODE
 70
     0
  9
$PDSIZE
 40
0.0
  9
$PLINEWID
 40
0.0
  9
$SPLFRAME
 70
     0
  9
$SPLINETYPE
 70
     6
  9
$SPLINESEGS
 70
     8
  9
$HANDSEED
  5
1DC
  9
$SURFTAB1
 70
     6
  9
$SURFTAB2
 70
     6
  9
$SURFTYPE
 70
     6
  9
$SURFU
 70
     6
  9
$SURFV
 70
     6
  9
$UCSBASE
  2

  9
$UCSNAME
  2

  9
$UCSORG
 10
0.0
 20
0.0
 30
0.0
  9
$UCSXDIR
 10
1.0
 20
0.0
 30
0.0
  9
$UCSYDIR
 10
0.0
 20
1.0
 30
0.0
  9
$UCSORTHOREF
  2

  9
$UCSORTHOVIEW
 70
     0
  9
$UCSORGTOP
 10
0.0
 20
0.0
 30
0.0
  9
$UCSORGBOTTOM
 10
0.0
 20
0.0
 30
0.0
  9
$UCSORGLEFT
 10
0.0
 20
0.0
 30
0.0
  9
$UCSORGRIGHT
 10
0.0
 20
0.0
 30
0.0
  9
$UCSORGFRONT
 10
0.0
 20
0.0
 30
0.0
  9
$UCSORGBACK
 10
0.0
 20
0.0
 30
0.0
  9
$PUCSBASE
  2

  9
$PUCSNAME
  2

  9
$PUCSORG
 10
0.0
 20
0.0
 30
0.0
  9
$PUCSXDIR
 10
1.0
 20
0.0
 30
0.0
  9
$PUCSYDIR
 10
0.0
 20
1.0
 30
0.0
  9
$PUCSORTHOREF
  2

  9
$PUCSORTHOVIEW
 70
     0
  9
$PUCSORGTOP
 10
0.0
 20
0.0
 30
0.0
  9
$PUCSORGBOTTOM
 10
0.0
 20
0.0
 30
0.0
  9
$PUCSORGLEFT
 10
0.0
 20
0.0
 30
0.0
  9
$PUCSORGRIGHT
 10
0.0
 20
0.0
 30
0.0
  9
$PUCSORGFRONT
 10
0.0
 20
0.0
 30
0.0
  9
$PUCSORGBACK
 10
0.0
 20
0.0
 30
0.0
  9
$USERI1
 70
     0
  9
$USERI2
 70
     0
  9
$USERI3
 70
     0
  9
$USERI4
 70
     0
  9
$USERI5
 70
     0
  9
$USERR1
 40
0.0
  9
$USERR2
 40
0.0
  9
$USERR3
 40
0.0
  9
$USERR4
 40
0.0
  9
$USERR5
 40
0.0
  9
$WORLDVIEW
 70
     1
  9
$SHADEDGE
 70
     3
  9
$SHADEDIF
 70
    70
  9
$TILEMODE
 70
     1
  9
$MAXACTVP
 70
    64
  9
$PINSBASE
 10
0.0
 20
0.0
 30
0.0
  9
$PLIMCHECK
 70
     0
  9
$PEXTMIN
 10
1.000000000000000E+20
 20
1.000000000000000E+20
 30
1.000000000000000E+20
  9
$PEXTMAX
 10
-1.000000000000000E+20
 20
-1.000000000000000E+20
 30
-1.000000000000000E+20
  9
$PLIMMIN
 10
0.0
 20
0.0
  9
$PLIMMAX
 10
12.0
 20
9.0
  9
$UNITMODE
 70
     0
  9
$VISRETAIN
 70
     1
  9
$PLINEGEN
 70
     0
  9
$PSLTSCALE
 70
     1
  9
$TREEDEPTH
 70
  3020
  9
$CMLSTYLE
  2
Standard
  9
$CMLJUST
 70
     0
  9
$CMLSCALE
 40
1.0
  9
$PROXYGRAPHICS
 70
     1
  9
$MEASUREMENT
 70
     0
  9
$CELWEIGHT
370
    -1
  9
$ENDCAPS
280
     0
  9
$JOINSTYLE
280
     0
  9
$LWDISPLAY
290
     1
  9
$INSUNITS
 70
     1
  9
$HYPERLINKBASE
  1

  9
$STYLESHEET
  1

  9
$XEDIT
290
     1
  9
$CEPSNTYPE
380
     0
  9
$PSTYLEMODE
290
     1
  9
$FINGERPRINTGUID
  2
{4AB380BD-33EC-CD4C-BE7C-0E55D2E7F885}
  9
$VERSIONGUID
  2
{078CAD0C-0BBC-4A4C-B4D4-093316E7764A}
  9
$EXTNAMES
290
     1
  9
$PSVPSCALE
 40
0.0
  9
$OLESTARTUP
290
     0
  9
$SORTENTS
280
   127
  9
$INDEXCTL
280
     0
  9
$HIDETEXT
280
     1
  9
$XCLIPFRAME
280
     2
  9
$HALOGAP
280
     0
  9
$OBSCOLOR
 70
   257
  9
$OBSLTYPE
280
     0
  9
$INTERSECTIONDISPLAY
280
     0
  9
$INTERSECTIONCOLOR
 70
   257
  9
$DIMASSOC
280
     2
  9
$PROJECTNAME
  1

  9
$CAMERADISPLAY
290
     0
  9
$LENSLENGTH
 40
50.0
  9
$CAMERAHEIGHT
 40
0.0
  9
$STEPSPERSEC
 40
2.0
  9
$STEPSIZE
 40
6.0
  9
$3DDWFPREC
 40
2.0
  9
$PSOLWIDTH
 40
0.25
  9
$PSOLHEIGHT
 40
4.0
  9
$LOFTANG1
 40
1.570796326794896
  9
$LOFTANG2
 40
1.570796326794896
  9
$LOFTMAG1
 40
0.0
  9
$LOFTMAG2
 40
0.0
  9
$LOFTPARAM
 70
     7
  9
$LOFTNORMALS
280
     1
  9
$LATITUDE
 40
37.795
  9
$LONGITUDE
 40
-122.394
  9
$NORTHDIRECTION
 40
0.0
  9
$TIMEZONE
 70
 -8000
  9
$LIGHTGLYPHDISPLAY
280
     1
  9
$TILEMODELIGHTSYNCH
280
     1
  9
$CMATERIAL
347
11
  9
$SOLIDHIST
280
     0
  9
$SHOWHIST
280
     1
  9
$DWFFRAME
280
     2
  9
$DGNFRAME
280
     0
  9
$REALWORLDSCALE
290
     1
  9
$INTERFERECOLOR
 62
     1
  9
$INTERFEREOBJVS
345
33
  9
$INTERFEREVPVS
346
30
  9
$CSHADOW
280
     0
  9
$SHADOWPLANELOCATION
 40
0.0
  0
ENDSEC
  0
SECTION
  2
CLASSES
  0
CLASS
  1
ACDBDICTIONARYWDFLT
  2
AcDbDictionaryWithDefault
  3
ObjectDBX Classes
 90
        0
 91
        1
280
     0
281
     0
  0
CLASS
  1
MATERIAL
  2
AcDbMaterial
  3
ObjectDBX Classes
 90
     1153
 91
        3
280
     0
281
     0
  0
CLASS
  1
VISUALSTYLE
  2
AcDbVisualStyle
  3
ObjectDBX Classes
 90
     4095
 91
       24
280
     0
281
     0
  0
CLASS
  1
SCALE
  2
AcDbScale
  3
ObjectDBX Classes
 90
     1153
 91
       17
280
     0
281
     0
  0
CLASS
  1
TABLESTYLE
  2
AcDbTableStyle
  3
ObjectDBX Classes
 90
     4095
 91
        1
280
     0
281
     0
  0
CLASS
  1
MLEADERSTYLE
  2
AcDbMLeaderStyle
  3
ACDB_MLEADERSTYLE_CLASS
 90
     4095
 91
        1
280
     0
281
     0
  0
CLASS
  1
ACDBSECTIONVIEWSTYLE
  2
AcDbSectionViewStyle
  3
ObjectDBX Classes
 90
     1025
 91
        1
280
     0
281
     0
  0
CLASS
  1
ACDBDETAILVIEWSTYLE
  2
AcDbDetailViewStyle
  3
ObjectDBX Classes
 90
     1025
 91
        1
280
     0
281
     0
  0
CLASS
  1
DICTIONARYVAR
  2
AcDbDictionaryVar
  3
ObjectDBX Classes
 90
        0
 91
        5
280
     0
281
     0
  0
CLASS
  1
CELLSTYLEMAP
  2
AcDbCellStyleMap
  3
ObjectDBX Classes
 90
     1152
 91
        1
280
     0
281
     0
  0
ENDSEC
  0
SECTION
  2
TABLES
  0
TABLE
  2
VPORT
  5
8
330
0
100
AcDbSymbolTable
 70
     1
  0
VPORT
  5
57
330
8
100
AcDbSymbolTableRecord
100
AcDbViewportTableRecord
  2
*Active
 70
     0
 10
0.0
 20
0.0
 11
1.0
 21
1.0
 12
0.0
 22
0.0
 13
0.0
 23
0.0
 14
1.0
 24
1.0
 15
0.0
 25
0.0
 16
0.0
 26
0.0
 36
1.0
 17
4.134607412258471
 27
6.030765666997644
 37
0.0
 40
11.9267716535433
 41
0.7070707070707066
 42
50.0
 43
0.0
 44
0.0
 50
0.0
 51
0.0
 71
     0
 72
   100
 73
     1
 74
     1
 75
     0
 76
     0
 77
     0
 78
     0
281
     0
 65
     1
110
0.0
120
0.0
130
0.0
111
1.0
121
0.0
131
0.0
112
0.0
122
1.0
132
0.0
 79
     0
146
0.0
 60
     3
 61
     5
292
     1
282
     1
141
0.0
142
0.0
 63
   250
421
  3355443
  0
ENDTAB
  0
TABLE
  2
LTYPE
  5
5
330
0
100
AcDbSymbolTable
 70
     1
  0
LTYPE
  5
5B
330
5
100
AcDbSymbolTableRecord
100
AcDbLinetypeTableRecord
  2
ByBlock
 70
     0
  3

 72
    65
 73
     0
 40
0.0
  0
LTYPE
  5
5C
330
5
100
AcDbSymbolTableRecord
100
AcDbLinetypeTableRecord
  2
ByLayer
 70
     0
  3

 72
    65
 73
     0
 40
0.0
  0
LTYPE
  5
5D
330
5
100
AcDbSymbolTableRecord
100
AcDbLinetypeTableRecord
  2
Continuous
 70
     0
  3
Solid line
 72
    65
 73
     0
 40
0.0
  0
ENDTAB
  0
TABLE
  2
LAYER
  5
2
330
0
100
AcDbSymbolTable
 70
     3
  0
LAYER
  5
54
330
2
100
AcDbSymbolTableRecord
100
AcDbLayerTableRecord
  2
0
 70
     0
 62
     7
  6
Continuous
370
    -3
390
F
347
21
348
0
  0
LAYER
  5
78
330
2
100
AcDbSymbolTableRecord
100
AcDbLayerTableRecord
  2
Layer 2
 70
     0
 62
     7
  6
Continuous
370
     0
390
F
347
21
348
0
  0
LAYER
  5
1C8
330
2
100
AcDbSymbolTableRecord
100
AcDbLayerTableRecord
  2
callout
 70
     0
 62
     7
  6
Continuous
370
     0
390
F
347
21
348
0
  0
ENDTAB
  0
TABLE
  2
STYLE
  5
3
330
0
100
AcDbSymbolTable
 70
     2
  0
STYLE
  5
55
330
3
100
AcDbSymbolTableRecord
100
AcDbTextStyleTableRecord
  2
Standard
 70
     0
 40
0.0
 41
1.0
 50
0.0
 71
     0
 42
0.2
  3
txt
  4

  0
STYLE
  5
5A
330
3
100
AcDbSymbolTableRecord
100
AcDbTextStyleTableRecord
  2
Annotative
 70
     0
 40
0.0
 41
1.0
 50
0.0
 71
     0
 42
0.2
  3
txt
  4

1001
AcadAnnotative
1000
AnnotativeData
1002
{
1070
     1
1070
     1
1002
}
  0
ENDTAB
  0
TABLE
  2
VIEW
  5
6
330
0
100
AcDbSymbolTable
 70
     0
  0
ENDTAB
  0
TABLE
  2
UCS
  5
7
330
0
100
AcDbSymbolTable
 70
     0
  0
ENDTAB
  0
TABLE
  2
APPID
  5
9
330
0
100
AcDbSymbolTable
 70
     2
  0
APPID
  5
56
330
9
100
AcDbSymbolTableRecord
100
AcDbRegAppTableRecord
  2
ACAD
 70
     0
  0
APPID
  5
5E
330
9
100
AcDbSymbolTableRecord
100
AcDbRegAppTableRecord
  2
AcadAnnotative
 70
     0
  0
ENDTAB
  0
TABLE
  2
DIMSTYLE
  5
A
330
0
100
AcDbSymbolTable
 70
     2
100
AcDbDimStyleTable
 71
     0
  0
DIMSTYLE
105
58
330
A
100
AcDbSymbolTableRecord
100
AcDbDimStyleTableRecord
  2
Standard
 70
     0
340
55
  0
DIMSTYLE
105
59
330
A
100
AcDbSymbolTableRecord
100
AcDbDimStyleTableRecord
  2
Annotative
 70
     0
340
55
1001
AcadAnnotative
1000
AnnotativeData
1002
{
1070
     1
1070
     1
1002
}
  0
ENDTAB
  0
TABLE
  2
BLOCK_RECORD
  5
1
330
0
100
AcDbSymbolTable
 70
     3
  0
BLOCK_RECORD
  5
70
330
1
100
AcDbSymbolTableRecord
100
AcDbBlockTableRecord
  2
*Model_Space
340
73
 70
     0
280
     1
281
     0
  0
BLOCK_RECORD
  5
6C
330
1
100
AcDbSymbolTableRecord
100
AcDbBlockTableRecord
  2
*Paper_Space
340
6F
 70
     0
280
     1
281
     0
  0
BLOCK_RECORD
  5
74
330
1
100
AcDbSymbolTableRecord
100
AcDbBlockTableRecord
  2
*Paper_Space0
340
77
 70
     0
280
     1
281
     0
  0
BLOCK_RECORD
  5
C3
330
1
100
AcDbSymbolTableRecord
100
AcDbBlockTableRecord
  2
Block_0
340
0
102
{BLKREFS
331
C4
102
}
 70
     0
280
     1
281
     0
  0
BLOCK_RECORD
  5
17F
330
1
100
AcDbSymbolTableRecord
100
AcDbBlockTableRecord
  2
Block_1
340
0
102
{BLKREFS
331
180
102
}
 70
     0
280
     1
281
     0
  0
ENDTAB
  0
ENDSEC
  0
SECTION
  2
BLOCKS
  0
BLOCK
  5
71
330
70
100
AcDbEntity
  8
0
100
AcDbBlockBegin
  2
*Model_Space
 70
     0
 10
0.0
 20
0.0
 30
0.0
  3
*Model_Space
  1

  0
ENDBLK
  5
72
330
70
100
AcDbEntity
  8
0
100
AcDbBlockEnd
  0
BLOCK
  5
6D
330
6C
100
AcDbEntity
 67
     1
  8
0
100
AcDbBlockBegin
  2
*Paper_Space
 70
     0
 10
0.0
 20
0.0
 30
0.0
  3
*Paper_Space
  1

  0
ENDBLK
  5
6E
330
6C
100
AcDbEntity
 67
     1
  8
0
100
AcDbBlockEnd
  0
BLOCK
  5
75
330
74
100
AcDbEntity
 67
     1
  8
0
100
AcDbBlockBegin
  2
*Paper_Space0
 70
     0
 10
0.0
 20
0.0
 30
0.0
  3
*Paper_Space0
  1

  0
ENDBLK
  5
76
330
74
100
AcDbEntity
 67
     1
  8
0
100
AcDbBlockEnd
  0
BLOCK
  5
C5
330
C3
100
AcDbEntity
  8
0
100
AcDbBlockBegin
  2
Block_0
 70
     0
 10
0.0
 20
0.0
 30
0.0
  3
Block_0
  1

  0
SPLINE
  5
C7
330
C3
100
AcDbEntity
  8
Layer 2
 62
   250
420
  2301728
370
    40
100
AcDbSpline
210
0.0
220
0.0
230
1.0
 70
     9
 71
     3
 72
    17
 73
    13
 74
     0
 42
0.0000000001
 43
0.0000000001
 40
0.0
 40
0.0
 40
0.0
 40
0.0
 40
1.0
 40
1.0
 40
1.0
 40
2.0
 40
2.0
 40
2.0
 40
3.0
 40
3.0
 40
3.0
 40
4.0
 40
4.0
 40
4.0
 40
4.0
 10
3.629029830069346
 20
8.820841581526412
 30
0.0
 10
3.63152566333963
 20
8.804669359712736
 30
0.0
 10
3.622453441346591
 20
8.789815193421317
 30
0.0
 10
3.608818719468811
 20
8.787747137918005
 30
0.0
 10
3.595172886480188
 20
8.785624915749394
 30
0.0
 10
3.582106220143625
 20
8.797074915460143
 30
0.0
 10
3.57961316465105
 20
8.813280470606324
 30
0.0
 10
3.577127053602755
 20
8.82948602575248
 30
0.0
 10
3.586156220041313
 20
8.844317969822238
 30
0.0
 10
3.599822886362731
 20
8.846406858658358
 30
0.0
 10
3.613488163795295
 20
8.848505469716453
 30
0.0
 10
3.626543719021039
 20
8.837058247783412
 30
0.0
 10
3.629029830069346
 20
8.820841581526412
 30
0.0
  0
SPLINE
  5
C8
330
C3
100
AcDbEntity
  8
Layer 2
 62
   250
420
  2301728
370
    40
100
AcDbSpline
210
0.0
220
0.0
230
1.0
 70
     8
 71
     3
 72
    14
 73
    10
 74
     0
 42
0.0000000001
 43
0.0000000001
 40
0.0
 40
0.0
 40
0.0
 40
0.0
 40
1.0
 40
1.0
 40
1.0
 40
2.0
 40
2.0
 40
2.0
 40
3.0
 40
3.0
 40
3.0
 40
3.0
 10
3.590836775478628
 20
8.842541580978224
 30
0.0
 10
3.593824361394025
 20
8.846717969761609
 30
0.0
 10
3.599629916949588
 20
8.848323525276605
 30
0.0
 10
3.604608997352935
 20
8.849716580796968
 30
0.0
 10
3.617943719238294
 20
8.853434636258599
 30
0.0
 10
3.632275663320683
 20
8.843634636506168
 30
0.0
 10
3.636667329876407
 20
8.827836025794162
 30
0.0
 10
3.641078440876084
 20
8.81204872490486
 30
0.0
 10
3.633858996614018
 20
8.796251304369837
 30
0.0
 10
3.620558996950004
 20
8.792523526686231
 30
0.0
  0
SPLINE
  5
C9
330
C3
100
AcDbEntity
  8
Layer 2
 62
   250
420
  2301728
370
    40
100
AcDbSpline
210
0.0
220
0.0
230
1.0
 70
     8
 71
     3
 72
    17
 73
    13
 74
     0
 42
0.0000000001
 43
0.0000000001
 40
0.0
 40
0.0
 40
0.0
 40
0.0
 40
1.0
 40
1.0
 40
1.0
 40
2.0
 40
2.0
 40
2.0
 40
3.0
 40
3.0
 40
3.0
 40
4.0
 40
4.0
 40
4.0
 40
4.0
 10
3.631247885568869
 20
8.837111025559856
 30
0.0
 10
3.631247885568869
 20
8.837111025559856
 30
0.0
 10
3.636185472505139
 20
8.83612630336251
 30
0.0
 10
3.636185472505139
 20
8.83612630336251
 30
0.0
 10
3.636185472505139
 20
8.83612630336251
 30
0.0
 10
3.650771496186772
 20
8.832195747906249
 30
0.0
 10
3.649079829562841
 20
8.812466581737982
 30
0.0
 10
3.649079829562841
 20
8.812466581737982
 30
0.0
 10
3.650407694727366
 20
8.790724915620558
 30
0.0
 10
3.634835385478241
 20
8.792951502682639
 30
0.0
 10
3.634835385478241
 20
8.792951502682639
 30
0.0
 10
3.623631219094615
 20
8.795298724904858
 30
0.0
 10
3.623631219094615
 20
8.795298724904858
 30
0.0
  0
SPLINE
  5
CA
330
C3
100
AcDbEntity
  8
Layer 2
 62
   250
420
  2301728
370
    40
100
AcDbSpline
210
0.0
220
0.0
230
1.0
 70
     8
 71
     3
 72
    17
 73
    13
 74
     0
 42
0.0000000001
 43
0.0000000001
 40
0.0
 40
0.0
 40
0.0
 40
0.0
 40
1.0
 40
1.0
 40
1.0
 40
2.0
 40
2.0
 40
2.0
 40
3.0
 40
3.0
 40
3.0
 40
4.0
 40
4.0
 40
4.0
 40
4.0
 10
3.585213250282915
 20
8.803309637524863
 30
0.0
 10
3.585213250282915
 20
8.803309637524863
 30
0.0
 10
3.582429831246549
 20
8.803394359744945
 30
0.0
 10
3.57961316465105
 20
8.806266581894607
 30
0.0
 10
3.576689553613795
 20
8.809243169349302
 30
0.0
 10
3.57373260924405
 20
8.815176303891751
 30
0.0
 10
3.57373260924405
 20
8.827012414703858
 30
0.0
 10
3.57373260924405
 20
8.827012414703858
 30
0.0
 10
3.574471498114272
 20
8.84738324752258
 30
0.0
 10
3.586679831139197
 20
8.84590408089328
 30
0.0
 10
3.586679831139197
 20
8.84590408089328
 30
0.0
 10
3.596213250282921
 20
8.844020947127091
 30
0.0
 10
3.596213250282921
 20
8.844020947127091
 30
0.0
  0
SPLINE
  5
CB
330
C3
100
AcDbEntity
  8
Layer 2
 62
   250
420
  2301728
370
    40
100
AcDbSpline
210
0.0
220
0.0
230
1.0
 70
     9
 71
     3
 72
    17
 73
    13
 74
     0
 42
0.0000000001
 43
0.0000000001
 40
0.0
 40
0.0
 40
0.0
 40
0.0
 40
1.0
 40
1.0
 40
1.0
 40
2.0
 40
2.0
 40
2.0
 40
3.0
 40
3.0
 40
3.0
 40
4.0
 40
4.0
 40
4.0
 40
4.0
 10
3.697564550560236
 20
9.059092964396565
 30
0.0
 10
3.700060472505141
 20
9.042919353694033
 30
0.0
 10
3.690999272948298
 20
9.028065187402615
 30
0.0
 10
3.677354828848554
 20
9.025986020788472
 30
0.0
 10
3.663710384748785
 20
9.023879076397253
 30
0.0
 10
3.650653440634199
 20
9.035337409441126
 30
0.0
 10
3.648147885141939
 20
9.051520947127086
 30
0.0
 10
3.645663162982486
 20
9.067748519733463
 30
0.0
 10
3.654702051643021
 20
9.082580463803221
 30
0.0
 10
3.668370106853305
 20
9.084667963750487
 30
0.0
 10
3.682013162064208
 20
9.086767963697448
 30
0.0
 10
3.695068717289952
 20
9.075308241764711
 30
0.0
 10
3.697564550560236
 20
9.059092964396565
 30
0.0
  0
SPLINE
  5
CC
330
C3
100
AcDbEntity
  8
Layer 2
 62
   250
420
  2301728
370
    40
100
AcDbSpline
210
0.0
220
0.0
230
1.0
 70
     8
 71
     3
 72
    14
 73
    10
 74
     0
 42
0.0000000001
 43
0.0000000001
 40
0.0
 40
0.0
 40
0.0
 40
0.0
 40
1.0
 40
1.0
 40
1.0
 40
2.0
 40
2.0
 40
2.0
 40
3.0
 40
3.0
 40
3.0
 40
3.0
 10
3.659371495969518
 20
9.080804074959207
 30
0.0
 10
3.662358995894035
 20
9.084980463742592
 30
0.0
 10
3.668165940191796
 20
9.086586019257588
 30
0.0
 10
3.673145106732679
 20
9.08795685255629
 30
0.0
 10
3.686470106396061
 20
9.091684630239898
 30
0.0
 10
3.700810472505142
 20
9.081873519376635
 30
0.0
 10
3.70521325028292
 20
9.066098519775145
 30
0.0
 10
3.709624272477804
 20
9.050309631285118
 30
0.0
 10
3.702406217104591
 20
9.034490187240306
 30
0.0
 10
3.689104828551724
 20
9.030786020667214
 30
0.0
  0
SPLINE
  5
CD
330
C3
100
AcDbEntity
  8
Layer 2
 62
   250
420
  2301728
370
    40
100
AcDbSpline
210
0.0
220
0.0
230
1.0
 70
     8
 71
     3
 72
    17
 73
    13
 74
     0
 42
0.0000000001
 43
0.0000000001
 40
0.0
 40
0.0
 40
0.0
 40
0.0
 40
1.0
 40
1.0
 40
1.0
 40
2.0
 40
2.0
 40
2.0
 40
3.0
 40
3.0
 40
3.0
 40
4.0
 40
4.0
 40
4.0
 40
4.0
 10
3.699782694727357
 20
9.075361019541155
 30
0.0
 10
3.699782694727357
 20
9.075361019541155
 30
0.0
 10
3.704720105935027
 20
9.07438740845464
 30
0.0
 10
3.704720105935027
 20
9.07438740845464
 30
0.0
 10
3.704720105935027
 20
9.07438740845464
 30
0.0
 10
3.719295105566831
 20
9.070456852998377
 30
0.0
 10
3.717627050053414
 20
9.050729280460421
 30
0.0
 10
3.717627050053414
 20
9.050729280460421
 30
0.0
 10
3.718931216687135
 20
9.028976298490709
 30
0.0
 10
3.703381217079961
 20
9.031202687323355
 30
0.0
 10
3.703381217079961
 20
9.031202687323355
 30
0.0
 10
3.692165939585505
 20
9.033561020597112
 30
0.0
 10
3.692165939585505
 20
9.033561020597112
 30
0.0
  0
SPLINE
  5
CE
330
C3
100
AcDbEntity
  8
Layer 2
 62
   250
420
  2301728
370
    40
100
AcDbSpline
210
0.0
220
0.0
230
1.0
 70
     8
 71
     3
 72
    17
 73
    13
 74
     0
 42
0.0000000001
 43
0.0000000001
 40
0.0
 40
0.0
 40
0.0
 40
0.0
 40
1.0
 40
1.0
 40
1.0
 40
2.0
 40
2.0
 40
2.0
 40
3.0
 40
3.0
 40
3.0
 40
4.0
 40
4.0
 40
4.0
 40
4.0
 10
3.653758996111302
 20
9.041570742617004
 30
0.0
 10
3.653758996111302
 20
9.041570742617004
 30
0.0
 10
3.650975662848281
 20
9.041656853725926
 30
0.0
 10
3.648147885141939
 20
9.044527686986738
 30
0.0
 10
3.645235385215515
 20
9.047493169349309
 30
0.0
 10
3.642267329734939
 20
9.05342629787305
 30
0.0
 10
3.642267329734939
 20
9.065273519795987
 30
0.0
 10
3.642267329734939
 20
9.065273519795987
 30
0.0
 10
3.643017329716005
 20
9.085644352614709
 30
0.0
 10
3.655225662740917
 20
9.084155463763433
 30
0.0
 10
3.655225662740917
 20
9.084155463763433
 30
0.0
 10
3.664736773611757
 20
9.082281852699653
 30
0.0
 10
3.664736773611757
 20
9.082281852699653
 30
0.0
  0
SPLINE
  5
CF
330
C3
100
AcDbEntity
  8
Layer 2
 62
   250
420
  2301728
370
    40
100
AcDbSpline
210
0.0
220
0.0
230
1.0
 70
     9
 71
     3
 72
    17
 73
    13
 74
     0
 42
0.0000000001
 43
0.0000000001
 40
0.0
 40
0.0
 40
0.0
 40
0.0
 40
1.0
 40
1.0
 40
1.0
 40
2.0
 40
2.0
 40
2.0
 40
3.0
 40
3.0
 40
3.0
 40
4.0
 40
4.0
 40
4.0
 40
4.0
 10
3.973539543588533
 20
9.018127687653658
 30
0.0
 10
3.976043710191927
 20
9.001944354729149
 30
0.0
 10
3.966963250282914
 20
8.987098521770853
 30
0.0
 10
3.953339544098816
 20
8.985020947127091
 30
0.0
 10
3.939693711110205
 20
8.982899910765809
 30
0.0
 10
3.926627044773617
 20
8.994361021587387
 30
0.0
 10
3.924120100392517
 20
9.010552687845018
 30
0.0
 10
3.921636767121917
 20
9.026769354102016
 30
0.0
 10
3.930675655782478
 20
9.04160428046042
 30
0.0
 10
3.94436315543669
 20
9.043702687007579
 30
0.0
 10
3.9580089884253
 20
9.045791575843697
 30
0.0
 10
3.971053432540227
 20
9.034330465022119
 30
0.0
 10
3.973539543588533
 20
9.018127687653658
 30
0.0
  0
SPLINE
  5
D0
330
C3
100
AcDbEntity
  8
Layer 2
 62
   250
420
  2301728
370
    40
100
AcDbSpline
210
0.0
220
0.0
230
1.0
 70
     8
 71
     3
 72
    14
 73
    10
 74
     0
 42
0.0000000001
 43
0.0000000001
 40
0.0
 40
0.0
 40
0.0
 40
0.0
 40
1.0
 40
1.0
 40
1.0
 40
2.0
 40
2.0
 40
2.0
 40
3.0
 40
3.0
 40
3.0
 40
3.0
 10
3.935366028060697
 20
9.039836020438592
 30
0.0
 10
3.938345100033163
 20
9.044001298111146
 30
0.0
 10
3.94414787766435
 20
9.04560963140385
 30
0.0
 10
3.949140933093783
 20
9.046991575813382
 30
0.0
 10
3.962464543868311
 20
9.050717964608136
 30
0.0
 10
3.97679371017298
 20
9.040906853744873
 30
0.0
 10
3.981185472505141
 20
9.025119354143713
 30
0.0
 10
3.985597876617235
 20
9.009344354542209
 30
0.0
 10
3.978399265687976
 20
8.993524910497399
 30
0.0
 10
3.965077043802302
 20
8.989806855035768
 30
0.0
  0
SPLINE
  5
D1
330
C3
100
AcDbEntity
  8
Layer 2
 62
   250
420
  2301728
370
    40
100
AcDbSpline
210
0.0
220
0.0
230
1.0
 70
     8
 71
     3
 72
    17
 73
    13
 74
     0
 42
0.0000000001
 43
0.0000000001
 40
0.0
 40
0.0
 40
0.0
 40
0.0
 40
1.0
 40
1.0
 40
1.0
 40
2.0
 40
2.0
 40
2.0
 40
3.0
 40
3.0
 40
3.0
 40
4.0
 40
4.0
 40
4.0
 40
4.0
 10
3.975764543532325
 20
9.034384631687418
 30
0.0
 10
3.975764543532325
 20
9.034384631687418
 30
0.0
 10
3.98071325028291
 20
9.033409836015973
 30
0.0
 10
3.98071325028291
 20
9.033409836015973
 30
0.0
 10
3.98071325028291
 20
9.033409836015973
 30
0.0
 10
3.995281209705947
 20
9.029488798477762
 30
0.0
 10
3.993608987525968
 20
9.009749910087521
 30
0.0
 10
3.993608987525968
 20
9.009749910087521
 30
0.0
 10
3.994915931937397
 20
8.988008243970094
 30
0.0
 10
3.979364543441369
 20
8.990237410580448
 30
0.0
 10
3.979364543441369
 20
8.990237410580448
 30
0.0
 10
3.968160377057756
 20
8.992581854965665
 30
0.0
 10
3.968160377057756
 20
8.992581854965665
 30
0.0
  0
SPLINE
  5
D2
330
C3
100
AcDbEntity
  8
Layer 2
 62
   250
420
  2301728
370
    40
100
AcDbSpline
210
0.0
220
0.0
230
1.0
 70
     8
 71
     3
 72
    17
 73
    13
 74
     0
 42
0.0000000001
 43
0.0000000001
 40
0.0
 40
0.0
 40
0.0
 40
0.0
 40
1.0
 40
1.0
 40
1.0
 40
2.0
 40
2.0
 40
2.0
 40
3.0
 40
3.0
 40
3.0
 40
4.0
 40
4.0
 40
4.0
 40
4.0
 10
3.929754916949579
 20
9.000604280460416
 30
0.0
 10
3.929754916949579
 20
9.000604280460416
 30
0.0
 10
3.926968711431666
 20
9.000677688094482
 30
0.0
 10
3.924120100392517
 20
9.003559632466123
 30
0.0
 10
3.9212284337989
 20
9.006526299057844
 30
0.0
 10
3.918252044985213
 20
9.012461021130143
 30
0.0
 10
3.918252044985213
 20
9.024305465275372
 30
0.0
 10
3.918252044985213
 20
9.024305465275372
 30
0.0
 10
3.9190006560774
 20
9.044666575872117
 30
0.0
 10
3.931211766880032
 20
9.043176298131987
 30
0.0
 10
3.931211766880032
 20
9.043176298131987
 30
0.0
 10
3.940722877750873
 20
9.041313798179038
 30
0.0
 10
3.940722877750873
 20
9.041313798179038
 30
0.0
  0
SPLINE
  5
D3
330
C3
100
AcDbEntity
  8
Layer 2
 62
   250
420
  2301728
370
    40
100
AcDbSpline
210
0.0
220
0.0
230
1.0
 70
     9
 71
     3
 72
    17
 73
    13
 74
     0
 42
0.0000000001
 43
0.0000000001
 40
0.0
 40
0.0
 40
0.0
 40
0.0
 40
1.0
 40
1.0
 40
1.0
 40
2.0
 40
2.0
 40
2.0
 40
3.0
 40
3.0
 40
3.0
 40
4.0
 40
4.0
 40
4.0
 40
4.0
 10
3.902378434275091
 20
8.782038804728875
 30
0.0
 10
3.904885378656204
 20
8.765866582915197
 30
0.0
 10
3.895802045552335
 20
8.751009638846072
 30
0.0
 10
3.882178434785386
 20
8.748944361120468
 30
0.0
 10
3.868535379574483
 20
8.74682352784071
 30
0.0
 10
3.855465935460188
 20
8.758272138662606
 30
0.0
 10
3.852961768856794
 20
8.774466582697943
 30
0.0
 10
3.850475657808487
 20
8.79068186006609
 30
0.0
 10
3.859515935357888
 20
8.805515193024701
 30
0.0
 10
3.873182601679306
 20
8.80760428046042
 30
0.0
 10
3.88684787911187
 20
8.809702692918916
 30
0.0
 10
3.899892323226797
 20
8.798252693208167
 30
0.0
 10
3.902378434275091
 20
8.782038804728875
 30
0.0
  0
SPLINE
  5
D4
330
C3
100
AcDbEntity
  8
Layer 2
 62
   250
420
  2301728
370
    40
100
AcDbSpline
210
0.0
220
0.0
230
1.0
 70
     8
 71
     3
 72
    14
 73
    10
 74
     0
 42
0.0000000001
 43
0.0000000001
 40
0.0
 40
0.0
 40
0.0
 40
0.0
 40
1.0
 40
1.0
 40
1.0
 40
2.0
 40
2.0
 40
2.0
 40
3.0
 40
3.0
 40
3.0
 40
3.0
 10
3.864185472505141
 20
8.803737415291834
 30
0.0
 10
3.867183990719733
 20
8.807915192964072
 30
0.0
 10
3.872989546128628
 20
8.809520947127086
 30
0.0
 10
3.87795760155868
 20
8.810902692888602
 30
0.0
 10
3.891283990110915
 20
8.814619359461378
 30
0.0
 10
3.905635378637258
 20
8.804817970820092
 30
0.0
 10
3.910027045192982
 20
8.789031860107773
 30
0.0
 10
3.914438156192671
 20
8.773245749395451
 30
0.0
 10
3.907218711930593
 20
8.7574485275723
 30
0.0
 10
3.893917323377725
 20
8.753720749888694
 30
0.0
  0
SPLINE
  5
D5
330
C3
100
AcDbEntity
  8
Layer 2
 62
   250
420
  2301728
370
    40
100
AcDbSpline
210
0.0
220
0.0
230
1.0
 70
     8
 71
     3
 72
    17
 73
    13
 74
     0
 42
0.0000000001
 43
0.0000000001
 40
0.0
 40
0.0
 40
0.0
 40
0.0
 40
1.0
 40
1.0
 40
1.0
 40
2.0
 40
2.0
 40
2.0
 40
3.0
 40
3.0
 40
3.0
 40
4.0
 40
4.0
 40
4.0
 40
4.0
 10
3.904606211996603
 20
8.798308248762319
 30
0.0
 10
3.904606211996603
 20
8.798308248762319
 30
0.0
 10
3.909554822982689
 20
8.797320748787265
 30
0.0
 10
3.909554822982689
 20
8.797320748787265
 30
0.0
 10
3.909554822982689
 20
8.797320748787265
 30
0.0
 10
3.924120100392517
 20
8.793390193331005
 30
0.0
 10
3.922450655990246
 20
8.773662416051593
 30
0.0
 10
3.922450655990246
 20
8.773662416051593
 30
0.0
 10
3.92375621151282
 20
8.751909836015972
 30
0.0
 10
3.908203434127939
 20
8.754138805433688
 30
0.0
 10
3.908203434127939
 20
8.754138805433688
 30
0.0
 10
3.897002045522033
 20
8.756494360929739
 30
0.0
 10
3.897002045522033
 20
8.756494360929739
 30
0.0
  0
SPLINE
  5
D6
330
C3
100
AcDbEntity
  8
Layer 2
 62
   250
420
  2301728
370
    40
100
AcDbSpline
210
0.0
220
0.0
230
1.0
 70
     8
 71
     3
 72
    17
 73
    13
 74
     0
 42
0.0000000001
 43
0.0000000001
 40
0.0
 40
0.0
 40
0.0
 40
0.0
 40
1.0
 40
1.0
 40
1.0
 40
2.0
 40
2.0
 40
2.0
 40
3.0
 40
3.0
 40
3.0
 40
4.0
 40
4.0
 40
4.0
 40
4.0
 10
3.858574361394023
 20
8.764507058238198
 30
0.0
 10
3.858574361394023
 20
8.764507058238198
 30
0.0
 10
3.855788157674282
 20
8.764592971836261
 30
0.0
 10
3.852961768856794
 20
8.767461027319363
 30
0.0
 10
3.850047880041516
 20
8.77044019391077
 30
0.0
 10
3.847092324560624
 20
8.776362415983385
 30
0.0
 10
3.847092324560624
 20
8.788206860128614
 30
0.0
 10
3.847092324560624
 20
8.788206860128614
 30
0.0
 10
3.847842324541677
 20
8.808577692947336
 30
0.0
 10
3.86005065756659
 20
8.80709991520689
 30
0.0
 10
3.86005065756659
 20
8.80709991520689
 30
0.0
 10
3.869561768437442
 20
8.805215391571525
 30
0.0
 10
3.869561768437442
 20
8.805215391571525
 30
0.0
  0
ENDBLK
  5
C6
330
C3
100
AcDbEntity
  8
0
100
AcDbBlockEnd
  0
BLOCK
  5
181
330
17F
100
AcDbEntity
  8
0
100
AcDbBlockBegin
  2
Block_1
 70
     0
 10
0.0
 20
0.0
 30
0.0
  3
Block_1
  1

  0
SPLINE
  5
183
330
17F
100
AcDbEntity
  8
Layer 2
 62
   250
420
  2301728
370
    40
100
AcDbSpline
210
0.0
220
0.0
230
1.0
 70
     9
 71
     3
 72
    17
 73
    13
 74
     0
 42
0.0000000001
 43
0.0000000001
 40
0.0
 40
0.0
 40
0.0
 40
0.0
 40
1.0
 40
1.0
 40
1.0
 40
2.0
 40
2.0
 40
2.0
 40
3.0
 40
3.0
 40
3.0
 40
4.0
 40
4.0
 40
4.0
 40
4.0
 10
3.629029830069346
 20
4.328751417228381
 30
0.0
 10
3.63152566333963
 20
4.312598639858657
 30
0.0
 10
3.622453441346591
 20
4.297733362456407
 30
0.0
 10
3.608818719468811
 20
4.295676418063925
 30
0.0
 10
3.595172886480188
 20
4.293534836015977
 30
0.0
 10
3.582106220143625
 20
4.304994473384087
 30
0.0
 10
3.57961316465105
 20
4.321209750752233
 30
0.0
 10
3.577127053602755
 20
4.337383361454763
 30
0.0
 10
3.586156220041313
 20
4.352248638857013
 30
0.0
 10
3.599822886362731
 20
4.354327805471156
 30
0.0
 10
3.613488163795295
 20
4.356426416529251
 30
0.0
 10
3.626543719021039
 20
4.3449653915715
 30
0.0
 10
3.629029830069346
 20
4.328751417228381
 30
0.0
  0
SPLINE
  5
184
330
17F
100
AcDbEntity
  8
Layer 2
 62
   250
420
  2301728
370
    40
100
AcDbSpline
210
0.0
220
0.0
230
1.0
 70
     8
 71
     3
 72
    14
 73
    10
 74
     0
 42
0.0000000001
 43
0.0000000001
 40
0.0
 40
0.0
 40
0.0
 40
0.0
 40
1.0
 40
1.0
 40
1.0
 40
2.0
 40
2.0
 40
2.0
 40
3.0
 40
3.0
 40
3.0
 40
3.0
 10
3.590836775478628
 20
4.350470861124145
 30
0.0
 10
3.593824361394025
 20
4.354626416574723
 30
0.0
 10
3.599629916949588
 20
4.356255583200233
 30
0.0
 10
3.604608997352935
 20
4.357626416498937
 30
0.0
 10
3.617943719238294
 20
4.361352805293689
 30
0.0
 10
3.632275663320683
 20
4.351563916652088
 30
0.0
 10
3.636667329876407
 20
4.335755583718107
 30
0.0
 10
3.641078440876084
 20
4.319947250784126
 30
0.0
 10
3.633858996614018
 20
4.304161140071806
 30
0.0
 10
3.620558996950004
 20
4.300454195721006
 30
0.0
  0
SPLINE
  5
185
330
17F
100
AcDbEntity
  8
Layer 2
 62
   250
420
  2301728
370
    40
100
AcDbSpline
210
0.0
220
0.0
230
1.0
 70
     8
 71
     3
 72
    17
 73
    13
 74
     0
 42
0.0000000001
 43
0.0000000001
 40
0.0
 40
0.0
 40
0.0
 40
0.0
 40
1.0
 40
1.0
 40
1.0
 40
2.0
 40
2.0
 40
2.0
 40
3.0
 40
3.0
 40
3.0
 40
4.0
 40
4.0
 40
4.0
 40
4.0
 10
3.631247885568869
 20
4.345029194594947
 30
0.0
 10
3.631247885568869
 20
4.345029194594947
 30
0.0
 10
3.636185472505139
 20
4.344066694619262
 30
0.0
 10
3.636185472505139
 20
4.344066694619262
 30
0.0
 10
3.636185472505139
 20
4.344066694619262
 30
0.0
 10
3.650771496186772
 20
4.340102805830509
 30
0.0
 10
3.649079829562841
 20
4.320375028551097
 30
0.0
 10
3.649079829562841
 20
4.320375028551097
 30
0.0
 10
3.650407694727366
 20
4.298633362433671
 30
0.0
 10
3.634835385478241
 20
4.300880584599124
 30
0.0
 10
3.634835385478241
 20
4.300880584599124
 30
0.0
 10
3.623631219094615
 20
4.303195862318412
 30
0.0
 10
3.623631219094615
 20
4.303195862318412
 30
0.0
  0
SPLINE
  5
186
330
17F
100
AcDbEntity
  8
Layer 2
 62
   250
420
  2301728
370
    40
100
AcDbSpline
210
0.0
220
0.0
230
1.0
 70
     8
 71
     3
 72
    17
 73
    13
 74
     0
 42
0.0000000001
 43
0.0000000001
 40
0.0
 40
0.0
 40
0.0
 40
0.0
 40
1.0
 40
1.0
 40
1.0
 40
2.0
 40
2.0
 40
2.0
 40
3.0
 40
3.0
 40
3.0
 40
4.0
 40
4.0
 40
4.0
 40
4.0
 10
3.585213250282915
 20
4.311205584338292
 30
0.0
 10
3.585213250282915
 20
4.311205584338292
 30
0.0
 10
3.582429831246549
 20
4.311293084336082
 30
0.0
 10
3.57961316465105
 20
4.314184750929699
 30
0.0
 10
3.576689553613795
 20
4.317161139743398
 30
0.0
 10
3.57373260924405
 20
4.323094472926842
 30
0.0
 10
3.57373260924405
 20
4.334941694849779
 30
0.0
 10
3.57373260924405
 20
4.334941694849779
 30
0.0
 10
3.574471498114272
 20
4.355312613793759
 30
0.0
 10
3.586679831139197
 20
4.353812613793757
 30
0.0
 10
3.586679831139197
 20
4.353812613793757
 30
0.0
 10
3.596213250282921
 20
4.351950027753446
 30
0.0
 10
3.596213250282921
 20
4.351950027753446
 30
0.0
  0
SPLINE
  5
187
330
17F
100
AcDbEntity
  8
Layer 2
 62
   250
420
  2301728
370
    40
100
AcDbSpline
210
0.0
220
0.0
230
1.0
 70
     9
 71
     3
 72
    17
 73
    13
 74
     0
 42
0.0000000001
 43
0.0000000001
 40
0.0
 40
0.0
 40
0.0
 40
0.0
 40
1.0
 40
1.0
 40
1.0
 40
2.0
 40
2.0
 40
2.0
 40
3.0
 40
3.0
 40
3.0
 40
4.0
 40
4.0
 40
4.0
 40
4.0
 10
3.697564550560236
 20
4.567033355653316
 30
0.0
 10
3.700060472505141
 20
4.550819467174025
 30
0.0
 10
3.690999272948298
 20
4.535973634215729
 30
0.0
 10
3.677354828848554
 20
4.533895947127095
 30
0.0
 10
3.663710384748785
 20
4.531797245432344
 30
0.0
 10
3.650653440634199
 20
4.543258356253923
 30
0.0
 10
3.648147885141939
 20
4.559450022511555
 30
0.0
 10
3.645663162982486
 20
4.575666688768554
 30
0.0
 10
3.654702051643021
 20
4.590509743949142
 30
0.0
 10
3.668370106853305
 20
4.592588910563285
 30
0.0
 10
3.682013162064208
 20
4.594688910510234
 30
0.0
 10
3.695068717289952
 20
4.583227799688655
 30
0.0
 10
3.697564550560236
 20
4.567033355653316
 30
0.0
  0
SPLINE
  5
188
330
17F
100
AcDbEntity
  8
Layer 2
 62
   250
420
  2301728
370
    40
100
AcDbSpline
210
0.0
220
0.0
230
1.0
 70
     8
 71
     3
 72
    14
 73
    10
 74
     0
 42
0.0000000001
 43
0.0000000001
 40
0.0
 40
0.0
 40
0.0
 40
0.0
 40
1.0
 40
1.0
 40
1.0
 40
2.0
 40
2.0
 40
2.0
 40
3.0
 40
3.0
 40
3.0
 40
3.0
 10
3.659371495969518
 20
4.588711132883468
 30
0.0
 10
3.662358995894035
 20
4.592909836015981
 30
0.0
 10
3.668165940191796
 20
4.594473632737895
 30
0.0
 10
3.673145106732679
 20
4.595866688258259
 30
0.0
 10
3.686470106396061
 20
4.599593077053011
 30
0.0
 10
3.700810472505142
 20
4.589802799522557
 30
0.0
 10
3.70521325028292
 20
4.574016688810236
 30
0.0
 10
3.709624272477804
 20
4.558230578097916
 30
0.0
 10
3.702406217104591
 20
4.542422245163934
 30
0.0
 10
3.689104828551724
 20
4.538715391571511
 30
0.0
  0
SPLINE
  5
189
330
17F
100
AcDbEntity
  8
Layer 2
 62
   250
420
  2301728
370
    40
100
AcDbSpline
210
0.0
220
0.0
230
1.0
 70
     8
 71
     3
 72
    17
 73
    13
 74
     0
 42
0.0000000001
 43
0.0000000001
 40
0.0
 40
0.0
 40
0.0
 40
0.0
 40
1.0
 40
1.0
 40
1.0
 40
2.0
 40
2.0
 40
2.0
 40
3.0
 40
3.0
 40
3.0
 40
4.0
 40
4.0
 40
4.0
 40
4.0
 10
3.699782694727357
 20
4.58329168857593
 30
0.0
 10
3.699782694727357
 20
4.58329168857593
 30
0.0
 10
3.704720105935027
 20
4.582284836015938
 30
0.0
 10
3.704720105935027
 20
4.582284836015938
 30
0.0
 10
3.704720105935027
 20
4.582284836015938
 30
0.0
 10
3.719295105566831
 20
4.578363910922639
 30
0.0
 10
3.717627050053414
 20
4.558658355864887
 30
0.0
 10
3.717627050053414
 20
4.558658355864887
 30
0.0
 10
3.718931216687135
 20
4.5368944675258
 30
0.0
 10
3.703381217079961
 20
4.539101411914493
 30
0.0
 10
3.703381217079961
 20
4.539101411914493
 30
0.0
 10
3.692165939585505
 20
4.541479280460407
 30
0.0
 10
3.692165939585505
 20
4.541479280460407
 30
0.0
  0
SPLINE
  5
18A
330
17F
100
AcDbEntity
  8
Layer 2
 62
   250
420
  2301728
370
    40
100
AcDbSpline
210
0.0
220
0.0
230
1.0
 70
     8
 71
     3
 72
    17
 73
    13
 74
     0
 42
0.0000000001
 43
0.0000000001
 40
0.0
 40
0.0
 40
0.0
 40
0.0
 40
1.0
 40
1.0
 40
1.0
 40
2.0
 40
2.0
 40
2.0
 40
3.0
 40
3.0
 40
3.0
 40
4.0
 40
4.0
 40
4.0
 40
4.0
 10
3.653758996111302
 20
4.549490300540936
 30
0.0
 10
3.653758996111302
 20
4.549490300540936
 30
0.0
 10
3.650975662848281
 20
4.549575022761018
 30
0.0
 10
3.648147885141939
 20
4.552445856021828
 30
0.0
 10
3.645235385215515
 20
4.555423724904863
 30
0.0
 10
3.642267329734939
 20
4.561336133575019
 30
0.0
 10
3.642267329734939
 20
4.573181966609101
 30
0.0
 10
3.642267329734939
 20
4.573181966609101
 30
0.0
 10
3.643017329716005
 20
4.593552799427824
 30
0.0
 10
3.655225662740917
 20
4.592095855020184
 30
0.0
 10
3.655225662740917
 20
4.592095855020184
 30
0.0
 10
3.664736773611757
 20
4.590188910623914
 30
0.0
 10
3.664736773611757
 20
4.590188910623914
 30
0.0
  0
SPLINE
  5
18B
330
17F
100
AcDbEntity
  8
Layer 2
 62
   250
420
  2301728
370
    40
100
AcDbSpline
210
0.0
220
0.0
230
1.0
 70
     9
 71
     3
 72
    17
 73
    13
 74
     0
 42
0.0000000001
 43
0.0000000001
 40
0.0
 40
0.0
 40
0.0
 40
0.0
 40
1.0
 40
1.0
 40
1.0
 40
2.0
 40
2.0
 40
2.0
 40
3.0
 40
3.0
 40
3.0
 40
4.0
 40
4.0
 40
4.0
 40
4.0
 10
3.973539543588533
 20
4.494804190811312
 30
0.0
 10
3.976043710191927
 20
4.478609746775974
 30
0.0
 10
3.966963250282914
 20
4.463763913817678
 30
0.0
 10
3.953339544098816
 20
4.461687613793754
 30
0.0
 10
3.939693711110205
 20
4.459587525034294
 30
0.0
 10
3.926627044773617
 20
4.471026413634212
 30
0.0
 10
3.924120100392517
 20
4.48722085766955
 30
0.0
 10
3.921636767121917
 20
4.503413912816035
 30
0.0
 10
3.930675655782478
 20
4.518258356885477
 30
0.0
 10
3.94436315543669
 20
4.520358356832426
 30
0.0
 10
3.9580089884253
 20
4.522456967890522
 30
0.0
 10
3.971053432540227
 20
4.510995857068943
 30
0.0
 10
3.973539543588533
 20
4.494804190811312
 30
0.0
  0
SPLINE
  5
18C
330
17F
100
AcDbEntity
  8
Layer 2
 62
   250
420
  2301728
370
    40
100
AcDbSpline
210
0.0
220
0.0
230
1.0
 70
     8
 71
     3
 72
    14
 73
    10
 74
     0
 42
0.0000000001
 43
0.0000000001
 40
0.0
 40
0.0
 40
0.0
 40
0.0
 40
1.0
 40
1.0
 40
1.0
 40
2.0
 40
2.0
 40
2.0
 40
3.0
 40
3.0
 40
3.0
 40
3.0
 10
3.935366028060697
 20
4.516501412485417
 30
0.0
 10
3.938345100033163
 20
4.520680579046508
 30
0.0
 10
3.94414787766435
 20
4.522263912339844
 30
0.0
 10
3.949140933093783
 20
4.523656967860207
 30
0.0
 10
3.962464543868311
 20
4.527405578876621
 30
0.0
 10
3.97679371017298
 20
4.517575023569406
 30
0.0
 10
3.981185472505141
 20
4.501808357301039
 30
0.0
 10
3.985597876617235
 20
4.486020947127093
 30
0.0
 10
3.978399265687976
 20
4.470169469211415
 30
0.0
 10
3.965077043802302
 20
4.46646391374947
 30
0.0
  0
SPLINE
  5
18D
330
17F
100
AcDbEntity
  8
Layer 2
 62
   250
420
  2301728
370
    40
100
AcDbSpline
210
0.0
220
0.0
230
1.0
 70
     8
 71
     3
 72
    17
 73
    13
 74
     0
 42
0.0000000001
 43
0.0000000001
 40
0.0
 40
0.0
 40
0.0
 40
0.0
 40
1.0
 40
1.0
 40
1.0
 40
2.0
 40
2.0
 40
2.0
 40
3.0
 40
3.0
 40
3.0
 40
4.0
 40
4.0
 40
4.0
 40
4.0
 10
3.975764543532325
 20
4.511062613793758
 30
0.0
 10
3.975764543532325
 20
4.511062613793758
 30
0.0
 10
3.98071325028291
 20
4.510097245980532
 30
0.0
 10
3.98071325028291
 20
4.510097245980532
 30
0.0
 10
3.98071325028291
 20
4.510097245980532
 30
0.0
 10
3.995281209705947
 20
4.506177801635102
 30
0.0
 10
3.993608987525968
 20
4.486406968801222
 30
0.0
 10
3.993608987525968
 20
4.486406968801222
 30
0.0
 10
3.994915931937397
 20
4.464663913794942
 30
0.0
 10
3.979364543441369
 20
4.466913913738102
 30
0.0
 10
3.979364543441369
 20
4.466913913738102
 30
0.0
 10
3.968160377057756
 20
4.469248635901345
 30
0.0
 10
3.968160377057756
 20
4.469248635901345
 30
0.0
  0
SPLINE
  5
18E
330
17F
100
AcDbEntity
  8
Layer 2
 62
   250
420
  2301728
370
    40
100
AcDbSpline
210
0.0
220
0.0
230
1.0
 70
     8
 71
     3
 72
    17
 73
    13
 74
     0
 42
0.0000000001
 43
0.0000000001
 40
0.0
 40
0.0
 40
0.0
 40
0.0
 40
1.0
 40
1.0
 40
1.0
 40
2.0
 40
2.0
 40
2.0
 40
3.0
 40
3.0
 40
3.0
 40
4.0
 40
4.0
 40
4.0
 40
4.0
 10
3.929754916949579
 20
4.477280580142885
 30
0.0
 10
3.929754916949579
 20
4.477280580142885
 30
0.0
 10
3.926968711431666
 20
4.477345857919013
 30
0.0
 10
3.924120100392517
 20
4.480259746734291
 30
0.0
 10
3.9212284337989
 20
4.48321391332633
 30
0.0
 10
3.918252044985213
 20
4.489127802065821
 30
0.0
 10
3.918252044985213
 20
4.500950023989389
 30
0.0
 10
3.918252044985213
 20
4.500950023989389
 30
0.0
 10
3.9190006560774
 20
4.52132363458582
 30
0.0
 10
3.931211766880032
 20
4.519863912400473
 30
0.0
 10
3.931211766880032
 20
4.519863912400473
 30
0.0
 10
3.940722877750873
 20
4.517958356893055
 30
0.0
 10
3.940722877750873
 20
4.517958356893055
 30
0.0
  0
SPLINE
  5
18F
330
17F
100
AcDbEntity
  8
Layer 2
 62
   250
420
  2301728
370
    40
100
AcDbSpline
210
0.0
220
0.0
230
1.0
 70
     9
 71
     3
 72
    17
 73
    13
 74
     0
 42
0.0000000001
 43
0.0000000001
 40
0.0
 40
0.0
 40
0.0
 40
0.0
 40
1.0
 40
1.0
 40
1.0
 40
2.0
 40
2.0
 40
2.0
 40
3.0
 40
3.0
 40
3.0
 40
4.0
 40
4.0
 40
4.0
 40
4.0
 10
3.902378434275091
 20
4.258683363442893
 30
0.0
 10
3.904885378656204
 20
4.242531974962022
 30
0.0
 10
3.895802045552335
 20
4.22768761379373
 30
0.0
 10
3.882178434785386
 20
4.225609753167292
 30
0.0
 10
3.868535379574483
 20
4.223511142109196
 30
0.0
 10
3.855465935460188
 20
4.234927808487453
 30
0.0
 10
3.852961768856794
 20
4.251122252522792
 30
0.0
 10
3.850475657808487
 20
4.267358363223744
 30
0.0
 10
3.859515935357888
 20
4.282181973960379
 30
0.0
 10
3.873182601679306
 20
4.284280585018475
 30
0.0
 10
3.88684787911187
 20
4.286380584965424
 30
0.0
 10
3.899892323226797
 20
4.274920863032699
 30
0.0
 10
3.902378434275091
 20
4.258683363442893
 30
0.0
  0
SPLINE
  5
190
330
17F
100
AcDbEntity
  8
Layer 2
 62
   250
420
  2301728
370
    40
100
AcDbSpline
210
0.0
220
0.0
230
1.0
 70
     8
 71
     3
 72
    14
 73
    10
 74
     0
 42
0.0000000001
 43
0.0000000001
 40
0.0
 40
0.0
 40
0.0
 40
0.0
 40
1.0
 40
1.0
 40
1.0
 40
2.0
 40
2.0
 40
2.0
 40
3.0
 40
3.0
 40
3.0
 40
3.0
 10
3.864185472505141
 20
4.280425029560319
 30
0.0
 10
3.867183990719733
 20
4.28455975167809
 30
0.0
 10
3.872989546128628
 20
4.286209751636407
 30
0.0
 10
3.87795760155868
 20
4.28758058493511
 30
0.0
 10
3.891283990110915
 20
4.291284836015973
 30
0.0
 10
3.905635378637258
 20
4.281475029533794
 30
0.0
 10
3.910027045192982
 20
4.265708363265426
 30
0.0
 10
3.914438156192671
 20
4.249900030331446
 30
0.0
 10
3.907218711930593
 20
4.234113919619125
 30
0.0
 10
3.893917323377725
 20
4.230387530824373
 30
0.0
  0
SPLINE
  5
191
330
17F
100
AcDbEntity
  8
Layer 2
 62
   250
420
  2301728
370
    40
100
AcDbSpline
210
0.0
220
0.0
230
1.0
 70
     8
 71
     3
 72
    17
 73
    13
 74
     0
 42
0.0000000001
 43
0.0000000001
 40
0.0
 40
0.0
 40
0.0
 40
0.0
 40
1.0
 40
1.0
 40
1.0
 40
2.0
 40
2.0
 40
2.0
 40
3.0
 40
3.0
 40
3.0
 40
4.0
 40
4.0
 40
4.0
 40
4.0
 10
3.904606211996603
 20
4.274962529698314
 30
0.0
 10
3.904606211996603
 20
4.274962529698314
 30
0.0
 10
3.909554822982689
 20
4.274000029722628
 30
0.0
 10
3.909554822982689
 20
4.274000029722628
 30
0.0
 10
3.909554822982689
 20
4.274000029722628
 30
0.0
 10
3.924120100392517
 20
4.270058363155536
 30
0.0
 10
3.922450655990246
 20
4.250330585876124
 30
0.0
 10
3.922450655990246
 20
4.250330585876124
 30
0.0
 10
3.92375621151282
 20
4.228586141980991
 30
0.0
 10
3.908203434127939
 20
4.230837530813005
 30
0.0
 10
3.908203434127939
 20
4.230837530813005
 30
0.0
 10
3.897002045522033
 20
4.23315141964344
 30
0.0
 10
3.897002045522033
 20
4.23315141964344
 30
0.0
  0
SPLINE
  5
192
330
17F
100
AcDbEntity
  8
Layer 2
 62
   250
420
  2301728
370
    40
100
AcDbSpline
210
0.0
220
0.0
230
1.0
 70
     8
 71
     3
 72
    17
 73
    13
 74
     0
 42
0.0000000001
 43
0.0000000001
 40
0.0
 40
0.0
 40
0.0
 40
0.0
 40
1.0
 40
1.0
 40
1.0
 40
2.0
 40
2.0
 40
2.0
 40
3.0
 40
3.0
 40
3.0
 40
4.0
 40
4.0
 40
4.0
 40
4.0
 10
3.858574361394023
 20
4.24116114166332
 30
0.0
 10
3.858574361394023
 20
4.24116114166332
 30
0.0
 10
3.855788157674282
 20
4.241247252772256
 30
0.0
 10
3.852961768856794
 20
4.244138919365872
 30
0.0
 10
3.850047880041516
 20
4.247094474846764
 30
0.0
 10
3.847092324560624
 20
4.25305003025187
 30
0.0
 10
3.847092324560624
 20
4.264894474397098
 30
0.0
 10
3.847092324560624
 20
4.264894474397098
 30
0.0
 10
3.847842324541677
 20
4.285245862771867
 30
0.0
 10
3.86005065756659
 20
4.283745862809761
 30
0.0
 10
3.86005065756659
 20
4.283745862809761
 30
0.0
 10
3.869561768437442
 20
4.281902807300765
 30
0.0
 10
3.869561768437442
 20
4.281902807300765
 30
0.0
  0
LINE
  5
193
330
17F
100
AcDbEntity
  8
Layer 2
 62
   250
420
  2301728
370
    40
100
AcDbLine
 10
3.804614547855925
 20
3.489584771760847
 30
0.0
 11
3.804614547855925
 21
3.41563060696242
 31
0.0
  0
SPLINE
  5
194
330
17F
100
AcDbEntity
  8
Layer 2
 62
   250
420
  2301728
370
    40
100
AcDbSpline
210
0.0
220
0.0
230
1.0
 70
     9
 71
     3
 72
    17
 73
    13
 74
     0
 42
0.0000000001
 43
0.0000000001
 40
0.0
 40
0.0
 40
0.0
 40
0.0
 40
1.0
 40
1.0
 40
1.0
 40
2.0
 40
2.0
 40
2.0
 40
3.0
 40
3.0
 40
3.0
 40
4.0
 40
4.0
 40
4.0
 40
4.0
 10
3.629029830069346
 20
3.824252818861976
 30
0.0
 10
3.63152566333963
 20
3.808100041492252
 30
0.0
 10
3.622453441346591
 20
3.793234764090003
 30
0.0
 10
3.608818719468811
 20
3.791176430808667
 30
0.0
 10
3.595172886480188
 20
3.789036153084957
 30
0.0
 10
3.582106220143625
 20
3.800494486128829
 30
0.0
 10
3.57961316465105
 20
3.816711152385828
 30
0.0
 10
3.577127053602755
 20
3.832883374199506
 30
0.0
 10
3.586156220041313
 20
3.847748651601755
 30
0.0
 10
3.599822886362731
 20
3.849829207104751
 30
0.0
 10
3.613488163795295
 20
3.851927818162847
 30
0.0
 10
3.626543719021039
 20
3.840466707341268
 30
0.0
 10
3.629029830069346
 20
3.824252818861976
 30
0.0
  0
SPLINE
  5
195
330
17F
100
AcDbEntity
  8
Layer 2
 62
   250
420
  2301728
370
    40
100
AcDbSpline
210
0.0
220
0.0
230
1.0
 70
     8
 71
     3
 72
    14
 73
    10
 74
     0
 42
0.0000000001
 43
0.0000000001
 40
0.0
 40
0.0
 40
0.0
 40
0.0
 40
1.0
 40
1.0
 40
1.0
 40
2.0
 40
2.0
 40
2.0
 40
3.0
 40
3.0
 40
3.0
 40
3.0
 10
3.590836775478628
 20
3.845972262757742
 30
0.0
 10
3.593824361394025
 20
3.850126429319465
 30
0.0
 10
3.599629916949588
 20
3.851757058238187
 30
0.0
 10
3.604608997352935
 20
3.853127818132533
 30
0.0
 10
3.617943719238294
 20
3.856854280460386
 30
0.0
 10
3.632275663320683
 20
3.847065318285684
 30
0.0
 10
3.636667329876407
 20
3.831255596462849
 30
0.0
 10
3.641078440876084
 20
3.815447263528868
 30
0.0
 10
3.633858996614018
 20
3.799661152816547
 30
0.0
 10
3.620558996950004
 20
3.795954208465748
 30
0.0
  0
SPLINE
  5
196
330
17F
100
AcDbEntity
  8
Layer 2
 62
   250
420
  2301728
370
    40
100
AcDbSpline
210
0.0
220
0.0
230
1.0
 70
     8
 71
     3
 72
    17
 73
    13
 74
     0
 42
0.0000000001
 43
0.0000000001
 40
0.0
 40
0.0
 40
0.0
 40
0.0
 40
1.0
 40
1.0
 40
1.0
 40
2.0
 40
2.0
 40
2.0
 40
3.0
 40
3.0
 40
3.0
 40
4.0
 40
4.0
 40
4.0
 40
4.0
 10
3.631247885568869
 20
3.840530596228543
 30
0.0
 10
3.631247885568869
 20
3.840530596228543
 30
0.0
 10
3.636185472505139
 20
3.839566707364004
 30
0.0
 10
3.636185472505139
 20
3.839566707364004
 30
0.0
 10
3.636185472505139
 20
3.839566707364004
 30
0.0
 10
3.650771496186772
 20
3.835604280460403
 30
0.0
 10
3.649079829562841
 20
3.815875041295839
 30
0.0
 10
3.649079829562841
 20
3.815875041295839
 30
0.0
 10
3.650407694727366
 20
3.794133375178413
 30
0.0
 10
3.634835385478241
 20
3.796382058238173
 30
0.0
 10
3.634835385478241
 20
3.796382058238173
 30
0.0
 10
3.623631219094615
 20
3.798695875063155
 30
0.0
 10
3.623631219094615
 20
3.798695875063155
 30
0.0
  0
SPLINE
  5
197
330
17F
100
AcDbEntity
  8
Layer 2
 62
   250
420
  2301728
370
    40
100
AcDbSpline
210
0.0
220
0.0
230
1.0
 70
     8
 71
     3
 72
    17
 73
    13
 74
     0
 42
0.0000000001
 43
0.0000000001
 40
0.0
 40
0.0
 40
0.0
 40
0.0
 40
1.0
 40
1.0
 40
1.0
 40
2.0
 40
2.0
 40
2.0
 40
3.0
 40
3.0
 40
3.0
 40
4.0
 40
4.0
 40
4.0
 40
4.0
 10
3.585213250282915
 20
3.806706985971888
 30
0.0
 10
3.585213250282915
 20
3.806706985971888
 30
0.0
 10
3.582429831246549
 20
3.806794485969678
 30
0.0
 10
3.57961316465105
 20
3.809686152563294
 30
0.0
 10
3.576689553613795
 20
3.812662541376994
 30
0.0
 10
3.57373260924405
 20
3.818595874560438
 30
0.0
 10
3.57373260924405
 20
3.830443096483374
 30
0.0
 10
3.57373260924405
 20
3.830443096483374
 30
0.0
 10
3.574471498114272
 20
3.850813929302097
 30
0.0
 10
3.586679831139197
 20
3.849312613793749
 30
0.0
 10
3.586679831139197
 20
3.849312613793749
 30
0.0
 10
3.596213250282921
 20
3.847450040498188
 30
0.0
 10
3.596213250282921
 20
3.847450040498188
 30
0.0
  0
SPLINE
  5
198
330
17F
100
AcDbEntity
  8
Layer 2
 62
   250
420
  2301728
370
    40
100
AcDbSpline
210
0.0
220
0.0
230
1.0
 70
     9
 71
     3
 72
    17
 73
    13
 74
     0
 42
0.0000000001
 43
0.0000000001
 40
0.0
 40
0.0
 40
0.0
 40
0.0
 40
1.0
 40
1.0
 40
1.0
 40
2.0
 40
2.0
 40
2.0
 40
3.0
 40
3.0
 40
3.0
 40
4.0
 40
4.0
 40
4.0
 40
4.0
 10
3.697564550560236
 20
4.062533368398058
 30
0.0
 10
3.700060472505141
 20
4.046319479918767
 30
0.0
 10
3.690999272948298
 20
4.031475035849325
 30
0.0
 10
3.677354828848554
 20
4.029397258124037
 30
0.0
 10
3.663710384748785
 20
4.027298724904842
 30
0.0
 10
3.650653440634199
 20
4.038758368998665
 30
0.0
 10
3.648147885141939
 20
4.054951502682645
 30
0.0
 10
3.645663162982486
 20
4.071168090402149
 30
0.0
 10
3.654702051643021
 20
4.086011145582738
 30
0.0
 10
3.668370106853305
 20
4.088090391571514
 30
0.0
 10
3.682013162064208
 20
4.090188923254976
 30
0.0
 10
3.695068717289952
 20
4.078727812433397
 30
0.0
 10
3.697564550560236
 20
4.062533368398058
 30
0.0
  0
SPLINE
  5
199
330
17F
100
AcDbEntity
  8
Layer 2
 62
   250
420
  2301728
370
    40
100
AcDbSpline
210
0.0
220
0.0
230
1.0
 70
     8
 71
     3
 72
    14
 73
    10
 74
     0
 42
0.0000000001
 43
0.0000000001
 40
0.0
 40
0.0
 40
0.0
 40
0.0
 40
1.0
 40
1.0
 40
1.0
 40
2.0
 40
2.0
 40
2.0
 40
3.0
 40
3.0
 40
3.0
 40
3.0
 10
3.659371495969518
 20
4.084212534517064
 30
0.0
 10
3.662358995894035
 20
4.088409836015974
 30
0.0
 10
3.668165940191796
 20
4.089975034371491
 30
0.0
 10
3.673145106732679
 20
4.091366701003001
 30
0.0
 10
3.686470106396061
 20
4.095094478686607
 30
0.0
 10
3.700810472505142
 20
4.085304201156152
 30
0.0
 10
3.70521325028292
 20
4.069518090443832
 30
0.0
 10
3.709624272477804
 20
4.053731979731511
 30
0.0
 10
3.702406217104591
 20
4.037923724904834
 30
0.0
 10
3.689104828551724
 20
4.034216702446731
 30
0.0
  0
SPLINE
  5
19A
330
17F
100
AcDbEntity
  8
Layer 2
 62
   250
420
  2301728
370
    40
100
AcDbSpline
210
0.0
220
0.0
230
1.0
 70
     8
 71
     3
 72
    17
 73
    13
 74
     0
 42
0.0000000001
 43
0.0000000001
 40
0.0
 40
0.0
 40
0.0
 40
0.0
 40
1.0
 40
1.0
 40
1.0
 40
2.0
 40
2.0
 40
2.0
 40
3.0
 40
3.0
 40
3.0
 40
4.0
 40
4.0
 40
4.0
 40
4.0
 10
3.699782694727357
 20
4.078791701320672
 30
0.0
 10
3.699782694727357
 20
4.078791701320672
 30
0.0
 10
3.704720105935027
 20
4.077784836015982
 30
0.0
 10
3.704720105935027
 20
4.077784836015982
 30
0.0
 10
3.704720105935027
 20
4.077784836015982
 30
0.0
 10
3.719295105566831
 20
4.073865312556234
 30
0.0
 10
3.717627050053414
 20
4.054159836015969
 30
0.0
 10
3.717627050053414
 20
4.054159836015969
 30
0.0
 10
3.718931216687135
 20
4.032395947127093
 30
0.0
 10
3.703381217079961
 20
4.034602813548088
 30
0.0
 10
3.703381217079961
 20
4.034602813548088
 30
0.0
 10
3.692165939585505
 20
4.036980591265798
 30
0.0
 10
3.692165939585505
 20
4.036980591265798
 30
0.0
  0
SPLINE
  5
19B
330
17F
100
AcDbEntity
  8
Layer 2
 62
   250
420
  2301728
370
    40
100
AcDbSpline
210
0.0
220
0.0
230
1.0
 70
     8
 71
     3
 72
    17
 73
    13
 74
     0
 42
0.0000000001
 43
0.0000000001
 40
0.0
 40
0.0
 40
0.0
 40
0.0
 40
1.0
 40
1.0
 40
1.0
 40
2.0
 40
2.0
 40
2.0
 40
3.0
 40
3.0
 40
3.0
 40
4.0
 40
4.0
 40
4.0
 40
4.0
 10
3.653758996111302
 20
4.044990313285678
 30
0.0
 10
3.653758996111302
 20
4.044990313285678
 30
0.0
 10
3.650975662848281
 20
4.045076502682604
 30
0.0
 10
3.648147885141939
 20
4.047947257655424
 30
0.0
 10
3.645235385215515
 20
4.050923724904856
 30
0.0
 10
3.642267329734939
 20
4.056837535208615
 30
0.0
 10
3.642267329734939
 20
4.068681979353843
 30
0.0
 10
3.642267329734939
 20
4.068681979353843
 30
0.0
 10
3.643017329716005
 20
4.089052812172566
 30
0.0
 10
3.655225662740917
 20
4.087597256653781
 30
0.0
 10
3.655225662740917
 20
4.087597256653781
 30
0.0
 10
3.664736773611757
 20
4.08569031225751
 30
0.0
 10
3.664736773611757
 20
4.08569031225751
 30
0.0
  0
SPLINE
  5
19C
330
17F
100
AcDbEntity
  8
Layer 2
 62
   250
420
  2301728
370
    40
100
AcDbSpline
210
0.0
220
0.0
230
1.0
 70
     9
 71
     3
 72
    17
 73
    13
 74
     0
 42
0.0000000001
 43
0.0000000001
 40
0.0
 40
0.0
 40
0.0
 40
0.0
 40
1.0
 40
1.0
 40
1.0
 40
2.0
 40
2.0
 40
2.0
 40
3.0
 40
3.0
 40
3.0
 40
4.0
 40
4.0
 40
4.0
 40
4.0
 10
3.973539543588533
 20
3.990305592444908
 30
0.0
 10
3.976043710191927
 20
3.97411114840957
 30
0.0
 10
3.966963250282914
 20
3.959265315451274
 30
0.0
 10
3.953339544098816
 20
3.957187613793747
 30
0.0
 10
3.939693711110205
 20
3.955088926667889
 30
0.0
 10
3.926627044773617
 20
3.966527815267808
 30
0.0
 10
3.924120100392517
 20
3.982722259303146
 30
0.0
 10
3.921636767121917
 20
3.998913925560777
 30
0.0
 10
3.930675655782478
 20
4.013759758519073
 30
0.0
 10
3.94436315543669
 20
4.015858369577168
 30
0.0
 10
3.9580089884253
 20
4.017958369524118
 30
0.0
 10
3.971053432540227
 20
4.006497258702539
 30
0.0
 10
3.973539543588533
 20
3.990305592444908
 30
0.0
  0
SPLINE
  5
19D
330
17F
100
AcDbEntity
  8
Layer 2
 62
   250
420
  2301728
370
    40
100
AcDbSpline
210
0.0
220
0.0
230
1.0
 70
     8
 71
     3
 72
    14
 73
    10
 74
     0
 42
0.0000000001
 43
0.0000000001
 40
0.0
 40
0.0
 40
0.0
 40
0.0
 40
1.0
 40
1.0
 40
1.0
 40
2.0
 40
2.0
 40
2.0
 40
3.0
 40
3.0
 40
3.0
 40
3.0
 10
3.935366028060697
 20
4.012002814119012
 30
0.0
 10
3.938345100033163
 20
4.016181980680104
 30
0.0
 10
3.94414787766435
 20
4.017765313973439
 30
0.0
 10
3.949140933093783
 20
4.019158369493803
 30
0.0
 10
3.962464543868311
 20
4.022906980510216
 30
0.0
 10
3.97679371017298
 20
4.013075036314148
 30
0.0
 10
3.981185472505141
 20
3.997308370045781
 30
0.0
 10
3.985597876617235
 20
3.981522259333461
 30
0.0
 10
3.978399265687976
 20
3.965669481956158
 30
0.0
 10
3.965077043802302
 20
3.961965391571538
 30
0.0
  0
SPLINE
  5
19E
330
17F
100
AcDbEntity
  8
Layer 2
 62
   250
420
  2301728
370
    40
100
AcDbSpline
210
0.0
220
0.0
230
1.0
 70
     8
 71
     3
 72
    17
 73
    13
 74
     0
 42
0.0000000001
 43
0.0000000001
 40
0.0
 40
0.0
 40
0.0
 40
0.0
 40
1.0
 40
1.0
 40
1.0
 40
2.0
 40
2.0
 40
2.0
 40
3.0
 40
3.0
 40
3.0
 40
4.0
 40
4.0
 40
4.0
 40
4.0
 10
3.975764543532325
 20
4.006562613793751
 30
0.0
 10
3.975764543532325
 20
4.006562613793751
 30
0.0
 10
3.98071325028291
 20
4.005598647614129
 30
0.0
 10
3.98071325028291
 20
4.005598647614129
 30
0.0
 10
3.98071325028291
 20
4.005598647614129
 30
0.0
 10
3.995281209705947
 20
4.001677814379844
 30
0.0
 10
3.993608987525968
 20
3.981908370434818
 30
0.0
 10
3.993608987525968
 20
3.981908370434818
 30
0.0
 10
3.994915931937397
 20
3.960163926539684
 30
0.0
 10
3.979364543441369
 20
3.962415315371698
 30
0.0
 10
3.979364543441369
 20
3.962415315371698
 30
0.0
 10
3.968160377057756
 20
3.964748648646086
 30
0.0
 10
3.968160377057756
 20
3.964748648646086
 30
0.0
  0
SPLINE
  5
19F
330
17F
100
AcDbEntity
  8
Layer 2
 62
   250
420
  2301728
370
    40
100
AcDbSpline
210
0.0
220
0.0
230
1.0
 70
     8
 71
     3
 72
    17
 73
    13
 74
     0
 42
0.0000000001
 43
0.0000000001
 40
0.0
 40
0.0
 40
0.0
 40
0.0
 40
1.0
 40
1.0
 40
1.0
 40
2.0
 40
2.0
 40
2.0
 40
3.0
 40
3.0
 40
3.0
 40
4.0
 40
4.0
 40
4.0
 40
4.0
 10
3.929754916949579
 20
3.972781981776481
 30
0.0
 10
3.929754916949579
 20
3.972781981776481
 30
0.0
 10
3.926968711431666
 20
3.972847259552609
 30
0.0
 10
3.924120100392517
 20
3.975759759479034
 30
0.0
 10
3.9212284337989
 20
3.978715391571515
 30
0.0
 10
3.918252044985213
 20
3.984627814810563
 30
0.0
 10
3.918252044985213
 20
3.996451502682652
 30
0.0
 10
3.918252044985213
 20
3.996451502682652
 30
0.0
 10
3.9190006560774
 20
4.016823647330562
 30
0.0
 10
3.931211766880032
 20
4.015365314034069
 30
0.0
 10
3.931211766880032
 20
4.015365314034069
 30
0.0
 10
3.940722877750873
 20
4.013459758526652
 30
0.0
 10
3.940722877750873
 20
4.013459758526652
 30
0.0
  0
SPLINE
  5
1A0
330
17F
100
AcDbEntity
  8
Layer 2
 62
   250
420
  2301728
370
    40
100
AcDbSpline
210
0.0
220
0.0
230
1.0
 70
     9
 71
     3
 72
    17
 73
    13
 74
     0
 42
0.0000000001
 43
0.0000000001
 40
0.0
 40
0.0
 40
0.0
 40
0.0
 40
1.0
 40
1.0
 40
1.0
 40
2.0
 40
2.0
 40
2.0
 40
3.0
 40
3.0
 40
3.0
 40
4.0
 40
4.0
 40
4.0
 40
4.0
 10
3.902378434275091
 20
3.754184765076489
 30
0.0
 10
3.904885378656204
 20
3.738033376595618
 30
0.0
 10
3.895802045552335
 20
3.723187613793722
 30
0.0
 10
3.882178434785386
 20
3.721111154800887
 30
0.0
 10
3.868535379574483
 20
3.719011154853938
 30
0.0
 10
3.855465935460188
 20
3.730429210121049
 30
0.0
 10
3.852961768856794
 20
3.746623654156387
 30
0.0
 10
3.850475657808487
 20
3.76285976485734
 30
0.0
 10
3.859515935357888
 20
3.777683375593975
 30
0.0
 10
3.873182601679306
 20
3.779781986652071
 30
0.0
 10
3.88684787911187
 20
3.781880597710166
 30
0.0
 10
3.899892323226797
 20
3.770422264666295
 30
0.0
 10
3.902378434275091
 20
3.754184765076489
 30
0.0
  0
SPLINE
  5
1A1
330
17F
100
AcDbEntity
  8
Layer 2
 62
   250
420
  2301728
370
    40
100
AcDbSpline
210
0.0
220
0.0
230
1.0
 70
     8
 71
     3
 72
    14
 73
    10
 74
     0
 42
0.0000000001
 43
0.0000000001
 40
0.0
 40
0.0
 40
0.0
 40
0.0
 40
1.0
 40
1.0
 40
1.0
 40
2.0
 40
2.0
 40
2.0
 40
3.0
 40
3.0
 40
3.0
 40
3.0
 10
3.864185472505141
 20
3.775926431193915
 30
0.0
 10
3.867183990719733
 20
3.780061153311685
 30
0.0
 10
3.872989546128628
 20
3.781709764381149
 30
0.0
 10
3.87795760155868
 20
3.783080597679852
 30
0.0
 10
3.891283990110915
 20
3.786786153141797
 30
0.0
 10
3.905635378637258
 20
3.77697643116739
 30
0.0
 10
3.910027045192982
 20
3.761209764899022
 30
0.0
 10
3.914438156192671
 20
3.745401431965041
 30
0.0
 10
3.907218711930593
 20
3.729615321252721
 30
0.0
 10
3.893917323377725
 20
3.725888932457968
 30
0.0
  0
SPLINE
  5
1A2
330
17F
100
AcDbEntity
  8
Layer 2
 62
   250
420
  2301728
370
    40
100
AcDbSpline
210
0.0
220
0.0
230
1.0
 70
     8
 71
     3
 72
    17
 73
    13
 74
     0
 42
0.0000000001
 43
0.0000000001
 40
0.0
 40
0.0
 40
0.0
 40
0.0
 40
1.0
 40
1.0
 40
1.0
 40
2.0
 40
2.0
 40
2.0
 40
3.0
 40
3.0
 40
3.0
 40
4.0
 40
4.0
 40
4.0
 40
4.0
 10
3.904606211996603
 20
3.770463931331909
 30
0.0
 10
3.904606211996603
 20
3.770463931331909
 30
0.0
 10
3.909554822982689
 20
3.769501431356224
 30
0.0
 10
3.909554822982689
 20
3.769501431356224
 30
0.0
 10
3.909554822982689
 20
3.769501431356224
 30
0.0
 10
3.924120100392517
 20
3.765559764789132
 30
0.0
 10
3.922450655990246
 20
3.74583198750972
 30
0.0
 10
3.922450655990246
 20
3.74583198750972
 30
0.0
 10
3.92375621151282
 20
3.724087543614587
 30
0.0
 10
3.908203434127939
 20
3.726337543557747
 30
0.0
 10
3.908203434127939
 20
3.726337543557747
 30
0.0
 10
3.897002045522033
 20
3.728652821277036
 30
0.0
 10
3.897002045522033
 20
3.728652821277036
 30
0.0
  0
SPLINE
  5
1A3
330
17F
100
AcDbEntity
  8
Layer 2
 62
   250
420
  2301728
370
    40
100
AcDbSpline
210
0.0
220
0.0
230
1.0
 70
     8
 71
     3
 72
    17
 73
    13
 74
     0
 42
0.0000000001
 43
0.0000000001
 40
0.0
 40
0.0
 40
0.0
 40
0.0
 40
1.0
 40
1.0
 40
1.0
 40
2.0
 40
2.0
 40
2.0
 40
3.0
 40
3.0
 40
3.0
 40
4.0
 40
4.0
 40
4.0
 40
4.0
 10
3.858574361394023
 20
3.736662543296915
 30
0.0
 10
3.858574361394023
 20
3.736662543296915
 30
0.0
 10
3.855788157674282
 20
3.736748654405851
 30
0.0
 10
3.852961768856794
 20
3.739638932110614
 30
0.0
 10
3.850047880041516
 20
3.74259587648036
 30
0.0
 10
3.847092324560624
 20
3.748551431885466
 30
0.0
 10
3.847092324560624
 20
3.760395947127057
 30
0.0
 10
3.847092324560624
 20
3.760395947127057
 30
0.0
 10
3.847842324541677
 20
3.780747264405464
 30
0.0
 10
3.86005065756659
 20
3.779247264443357
 30
0.0
 10
3.86005065756659
 20
3.779247264443357
 30
0.0
 10
3.869561768437442
 20
3.777404208934361
 30
0.0
 10
3.869561768437442
 20
3.777404208934361
 30
0.0
  0
SPLINE
  5
1A4
330
17F
100
AcDbEntity
  8
Layer 2
 62
   250
420
  2301728
370
    40
100
AcDbSpline
210
0.0
220
0.0
230
1.0
 70
     9
 71
     3
 72
    17
 73
    13
 74
     0
 42
0.0000000001
 43
0.0000000001
 40
0.0
 40
0.0
 40
0.0
 40
0.0
 40
1.0
 40
1.0
 40
1.0
 40
2.0
 40
2.0
 40
2.0
 40
3.0
 40
3.0
 40
3.0
 40
4.0
 40
4.0
 40
4.0
 40
4.0
 10
3.629029830069346
 20
4.322988917373954
 30
0.0
 10
3.63152566333963
 20
4.306816695560276
 30
0.0
 10
3.622453441346591
 20
4.291950029269173
 30
0.0
 10
3.608818719468811
 20
4.289894473765545
 30
0.0
 10
3.595172886480188
 20
4.287773640485789
 30
0.0
 10
3.582106220143625
 20
4.299233362418513
 30
0.0
 10
3.57961316465105
 20
4.315426417564999
 30
0.0
 10
3.577127053602755
 20
4.331620861600336
 30
0.0
 10
3.586156220041313
 20
4.346466694558633
 30
0.0
 10
3.599822886362731
 20
4.348565305616729
 30
0.0
 10
3.613488163795295
 20
4.350663916674824
 30
0.0
 10
3.626543719021039
 20
4.339202805853245
 30
0.0
 10
3.629029830069346
 20
4.322988917373954
 30
0.0
  0
SPLINE
  5
1A5
330
17F
100
AcDbEntity
  8
Layer 2
 62
   250
420
  2301728
370
    40
100
AcDbSpline
210
0.0
220
0.0
230
1.0
 70
     9
 71
     3
 72
    17
 73
    13
 74
     0
 42
0.0000000001
 43
0.0000000001
 40
0.0
 40
0.0
 40
0.0
 40
0.0
 40
1.0
 40
1.0
 40
1.0
 40
2.0
 40
2.0
 40
2.0
 40
3.0
 40
3.0
 40
3.0
 40
4.0
 40
4.0
 40
4.0
 40
4.0
 10
3.902378434275091
 20
4.252920863588466
 30
0.0
 10
3.904885378656204
 20
4.236748641774789
 30
0.0
 10
3.895802045552335
 20
4.221925031038153
 30
0.0
 10
3.882178434785386
 20
4.219826502682634
 30
0.0
 10
3.868535379574483
 20
4.217726420033108
 30
0.0
 10
3.855465935460188
 20
4.229165308633026
 30
0.0
 10
3.852961768856794
 20
4.245359752668365
 30
0.0
 10
3.850475657808487
 20
4.261595863369317
 30
0.0
 10
3.859515935357888
 20
4.276397251884292
 30
0.0
 10
3.873182601679306
 20
4.278519474052902
 30
0.0
 10
3.88684787911187
 20
4.280576502682631
 30
0.0
 10
3.899892323226797
 20
4.269159836015963
 30
0.0
 10
3.902378434275091
 20
4.252920863588466
 30
0.0
  0
SPLINE
  5
1A6
330
17F
100
AcDbEntity
  8
Layer 2
 62
   250
420
  2301728
370
    40
100
AcDbSpline
210
0.0
220
0.0
230
1.0
 70
     9
 71
     3
 72
    17
 73
    13
 74
     0
 42
0.0000000001
 43
0.0000000001
 40
0.0
 40
0.0
 40
0.0
 40
0.0
 40
1.0
 40
1.0
 40
1.0
 40
2.0
 40
2.0
 40
2.0
 40
3.0
 40
3.0
 40
3.0
 40
4.0
 40
4.0
 40
4.0
 40
4.0
 10
3.818945103049461
 20
3.455751439282216
 30
0.0
 10
3.823228436274588
 20
3.427755606656116
 30
0.0
 10
3.807571492225671
 20
3.402072273971599
 30
0.0
 10
3.78398815948809
 20
3.398472274062542
 30
0.0
 10
3.760403437861681
 20
3.394875051931194
 30
0.0
 10
3.737825660654266
 20
3.414645947127054
 30
0.0
 10
3.733520105207465
 20
3.442665328501687
 30
0.0
 10
3.72921454976069
 20
3.470681994460594
 30
0.0
 10
3.744829827144005
 20
3.496301438257837
 30
0.0
 10
3.768435472505138
 20
3.499920882610846
 30
0.0
 10
3.792061770395257
 20
3.503543104741563
 30
0.0
 10
3.814661769824333
 20
3.48377094712709
 30
0.0
 10
3.818945103049461
 20
3.455751439282216
 30
0.0
  0
SPLINE
  5
1A7
330
17F
100
AcDbEntity
  8
Layer 2
 62
   250
420
  2301728
370
    40
100
AcDbSpline
210
0.0
220
0.0
230
1.0
 70
     9
 71
     3
 72
    17
 73
    13
 74
     0
 42
0.0000000001
 43
0.0000000001
 40
0.0
 40
0.0
 40
0.0
 40
0.0
 40
1.0
 40
1.0
 40
1.0
 40
2.0
 40
2.0
 40
2.0
 40
3.0
 40
3.0
 40
3.0
 40
4.0
 40
4.0
 40
4.0
 40
4.0
 10
3.818945103049461
 20
3.455751439282216
 30
0.0
 10
3.823228436274588
 20
3.427755606656116
 30
0.0
 10
3.807571492225671
 20
3.402072273971599
 30
0.0
 10
3.78398815948809
 20
3.398472274062542
 30
0.0
 10
3.760403437861681
 20
3.394875051931194
 30
0.0
 10
3.737825660654266
 20
3.414645947127054
 30
0.0
 10
3.733520105207465
 20
3.442665328501687
 30
0.0
 10
3.72921454976069
 20
3.470681994460594
 30
0.0
 10
3.744829827144005
 20
3.496301438257837
 30
0.0
 10
3.768435472505138
 20
3.499920882610846
 30
0.0
 10
3.792061770395257
 20
3.503543104741563
 30
0.0
 10
3.814661769824333
 20
3.48377094712709
 30
0.0
 10
3.818945103049461
 20
3.455751439282216
 30
0.0
  0
SPLINE
  5
1A8
330
17F
100
AcDbEntity
  8
Layer 2
 62
   250
420
  2301728
370
    40
100
AcDbSpline
210
0.0
220
0.0
230
1.0
 70
     8
 71
     3
 72
    14
 73
    10
 74
     0
 42
0.0000000001
 43
0.0000000001
 40
0.0
 40
0.0
 40
0.0
 40
0.0
 40
1.0
 40
1.0
 40
1.0
 40
2.0
 40
2.0
 40
2.0
 40
3.0
 40
3.0
 40
3.0
 40
3.0
 10
3.815496492025469
 20
3.41738755136248
 30
0.0
 10
3.813717325403747
 20
3.417088940258913
 30
0.0
 10
3.812004916949578
 20
3.416959773595509
 30
0.0
 10
3.81027010326861
 20
3.416959773595509
 30
0.0
 10
3.788657694727362
 20
3.41674449582317
 30
0.0
 10
3.768971493200789
 20
3.4356389397903
 30
0.0
 10
3.765007604412037
 20
3.461556994691111
 30
0.0
 10
3.762866028060695
 20
3.475415327674353
 30
0.0
 10
3.765650659951347
 20
3.488719494004928
 30
0.0
 10
3.771861770905552
 20
3.499084771520857
 30
0.0
  0
SPLINE
  5
1A9
330
17F
100
AcDbEntity
  8
Layer 2
 62
   250
420
  2301728
370
    40
100
AcDbSpline
210
0.0
220
0.0
230
1.0
 70
     9
 71
     3
 72
    17
 73
    13
 74
     0
 42
0.0000000001
 43
0.0000000001
 40
0.0
 40
0.0
 40
0.0
 40
0.0
 40
1.0
 40
1.0
 40
1.0
 40
2.0
 40
2.0
 40
2.0
 40
3.0
 40
3.0
 40
3.0
 40
4.0
 40
4.0
 40
4.0
 40
4.0
 10
3.629029830069346
 20
3.363623663831781
 30
0.0
 10
3.63152566333963
 20
3.347470886462057
 30
0.0
 10
3.622453441346591
 20
3.332605609059807
 30
0.0
 10
3.608818719468811
 20
3.330547275778472
 30
0.0
 10
3.595172886480188
 20
3.328406998054763
 30
0.0
 10
3.582106220143625
 20
3.339865331098634
 30
0.0
 10
3.57961316465105
 20
3.356081997355633
 30
0.0
 10
3.577127053602755
 20
3.372254219169311
 30
0.0
 10
3.586156220041313
 20
3.38711949657156
 30
0.0
 10
3.599822886362731
 20
3.389198663185702
 30
0.0
 10
3.613488163795295
 20
3.391298724904875
 30
0.0
 10
3.626543719021039
 20
3.379837552311073
 30
0.0
 10
3.629029830069346
 20
3.363623663831781
 30
0.0
  0
SPLINE
  5
1AA
330
17F
100
AcDbEntity
  8
Layer 2
 62
   250
420
  2301728
370
    40
100
AcDbSpline
210
0.0
220
0.0
230
1.0
 70
     8
 71
     3
 72
    14
 73
    10
 74
     0
 42
0.0000000001
 43
0.0000000001
 40
0.0
 40
0.0
 40
0.0
 40
0.0
 40
1.0
 40
1.0
 40
1.0
 40
2.0
 40
2.0
 40
2.0
 40
3.0
 40
3.0
 40
3.0
 40
3.0
 10
3.590836775478628
 20
3.385343107727546
 30
0.0
 10
3.593824361394025
 20
3.38949727428927
 30
0.0
 10
3.599629916949588
 20
3.39112644091478
 30
0.0
 10
3.604608997352935
 20
3.392497274213484
 30
0.0
 10
3.617943719238294
 20
3.39622505189709
 30
0.0
 10
3.632275663320683
 20
3.386434774366635
 30
0.0
 10
3.636667329876407
 20
3.370626441432654
 30
0.0
 10
3.641078440876084
 20
3.354818108498673
 30
0.0
 10
3.633858996614018
 20
3.339031997786352
 30
0.0
 10
3.620558996950004
 20
3.335325053435553
 30
0.0
  0
SPLINE
  5
1AB
330
17F
100
AcDbEntity
  8
Layer 2
 62
   250
420
  2301728
370
    40
100
AcDbSpline
210
0.0
220
0.0
230
1.0
 70
     8
 71
     3
 72
    17
 73
    13
 74
     0
 42
0.0000000001
 43
0.0000000001
 40
0.0
 40
0.0
 40
0.0
 40
0.0
 40
1.0
 40
1.0
 40
1.0
 40
2.0
 40
2.0
 40
2.0
 40
3.0
 40
3.0
 40
3.0
 40
4.0
 40
4.0
 40
4.0
 40
4.0
 10
3.631247885568869
 20
3.379900052309494
 30
0.0
 10
3.631247885568869
 20
3.379900052309494
 30
0.0
 10
3.636185472505139
 20
3.378937613793722
 30
0.0
 10
3.636185472505139
 20
3.378937613793722
 30
0.0
 10
3.636185472505139
 20
3.378937613793722
 30
0.0
 10
3.650771496186772
 20
3.374973663545056
 30
0.0
 10
3.649079829562841
 20
3.355245886265644
 30
0.0
 10
3.649079829562841
 20
3.355245886265644
 30
0.0
 10
3.650407694727366
 20
3.333504220148218
 30
0.0
 10
3.634835385478241
 20
3.335752831202524
 30
0.0
 10
3.634835385478241
 20
3.335752831202524
 30
0.0
 10
3.623631219094615
 20
3.338066720032959
 30
0.0
 10
3.623631219094615
 20
3.338066720032959
 30
0.0
  0
SPLINE
  5
1AC
330
17F
100
AcDbEntity
  8
Layer 2
 62
   250
420
  2301728
370
    40
100
AcDbSpline
210
0.0
220
0.0
230
1.0
 70
     8
 71
     3
 72
    17
 73
    13
 74
     0
 42
0.0000000001
 43
0.0000000001
 40
0.0
 40
0.0
 40
0.0
 40
0.0
 40
1.0
 40
1.0
 40
1.0
 40
2.0
 40
2.0
 40
2.0
 40
3.0
 40
3.0
 40
3.0
 40
4.0
 40
4.0
 40
4.0
 40
4.0
 10
3.585213250282915
 20
3.346077830941693
 30
0.0
 10
3.585213250282915
 20
3.346077830941693
 30
0.0
 10
3.582429831246549
 20
3.346165330939482
 30
0.0
 10
3.57961316465105
 20
3.349055608644246
 30
0.0
 10
3.576689553613795
 20
3.352031997457945
 30
0.0
 10
3.57373260924405
 20
3.357965391571521
 30
0.0
 10
3.57373260924405
 20
3.369812613793732
 30
0.0
 10
3.57373260924405
 20
3.369812613793732
 30
0.0
 10
3.574471498114272
 20
3.390183385383048
 30
0.0
 10
3.586679831139197
 20
3.388683385420942
 30
0.0
 10
3.586679831139197
 20
3.388683385420942
 30
0.0
 10
3.596213250282921
 20
3.386820885467992
 30
0.0
 10
3.596213250282921
 20
3.386820885467992
 30
0.0
  0
SPLINE
  5
1AD
330
17F
100
AcDbEntity
  8
Layer 2
 62
   250
420
  2301728
370
    40
100
AcDbSpline
210
0.0
220
0.0
230
1.0
 70
     9
 71
     3
 72
    17
 73
    13
 74
     0
 42
0.0000000001
 43
0.0000000001
 40
0.0
 40
0.0
 40
0.0
 40
0.0
 40
1.0
 40
1.0
 40
1.0
 40
2.0
 40
2.0
 40
2.0
 40
3.0
 40
3.0
 40
3.0
 40
4.0
 40
4.0
 40
4.0
 40
4.0
 10
3.697564550560236
 20
3.601904213367864
 30
0.0
 10
3.700060472505141
 20
3.585690324888572
 30
0.0
 10
3.690999272948298
 20
3.570844491930276
 30
0.0
 10
3.677354828848554
 20
3.568768103093841
 30
0.0
 10
3.663710384748785
 20
3.566668103146891
 30
0.0
 10
3.650653440634199
 20
3.578129213968471
 30
0.0
 10
3.648147885141939
 20
3.594322269114955
 30
0.0
 10
3.645663162982486
 20
3.610537546483101
 30
0.0
 10
3.654702051643021
 20
3.625380601663689
 30
0.0
 10
3.668370106853305
 20
3.627461157166685
 30
0.0
 10
3.682013162064208
 20
3.629559768224781
 30
0.0
 10
3.695068717289952
 20
3.618098657403202
 30
0.0
 10
3.697564550560236
 20
3.601904213367864
 30
0.0
  0
SPLINE
  5
1AE
330
17F
100
AcDbEntity
  8
Layer 2
 62
   250
420
  2301728
370
    40
100
AcDbSpline
210
0.0
220
0.0
230
1.0
 70
     8
 71
     3
 72
    14
 73
    10
 74
     0
 42
0.0000000001
 43
0.0000000001
 40
0.0
 40
0.0
 40
0.0
 40
0.0
 40
1.0
 40
1.0
 40
1.0
 40
2.0
 40
2.0
 40
2.0
 40
3.0
 40
3.0
 40
3.0
 40
3.0
 10
3.659371495969518
 20
3.623581990598015
 30
0.0
 10
3.662358995894035
 20
3.62778060160306
 30
0.0
 10
3.668165940191796
 20
3.629344490452442
 30
0.0
 10
3.673145106732679
 20
3.630737545972806
 30
0.0
 10
3.686470106396061
 20
3.634463934767558
 30
0.0
 10
3.700810472505142
 20
3.624675046125958
 30
0.0
 10
3.70521325028292
 20
3.608888935413637
 30
0.0
 10
3.709624272477804
 20
3.593101435812463
 30
0.0
 10
3.702406217104591
 20
3.577293102878481
 30
0.0
 10
3.689104828551724
 20
3.573586158527682
 30
0.0
  0
SPLINE
  5
1AF
330
17F
100
AcDbEntity
  8
Layer 2
 62
   250
420
  2301728
370
    40
100
AcDbSpline
210
0.0
220
0.0
230
1.0
 70
     8
 71
     3
 72
    17
 73
    13
 74
     0
 42
0.0000000001
 43
0.0000000001
 40
0.0
 40
0.0
 40
0.0
 40
0.0
 40
1.0
 40
1.0
 40
1.0
 40
2.0
 40
2.0
 40
2.0
 40
3.0
 40
3.0
 40
3.0
 40
4.0
 40
4.0
 40
4.0
 40
4.0
 10
3.699782694727357
 20
3.618162546290477
 30
0.0
 10
3.699782694727357
 20
3.618162546290477
 30
0.0
 10
3.704720105935027
 20
3.61715560187147
 30
0.0
 10
3.704720105935027
 20
3.61715560187147
 30
0.0
 10
3.704720105935027
 20
3.61715560187147
 30
0.0
 10
3.719295105566831
 20
3.613236157526039
 30
0.0
 10
3.717627050053414
 20
3.593529213579434
 30
0.0
 10
3.717627050053414
 20
3.593529213579434
 30
0.0
 10
3.718931216687135
 20
3.571766714129201
 30
0.0
 10
3.703381217079961
 20
3.573972269629039
 30
0.0
 10
3.703381217079961
 20
3.573972269629039
 30
0.0
 10
3.692165939585505
 20
3.57635004734675
 30
0.0
 10
3.692165939585505
 20
3.57635004734675
 30
0.0
  0
SPLINE
  5
1B0
330
17F
100
AcDbEntity
  8
Layer 2
 62
   250
420
  2301728
370
    40
100
AcDbSpline
210
0.0
220
0.0
230
1.0
 70
     8
 71
     3
 72
    17
 73
    13
 74
     0
 42
0.0000000001
 43
0.0000000001
 40
0.0
 40
0.0
 40
0.0
 40
0.0
 40
1.0
 40
1.0
 40
1.0
 40
2.0
 40
2.0
 40
2.0
 40
3.0
 40
3.0
 40
3.0
 40
4.0
 40
4.0
 40
4.0
 40
4.0
 10
3.653758996111302
 20
3.584361158255483
 30
0.0
 10
3.653758996111302
 20
3.584361158255483
 30
0.0
 10
3.650975662848281
 20
3.584445880475565
 30
0.0
 10
3.648147885141939
 20
3.587318102625228
 30
0.0
 10
3.645235385215515
 20
3.590294491438928
 30
0.0
 10
3.642267329734939
 20
3.596208380178419
 30
0.0
 10
3.642267329734939
 20
3.608052824323648
 30
0.0
 10
3.642267329734939
 20
3.608052824323648
 30
0.0
 10
3.643017329716005
 20
3.628423724904829
 30
0.0
 10
3.655225662740917
 20
3.626966712734732
 30
0.0
 10
3.655225662740917
 20
3.626966712734732
 30
0.0
 10
3.664736773611757
 20
3.625061157227314
 30
0.0
 10
3.664736773611757
 20
3.625061157227314
 30
0.0
  0
SPLINE
  5
1B1
330
17F
100
AcDbEntity
  8
Layer 2
 62
   250
420
  2301728
370
    40
100
AcDbSpline
210
0.0
220
0.0
230
1.0
 70
     9
 71
     3
 72
    17
 73
    13
 74
     0
 42
0.0000000001
 43
0.0000000001
 40
0.0
 40
0.0
 40
0.0
 40
0.0
 40
1.0
 40
1.0
 40
1.0
 40
2.0
 40
2.0
 40
2.0
 40
3.0
 40
3.0
 40
3.0
 40
4.0
 40
4.0
 40
4.0
 40
4.0
 10
3.973539543588533
 20
3.529675048525859
 30
0.0
 10
3.976043710191927
 20
3.513480604490521
 30
0.0
 10
3.966963250282914
 20
3.498636160421078
 30
0.0
 10
3.953339544098816
 20
3.49655838269579
 30
0.0
 10
3.939693711110205
 20
3.494459771637694
 30
0.0
 10
3.926627044773617
 20
3.505898660237612
 30
0.0
 10
3.924120100392517
 20
3.522093104272951
 30
0.0
 10
3.921636767121917
 20
3.538284836015968
 30
0.0
 10
3.930675655782478
 20
3.553130603488877
 30
0.0
 10
3.94436315543669
 20
3.555229280460429
 30
0.0
 10
3.9580089884253
 20
3.557329214493923
 30
0.0
 10
3.971053432540227
 20
3.54586816934928
 30
0.0
 10
3.973539543588533
 20
3.529675048525859
 30
0.0
  0
SPLINE
  5
1B2
330
17F
100
AcDbEntity
  8
Layer 2
 62
   250
420
  2301728
370
    40
100
AcDbSpline
210
0.0
220
0.0
230
1.0
 70
     8
 71
     3
 72
    14
 73
    10
 74
     0
 42
0.0000000001
 43
0.0000000001
 40
0.0
 40
0.0
 40
0.0
 40
0.0
 40
1.0
 40
1.0
 40
1.0
 40
2.0
 40
2.0
 40
2.0
 40
3.0
 40
3.0
 40
3.0
 40
3.0
 10
3.935366028060697
 20
3.551373659088817
 30
0.0
 10
3.938345100033163
 20
3.555551436761056
 30
0.0
 10
3.94414787766435
 20
3.557136158943244
 30
0.0
 10
3.949140933093783
 20
3.558527825574754
 30
0.0
 10
3.962464543868311
 20
3.562276436591168
 30
0.0
 10
3.97679371017298
 20
3.552445881283953
 30
0.0
 10
3.981185472505141
 20
3.536679215015586
 30
0.0
 10
3.985597876617235
 20
3.520893104303265
 30
0.0
 10
3.978399265687976
 20
3.505040326925962
 30
0.0
 10
3.965077043802302
 20
3.501336160352871
 30
0.0
  0
SPLINE
  5
1B3
330
17F
100
AcDbEntity
  8
Layer 2
 62
   250
420
  2301728
370
    40
100
AcDbSpline
210
0.0
220
0.0
230
1.0
 70
     8
 71
     3
 72
    17
 73
    13
 74
     0
 42
0.0000000001
 43
0.0000000001
 40
0.0
 40
0.0
 40
0.0
 40
0.0
 40
1.0
 40
1.0
 40
1.0
 40
2.0
 40
2.0
 40
2.0
 40
3.0
 40
3.0
 40
3.0
 40
4.0
 40
4.0
 40
4.0
 40
4.0
 10
3.975764543532325
 20
3.545933381448473
 30
0.0
 10
3.975764543532325
 20
3.545933381448473
 30
0.0
 10
3.98071325028291
 20
3.544968103695079
 30
0.0
 10
3.98071325028291
 20
3.544968103695079
 30
0.0
 10
3.98071325028291
 20
3.544968103695079
 30
0.0
 10
3.995281209705947
 20
3.541048724904864
 30
0.0
 10
3.993608987525968
 20
3.521279215404622
 30
0.0
 10
3.993608987525968
 20
3.521279215404622
 30
0.0
 10
3.994915931937397
 20
3.499534836015957
 30
0.0
 10
3.979364543441369
 20
3.501786160341503
 30
0.0
 10
3.979364543441369
 20
3.501786160341503
 30
0.0
 10
3.968160377057756
 20
3.504119493615891
 30
0.0
 10
3.968160377057756
 20
3.504119493615891
 30
0.0
  0
SPLINE
  5
1B4
330
17F
100
AcDbEntity
  8
Layer 2
 62
   250
420
  2301728
370
    40
100
AcDbSpline
210
0.0
220
0.0
230
1.0
 70
     8
 71
     3
 72
    17
 73
    13
 74
     0
 42
0.0000000001
 43
0.0000000001
 40
0.0
 40
0.0
 40
0.0
 40
0.0
 40
1.0
 40
1.0
 40
1.0
 40
2.0
 40
2.0
 40
2.0
 40
3.0
 40
3.0
 40
3.0
 40
4.0
 40
4.0
 40
4.0
 40
4.0
 10
3.929754916949579
 20
3.512151437857432
 30
0.0
 10
3.929754916949579
 20
3.512151437857432
 30
0.0
 10
3.926968711431666
 20
3.512218104522414
 30
0.0
 10
3.924120100392517
 20
3.515130604448838
 30
0.0
 10
3.9212284337989
 20
3.518084771040876
 30
0.0
 10
3.918252044985213
 20
3.523998659780368
 30
0.0
 10
3.918252044985213
 20
3.535822270592789
 30
0.0
 10
3.918252044985213
 20
3.535822270592789
 30
0.0
 10
3.9190006560774
 20
3.556194492300366
 30
0.0
 10
3.931211766880032
 20
3.554736159003873
 30
0.0
 10
3.931211766880032
 20
3.554736159003873
 30
0.0
 10
3.940722877750873
 20
3.552829214607602
 30
0.0
 10
3.940722877750873
 20
3.552829214607602
 30
0.0
  0
SPLINE
  5
1B5
330
17F
100
AcDbEntity
  8
Layer 2
 62
   250
420
  2301728
370
    40
100
AcDbSpline
210
0.0
220
0.0
230
1.0
 70
     9
 71
     3
 72
    17
 73
    13
 74
     0
 42
0.0000000001
 43
0.0000000001
 40
0.0
 40
0.0
 40
0.0
 40
0.0
 40
1.0
 40
1.0
 40
1.0
 40
2.0
 40
2.0
 40
2.0
 40
3.0
 40
3.0
 40
3.0
 40
4.0
 40
4.0
 40
4.0
 40
4.0
 10
3.902378434275091
 20
3.29355422115744
 30
0.0
 10
3.904885378656204
 20
3.277404221565423
 30
0.0
 10
3.895802045552335
 20
3.262558388607127
 30
0.0
 10
3.882178434785386
 20
3.260481999770692
 30
0.0
 10
3.868535379574483
 20
3.258382058238162
 30
0.0
 10
3.855465935460188
 20
3.269798724904831
 30
0.0
 10
3.852961768856794
 20
3.28599316934929
 30
0.0
 10
3.850475657808487
 20
3.302229280460424
 30
0.0
 10
3.859515935357888
 20
3.317052831674926
 30
0.0
 10
3.873182601679306
 20
3.319152831621876
 30
0.0
 10
3.88684787911187
 20
3.321251442679971
 30
0.0
 10
3.899892323226797
 20
3.3097931096361
 30
0.0
 10
3.902378434275091
 20
3.29355422115744
 30
0.0
  0
SPLINE
  5
1B6
330
17F
100
AcDbEntity
  8
Layer 2
 62
   250
420
  2301728
370
    40
100
AcDbSpline
210
0.0
220
0.0
230
1.0
 70
     8
 71
     3
 72
    14
 73
    10
 74
     0
 42
0.0000000001
 43
0.0000000001
 40
0.0
 40
0.0
 40
0.0
 40
0.0
 40
1.0
 40
1.0
 40
1.0
 40
2.0
 40
2.0
 40
2.0
 40
3.0
 40
3.0
 40
3.0
 40
3.0
 10
3.864185472505141
 20
3.315295887274866
 30
0.0
 10
3.867183990719733
 20
3.319430609392636
 30
0.0
 10
3.872989546128628
 20
3.321080609350953
 30
0.0
 10
3.87795760155868
 20
3.322451502682623
 30
0.0
 10
3.891283990110915
 20
3.326155609222748
 30
0.0
 10
3.905635378637258
 20
3.316347276137194
 30
0.0
 10
3.910027045192982
 20
3.300580609868827
 30
0.0
 10
3.914438156192671
 20
3.284772276934846
 30
0.0
 10
3.907218711930593
 20
3.268986166222525
 30
0.0
 10
3.893917323377725
 20
3.265258388538919
 30
0.0
  0
SPLINE
  5
1B7
330
17F
100
AcDbEntity
  8
Layer 2
 62
   250
420
  2301728
370
    40
100
AcDbSpline
210
0.0
220
0.0
230
1.0
 70
     8
 71
     3
 72
    17
 73
    13
 74
     0
 42
0.0000000001
 43
0.0000000001
 40
0.0
 40
0.0
 40
0.0
 40
0.0
 40
1.0
 40
1.0
 40
1.0
 40
2.0
 40
2.0
 40
2.0
 40
3.0
 40
3.0
 40
3.0
 40
4.0
 40
4.0
 40
4.0
 40
4.0
 10
3.904606211996603
 20
3.309834776301714
 30
0.0
 10
3.904606211996603
 20
3.309834776301714
 30
0.0
 10
3.909554822982689
 20
3.308872276326029
 30
0.0
 10
3.909554822982689
 20
3.308872276326029
 30
0.0
 10
3.909554822982689
 20
3.308872276326029
 30
0.0
 10
3.924120100392517
 20
3.304930609758937
 30
0.0
 10
3.922450655990246
 20
3.285201502682614
 30
0.0
 10
3.922450655990246
 20
3.285201502682614
 30
0.0
 10
3.92375621151282
 20
3.263458388584391
 30
0.0
 10
3.908203434127939
 20
3.265708388527551
 30
0.0
 10
3.908203434127939
 20
3.265708388527551
 30
0.0
 10
3.897002045522033
 20
3.268022277357987
 30
0.0
 10
3.897002045522033
 20
3.268022277357987
 30
0.0
  0
SPLINE
  5
1B8
330
17F
100
AcDbEntity
  8
Layer 2
 62
   250
420
  2301728
370
    40
100
AcDbSpline
210
0.0
220
0.0
230
1.0
 70
     8
 71
     3
 72
    17
 73
    13
 74
     0
 42
0.0000000001
 43
0.0000000001
 40
0.0
 40
0.0
 40
0.0
 40
0.0
 40
1.0
 40
1.0
 40
1.0
 40
2.0
 40
2.0
 40
2.0
 40
3.0
 40
3.0
 40
3.0
 40
4.0
 40
4.0
 40
4.0
 40
4.0
 10
3.858574361394023
 20
3.27603338826672
 30
0.0
 10
3.858574361394023
 20
3.27603338826672
 30
0.0
 10
3.855788157674282
 20
3.276118169349299
 30
0.0
 10
3.852961768856794
 20
3.279009777080419
 30
0.0
 10
3.850047880041516
 20
3.281966721450165
 30
0.0
 10
3.847092324560624
 20
3.28792227685527
 30
0.0
 10
3.847092324560624
 20
3.299766721000499
 30
0.0
 10
3.847092324560624
 20
3.299766721000499
 30
0.0
 10
3.847842324541677
 20
3.32011816934932
 30
0.0
 10
3.86005065756659
 20
3.318616720524308
 30
0.0
 10
3.86005065756659
 20
3.318616720524308
 30
0.0
 10
3.869561768437442
 20
3.316775053904166
 30
0.0
 10
3.869561768437442
 20
3.316775053904166
 30
0.0
  0
LINE
  5
1B9
330
17F
100
AcDbEntity
  8
Layer 2
 62
   250
420
  2301728
370
    40
100
AcDbLine
 10
3.804614547855925
 20
3.492787549457716
 30
0.0
 11
3.804614547855925
 21
3.418823662437312
 31
0.0
  0
ENDBLK
  5
182
330
17F
100
AcDbEntity
  8
0
100
AcDbBlockEnd
  0
ENDSEC
  0
SECTION
  2
ENTITIES
  0
LWPOLYLINE
  5
79
330
70
100
AcDbEntity
  8
Layer 2
100
AcDbPolyline
 90
       55
 70
     1
 43
0.0
 10
5.597586724783872
 20
4.476766691266978
 10
5.718228388402874
 20
4.553538911549771
 10
5.717146443985762
 20
4.594323632741684
 10
5.915640883415814
 20
4.641277798222189
 10
5.910981161311307
 20
4.678313908397689
 10
5.96266866000557
 20
4.717086129640443
 10
5.964993659946836
 20
4.975783345327423
 10
5.773064498128708
 20
5.03610278824807
 10
5.762097831739083
 20
5.282869448680886
 10
5.603071446867539
 20
5.326738892017096
 10
5.594385335975857
 20
6.048058318239491
 10
5.661560472505142
 20
6.099938872484421
 10
5.544581170567349
 20
6.224230536011216
 10
5.599418669182037
 20
6.24616525767932
 10
5.594385335975857
 20
6.888002741465141
 10
5.633156168329756
 20
6.881534836015967
 10
6.589395033062019
 20
7.307976341966827
 10
6.589395033062019
 20
7.443655505205949
 10
4.443408976163078
 20
7.69010966564666
 10
4.436952031881749
 20
9.853873499874275
 10
4.281888146910103
 20
9.87971655477698
 10
4.262502036288702
 20
9.918466553798072
 10
3.855457602127077
 20
9.937852664419462
 10
3.823143805838475
 20
9.834476278142068
 10
3.758539549019878
 20
9.840947111311935
 10
3.525942332673555
 20
9.802186001180011
 10
3.525942332673555
 20
7.732608275684166
 10
3.357950670250728
 20
7.732608275684166
 10
3.357950670250728
 20
7.700305498722425
 10
3.261035394921223
 20
7.655076502682643
 10
3.261035394921223
 20
7.441866616362251
 10
3.041353456026412
 20
7.364336062765282
 10
3.041353456026412
 20
7.241573565866524
 10
3.280418727764892
 20
7.202801344623771
 10
3.280418727764892
 20
6.498555529081183
 10
3.345025670577241
 20
6.45978330783843
 10
3.2222742847893
 20
6.34993886616889
 10
3.29333539410527
 20
6.30471803397793
 10
3.29333539410527
 20
5.665077772358838
 10
3.164116028060687
 20
5.671526383307043
 10
3.164116028060687
 20
5.606919440494707
 10
3.060739566647789
 20
5.542315275460079
 10
3.060739566647789
 20
5.464773610752268
 10
2.950906236089079
 20
5.464773610752268
 10
2.950906236089079
 20
5.393698612547773
 10
2.866904849322256
 20
5.335562613793727
 10
2.866904849322256
 20
5.102958342114712
 10
3.525942332673555
 20
4.954361123646372
 10
3.525942332673555
 20
2.929316730358853
 10
4.068667318963169
 20
2.761336179046843
 10
4.217272870764633
 20
2.838858399310689
 10
4.314189534982991
 20
2.819472288689313
 10
4.333575645604367
 20
2.922848674966694
 10
4.430483976489591
 20
2.974557006993765
 10
4.430483976489591
 20
4.760526406320827
  0
HATCH
  5
7A
330
70
100
AcDbEntity
  8
Layer 2
 62
    43
420
 15510108
440
 33554687
100
AcDbHatch
 10
0.0
 20
0.0
 30
0.0
210
0.0
220
0.0
230
1.0
  2
SOLID
 70
     1
 71
     1
 91
        1
 92
        1
 93
       55
 72
     1
 10
5.597586724783872
 20
4.476766691266978
 11
5.718228388402874
 21
4.553538911549771
 72
     1
 10
5.718228388402874
 20
4.553538911549771
 11
5.717146443985762
 21
4.594323632741684
 72
     1
 10
5.717146443985762
 20
4.594323632741684
 11
5.915640883415814
 21
4.641277798222189
 72
     1
 10
5.915640883415814
 20
4.641277798222189
 11
5.910981161311307
 21
4.678313908397689
 72
     1
 10
5.910981161311307
 20
4.678313908397689
 11
5.96266866000557
 21
4.717086129640443
 72
     1
 10
5.96266866000557
 20
4.717086129640443
 11
5.964993659946836
 21
4.975783345327423
 72
     1
 10
5.964993659946836
 20
4.975783345327423
 11
5.773064498128708
 21
5.03610278824807
 72
     1
 10
5.773064498128708
 20
5.03610278824807
 11
5.762097831739083
 21
5.282869448680886
 72
     1
 10
5.762097831739083
 20
5.282869448680886
 11
5.603071446867539
 21
5.326738892017096
 72
     1
 10
5.603071446867539
 20
5.326738892017096
 11
5.594385335975857
 21
6.048058318239491
 72
     1
 10
5.594385335975857
 20
6.048058318239491
 11
5.661560472505142
 21
6.099938872484421
 72
     1
 10
5.661560472505142
 20
6.099938872484421
 11
5.544581170567349
 21
6.224230536011216
 72
     1
 10
5.544581170567349
 20
6.224230536011216
 11
5.599418669182037
 21
6.24616525767932
 72
     1
 10
5.599418669182037
 20
6.24616525767932
 11
5.594385335975857
 21
6.888002741465141
 72
     1
 10
5.594385335975857
 20
6.888002741465141
 11
5.633156168329756
 21
6.881534836015967
 72
     1
 10
5.633156168329756
 20
6.881534836015967
 11
6.589395033062019
 21
7.307976341966827
 72
     1
 10
6.589395033062019
 20
7.307976341966827
 11
6.589395033062019
 21
7.443655505205949
 72
     1
 10
6.589395033062019
 20
7.443655505205949
 11
4.443408976163078
 21
7.69010966564666
 72
     1
 10
4.443408976163078
 20
7.69010966564666
 11
4.436952031881749
 21
9.853873499874275
 72
     1
 10
4.436952031881749
 20
9.853873499874275
 11
4.281888146910103
 21
9.87971655477698
 72
     1
 10
4.281888146910103
 20
9.87971655477698
 11
4.262502036288702
 21
9.918466553798072
 72
     1
 10
4.262502036288702
 20
9.918466553798072
 11
3.855457602127077
 21
9.937852664419462
 72
     1
 10
3.855457602127077
 20
9.937852664419462
 11
3.823143805838475
 21
9.834476278142068
 72
     1
 10
3.823143805838475
 20
9.834476278142068
 11
3.758539549019878
 21
9.840947111311935
 72
     1
 10
3.758539549019878
 20
9.840947111311935
 11
3.525942332673555
 21
9.802186001180011
 72
     1
 10
3.525942332673555
 20
9.802186001180011
 11
3.525942332673555
 21
7.732608275684166
 72
     1
 10
3.525942332673555
 20
7.732608275684166
 11
3.357950670250728
 21
7.732608275684166
 72
     1
 10
3.357950670250728
 20
7.732608275684166
 11
3.357950670250728
 21
7.700305498722425
 72
     1
 10
3.357950670250728
 20
7.700305498722425
 11
3.261035394921223
 21
7.655076502682643
 72
     1
 10
3.261035394921223
 20
7.655076502682643
 11
3.261035394921223
 21
7.441866616362251
 72
     1
 10
3.261035394921223
 20
7.441866616362251
 11
3.041353456026412
 21
7.364336062765282
 72
     1
 10
3.041353456026412
 20
7.364336062765282
 11
3.041353456026412
 21
7.241573565866524
 72
     1
 10
3.041353456026412
 20
7.241573565866524
 11
3.280418727764892
 21
7.202801344623771
 72
     1
 10
3.280418727764892
 20
7.202801344623771
 11
3.280418727764892
 21
6.498555529081183
 72
     1
 10
3.280418727764892
 20
6.498555529081183
 11
3.345025670577241
 21
6.45978330783843
 72
     1
 10
3.345025670577241
 20
6.45978330783843
 11
3.2222742847893
 21
6.34993886616889
 72
     1
 10
3.2222742847893
 20
6.34993886616889
 11
3.29333539410527
 21
6.30471803397793
 72
     1
 10
3.29333539410527
 20
6.30471803397793
 11
3.29333539410527
 21
5.665077772358838
 72
     1
 10
3.29333539410527
 20
5.665077772358838
 11
3.164116028060687
 21
5.671526383307043
 72
     1
 10
3.164116028060687
 20
5.671526383307043
 11
3.164116028060687
 21
5.606919440494707
 72
     1
 10
3.164116028060687
 20
5.606919440494707
 11
3.060739566647789
 21
5.542315275460079
 72
     1
 10
3.060739566647789
 20
5.542315275460079
 11
3.060739566647789
 21
5.464773610752268
 72
     1
 10
3.060739566647789
 20
5.464773610752268
 11
2.950906236089079
 21
5.464773610752268
 72
     1
 10
2.950906236089079
 20
5.464773610752268
 11
2.950906236089079
 21
5.393698612547773
 72
     1
 10
2.950906236089079
 20
5.393698612547773
 11
2.866904849322256
 21
5.335562613793727
 72
     1
 10
2.866904849322256
 20
5.335562613793727
 11
2.866904849322256
 21
5.102958342114712
 72
     1
 10
2.866904849322256
 20
5.102958342114712
 11
3.525942332673555
 21
4.954361123646372
 72
     1
 10
3.525942332673555
 20
4.954361123646372
 11
3.525942332673555
 21
2.929316730358853
 72
     1
 10
3.525942332673555
 20
2.929316730358853
 11
4.068667318963169
 21
2.761336179046843
 72
     1
 10
4.068667318963169
 20
2.761336179046843
 11
4.217272870764633
 21
2.838858399310689
 72
     1
 10
4.217272870764633
 20
2.838858399310689
 11
4.314189534982991
 21
2.819472288689313
 72
     1
 10
4.314189534982991
 20
2.819472288689313
 11
4.333575645604367
 21
2.922848674966694
 72
     1
 10
4.333575645604367
 20
2.922848674966694
 11
4.430483976489591
 21
2.974557006993765
 72
     1
 10
4.430483976489591
 20
2.974557006993765
 11
4.430483976489591
 21
4.760526406320827
 72
     1
 10
4.430483976489591
 20
4.760526406320827
 11
5.597586724783872
 21
4.476766691266978
 97
        1
330
79
 75
     2
 76
     1
 98
        1
 10
0.0
 20
0.0
450
        0
451
        0
460
0.0
461
0.0
452
        0
462
0.0
453
        0
470

  0
SPLINE
  5
7B
330
70
100
AcDbEntity
  8
Layer 2
100
AcDbSpline
210
0.0
220
0.0
230
1.0
 70
     9
 71
     3
 72
    11
 73
     7
 74
     0
 42
0.0000000001
 43
0.0000000001
 40
0.0
 40
0.0
 40
0.0
 40
0.0
 40
1.0
 40
1.0
 40
1.0
 40
2.0
 40
2.0
 40
2.0
 40
2.0
 10
3.811736769898225
 20
7.130870790885333
 30
0.0
 10
3.840986769159308
 20
7.203990233482626
 30
0.0
 10
3.767867326562016
 20
7.207643011168126
 30
0.0
 10
3.767867326562016
 20
7.207643011168126
 30
0.0
 10
3.731313160818785
 20
7.14549023496046
 30
0.0
 10
3.811736769898225
 20
7.130870790885333
 30
0.0
 10
3.811736769898225
 20
7.130870790885333
 30
0.0
  0
SPLINE
  5
7C
330
70
100
AcDbEntity
  8
Layer 2
100
AcDbSpline
210
0.0
220
0.0
230
1.0
 70
     9
 71
     3
 72
    11
 73
     7
 74
     0
 42
0.0000000001
 43
0.0000000001
 40
0.0
 40
0.0
 40
0.0
 40
0.0
 40
1.0
 40
1.0
 40
1.0
 40
2.0
 40
2.0
 40
2.0
 40
2.0
 10
3.804421583616253
 20
5.621037495693611
 30
0.0
 10
3.855606213234434
 20
5.694168049401733
 30
0.0
 10
3.767867326562016
 20
5.701449993662221
 30
0.0
 10
3.767867326562016
 20
5.701449993662221
 30
0.0
 10
3.742281216097264
 20
5.63564594712707
 30
0.0
 10
3.804421583616253
 20
5.621037495693611
 30
0.0
 10
3.804421583616253
 20
5.621037495693611
 30
0.0
  0
SPLINE
  5
7D
330
70
100
AcDbEntity
  8
Layer 2
100
AcDbSpline
210
0.0
220
0.0
230
1.0
 70
    11
 71
     3
 72
    32
 73
    28
 74
     0
 42
0.0000000001
 43
0.0000000001
 40
0.0
 40
0.0
 40
0.0
 40
0.0
 40
1.0
 40
1.0
 40
1.0
 40
2.0
 40
2.0
 40
2.0
 40
3.0
 40
3.0
 40
3.0
 40
4.0
 40
4.0
 40
4.0
 40
5.0
 40
5.0
 40
5.0
 40
6.0
 40
6.0
 40
6.0
 40
7.0
 40
7.0
 40
7.0
 40
8.0
 40
8.0
 40
8.0
 40
9.0
 40
9.0
 40
9.0
 40
9.0
 10
3.950649266389
 20
3.157019502384375
 30
0.0
 10
3.950649266389
 20
3.157019502384375
 30
0.0
 10
3.59238955321718
 20
3.248422277853124
 30
0.0
 10
3.59238955321718
 20
3.248422277853124
 30
0.0
 10
3.59238955321718
 20
3.248422277853124
 30
0.0
 10
3.515607610712411
 20
3.325193109247063
 30
0.0
 10
3.515607610712411
 20
3.325193109247063
 30
0.0
 10
3.515607610712411
 20
3.325193109247063
 30
0.0
 10
3.515607610712411
 20
9.358167956841295
 30
0.0
 10
3.515607610712411
 20
9.358167956841295
 30
0.0
 10
3.515607610712411
 20
9.358167956841295
 30
0.0
 10
3.603357608495671
 20
9.434940177124088
 30
0.0
 10
3.603357608495671
 20
9.434940177124088
 30
0.0
 10
3.603357608495671
 20
9.434940177124088
 30
0.0
 10
3.654531218314016
 20
9.445906843513713
 30
0.0
 10
3.654531218314016
 20
9.445906843513713
 30
0.0
 10
3.654531218314016
 20
9.445906843513713
 30
0.0
 10
3.990867320928575
 20
9.405690177863018
 30
0.0
 10
3.990867320928575
 20
9.405690177863018
 30
0.0
 10
3.990867320928575
 20
9.405690177863018
 30
0.0
 10
4.071290930008002
 20
9.317951502682641
 30
0.0
 10
4.071290930008002
 20
9.317951502682641
 30
0.0
 10
4.071290930008002
 20
9.317951502682641
 30
0.0
 10
4.071290930008002
 20
3.230150056092497
 30
0.0
 10
4.071290930008002
 20
3.230150056092497
 30
0.0
 10
4.071290930008002
 20
3.230150056092497
 30
0.0
 10
3.950649266389
 20
3.157019502384375
 30
0.0
 10
3.950649266389
 20
3.157019502384375
 30
0.0
  0
HATCH
  5
7E
330
70
100
AcDbEntity
  8
Layer 2
 62
     9
420
 12373463
440
 33554687
100
AcDbHatch
 10
0.0
 20
0.0
 30
0.0
210
0.0
220
0.0
230
1.0
  2
SOLID
 70
     1
 71
     1
 91
        3
 92
        1
 93
        1
 72
     4
 94
        3
 73
     0
 74
     0
 95
       11
 96
        7
 40
0.0
 40
0.0
 40
0.0
 40
0.0
 40
1.0
 40
1.0
 40
1.0
 40
2.0
 40
2.0
 40
2.0
 40
2.0
 10
3.811736769898225
 20
7.130870790885333
 10
3.840986769159308
 20
7.203990233482626
 10
3.767867326562016
 20
7.207643011168126
 10
3.767867326562016
 20
7.207643011168126
 10
3.731313160818785
 20
7.14549023496046
 10
3.811736769898225
 20
7.130870790885333
 10
3.811736769898225
 20
7.130870790885333
 97
        0
 97
        1
330
7B
 92
        1
 93
        1
 72
     4
 94
        3
 73
     0
 74
     0
 95
       11
 96
        7
 40
0.0
 40
0.0
 40
0.0
 40
0.0
 40
1.0
 40
1.0
 40
1.0
 40
2.0
 40
2.0
 40
2.0
 40
2.0
 10
3.804421583616253
 20
5.621037495693611
 10
3.855606213234434
 20
5.694168049401733
 10
3.767867326562016
 20
5.701449993662221
 10
3.767867326562016
 20
5.701449993662221
 10
3.742281216097264
 20
5.63564594712707
 10
3.804421583616253
 20
5.621037495693611
 10
3.804421583616253
 20
5.621037495693611
 97
        0
 97
        1
330
7C
 92
        1
 93
        1
 72
     4
 94
        3
 73
     0
 74
     0
 95
       32
 96
       28
 40
0.0
 40
0.0
 40
0.0
 40
0.0
 40
1.0
 40
1.0
 40
1.0
 40
2.0
 40
2.0
 40
2.0
 40
3.0
 40
3.0
 40
3.0
 40
4.0
 40
4.0
 40
4.0
 40
5.0
 40
5.0
 40
5.0
 40
6.0
 40
6.0
 40
6.0
 40
7.0
 40
7.0
 40
7.0
 40
8.0
 40
8.0
 40
8.0
 40
9.0
 40
9.0
 40
9.0
 40
9.0
 10
3.950649266389
 20
3.157019502384375
 10
3.950649266389
 20
3.157019502384375
 10
3.59238955321718
 20
3.248422277853124
 10
3.59238955321718
 20
3.248422277853124
 10
3.59238955321718
 20
3.248422277853124
 10
3.515607610712411
 20
3.325193109247063
 10
3.515607610712411
 20
3.325193109247063
 10
3.515607610712411
 20
3.325193109247063
 10
3.515607610712411
 20
9.358167956841295
 10
3.515607610712411
 20
9.358167956841295
 10
3.515607610712411
 20
9.358167956841295
 10
3.603357608495671
 20
9.434940177124088
 10
3.603357608495671
 20
9.434940177124088
 10
3.603357608495671
 20
9.434940177124088
 10
3.654531218314016
 20
9.445906843513713
 10
3.654531218314016
 20
9.445906843513713
 10
3.654531218314016
 20
9.445906843513713
 10
3.990867320928575
 20
9.405690177863018
 10
3.990867320928575
 20
9.405690177863018
 10
3.990867320928575
 20
9.405690177863018
 10
4.071290930008002
 20
9.317951502682641
 10
4.071290930008002
 20
9.317951502682641
 10
4.071290930008002
 20
9.317951502682641
 10
4.071290930008002
 20
3.230150056092497
 10
4.071290930008002
 20
3.230150056092497
 10
4.071290930008002
 20
3.230150056092497
 10
3.950649266389
 20
3.157019502384375
 10
3.950649266389
 20
3.157019502384375
 97
        0
 97
        1
330
7D
 75
     2
 76
     1
 98
        1
 10
0.0
 20
0.0
450
        0
451
        0
460
0.0
461
0.0
452
        0
462
0.0
453
        0
470

  0
LWPOLYLINE
  5
7F
330
70
100
AcDbEntity
  8
Layer 2
 62
   250
420
  2301728
370
    53
100
AcDbPolyline
 90
        9
 70
     1
 43
0.0
 10
4.068753430072105
 20
9.323145947127082
 10
3.993200654202963
 20
9.407083233383369
 10
3.655054829411899
 20
9.443422121354261
 10
3.596674275331161
 20
9.430173724904863
 10
3.529113165926787
 20
9.365880456646461
 10
3.529113165926787
 20
3.335004220110325
 10
3.59334371985973
 20
3.24752227787586
 10
3.953574361394025
 20
3.161132058238207
 10
4.068753430072105
 20
3.225137556219124
  0
LWPOLYLINE
  5
80
330
70
100
AcDbEntity
  8
Layer 2
 62
   250
420
  2301728
370
    40
100
AcDbPolyline
 90
        4
 70
     0
 43
0.0
 10
3.598783997500087
 20
9.422141566336309
 10
3.976385376849962
 20
9.379761011851364
 10
4.035186764253404
 20
9.306362402594459
 10
4.035186764253404
 20
3.220940334102932
  0
SPLINE
  5
81
330
70
100
AcDbEntity
  8
Layer 2
 62
   250
420
  2301728
370
    40
100
AcDbSpline
210
0.0
220
0.0
230
1.0
 70
     9
 71
     3
 72
    17
 73
    13
 74
     0
 42
0.0000000001
 43
0.0000000001
 40
0.0
 40
0.0
 40
0.0
 40
0.0
 40
1.0
 40
1.0
 40
1.0
 40
2.0
 40
2.0
 40
2.0
 40
3.0
 40
3.0
 40
3.0
 40
4.0
 40
4.0
 40
4.0
 40
4.0
 10
3.818945103049461
 20
7.162016623431857
 30
0.0
 10
3.823228436274588
 20
7.134040235249711
 30
0.0
 10
3.807571492225671
 20
7.108356902565193
 30
0.0
 10
3.78398815948809
 20
7.104737458212184
 30
0.0
 10
3.760403437861681
 20
7.101159836015969
 30
0.0
 10
3.737825660654266
 20
7.120931902247522
 30
0.0
 10
3.733520105207465
 20
7.148908290429668
 30
0.0
 10
3.72921454976069
 20
7.176947178610235
 30
0.0
 10
3.744829827144005
 20
7.202586066851431
 30
0.0
 10
3.768435472505138
 20
7.206208288982148
 30
0.0
 10
3.792061770395257
 20
7.209848566667965
 30
0.0
 10
3.814661769824333
 20
7.190077733834085
 30
0.0
 10
3.818945103049461
 20
7.162016623431857
 30
0.0
  0
SPLINE
  5
82
330
70
100
AcDbEntity
  8
Layer 2
 62
   250
420
  2301728
370
    40
100
AcDbSpline
210
0.0
220
0.0
230
1.0
 70
     9
 71
     3
 72
    17
 73
    13
 74
     0
 42
0.0000000001
 43
0.0000000001
 40
0.0
 40
0.0
 40
0.0
 40
0.0
 40
1.0
 40
1.0
 40
1.0
 40
2.0
 40
2.0
 40
2.0
 40
3.0
 40
3.0
 40
3.0
 40
4.0
 40
4.0
 40
4.0
 40
4.0
 10
3.818945103049461
 20
7.162016623431857
 30
0.0
 10
3.823228436274588
 20
7.134040235249711
 30
0.0
 10
3.807571492225671
 20
7.108356902565193
 30
0.0
 10
3.78398815948809
 20
7.104737458212184
 30
0.0
 10
3.760403437861681
 20
7.101159836015969
 30
0.0
 10
3.737825660654266
 20
7.120931902247522
 30
0.0
 10
3.733520105207465
 20
7.148908290429668
 30
0.0
 10
3.72921454976069
 20
7.176947178610235
 30
0.0
 10
3.744829827144005
 20
7.202586066851431
 30
0.0
 10
3.768435472505138
 20
7.206208288982148
 30
0.0
 10
3.792061770395257
 20
7.209848566667965
 30
0.0
 10
3.814661769824333
 20
7.190077733834085
 30
0.0
 10
3.818945103049461
 20
7.162016623431857
 30
0.0
  0
SPLINE
  5
83
330
70
100
AcDbEntity
  8
Layer 2
 62
   250
420
  2301728
370
    40
100
AcDbSpline
210
0.0
220
0.0
230
1.0
 70
     8
 71
     3
 72
    14
 73
    10
 74
     0
 42
0.0000000001
 43
0.0000000001
 40
0.0
 40
0.0
 40
0.0
 40
0.0
 40
1.0
 40
1.0
 40
1.0
 40
2.0
 40
2.0
 40
2.0
 40
3.0
 40
3.0
 40
3.0
 40
3.0
 10
3.815496492025469
 20
7.123673724904859
 30
0.0
 10
3.813717325403747
 20
7.123373568852507
 30
0.0
 10
3.812004916949578
 20
7.123244402189103
 30
0.0
 10
3.81027010326861
 20
7.123244402189103
 30
0.0
 10
3.788657694727362
 20
7.12298745775115
 30
0.0
 10
3.768971493200789
 20
7.141945790605555
 30
0.0
 10
3.765007604412037
 20
7.167863845506366
 30
0.0
 10
3.762866028060695
 20
7.181724956267316
 30
0.0
 10
3.765650659951347
 20
7.19502495593133
 30
0.0
 10
3.771861770905552
 20
7.205372177892159
 30
0.0
  0
SPLINE
  5
84
330
70
100
AcDbEntity
  8
Layer 2
 62
   250
420
  2301728
370
    40
100
AcDbSpline
210
0.0
220
0.0
230
1.0
 70
     9
 71
     3
 72
    17
 73
    13
 74
     0
 42
0.0000000001
 43
0.0000000001
 40
0.0
 40
0.0
 40
0.0
 40
0.0
 40
1.0
 40
1.0
 40
1.0
 40
2.0
 40
2.0
 40
2.0
 40
3.0
 40
3.0
 40
3.0
 40
4.0
 40
4.0
 40
4.0
 40
4.0
 10
3.818945103049461
 20
5.65691527256504
 30
0.0
 10
3.823228436274588
 20
5.628920828827795
 30
0.0
 10
3.807571492225671
 20
5.603257058238201
 30
0.0
 10
3.78398815948809
 20
5.599637496234221
 30
0.0
 10
3.760403437861681
 20
5.596059718546812
 30
0.0
 10
3.737825660654266
 20
5.615831940269559
 30
0.0
 10
3.733520105207465
 20
5.643829161784512
 30
0.0
 10
3.72921454976069
 20
5.671845827743418
 30
0.0
 10
3.744829827144005
 20
5.697466660429514
 30
0.0
 10
3.768435472505138
 20
5.701106938115331
 30
0.0
 10
3.792061770395257
 20
5.704726382468341
 30
0.0
 10
3.814661769824333
 20
5.684934716301654
 30
0.0
 10
3.818945103049461
 20
5.65691527256504
 30
0.0
  0
SPLINE
  5
85
330
70
100
AcDbEntity
  8
Layer 2
 62
   250
420
  2301728
370
    40
100
AcDbSpline
210
0.0
220
0.0
230
1.0
 70
     9
 71
     3
 72
    17
 73
    13
 74
     0
 42
0.0000000001
 43
0.0000000001
 40
0.0
 40
0.0
 40
0.0
 40
0.0
 40
1.0
 40
1.0
 40
1.0
 40
2.0
 40
2.0
 40
2.0
 40
3.0
 40
3.0
 40
3.0
 40
4.0
 40
4.0
 40
4.0
 40
4.0
 10
3.818945103049461
 20
5.65691527256504
 30
0.0
 10
3.823228436274588
 20
5.628920828827795
 30
0.0
 10
3.807571492225671
 20
5.603257058238201
 30
0.0
 10
3.78398815948809
 20
5.599637496234221
 30
0.0
 10
3.760403437861681
 20
5.596059718546812
 30
0.0
 10
3.737825660654266
 20
5.615831940269559
 30
0.0
 10
3.733520105207465
 20
5.643829161784512
 30
0.0
 10
3.72921454976069
 20
5.671845827743418
 30
0.0
 10
3.744829827144005
 20
5.697466660429514
 30
0.0
 10
3.768435472505138
 20
5.701106938115331
 30
0.0
 10
3.792061770395257
 20
5.704726382468341
 30
0.0
 10
3.814661769824333
 20
5.684934716301654
 30
0.0
 10
3.818945103049461
 20
5.65691527256504
 30
0.0
  0
SPLINE
  5
86
330
70
100
AcDbEntity
  8
Layer 2
 62
   250
420
  2301728
370
    40
100
AcDbSpline
210
0.0
220
0.0
230
1.0
 70
     8
 71
     3
 72
    14
 73
    10
 74
     0
 42
0.0000000001
 43
0.0000000001
 40
0.0
 40
0.0
 40
0.0
 40
0.0
 40
1.0
 40
1.0
 40
1.0
 40
2.0
 40
2.0
 40
2.0
 40
3.0
 40
3.0
 40
3.0
 40
3.0
 10
3.815496492025469
 20
5.618551384645305
 30
0.0
 10
3.813717325403747
 20
5.618251384652883
 30
0.0
 10
3.812004916949578
 20
5.618145947127092
 30
0.0
 10
3.81027010326861
 20
5.618145947127092
 30
0.0
 10
3.788657694727362
 20
5.617908329105994
 30
0.0
 10
3.768971493200789
 20
5.636801384184283
 30
0.0
 10
3.765007604412037
 20
5.662722216862789
 30
0.0
 10
3.762866028060695
 20
5.676601383178838
 30
0.0
 10
3.765650659951347
 20
5.689924993953354
 30
0.0
 10
3.771861770905552
 20
5.700249993692535
 30
0.0
  0
SPLINE
  5
87
330
70
100
AcDbEntity
  8
Layer 2
 62
   250
420
  2301728
370
    40
100
AcDbSpline
210
0.0
220
0.0
230
1.0
 70
     9
 71
     3
 72
    17
 73
    13
 74
     0
 42
0.0000000001
 43
0.0000000001
 40
0.0
 40
0.0
 40
0.0
 40
0.0
 40
1.0
 40
1.0
 40
1.0
 40
2.0
 40
2.0
 40
2.0
 40
3.0
 40
3.0
 40
3.0
 40
4.0
 40
4.0
 40
4.0
 40
4.0
 10
3.629029830069346
 20
8.316342983160009
 30
0.0
 10
3.63152566333963
 20
8.300170761346331
 30
0.0
 10
3.622453441346591
 20
8.285316595054911
 30
0.0
 10
3.608818719468811
 20
8.283247150662747
 30
0.0
 10
3.595172886480188
 20
8.281126317382989
 30
0.0
 10
3.582106220143625
 20
8.292576502682639
 30
0.0
 10
3.57961316465105
 20
8.308781872239908
 30
0.0
 10
3.577127053602755
 20
8.324987427386076
 30
0.0
 10
3.586156220041313
 20
8.339819371455835
 30
0.0
 10
3.599822886362731
 20
8.341908260291953
 30
0.0
 10
3.613488163795295
 20
8.344007058238199
 30
0.0
 10
3.626543719021039
 20
8.332559649417008
 30
0.0
 10
3.629029830069346
 20
8.316342983160009
 30
0.0
  0
SPLINE
  5
88
330
70
100
AcDbEntity
  8
Layer 2
 62
   250
420
  2301728
370
    40
100
AcDbSpline
210
0.0
220
0.0
230
1.0
 70
     8
 71
     3
 72
    14
 73
    10
 74
     0
 42
0.0000000001
 43
0.0000000001
 40
0.0
 40
0.0
 40
0.0
 40
0.0
 40
1.0
 40
1.0
 40
1.0
 40
2.0
 40
2.0
 40
2.0
 40
3.0
 40
3.0
 40
3.0
 40
3.0
 10
3.590836775478628
 20
8.33804298261182
 30
0.0
 10
3.593824361394025
 20
8.342219371395206
 30
0.0
 10
3.599629916949588
 20
8.343824926910201
 30
0.0
 10
3.604608997352935
 20
8.345217982430565
 30
0.0
 10
3.617943719238294
 20
8.348936037892194
 30
0.0
 10
3.632275663320683
 20
8.33913464925091
 30
0.0
 10
3.636667329876407
 20
8.323337427427759
 30
0.0
 10
3.641078440876084
 20
8.307548724904865
 30
0.0
 10
3.633858996614018
 20
8.291751317114579
 30
0.0
 10
3.620558996950004
 20
8.288024928319828
 30
0.0
  0
SPLINE
  5
89
330
70
100
AcDbEntity
  8
Layer 2
 62
   250
420
  2301728
370
    40
100
AcDbSpline
210
0.0
220
0.0
230
1.0
 70
     8
 71
     3
 72
    17
 73
    13
 74
     0
 42
0.0000000001
 43
0.0000000001
 40
0.0
 40
0.0
 40
0.0
 40
0.0
 40
1.0
 40
1.0
 40
1.0
 40
2.0
 40
2.0
 40
2.0
 40
3.0
 40
3.0
 40
3.0
 40
4.0
 40
4.0
 40
4.0
 40
4.0
 10
3.631247885568869
 20
8.332611038304598
 30
0.0
 10
3.631247885568869
 20
8.332611038304598
 30
0.0
 10
3.636185472505139
 20
8.331626316107252
 30
0.0
 10
3.636185472505139
 20
8.331626316107252
 30
0.0
 10
3.636185472505139
 20
8.331626316107252
 30
0.0
 10
3.650771496186772
 20
8.327695760650991
 30
0.0
 10
3.649079829562841
 20
8.307967983371579
 30
0.0
 10
3.649079829562841
 20
8.307967983371579
 30
0.0
 10
3.650407694727366
 20
8.286226317254152
 30
0.0
 10
3.634835385478241
 20
8.288452706086799
 30
0.0
 10
3.634835385478241
 20
8.288452706086799
 30
0.0
 10
3.623631219094615
 20
8.290799928249725
 30
0.0
 10
3.623631219094615
 20
8.290799928249725
 30
0.0
  0
SPLINE
  5
8A
330
70
100
AcDbEntity
  8
Layer 2
 62
   250
420
  2301728
370
    40
100
AcDbSpline
210
0.0
220
0.0
230
1.0
 70
     8
 71
     3
 72
    17
 73
    13
 74
     0
 42
0.0000000001
 43
0.0000000001
 40
0.0
 40
0.0
 40
0.0
 40
0.0
 40
1.0
 40
1.0
 40
1.0
 40
2.0
 40
2.0
 40
2.0
 40
3.0
 40
3.0
 40
3.0
 40
4.0
 40
4.0
 40
4.0
 40
4.0
 10
3.585213250282915
 20
8.298809650269605
 30
0.0
 10
3.585213250282915
 20
8.298809650269605
 30
0.0
 10
3.582429831246549
 20
8.298895947127082
 30
0.0
 10
3.57961316465105
 20
8.301766594639349
 30
0.0
 10
3.576689553613795
 20
8.304743169349308
 30
0.0
 10
3.57373260924405
 20
8.310676316636493
 30
0.0
 10
3.57373260924405
 20
8.3225124274486
 30
0.0
 10
3.57373260924405
 20
8.3225124274486
 30
0.0
 10
3.574471498114272
 20
8.342883260267322
 30
0.0
 10
3.586679831139197
 20
8.341405482526877
 30
0.0
 10
3.586679831139197
 20
8.341405482526877
 30
0.0
 10
3.596213250282921
 20
8.339520947127084
 30
0.0
 10
3.596213250282921
 20
8.339520947127084
 30
0.0
  0
SPLINE
  5
8B
330
70
100
AcDbEntity
  8
Layer 2
 62
   250
420
  2301728
370
    40
100
AcDbSpline
210
0.0
220
0.0
230
1.0
 70
     9
 71
     3
 72
    17
 73
    13
 74
     0
 42
0.0000000001
 43
0.0000000001
 40
0.0
 40
0.0
 40
0.0
 40
0.0
 40
1.0
 40
1.0
 40
1.0
 40
2.0
 40
2.0
 40
2.0
 40
3.0
 40
3.0
 40
3.0
 40
4.0
 40
4.0
 40
4.0
 40
4.0
 10
3.697564550560236
 20
8.554592977141307
 30
0.0
 10
3.700060472505141
 20
8.53842075532763
 30
0.0
 10
3.690999272948298
 20
8.52356658903621
 30
0.0
 10
3.677354828848554
 20
8.521487422422069
 30
0.0
 10
3.663710384748785
 20
8.519379089141995
 30
0.0
 10
3.650653440634199
 20
8.530837422185868
 30
0.0
 10
3.648147885141939
 20
8.54702214399923
 30
0.0
 10
3.645663162982486
 20
8.563248532478205
 30
0.0
 10
3.654702051643021
 20
8.578081865436818
 30
0.0
 10
3.668370106853305
 20
8.580169365384083
 30
0.0
 10
3.682013162064208
 20
8.582267976442178
 30
0.0
 10
3.695068717289952
 20
8.570809643398307
 30
0.0
 10
3.697564550560236
 20
8.554592977141307
 30
0.0
  0
SPLINE
  5
8C
330
70
100
AcDbEntity
  8
Layer 2
 62
   250
420
  2301728
370
    40
100
AcDbSpline
210
0.0
220
0.0
230
1.0
 70
     8
 71
     3
 72
    14
 73
    10
 74
     0
 42
0.0000000001
 43
0.0000000001
 40
0.0
 40
0.0
 40
0.0
 40
0.0
 40
1.0
 40
1.0
 40
1.0
 40
2.0
 40
2.0
 40
2.0
 40
3.0
 40
3.0
 40
3.0
 40
3.0
 10
3.659371495969518
 20
8.576304087703963
 30
0.0
 10
3.662358995894035
 20
8.580480476487334
 30
0.0
 10
3.668165940191796
 20
8.58208603200233
 30
0.0
 10
3.673145106732679
 20
8.583456865301046
 30
0.0
 10
3.686470106396061
 20
8.587186031873493
 30
0.0
 10
3.700810472505142
 20
8.577374921010232
 30
0.0
 10
3.70521325028292
 20
8.561599921408754
 30
0.0
 10
3.709624272477804
 20
8.545811032918713
 30
0.0
 10
3.702406217104591
 20
8.529991588873901
 30
0.0
 10
3.689104828551724
 20
8.526286033411956
 30
0.0
  0
SPLINE
  5
8D
330
70
100
AcDbEntity
  8
Layer 2
 62
   250
420
  2301728
370
    40
100
AcDbSpline
210
0.0
220
0.0
230
1.0
 70
     8
 71
     3
 72
    17
 73
    13
 74
     0
 42
0.0000000001
 43
0.0000000001
 40
0.0
 40
0.0
 40
0.0
 40
0.0
 40
1.0
 40
1.0
 40
1.0
 40
2.0
 40
2.0
 40
2.0
 40
3.0
 40
3.0
 40
3.0
 40
4.0
 40
4.0
 40
4.0
 40
4.0
 10
3.699782694727357
 20
8.570862421174751
 30
0.0
 10
3.699782694727357
 20
8.570862421174751
 30
0.0
 10
3.704720105935027
 20
8.569888810088235
 30
0.0
 10
3.704720105935027
 20
8.569888810088235
 30
0.0
 10
3.704720105935027
 20
8.569888810088235
 30
0.0
 10
3.719295105566831
 20
8.565958254631974
 30
0.0
 10
3.717627050053414
 20
8.546229280460414
 30
0.0
 10
3.717627050053414
 20
8.546229280460414
 30
0.0
 10
3.718931216687135
 20
8.524477700124306
 30
0.0
 10
3.703381217079961
 20
8.526702700068097
 30
0.0
 10
3.703381217079961
 20
8.526702700068097
 30
0.0
 10
3.692165939585505
 20
8.529061033341854
 30
0.0
 10
3.692165939585505
 20
8.529061033341854
 30
0.0
  0
SPLINE
  5
8E
330
70
100
AcDbEntity
  8
Layer 2
 62
   250
420
  2301728
370
    40
100
AcDbSpline
210
0.0
220
0.0
230
1.0
 70
     8
 71
     3
 72
    17
 73
    13
 74
     0
 42
0.0000000001
 43
0.0000000001
 40
0.0
 40
0.0
 40
0.0
 40
0.0
 40
1.0
 40
1.0
 40
1.0
 40
2.0
 40
2.0
 40
2.0
 40
3.0
 40
3.0
 40
3.0
 40
4.0
 40
4.0
 40
4.0
 40
4.0
 10
3.653758996111302
 20
8.537072144250588
 30
0.0
 10
3.653758996111302
 20
8.537072144250588
 30
0.0
 10
3.650975662848281
 20
8.53715686647067
 30
0.0
 10
3.648147885141939
 20
8.540029088620332
 30
0.0
 10
3.645235385215515
 20
8.542994366323203
 30
0.0
 10
3.642267329734939
 20
8.548927699506647
 30
0.0
 10
3.642267329734939
 20
8.560774921429583
 30
0.0
 10
3.642267329734939
 20
8.560774921429583
 30
0.0
 10
3.643017329716005
 20
8.581145947127083
 30
0.0
 10
3.655225662740917
 20
8.579655476508175
 30
0.0
 10
3.655225662740917
 20
8.579655476508175
 30
0.0
 10
3.664736773611757
 20
8.577783254333249
 30
0.0
 10
3.664736773611757
 20
8.577783254333249
 30
0.0
  0
SPLINE
  5
8F
330
70
100
AcDbEntity
  8
Layer 2
 62
   250
420
  2301728
370
    40
100
AcDbSpline
210
0.0
220
0.0
230
1.0
 70
     9
 71
     3
 72
    23
 73
    19
 74
     0
 42
0.0000000001
 43
0.0000000001
 40
0.0
 40
0.0
 40
0.0
 40
0.0
 40
1.0
 40
1.0
 40
1.0
 40
2.0
 40
2.0
 40
2.0
 40
3.0
 40
3.0
 40
3.0
 40
4.0
 40
4.0
 40
4.0
 40
5.0
 40
5.0
 40
5.0
 40
6.0
 40
6.0
 40
6.0
 40
6.0
 10
3.854845102142551
 20
7.292061064591102
 30
0.0
 10
3.854845102142551
 20
7.292061064591102
 30
0.0
 10
3.904350656447491
 20
7.28227094712708
 30
0.0
 10
3.904350656447491
 20
7.28227094712708
 30
0.0
 10
3.904350656447491
 20
7.28227094712708
 30
0.0
 10
3.918936767190125
 20
7.278351342715217
 30
0.0
 10
3.917245100566194
 20
7.258623565435804
 30
0.0
 10
3.917245100566194
 20
7.258623565435804
 30
0.0
 10
3.918572878310429
 20
7.236859677096718
 30
0.0
 10
3.903021489814401
 20
7.239087454818218
 30
0.0
 10
3.903021489814401
 20
7.239087454818218
 30
0.0
 10
3.853389546623765
 20
7.249456899000707
 30
0.0
 10
3.853389546623765
 20
7.249456899000707
 30
0.0
 10
3.853389546623765
 20
7.249456899000707
 30
0.0
 10
3.841908991358233
 20
7.249820787880404
 30
0.0
 10
3.841908991358233
 20
7.273168009512826
 30
0.0
 10
3.841908991358233
 20
7.273168009512826
 30
0.0
 10
3.842636769117625
 20
7.293538842331549
 30
0.0
 10
3.854845102142551
 20
7.292061064591102
 30
0.0
  0
SPLINE
  5
90
330
70
100
AcDbEntity
  8
Layer 2
 62
   250
420
  2301728
370
    40
100
AcDbSpline
210
0.0
220
0.0
230
1.0
 70
     8
 71
     3
 72
    11
 73
     7
 74
     0
 42
0.0000000001
 43
0.0000000001
 40
0.0
 40
0.0
 40
0.0
 40
0.0
 40
1.0
 40
1.0
 40
1.0
 40
2.0
 40
2.0
 40
2.0
 40
2.0
 10
3.917781211663761
 20
7.26297217643706
 30
0.0
 10
3.917781211663761
 20
7.26297217643706
 30
0.0
 10
3.877853434894632
 20
7.271304120671023
 30
0.0
 10
3.877853434894632
 20
7.271304120671023
 30
0.0
 10
3.877853434894632
 20
7.271304120671023
 30
0.0
 10
3.865600657426398
 20
7.270938842902473
 30
0.0
 10
3.868940935119793
 20
7.291312613793756
 30
0.0
  0
SPLINE
  5
91
330
70
100
AcDbEntity
  8
Layer 2
 62
   250
420
  2301728
370
    40
100
AcDbSpline
210
0.0
220
0.0
230
1.0
 70
     9
 71
     3
 72
    23
 73
    19
 74
     0
 42
0.0000000001
 43
0.0000000001
 40
0.0
 40
0.0
 40
0.0
 40
0.0
 40
1.0
 40
1.0
 40
1.0
 40
2.0
 40
2.0
 40
2.0
 40
3.0
 40
3.0
 40
3.0
 40
4.0
 40
4.0
 40
4.0
 40
5.0
 40
5.0
 40
5.0
 40
6.0
 40
6.0
 40
6.0
 40
6.0
 10
3.585770108939957
 20
7.330252730292967
 30
0.0
 10
3.585770108939957
 20
7.330252730292967
 30
0.0
 10
3.635274274356043
 20
7.320466619429073
 30
0.0
 10
3.635274274356043
 20
7.320466619429073
 30
0.0
 10
3.635274274356043
 20
7.320466619429073
 30
0.0
 10
3.649850662876714
 20
7.316544397305935
 30
0.0
 10
3.6481701073636
 20
7.296815231137669
 30
0.0
 10
3.6481701073636
 20
7.296815231137669
 30
0.0
 10
3.649485385108151
 20
7.275073565020242
 30
0.0
 10
3.633925663279001
 20
7.277302731630596
 30
0.0
 10
3.633925663279001
 20
7.277302731630596
 30
0.0
 10
3.584302053421487
 20
7.287669398035379
 30
0.0
 10
3.584302053421487
 20
7.287669398035379
 30
0.0
 10
3.584302053421487
 20
7.287669398035379
 30
0.0
 10
3.572810472505137
 20
7.288033286915075
 30
0.0
 10
3.572810472505137
 20
7.311361064103543
 30
0.0
 10
3.572810472505137
 20
7.311361064103543
 30
0.0
 10
3.573560472505139
 20
7.331731896922266
 30
0.0
 10
3.585770108939957
 20
7.330252730292967
 30
0.0
  0
SPLINE
  5
92
330
70
100
AcDbEntity
  8
Layer 2
 62
   250
420
  2301728
370
    40
100
AcDbSpline
210
0.0
220
0.0
230
1.0
 70
     8
 71
     3
 72
    11
 73
     7
 74
     0
 42
0.0000000001
 43
0.0000000001
 40
0.0
 40
0.0
 40
0.0
 40
0.0
 40
1.0
 40
1.0
 40
1.0
 40
2.0
 40
2.0
 40
2.0
 40
2.0
 10
3.648693718461483
 20
7.301184675471731
 30
0.0
 10
3.648693718461483
 20
7.301184675471731
 30
0.0
 10
3.608754916949578
 20
7.30951800859456
 30
0.0
 10
3.608754916949578
 20
7.30951800859456
 30
0.0
 10
3.608754916949578
 20
7.30951800859456
 30
0.0
 10
3.59651316422412
 20
7.309134675270898
 30
0.0
 10
3.599843719695538
 20
7.329505508089621
 30
0.0
  0
SPLINE
  5
93
330
70
100
AcDbEntity
  8
Layer 2
 62
   250
420
  2301728
370
    40
100
AcDbSpline
210
0.0
220
0.0
230
1.0
 70
     9
 71
     3
 72
    23
 73
    19
 74
     0
 42
0.0000000001
 43
0.0000000001
 40
0.0
 40
0.0
 40
0.0
 40
0.0
 40
1.0
 40
1.0
 40
1.0
 40
2.0
 40
2.0
 40
2.0
 40
3.0
 40
3.0
 40
3.0
 40
4.0
 40
4.0
 40
4.0
 40
5.0
 40
5.0
 40
5.0
 40
6.0
 40
6.0
 40
6.0
 40
6.0
 10
3.920842322697542
 20
7.53162911409466
 30
0.0
 10
3.920842322697542
 20
7.53162911409466
 30
0.0
 10
3.970325654780822
 20
7.52186244767472
 30
0.0
 10
3.970325654780822
 20
7.52186244767472
 30
0.0
 10
3.970325654780822
 20
7.52186244767472
 30
0.0
 10
3.984911765523456
 20
7.517920781107628
 30
0.0
 10
3.983221487788379
 20
7.498191614939362
 30
0.0
 10
3.983221487788379
 20
7.498191614939362
 30
0.0
 10
3.98454787664376
 20
7.476429115489129
 30
0.0
 10
3.968977139171808
 20
7.478676337654582
 30
0.0
 10
3.968977139171808
 20
7.478676337654582
 30
0.0
 10
3.919364544957097
 20
7.489023559615411
 30
0.0
 10
3.919364544957097
 20
7.489023559615411
 30
0.0
 10
3.919364544957097
 20
7.489023559615411
 30
0.0
 10
3.907883989691564
 20
7.489409836015965
 30
0.0
 10
3.907883989691564
 20
7.512737447905237
 30
0.0
 10
3.907883989691564
 20
7.512737447905237
 30
0.0
 10
3.90863398967263
 20
7.533108280723959
 30
0.0
 10
3.920842322697542
 20
7.53162911409466
 30
0.0
  0
SPLINE
  5
94
330
70
100
AcDbEntity
  8
Layer 2
 62
   250
420
  2301728
370
    40
100
AcDbSpline
210
0.0
220
0.0
230
1.0
 70
     8
 71
     3
 72
    11
 73
     7
 74
     0
 42
0.0000000001
 43
0.0000000001
 40
0.0
 40
0.0
 40
0.0
 40
0.0
 40
1.0
 40
1.0
 40
1.0
 40
2.0
 40
2.0
 40
2.0
 40
2.0
 10
3.983756209997093
 20
7.502561059273425
 30
0.0
 10
3.983756209997093
 20
7.502561059273425
 30
0.0
 10
3.943806211006315
 20
7.51087217017458
 30
0.0
 10
3.943806211006315
 20
7.51087217017458
 30
0.0
 10
3.943806211006315
 20
7.51087217017458
 30
0.0
 10
3.931575655759742
 20
7.510508281294884
 30
0.0
 10
3.934915933453124
 20
7.530879114113607
 30
0.0
  0
SPLINE
  5
95
330
70
100
AcDbEntity
  8
Layer 2
 62
   250
420
  2301728
370
    40
100
AcDbSpline
210
0.0
220
0.0
230
1.0
 70
     9
 71
     3
 72
    23
 73
    19
 74
     0
 42
0.0000000001
 43
0.0000000001
 40
0.0
 40
0.0
 40
0.0
 40
0.0
 40
1.0
 40
1.0
 40
1.0
 40
2.0
 40
2.0
 40
2.0
 40
3.0
 40
3.0
 40
3.0
 40
4.0
 40
4.0
 40
4.0
 40
5.0
 40
5.0
 40
5.0
 40
6.0
 40
6.0
 40
6.0
 40
6.0
 10
3.651747885050995
 20
7.569822168685377
 30
0.0
 10
3.651747885050995
 20
7.569822168685377
 30
0.0
 10
3.701238161578544
 20
7.560033280043777
 30
0.0
 10
3.701238161578544
 20
7.560033280043777
 30
0.0
 10
3.701238161578544
 20
7.560033280043777
 30
0.0
 10
3.715825661210033
 20
7.556112446809493
 30
0.0
 10
3.714133994586101
 20
7.53638466953008
 30
0.0
 10
3.714133994586101
 20
7.53638466953008
 30
0.0
 10
3.715461772330336
 20
7.514643003412654
 30
0.0
 10
3.699900661612332
 20
7.516872170023007
 30
0.0
 10
3.699900661612332
 20
7.516872170023007
 30
0.0
 10
3.650288162865649
 20
7.52723883642779
 30
0.0
 10
3.650288162865649
 20
7.52723883642779
 30
0.0
 10
3.650288162865649
 20
7.52723883642779
 30
0.0
 10
3.638786774267309
 20
7.527602725307486
 30
0.0
 10
3.638786774267309
 20
7.550930502495955
 30
0.0
 10
3.638786774267309
 20
7.550930502495955
 30
0.0
 10
3.639547885359193
 20
7.571301335314678
 30
0.0
 10
3.651747885050995
 20
7.569822168685377
 30
0.0
  0
SPLINE
  5
96
330
70
100
AcDbEntity
  8
Layer 2
 62
   250
420
  2301728
370
    40
100
AcDbSpline
210
0.0
220
0.0
230
1.0
 70
     8
 71
     3
 72
    11
 73
     7
 74
     0
 42
0.0000000001
 43
0.0000000001
 40
0.0
 40
0.0
 40
0.0
 40
0.0
 40
1.0
 40
1.0
 40
1.0
 40
2.0
 40
2.0
 40
2.0
 40
2.0
 10
3.714670105683669
 20
7.540731891642482
 30
0.0
 10
3.714670105683669
 20
7.540731891642482
 30
0.0
 10
3.674731217803721
 20
7.549065224765298
 30
0.0
 10
3.674731217803721
 20
7.549065224765298
 30
0.0
 10
3.674731217803721
 20
7.549065224765298
 30
0.0
 10
3.662489551446305
 20
7.548701502682635
 30
0.0
 10
3.665829829139688
 20
7.569072168704324
 30
0.0
  0
SPLINE
  5
97
330
70
100
AcDbEntity
  8
Layer 2
 62
   250
420
  2301728
370
    40
100
AcDbSpline
210
0.0
220
0.0
230
1.0
 70
     9
 71
     3
 72
    23
 73
    19
 74
     0
 42
0.0000000001
 43
0.0000000001
 40
0.0
 40
0.0
 40
0.0
 40
0.0
 40
1.0
 40
1.0
 40
1.0
 40
2.0
 40
2.0
 40
2.0
 40
3.0
 40
3.0
 40
3.0
 40
4.0
 40
4.0
 40
4.0
 40
5.0
 40
5.0
 40
5.0
 40
6.0
 40
6.0
 40
6.0
 40
6.0
 10
3.854845102142551
 20
6.788634688419834
 30
0.0
 10
3.854845102142551
 20
6.788634688419834
 30
0.0
 10
3.904350656447491
 20
6.778844410889379
 30
0.0
 10
3.904350656447491
 20
6.778844410889379
 30
0.0
 10
3.904350656447491
 20
6.778844410889379
 30
0.0
 10
3.918936767190125
 20
6.774944410987902
 30
0.0
 10
3.917245100566194
 20
6.755194411486828
 30
0.0
 10
3.917245100566194
 20
6.755194411486828
 30
0.0
 10
3.918572878310429
 20
6.733452745369403
 30
0.0
 10
3.903021489814401
 20
6.735659836015972
 30
0.0
 10
3.903021489814401
 20
6.735659836015972
 30
0.0
 10
3.853389546623765
 20
6.746049967273393
 30
0.0
 10
3.853389546623765
 20
6.746049967273393
 30
0.0
 10
3.853389546623765
 20
6.746049967273393
 30
0.0
 10
3.841908991358233
 20
6.746391633931428
 30
0.0
 10
3.841908991358233
 20
6.769719411119896
 30
0.0
 10
3.841908991358233
 20
6.769719411119896
 30
0.0
 10
3.842636769117625
 20
6.790090391571525
 30
0.0
 10
3.854845102142551
 20
6.788634688419834
 30
0.0
  0
SPLINE
  5
98
330
70
100
AcDbEntity
  8
Layer 2
 62
   250
420
  2301728
370
    40
100
AcDbSpline
210
0.0
220
0.0
230
1.0
 70
     8
 71
     3
 72
    11
 73
     7
 74
     0
 42
0.0000000001
 43
0.0000000001
 40
0.0
 40
0.0
 40
0.0
 40
0.0
 40
1.0
 40
1.0
 40
1.0
 40
2.0
 40
2.0
 40
2.0
 40
2.0
 10
3.917781211663761
 20
6.759544411376938
 30
0.0
 10
3.917781211663761
 20
6.759544411376938
 30
0.0
 10
3.877853434894632
 20
6.767877744499754
 30
0.0
 10
3.877853434894632
 20
6.767877744499754
 30
0.0
 10
3.877853434894632
 20
6.767877744499754
 30
0.0
 10
3.865600657426398
 20
6.767533300064011
 30
0.0
 10
3.868940935119793
 20
6.787905521771588
 30
0.0
  0
SPLINE
  5
99
330
70
100
AcDbEntity
  8
Layer 2
 62
   250
420
  2301728
370
    40
100
AcDbSpline
210
0.0
220
0.0
230
1.0
 70
     9
 71
     3
 72
    23
 73
    19
 74
     0
 42
0.0000000001
 43
0.0000000001
 40
0.0
 40
0.0
 40
0.0
 40
0.0
 40
1.0
 40
1.0
 40
1.0
 40
2.0
 40
2.0
 40
2.0
 40
3.0
 40
3.0
 40
3.0
 40
4.0
 40
4.0
 40
4.0
 40
5.0
 40
5.0
 40
5.0
 40
6.0
 40
6.0
 40
6.0
 40
6.0
 10
3.585770108939957
 20
6.826826502682642
 30
0.0
 10
3.585770108939957
 20
6.826826502682642
 30
0.0
 10
3.635274274356043
 20
6.817037465480098
 30
0.0
 10
3.635274274356043
 20
6.817037465480098
 30
0.0
 10
3.635274274356043
 20
6.817037465480098
 30
0.0
 10
3.649850662876714
 20
6.813118169349309
 30
0.0
 10
3.6481701073636
 20
6.793409836015976
 30
0.0
 10
3.6481701073636
 20
6.793409836015976
 30
0.0
 10
3.649485385108151
 20
6.771626355516167
 30
0.0
 10
3.633925663279001
 20
6.773852744348813
 30
0.0
 10
3.633925663279001
 20
6.773852744348813
 30
0.0
 10
3.584302053421487
 20
6.784243169349312
 30
0.0
 10
3.584302053421487
 20
6.784243169349312
 30
0.0
 10
3.584302053421487
 20
6.784243169349312
 30
0.0
 10
3.572810472505137
 20
6.78462635518776
 30
0.0
 10
3.572810472505137
 20
6.807912465710614
 30
0.0
 10
3.572810472505137
 20
6.807912465710614
 30
0.0
 10
3.573560472505139
 20
6.828324965194951
 30
0.0
 10
3.585770108939957
 20
6.826826502682642
 30
0.0
  0
SPLINE
  5
9A
330
70
100
AcDbEntity
  8
Layer 2
 62
   250
420
  2301728
370
    40
100
AcDbSpline
210
0.0
220
0.0
230
1.0
 70
     8
 71
     3
 72
    11
 73
     7
 74
     0
 42
0.0000000001
 43
0.0000000001
 40
0.0
 40
0.0
 40
0.0
 40
0.0
 40
1.0
 40
1.0
 40
1.0
 40
2.0
 40
2.0
 40
2.0
 40
2.0
 10
3.648693718461483
 20
6.797758299300463
 30
0.0
 10
3.648693718461483
 20
6.797758299300463
 30
0.0
 10
3.608754916949578
 20
6.806111076867232
 30
0.0
 10
3.608754916949578
 20
6.806111076867232
 30
0.0
 10
3.608754916949578
 20
6.806111076867232
 30
0.0
 10
3.59651316422412
 20
6.805727743543583
 30
0.0
 10
3.599843719695538
 20
6.826076502682641
 30
0.0
  0
SPLINE
  5
9B
330
70
100
AcDbEntity
  8
Layer 2
 62
   250
420
  2301728
370
    40
100
AcDbSpline
210
0.0
220
0.0
230
1.0
 70
     9
 71
     3
 72
    23
 73
    19
 74
     0
 42
0.0000000001
 43
0.0000000001
 40
0.0
 40
0.0
 40
0.0
 40
0.0
 40
1.0
 40
1.0
 40
1.0
 40
2.0
 40
2.0
 40
2.0
 40
3.0
 40
3.0
 40
3.0
 40
4.0
 40
4.0
 40
4.0
 40
5.0
 40
5.0
 40
5.0
 40
6.0
 40
6.0
 40
6.0
 40
6.0
 10
3.920842322697542
 20
7.02820150268264
 30
0.0
 10
3.920842322697542
 20
7.02820150268264
 30
0.0
 10
3.970325654780822
 20
7.018411071504083
 30
0.0
 10
3.970325654780822
 20
7.018411071504083
 30
0.0
 10
3.970325654780822
 20
7.018411071504083
 30
0.0
 10
3.984911765523456
 20
7.014491627158652
 30
0.0
 10
3.983221487788379
 20
6.9947860721009
 30
0.0
 10
3.983221487788379
 20
6.9947860721009
 30
0.0
 10
3.98454787664376
 20
6.973022183761814
 30
0.0
 10
3.968977139171808
 20
6.975229280460413
 30
0.0
 10
3.968977139171808
 20
6.975229280460413
 30
0.0
 10
3.919364544957097
 20
6.985616627888096
 30
0.0
 10
3.919364544957097
 20
6.985616627888096
 30
0.0
 10
3.919364544957097
 20
6.985616627888096
 30
0.0
 10
3.907883989691564
 20
6.985980516767792
 30
0.0
 10
3.907883989691564
 20
7.00930829395626
 30
0.0
 10
3.907883989691564
 20
7.00930829395626
 30
0.0
 10
3.90863398967263
 20
7.029679126774984
 30
0.0
 10
3.920842322697542
 20
7.02820150268264
 30
0.0
  0
SPLINE
  5
9C
330
70
100
AcDbEntity
  8
Layer 2
 62
   250
420
  2301728
370
    40
100
AcDbSpline
210
0.0
220
0.0
230
1.0
 70
     8
 71
     3
 72
    11
 73
     7
 74
     0
 42
0.0000000001
 43
0.0000000001
 40
0.0
 40
0.0
 40
0.0
 40
0.0
 40
1.0
 40
1.0
 40
1.0
 40
2.0
 40
2.0
 40
2.0
 40
2.0
 10
3.983756209997093
 20
6.999133294213303
 30
0.0
 10
3.983756209997093
 20
6.999133294213303
 30
0.0
 10
3.943806211006315
 20
7.007466627336119
 30
0.0
 10
3.943806211006315
 20
7.007466627336119
 30
0.0
 10
3.943806211006315
 20
7.007466627336119
 30
0.0
 10
3.931575655759742
 20
7.007080516234761
 30
0.0
 10
3.934915933453124
 20
7.027452737942338
 30
0.0
  0
SPLINE
  5
9D
330
70
100
AcDbEntity
  8
Layer 2
 62
   250
420
  2301728
370
    40
100
AcDbSpline
210
0.0
220
0.0
230
1.0
 70
     9
 71
     3
 72
    23
 73
    19
 74
     0
 42
0.0000000001
 43
0.0000000001
 40
0.0
 40
0.0
 40
0.0
 40
0.0
 40
1.0
 40
1.0
 40
1.0
 40
2.0
 40
2.0
 40
2.0
 40
3.0
 40
3.0
 40
3.0
 40
4.0
 40
4.0
 40
4.0
 40
5.0
 40
5.0
 40
5.0
 40
6.0
 40
6.0
 40
6.0
 40
6.0
 10
3.651747885050995
 20
7.066373570292448
 30
0.0
 10
3.651747885050995
 20
7.066373570292448
 30
0.0
 10
3.701238161578544
 20
7.056606903872508
 30
0.0
 10
3.701238161578544
 20
7.056606903872508
 30
0.0
 10
3.701238161578544
 20
7.056606903872508
 30
0.0
 10
3.715825661210033
 20
7.05268468174937
 30
0.0
 10
3.714133994586101
 20
7.032977737802765
 30
0.0
 10
3.714133994586101
 20
7.032977737802765
 30
0.0
 10
3.715461772330336
 20
7.011193016130871
 30
0.0
 10
3.699900661612332
 20
7.013443016074031
 30
0.0
 10
3.699900661612332
 20
7.013443016074031
 30
0.0
 10
3.650288162865649
 20
7.023809682478813
 30
0.0
 10
3.650288162865649
 20
7.023809682478813
 30
0.0
 10
3.650288162865649
 20
7.023809682478813
 30
0.0
 10
3.638786774267309
 20
7.024173724904862
 30
0.0
 10
3.638786774267309
 20
7.047479280460416
 30
0.0
 10
3.638786774267309
 20
7.047479280460416
 30
0.0
 10
3.639547885359193
 20
7.067894403587362
 30
0.0
 10
3.651747885050995
 20
7.066373570292448
 30
0.0
  0
SPLINE
  5
9E
330
70
100
AcDbEntity
  8
Layer 2
 62
   250
420
  2301728
370
    40
100
AcDbSpline
210
0.0
220
0.0
230
1.0
 70
     8
 71
     3
 72
    11
 73
     7
 74
     0
 42
0.0000000001
 43
0.0000000001
 40
0.0
 40
0.0
 40
0.0
 40
0.0
 40
1.0
 40
1.0
 40
1.0
 40
2.0
 40
2.0
 40
2.0
 40
2.0
 10
3.714670105683669
 20
7.037327737692875
 30
0.0
 10
3.714670105683669
 20
7.037327737692875
 30
0.0
 10
3.674731217803721
 20
7.045658293037982
 30
0.0
 10
3.674731217803721
 20
7.045658293037982
 30
0.0
 10
3.674731217803721
 20
7.045658293037982
 30
0.0
 10
3.662489551446305
 20
7.045274959714333
 30
0.0
 10
3.665829829139688
 20
7.065645947127083
 30
0.0
  0
SPLINE
  5
9F
330
70
100
AcDbEntity
  8
Layer 2
 62
   250
420
  2301728
370
    40
100
AcDbSpline
210
0.0
220
0.0
230
1.0
 70
     9
 71
     3
 72
    23
 73
    19
 74
     0
 42
0.0000000001
 43
0.0000000001
 40
0.0
 40
0.0
 40
0.0
 40
0.0
 40
1.0
 40
1.0
 40
1.0
 40
2.0
 40
2.0
 40
2.0
 40
3.0
 40
3.0
 40
3.0
 40
4.0
 40
4.0
 40
4.0
 40
5.0
 40
5.0
 40
5.0
 40
6.0
 40
6.0
 40
6.0
 40
6.0
 10
3.854845102142551
 20
6.285183312249197
 30
0.0
 10
3.854845102142551
 20
6.285183312249197
 30
0.0
 10
3.904350656447491
 20
6.275416645829257
 30
0.0
 10
3.904350656447491
 20
6.275416645829257
 30
0.0
 10
3.904350656447491
 20
6.275416645829257
 30
0.0
 10
3.918936767190125
 20
6.271495812594972
 30
0.0
 10
3.917245100566194
 20
6.251745813093899
 30
0.0
 10
3.917245100566194
 20
6.251745813093899
 30
0.0
 10
3.918572878310429
 20
6.230004146976473
 30
0.0
 10
3.903021489814401
 20
6.232233313586826
 30
0.0
 10
3.903021489814401
 20
6.232233313586826
 30
0.0
 10
3.853389546623765
 20
6.242599979991609
 30
0.0
 10
3.853389546623765
 20
6.242599979991609
 30
0.0
 10
3.853389546623765
 20
6.242599979991609
 30
0.0
 10
3.841908991358233
 20
6.242963868871306
 30
0.0
 10
3.841908991358233
 20
6.266269423838113
 30
0.0
 10
3.841908991358233
 20
6.266269423838113
 30
0.0
 10
3.842636769117625
 20
6.286640256656836
 30
0.0
 10
3.854845102142551
 20
6.285183312249197
 30
0.0
  0
SPLINE
  5
A0
330
70
100
AcDbEntity
  8
Layer 2
 62
   250
420
  2301728
370
    40
100
AcDbSpline
210
0.0
220
0.0
230
1.0
 70
     8
 71
     3
 72
    11
 73
     7
 74
     0
 42
0.0000000001
 43
0.0000000001
 40
0.0
 40
0.0
 40
0.0
 40
0.0
 40
1.0
 40
1.0
 40
1.0
 40
2.0
 40
2.0
 40
2.0
 40
2.0
 10
3.917781211663761
 20
6.256115257427962
 30
0.0
 10
3.917781211663761
 20
6.256115257427962
 30
0.0
 10
3.877853434894632
 20
6.264448590550777
 30
0.0
 10
3.877853434894632
 20
6.264448590550777
 30
0.0
 10
3.877853434894632
 20
6.264448590550777
 30
0.0
 10
3.865600657426398
 20
6.264084701671081
 30
0.0
 10
3.868940935119793
 20
6.284455534489804
 30
0.0
  0
SPLINE
  5
A1
330
70
100
AcDbEntity
  8
Layer 2
 62
   250
420
  2301728
370
    40
100
AcDbSpline
210
0.0
220
0.0
230
1.0
 70
     9
 71
     3
 72
    23
 73
    19
 74
     0
 42
0.0000000001
 43
0.0000000001
 40
0.0
 40
0.0
 40
0.0
 40
0.0
 40
1.0
 40
1.0
 40
1.0
 40
2.0
 40
2.0
 40
2.0
 40
3.0
 40
3.0
 40
3.0
 40
4.0
 40
4.0
 40
4.0
 40
5.0
 40
5.0
 40
5.0
 40
6.0
 40
6.0
 40
6.0
 40
6.0
 10
3.585770108939957
 20
6.323376366839915
 30
0.0
 10
3.585770108939957
 20
6.323376366839915
 30
0.0
 10
3.635274274356043
 20
6.31358608930946
 30
0.0
 10
3.635274274356043
 20
6.31358608930946
 30
0.0
 10
3.635274274356043
 20
6.31358608930946
 30
0.0
 10
3.649850662876714
 20
6.30968886718569
 30
0.0
 10
3.6481701073636
 20
6.289961089906277
 30
0.0
 10
3.6481701073636
 20
6.289961089906277
 30
0.0
 10
3.649485385108151
 20
6.268174979345531
 30
0.0
 10
3.633925663279001
 20
6.270404145955883
 30
0.0
 10
3.633925663279001
 20
6.270404145955883
 30
0.0
 10
3.584302053421487
 20
6.280791645693473
 30
0.0
 10
3.584302053421487
 20
6.280791645693473
 30
0.0
 10
3.584302053421487
 20
6.280791645693473
 30
0.0
 10
3.572810472505137
 20
6.28117775679483
 30
0.0
 10
3.572810472505137
 20
6.304462478428831
 30
0.0
 10
3.572810472505137
 20
6.304462478428831
 30
0.0
 10
3.573560472505139
 20
6.324876366802022
 30
0.0
 10
3.585770108939957
 20
6.323376366839915
 30
0.0
  0
SPLINE
  5
A2
330
70
100
AcDbEntity
  8
Layer 2
 62
   250
420
  2301728
370
    40
100
AcDbSpline
210
0.0
220
0.0
230
1.0
 70
     8
 71
     3
 72
    11
 73
     7
 74
     0
 42
0.0000000001
 43
0.0000000001
 40
0.0
 40
0.0
 40
0.0
 40
0.0
 40
1.0
 40
1.0
 40
1.0
 40
2.0
 40
2.0
 40
2.0
 40
2.0
 10
3.648693718461483
 20
6.29430831201868
 30
0.0
 10
3.648693718461483
 20
6.29430831201868
 30
0.0
 10
3.608754916949578
 20
6.302663867363157
 30
0.0
 10
3.608754916949578
 20
6.302663867363157
 30
0.0
 10
3.608754916949578
 20
6.302663867363157
 30
0.0
 10
3.59651316422412
 20
6.302277756261799
 30
0.0
 10
3.599843719695538
 20
6.322648589080522
 30
0.0
  0
SPLINE
  5
A3
330
70
100
AcDbEntity
  8
Layer 2
 62
   250
420
  2301728
370
    40
100
AcDbSpline
210
0.0
220
0.0
230
1.0
 70
     9
 71
     3
 72
    23
 73
    19
 74
     0
 42
0.0000000001
 43
0.0000000001
 40
0.0
 40
0.0
 40
0.0
 40
0.0
 40
1.0
 40
1.0
 40
1.0
 40
2.0
 40
2.0
 40
2.0
 40
3.0
 40
3.0
 40
3.0
 40
4.0
 40
4.0
 40
4.0
 40
5.0
 40
5.0
 40
5.0
 40
6.0
 40
6.0
 40
6.0
 40
6.0
 10
3.920842322697542
 20
6.524752750641608
 30
0.0
 10
3.920842322697542
 20
6.524752750641608
 30
0.0
 10
3.970325654780822
 20
6.514962473111154
 30
0.0
 10
3.970325654780822
 20
6.514962473111154
 30
0.0
 10
3.970325654780822
 20
6.514962473111154
 30
0.0
 10
3.984911765523456
 20
6.511043028765723
 30
0.0
 10
3.983221487788379
 20
6.491337473707972
 30
0.0
 10
3.983221487788379
 20
6.491337473707972
 30
0.0
 10
3.98454787664376
 20
6.469573585368884
 30
0.0
 10
3.968977139171808
 20
6.471777751979869
 30
0.0
 10
3.968977139171808
 20
6.471777751979869
 30
0.0
 10
3.919364544957097
 20
6.482168029495166
 30
0.0
 10
3.919364544957097
 20
6.482168029495166
 30
0.0
 10
3.919364544957097
 20
6.482168029495166
 30
0.0
 10
3.907883989691564
 20
6.482531918374863
 30
0.0
 10
3.907883989691564
 20
6.505859695563331
 30
0.0
 10
3.907883989691564
 20
6.505859695563331
 30
0.0
 10
3.90863398967263
 20
6.526230528382054
 30
0.0
 10
3.920842322697542
 20
6.524752750641608
 30
0.0
  0
SPLINE
  5
A4
330
70
100
AcDbEntity
  8
Layer 2
 62
   250
420
  2301728
370
    40
100
AcDbSpline
210
0.0
220
0.0
230
1.0
 70
     8
 71
     3
 72
    11
 73
     7
 74
     0
 42
0.0000000001
 43
0.0000000001
 40
0.0
 40
0.0
 40
0.0
 40
0.0
 40
1.0
 40
1.0
 40
1.0
 40
2.0
 40
2.0
 40
2.0
 40
2.0
 10
3.983756209997093
 20
6.495684695820373
 30
0.0
 10
3.983756209997093
 20
6.495684695820373
 30
0.0
 10
3.943806211006315
 20
6.504018028943189
 30
0.0
 10
3.943806211006315
 20
6.504018028943189
 30
0.0
 10
3.943806211006315
 20
6.504018028943189
 30
0.0
 10
3.931575655759742
 20
6.503654140063493
 30
0.0
 10
3.934915933453124
 20
6.524002750660555
 30
0.0
  0
SPLINE
  5
A5
330
70
100
AcDbEntity
  8
Layer 2
 62
   250
420
  2301728
370
    40
100
AcDbSpline
210
0.0
220
0.0
230
1.0
 70
     9
 71
     3
 72
    23
 73
    19
 74
     0
 42
0.0000000001
 43
0.0000000001
 40
0.0
 40
0.0
 40
0.0
 40
0.0
 40
1.0
 40
1.0
 40
1.0
 40
2.0
 40
2.0
 40
2.0
 40
3.0
 40
3.0
 40
3.0
 40
4.0
 40
4.0
 40
4.0
 40
5.0
 40
5.0
 40
5.0
 40
6.0
 40
6.0
 40
6.0
 40
6.0
 10
3.651747885050995
 20
6.562923724904862
 30
0.0
 10
3.651747885050995
 20
6.562923724904862
 30
0.0
 10
3.701238161578544
 20
6.553155527701871
 30
0.0
 10
3.701238161578544
 20
6.553155527701871
 30
0.0
 10
3.701238161578544
 20
6.553155527701871
 30
0.0
 10
3.715825661210033
 20
6.549258305578101
 30
0.0
 10
3.714133994586101
 20
6.529530528298689
 30
0.0
 10
3.714133994586101
 20
6.529530528298689
 30
0.0
 10
3.715461772330336
 20
6.507766639959602
 30
0.0
 10
3.699900661612332
 20
6.509993169349298
 30
0.0
 10
3.699900661612332
 20
6.509993169349298
 30
0.0
 10
3.650288162865649
 20
6.520361084085884
 30
0.0
 10
3.650288162865649
 20
6.520361084085884
 30
0.0
 10
3.650288162865649
 20
6.520361084085884
 30
0.0
 10
3.638786774267309
 20
6.520747195187241
 30
0.0
 10
3.638786774267309
 20
6.544052750154049
 30
0.0
 10
3.638786774267309
 20
6.544052750154049
 30
0.0
 10
3.639547885359193
 20
6.564445805194432
 30
0.0
 10
3.651747885050995
 20
6.562923724904862
 30
0.0
  0
SPLINE
  5
A6
330
70
100
AcDbEntity
  8
Layer 2
 62
   250
420
  2301728
370
    40
100
AcDbSpline
210
0.0
220
0.0
230
1.0
 70
     8
 71
     3
 72
    11
 73
     7
 74
     0
 42
0.0000000001
 43
0.0000000001
 40
0.0
 40
0.0
 40
0.0
 40
0.0
 40
1.0
 40
1.0
 40
1.0
 40
2.0
 40
2.0
 40
2.0
 40
2.0
 10
3.714670105683669
 20
6.533877750411091
 30
0.0
 10
3.714670105683669
 20
6.533877750411091
 30
0.0
 10
3.674731217803721
 20
6.542231916866714
 30
0.0
 10
3.674731217803721
 20
6.542231916866714
 30
0.0
 10
3.674731217803721
 20
6.542231916866714
 30
0.0
 10
3.662489551446305
 20
6.54182497243255
 30
0.0
 10
3.665829829139688
 20
6.562194416362419
 30
0.0
  0
SPLINE
  5
A7
330
70
100
AcDbEntity
  8
Layer 2
 62
   250
420
  2301728
370
    40
100
AcDbSpline
210
0.0
220
0.0
230
1.0
 70
     9
 71
     3
 72
    23
 73
    19
 74
     0
 42
0.0000000001
 43
0.0000000001
 40
0.0
 40
0.0
 40
0.0
 40
0.0
 40
1.0
 40
1.0
 40
1.0
 40
2.0
 40
2.0
 40
2.0
 40
3.0
 40
3.0
 40
3.0
 40
4.0
 40
4.0
 40
4.0
 40
5.0
 40
5.0
 40
5.0
 40
6.0
 40
6.0
 40
6.0
 40
6.0
 10
3.854845102142551
 20
5.778284836015978
 30
0.0
 10
3.854845102142551
 20
5.778284836015978
 30
0.0
 10
3.904350656447491
 20
5.768516658634641
 30
0.0
 10
3.904350656447491
 20
5.768516658634641
 30
0.0
 10
3.904350656447491
 20
5.768516658634641
 30
0.0
 10
3.918936767190125
 20
5.764574992067549
 30
0.0
 10
3.917245100566194
 20
5.744824992566476
 30
0.0
 10
3.917245100566194
 20
5.744824992566476
 30
0.0
 10
3.918572878310429
 20
5.72308332644905
 30
0.0
 10
3.903021489814401
 20
5.725334715281064
 30
0.0
 10
3.903021489814401
 20
5.725334715281064
 30
0.0
 10
3.853389546623765
 20
5.735699992797005
 30
0.0
 10
3.853389546623765
 20
5.735699992797005
 30
0.0
 10
3.853389546623765
 20
5.735699992797005
 30
0.0
 10
3.841908991358233
 20
5.736044437232735
 30
0.0
 10
3.841908991358233
 20
5.759393047754011
 30
0.0
 10
3.841908991358233
 20
5.759393047754011
 30
0.0
 10
3.842636769117625
 20
5.779741658351073
 30
0.0
 10
3.854845102142551
 20
5.778284836015978
 30
0.0
  0
SPLINE
  5
A8
330
70
100
AcDbEntity
  8
Layer 2
 62
   250
420
  2301728
370
    40
100
AcDbSpline
210
0.0
220
0.0
230
1.0
 70
     8
 71
     3
 72
    11
 73
     7
 74
     0
 42
0.0000000001
 43
0.0000000001
 40
0.0
 40
0.0
 40
0.0
 40
0.0
 40
1.0
 40
1.0
 40
1.0
 40
2.0
 40
2.0
 40
2.0
 40
2.0
 10
3.917781211663761
 20
5.749174992456586
 30
0.0
 10
3.917781211663761
 20
5.749174992456586
 30
0.0
 10
3.877853434894632
 20
5.757527770023354
 30
0.0
 10
3.877853434894632
 20
5.757527770023354
 30
0.0
 10
3.877853434894632
 20
5.757527770023354
 30
0.0
 10
3.865600657426398
 20
5.757163881143646
 30
0.0
 10
3.868940935119793
 20
5.777536102851235
 30
0.0
  0
SPLINE
  5
A9
330
70
100
AcDbEntity
  8
Layer 2
 62
   250
420
  2301728
370
    40
100
AcDbSpline
210
0.0
220
0.0
230
1.0
 70
     9
 71
     3
 72
    23
 73
    19
 74
     0
 42
0.0000000001
 43
0.0000000001
 40
0.0
 40
0.0
 40
0.0
 40
0.0
 40
1.0
 40
1.0
 40
1.0
 40
2.0
 40
2.0
 40
2.0
 40
3.0
 40
3.0
 40
3.0
 40
4.0
 40
4.0
 40
4.0
 40
5.0
 40
5.0
 40
5.0
 40
6.0
 40
6.0
 40
6.0
 40
6.0
 10
3.585770108939957
 20
5.816477768534152
 30
0.0
 10
3.585770108939957
 20
5.816477768534152
 30
0.0
 10
3.635274274356043
 20
5.806709713225359
 30
0.0
 10
3.635274274356043
 20
5.806709713225359
 30
0.0
 10
3.635274274356043
 20
5.806709713225359
 30
0.0
 10
3.649850662876714
 20
5.802790268879927
 30
0.0
 10
3.6481701073636
 20
5.783040269378854
 30
0.0
 10
3.6481701073636
 20
5.783040269378854
 30
0.0
 10
3.649485385108151
 20
5.761276381039768
 30
0.0
 10
3.633925663279001
 20
5.763526380982928
 30
0.0
 10
3.633925663279001
 20
5.763526380982928
 30
0.0
 10
3.584302053421487
 20
5.77389304738771
 30
0.0
 10
3.584302053421487
 20
5.77389304738771
 30
0.0
 10
3.584302053421487
 20
5.77389304738771
 30
0.0
 10
3.572810472505137
 20
5.774257058238175
 30
0.0
 10
3.572810472505137
 20
5.797584713455876
 30
0.0
 10
3.572810472505137
 20
5.797584713455876
 30
0.0
 10
3.573560472505139
 20
5.817955546274598
 30
0.0
 10
3.585770108939957
 20
5.816477768534152
 30
0.0
  0
SPLINE
  5
AA
330
70
100
AcDbEntity
  8
Layer 2
 62
   250
420
  2301728
370
    40
100
AcDbSpline
210
0.0
220
0.0
230
1.0
 70
     8
 71
     3
 72
    11
 73
     7
 74
     0
 42
0.0000000001
 43
0.0000000001
 40
0.0
 40
0.0
 40
0.0
 40
0.0
 40
1.0
 40
1.0
 40
1.0
 40
2.0
 40
2.0
 40
2.0
 40
2.0
 10
3.648693718461483
 20
5.787412491490625
 30
0.0
 10
3.648693718461483
 20
5.787412491490625
 30
0.0
 10
3.608754916949578
 20
5.795743169349318
 30
0.0
 10
3.608754916949578
 20
5.795743169349318
 30
0.0
 10
3.608754916949578
 20
5.795743169349318
 30
0.0
 10
3.59651316422412
 20
5.79535832462323
 30
0.0
 10
3.599843719695538
 20
5.815729280460396
 30
0.0
  0
SPLINE
  5
AB
330
70
100
AcDbEntity
  8
Layer 2
 62
   250
420
  2301728
370
    40
100
AcDbSpline
210
0.0
220
0.0
230
1.0
 70
     9
 71
     3
 72
    23
 73
    19
 74
     0
 42
0.0000000001
 43
0.0000000001
 40
0.0
 40
0.0
 40
0.0
 40
0.0
 40
1.0
 40
1.0
 40
1.0
 40
2.0
 40
2.0
 40
2.0
 40
3.0
 40
3.0
 40
3.0
 40
4.0
 40
4.0
 40
4.0
 40
5.0
 40
5.0
 40
5.0
 40
6.0
 40
6.0
 40
6.0
 40
6.0
 10
3.920842322697542
 20
6.01785428046042
 30
0.0
 10
3.920842322697542
 20
6.01785428046042
 30
0.0
 10
3.970325654780822
 20
6.008063874805379
 30
0.0
 10
3.970325654780822
 20
6.008063874805379
 30
0.0
 10
3.970325654780822
 20
6.008063874805379
 30
0.0
 10
3.984911765523456
 20
6.004166652681608
 30
0.0
 10
3.983221487788379
 20
5.984416653180535
 30
0.0
 10
3.983221487788379
 20
5.984416653180535
 30
0.0
 10
3.98454787664376
 20
5.962652764841449
 30
0.0
 10
3.968977139171808
 20
5.964882058238193
 30
0.0
 10
3.968977139171808
 20
5.964882058238193
 30
0.0
 10
3.919364544957097
 20
5.975269431189391
 30
0.0
 10
3.919364544957097
 20
5.975269431189391
 30
0.0
 10
3.919364544957097
 20
5.975269431189391
 30
0.0
 10
3.907883989691564
 20
5.975612486736281
 30
0.0
 10
3.907883989691564
 20
5.998938875035896
 30
0.0
 10
3.907883989691564
 20
5.998938875035896
 30
0.0
 10
3.90863398967263
 20
6.019309707854618
 30
0.0
 10
3.920842322697542
 20
6.01785428046042
 30
0.0
  0
SPLINE
  5
AC
330
70
100
AcDbEntity
  8
Layer 2
 62
   250
420
  2301728
370
    40
100
AcDbSpline
210
0.0
220
0.0
230
1.0
 70
     8
 71
     3
 72
    11
 73
     7
 74
     0
 42
0.0000000001
 43
0.0000000001
 40
0.0
 40
0.0
 40
0.0
 40
0.0
 40
1.0
 40
1.0
 40
1.0
 40
2.0
 40
2.0
 40
2.0
 40
2.0
 10
3.983756209997093
 20
5.988763875292938
 30
0.0
 10
3.983756209997093
 20
5.988763875292938
 30
0.0
 10
3.943806211006315
 20
5.997097208415753
 30
0.0
 10
3.943806211006315
 20
5.997097208415753
 30
0.0
 10
3.943806211006315
 20
5.997097208415753
 30
0.0
 10
3.931575655759742
 20
5.996754152868864
 30
0.0
 10
3.934915933453124
 20
6.017124985687587
 30
0.0
  0
SPLINE
  5
AD
330
70
100
AcDbEntity
  8
Layer 2
 62
   250
420
  2301728
370
    40
100
AcDbSpline
210
0.0
220
0.0
230
1.0
 70
     9
 71
     3
 72
    23
 73
    19
 74
     0
 42
0.0000000001
 43
0.0000000001
 40
0.0
 40
0.0
 40
0.0
 40
0.0
 40
1.0
 40
1.0
 40
1.0
 40
2.0
 40
2.0
 40
2.0
 40
3.0
 40
3.0
 40
3.0
 40
4.0
 40
4.0
 40
4.0
 40
5.0
 40
5.0
 40
5.0
 40
6.0
 40
6.0
 40
6.0
 40
6.0
 10
3.651747885050995
 20
6.05604720692655
 30
0.0
 10
3.651747885050995
 20
6.05604720692655
 30
0.0
 10
3.701238161578544
 20
6.046257058238198
 30
0.0
 10
3.701238161578544
 20
6.046257058238198
 30
0.0
 10
3.701238161578544
 20
6.046257058238198
 30
0.0
 10
3.715825661210033
 20
6.042337485050666
 30
0.0
 10
3.714133994586101
 20
6.02263054110406
 30
0.0
 10
3.714133994586101
 20
6.02263054110406
 30
0.0
 10
3.715461772330336
 20
6.000845819432166
 30
0.0
 10
3.699900661612332
 20
6.00307498604252
 30
0.0
 10
3.699900661612332
 20
6.00307498604252
 30
0.0
 10
3.650288162865649
 20
6.01346248578011
 30
0.0
 10
3.650288162865649
 20
6.01346248578011
 30
0.0
 10
3.650288162865649
 20
6.01346248578011
 30
0.0
 10
3.638786774267309
 20
6.013848596881467
 30
0.0
 10
3.638786774267309
 20
6.037132058238208
 30
0.0
 10
3.638786774267309
 20
6.037132058238208
 30
0.0
 10
3.639547885359193
 20
6.057524984666997
 30
0.0
 10
3.651747885050995
 20
6.05604720692655
 30
0.0
  0
SPLINE
  5
AE
330
70
100
AcDbEntity
  8
Layer 2
 62
   250
420
  2301728
370
    40
100
AcDbSpline
210
0.0
220
0.0
230
1.0
 70
     8
 71
     3
 72
    11
 73
     7
 74
     0
 42
0.0000000001
 43
0.0000000001
 40
0.0
 40
0.0
 40
0.0
 40
0.0
 40
1.0
 40
1.0
 40
1.0
 40
2.0
 40
2.0
 40
2.0
 40
2.0
 10
3.714670105683669
 20
6.026979280460421
 30
0.0
 10
3.714670105683669
 20
6.026979280460421
 30
0.0
 10
3.674731217803721
 20
6.035311096339278
 30
0.0
 10
3.674731217803721
 20
6.035311096339278
 30
0.0
 10
3.674731217803721
 20
6.035311096339278
 30
0.0
 10
3.662489551446305
 20
6.034947207459581
 30
0.0
 10
3.665829829139688
 20
6.055276373612691
 30
0.0
  0
SPLINE
  5
AF
330
70
100
AcDbEntity
  8
Layer 2
 62
   250
420
  2301728
370
    40
100
AcDbSpline
210
0.0
220
0.0
230
1.0
 70
     9
 71
     3
 72
    23
 73
    19
 74
     0
 42
0.0000000001
 43
0.0000000001
 40
0.0
 40
0.0
 40
0.0
 40
0.0
 40
1.0
 40
1.0
 40
1.0
 40
2.0
 40
2.0
 40
2.0
 40
3.0
 40
3.0
 40
3.0
 40
4.0
 40
4.0
 40
4.0
 40
5.0
 40
5.0
 40
5.0
 40
6.0
 40
6.0
 40
6.0
 40
6.0
 10
3.854845102142551
 20
5.287025004131464
 30
0.0
 10
3.854845102142551
 20
5.287025004131464
 30
0.0
 10
3.904350656447491
 20
5.277213893268203
 30
0.0
 10
3.904350656447491
 20
5.277213893268203
 30
0.0
 10
3.904350656447491
 20
5.277213893268203
 30
0.0
 10
3.918936767190125
 20
5.273294448922771
 30
0.0
 10
3.917245100566194
 20
5.253566671643359
 30
0.0
 10
3.917245100566194
 20
5.253566671643359
 30
0.0
 10
3.918572878310429
 20
5.231825005525934
 30
0.0
 10
3.903021489814401
 20
5.234029172136918
 30
0.0
 10
3.903021489814401
 20
5.234029172136918
 30
0.0
 10
3.853389546623765
 20
5.244397227430554
 30
0.0
 10
3.853389546623765
 20
5.244397227430554
 30
0.0
 10
3.853389546623765
 20
5.244397227430554
 30
0.0
 10
3.841908991358233
 20
5.244783338531911
 30
0.0
 10
3.841908991358233
 20
5.268130560164333
 30
0.0
 10
3.841908991358233
 20
5.268130560164333
 30
0.0
 10
3.842636769117625
 20
5.288481948539103
 30
0.0
 10
3.854845102142551
 20
5.287025004131464
 30
0.0
  0
SPLINE
  5
B0
330
70
100
AcDbEntity
  8
Layer 2
 62
   250
420
  2301728
370
    40
100
AcDbSpline
210
0.0
220
0.0
230
1.0
 70
     8
 71
     3
 72
    11
 73
     7
 74
     0
 42
0.0000000001
 43
0.0000000001
 40
0.0
 40
0.0
 40
0.0
 40
0.0
 40
1.0
 40
1.0
 40
1.0
 40
2.0
 40
2.0
 40
2.0
 40
2.0
 10
3.917781211663761
 20
5.257913893755762
 30
0.0
 10
3.917781211663761
 20
5.257913893755762
 30
0.0
 10
3.877853434894632
 20
5.266268060211384
 30
0.0
 10
3.877853434894632
 20
5.266268060211384
 30
0.0
 10
3.877853434894632
 20
5.266268060211384
 30
0.0
 10
3.865600657426398
 20
5.265882058238174
 30
0.0
 10
3.868940935119793
 20
5.28625278192875
 30
0.0
  0
SPLINE
  5
B1
330
70
100
AcDbEntity
  8
Layer 2
 62
   250
420
  2301728
370
    40
100
AcDbSpline
210
0.0
220
0.0
230
1.0
 70
     9
 71
     3
 72
    23
 73
    19
 74
     0
 42
0.0000000001
 43
0.0000000001
 40
0.0
 40
0.0
 40
0.0
 40
0.0
 40
1.0
 40
1.0
 40
1.0
 40
2.0
 40
2.0
 40
2.0
 40
3.0
 40
3.0
 40
3.0
 40
4.0
 40
4.0
 40
4.0
 40
5.0
 40
5.0
 40
5.0
 40
6.0
 40
6.0
 40
6.0
 40
6.0
 10
3.585770108939957
 20
5.325195836500521
 30
0.0
 10
3.585770108939957
 20
5.325195836500521
 30
0.0
 10
3.635274274356043
 20
5.31540694785892
 30
0.0
 10
3.635274274356043
 20
5.31540694785892
 30
0.0
 10
3.635274274356043
 20
5.31540694785892
 30
0.0
 10
3.649850662876714
 20
5.31150972573515
 30
0.0
 10
3.6481701073636
 20
5.291759726234077
 30
0.0
 10
3.6481701073636
 20
5.291759726234077
 30
0.0
 10
3.649485385108151
 20
5.270016671227797
 30
0.0
 10
3.633925663279001
 20
5.272243169349318
 30
0.0
 10
3.633925663279001
 20
5.272243169349318
 30
0.0
 10
3.584302053421487
 20
5.282612504242933
 30
0.0
 10
3.584302053421487
 20
5.282612504242933
 30
0.0
 10
3.584302053421487
 20
5.282612504242933
 30
0.0
 10
3.572810472505137
 20
5.28297639312263
 30
0.0
 10
3.572810472505137
 20
5.306281948089437
 30
0.0
 10
3.572810472505137
 20
5.306281948089437
 30
0.0
 10
3.573560472505139
 20
5.326675003129821
 30
0.0
 10
3.585770108939957
 20
5.325195836500521
 30
0.0
  0
SPLINE
  5
B2
330
70
100
AcDbEntity
  8
Layer 2
 62
   250
420
  2301728
370
    40
100
AcDbSpline
210
0.0
220
0.0
230
1.0
 70
     8
 71
     3
 72
    11
 73
     7
 74
     0
 42
0.0000000001
 43
0.0000000001
 40
0.0
 40
0.0
 40
0.0
 40
0.0
 40
1.0
 40
1.0
 40
1.0
 40
2.0
 40
2.0
 40
2.0
 40
2.0
 10
3.648693718461483
 20
5.296106948346479
 30
0.0
 10
3.648693718461483
 20
5.296106948346479
 30
0.0
 10
3.608754916949578
 20
5.304461114802102
 30
0.0
 10
3.608754916949578
 20
5.304461114802102
 30
0.0
 10
3.608754916949578
 20
5.304461114802102
 30
0.0
 10
3.59651316422412
 20
5.304075003700745
 30
0.0
 10
3.599843719695538
 20
5.324445836519467
 30
0.0
  0
SPLINE
  5
B3
330
70
100
AcDbEntity
  8
Layer 2
 62
   250
420
  2301728
370
    40
100
AcDbSpline
210
0.0
220
0.0
230
1.0
 70
     9
 71
     3
 72
    23
 73
    19
 74
     0
 42
0.0000000001
 43
0.0000000001
 40
0.0
 40
0.0
 40
0.0
 40
0.0
 40
1.0
 40
1.0
 40
1.0
 40
2.0
 40
2.0
 40
2.0
 40
3.0
 40
3.0
 40
3.0
 40
4.0
 40
4.0
 40
4.0
 40
5.0
 40
5.0
 40
5.0
 40
6.0
 40
6.0
 40
6.0
 40
6.0
 10
3.920842322697542
 20
5.526593053635047
 30
0.0
 10
3.920842322697542
 20
5.526593053635047
 30
0.0
 10
3.970325654780822
 20
5.516783331660627
 30
0.0
 10
3.970325654780822
 20
5.516783331660627
 30
0.0
 10
3.970325654780822
 20
5.516783331660627
 30
0.0
 10
3.984911765523456
 20
5.512841665093547
 30
0.0
 10
3.983221487788379
 20
5.493133332258088
 30
0.0
 10
3.983221487788379
 20
5.493133332258088
 30
0.0
 10
3.98454787664376
 20
5.471391666140637
 30
0.0
 10
3.968977139171808
 20
5.47359861052933
 30
0.0
 10
3.968977139171808
 20
5.47359861052933
 30
0.0
 10
3.919364544957097
 20
5.483986110266919
 30
0.0
 10
3.919364544957097
 20
5.483986110266919
 30
0.0
 10
3.919364544957097
 20
5.483986110266919
 30
0.0
 10
3.907883989691564
 20
5.484349999146616
 30
0.0
 10
3.907883989691564
 20
5.507677776335096
 30
0.0
 10
3.907883989691564
 20
5.507677776335096
 30
0.0
 10
3.90863398967263
 20
5.528048724904857
 30
0.0
 10
3.920842322697542
 20
5.526593053635047
 30
0.0
  0
SPLINE
  5
B4
330
70
100
AcDbEntity
  8
Layer 2
 62
   250
420
  2301728
370
    40
100
AcDbSpline
210
0.0
220
0.0
230
1.0
 70
     8
 71
     3
 72
    11
 73
     7
 74
     0
 42
0.0000000001
 43
0.0000000001
 40
0.0
 40
0.0
 40
0.0
 40
0.0
 40
1.0
 40
1.0
 40
1.0
 40
2.0
 40
2.0
 40
2.0
 40
2.0
 10
3.983756209997093
 20
5.497483332148186
 30
0.0
 10
3.983756209997093
 20
5.497483332148186
 30
0.0
 10
3.943806211006315
 20
5.505836109714954
 30
0.0
 10
3.943806211006315
 20
5.505836109714954
 30
0.0
 10
3.943806211006315
 20
5.505836109714954
 30
0.0
 10
3.931575655759742
 20
5.505451502682628
 30
0.0
 10
3.934915933453124
 20
5.525799998099513
 30
0.0
  0
SPLINE
  5
B5
330
70
100
AcDbEntity
  8
Layer 2
 62
   250
420
  2301728
370
    40
100
AcDbSpline
210
0.0
220
0.0
230
1.0
 70
     9
 71
     3
 72
    23
 73
    19
 74
     0
 42
0.0000000001
 43
0.0000000001
 40
0.0
 40
0.0
 40
0.0
 40
0.0
 40
1.0
 40
1.0
 40
1.0
 40
2.0
 40
2.0
 40
2.0
 40
3.0
 40
3.0
 40
3.0
 40
4.0
 40
4.0
 40
4.0
 40
5.0
 40
5.0
 40
5.0
 40
6.0
 40
6.0
 40
6.0
 40
6.0
 10
3.651747885050995
 20
5.564784836015974
 30
0.0
 10
3.651747885050995
 20
5.564784836015974
 30
0.0
 10
3.701238161578544
 20
5.554976386251344
 30
0.0
 10
3.701238161578544
 20
5.554976386251344
 30
0.0
 10
3.701238161578544
 20
5.554976386251344
 30
0.0
 10
3.715825661210033
 20
5.551076502682627
 30
0.0
 10
3.714133994586101
 20
5.531326502682658
 30
0.0
 10
3.714133994586101
 20
5.531326502682658
 30
0.0
 10
3.715461772330336
 20
5.50958472073138
 30
0.0
 10
3.699900661612332
 20
5.511812613793773
 30
0.0
 10
3.699900661612332
 20
5.511812613793773
 30
0.0
 10
3.650288162865649
 20
5.522201502682656
 30
0.0
 10
3.650288162865649
 20
5.522201502682656
 30
0.0
 10
3.650288162865649
 20
5.522201502682656
 30
0.0
 10
3.638786774267309
 20
5.522545831515054
 30
0.0
 10
3.638786774267309
 20
5.545870830925815
 30
0.0
 10
3.638786774267309
 20
5.545870830925815
 30
0.0
 10
3.639547885359193
 20
5.566241663744537
 30
0.0
 10
3.651747885050995
 20
5.564784836015974
 30
0.0
  0
SPLINE
  5
B6
330
70
100
AcDbEntity
  8
Layer 2
 62
   250
420
  2301728
370
    40
100
AcDbSpline
210
0.0
220
0.0
230
1.0
 70
     8
 71
     3
 72
    11
 73
     7
 74
     0
 42
0.0000000001
 43
0.0000000001
 40
0.0
 40
0.0
 40
0.0
 40
0.0
 40
1.0
 40
1.0
 40
1.0
 40
2.0
 40
2.0
 40
2.0
 40
2.0
 10
3.714670105683669
 20
5.53569722007171
 30
0.0
 10
3.714670105683669
 20
5.53569722007171
 30
0.0
 10
3.674731217803721
 20
5.544030553194525
 30
0.0
 10
3.674731217803721
 20
5.544030553194525
 30
0.0
 10
3.674731217803721
 20
5.544030553194525
 30
0.0
 10
3.662489551446305
 20
5.543644442093168
 30
0.0
 10
3.665829829139688
 20
5.563993169349284
 30
0.0
  0
SPLINE
  5
B7
330
70
100
AcDbEntity
  8
Layer 2
 62
   250
420
  2301728
370
    40
100
AcDbSpline
210
0.0
220
0.0
230
1.0
 70
     9
 71
     3
 72
    23
 73
    19
 74
     0
 42
0.0000000001
 43
0.0000000001
 40
0.0
 40
0.0
 40
0.0
 40
0.0
 40
1.0
 40
1.0
 40
1.0
 40
2.0
 40
2.0
 40
2.0
 40
3.0
 40
3.0
 40
3.0
 40
4.0
 40
4.0
 40
4.0
 40
5.0
 40
5.0
 40
5.0
 40
6.0
 40
6.0
 40
6.0
 40
6.0
 10
3.920842322697542
 20
5.030062613793739
 30
0.0
 10
3.920842322697542
 20
5.030062613793739
 30
0.0
 10
3.970325654780822
 20
5.020294455314089
 30
0.0
 10
3.970325654780822
 20
5.020294455314089
 30
0.0
 10
3.970325654780822
 20
5.020294455314089
 30
0.0
 10
3.984911765523456
 20
5.016352788746997
 30
0.0
 10
3.983221487788379
 20
4.996625011467585
 30
0.0
 10
3.983221487788379
 20
4.996625011467585
 30
0.0
 10
3.98454787664376
 20
4.974861123128499
 30
0.0
 10
3.968977139171808
 20
4.977090391571537
 30
0.0
 10
3.968977139171808
 20
4.977090391571537
 30
0.0
 10
3.919364544957097
 20
4.98745556725478
 30
0.0
 10
3.919364544957097
 20
4.98745556725478
 30
0.0
 10
3.919364544957097
 20
4.98745556725478
 30
0.0
 10
3.907883989691564
 20
4.987841678356137
 30
0.0
 10
3.907883989691564
 20
5.011169455544606
 30
0.0
 10
3.907883989691564
 20
5.011169455544606
 30
0.0
 10
3.90863398967263
 20
5.031540288363329
 30
0.0
 10
3.920842322697542
 20
5.030062613793739
 30
0.0
  0
SPLINE
  5
B8
330
70
100
AcDbEntity
  8
Layer 2
 62
   250
420
  2301728
370
    40
100
AcDbSpline
210
0.0
220
0.0
230
1.0
 70
     8
 71
     3
 72
    11
 73
     7
 74
     0
 42
0.0000000001
 43
0.0000000001
 40
0.0
 40
0.0
 40
0.0
 40
0.0
 40
1.0
 40
1.0
 40
1.0
 40
2.0
 40
2.0
 40
2.0
 40
2.0
 10
3.983756209997093
 20
5.000972233579987
 30
0.0
 10
3.983756209997093
 20
5.000972233579987
 30
0.0
 10
3.943806211006315
 20
5.009305566702803
 30
0.0
 10
3.943806211006315
 20
5.009305566702803
 30
0.0
 10
3.943806211006315
 20
5.009305566702803
 30
0.0
 10
3.931575655759742
 20
5.008941677823107
 30
0.0
 10
3.934915933453124
 20
5.029312613793737
 30
0.0
  0
SPLINE
  5
B9
330
70
100
AcDbEntity
  8
Layer 2
 62
   250
420
  2301728
370
    40
100
AcDbSpline
210
0.0
220
0.0
230
1.0
 70
     9
 71
     3
 72
    23
 73
    19
 74
     0
 42
0.0000000001
 43
0.0000000001
 40
0.0
 40
0.0
 40
0.0
 40
0.0
 40
1.0
 40
1.0
 40
1.0
 40
2.0
 40
2.0
 40
2.0
 40
3.0
 40
3.0
 40
3.0
 40
4.0
 40
4.0
 40
4.0
 40
5.0
 40
5.0
 40
5.0
 40
6.0
 40
6.0
 40
6.0
 40
6.0
 10
3.651747885050995
 20
5.0682555652136
 30
0.0
 10
3.651747885050995
 20
5.0682555652136
 30
0.0
 10
3.701238161578544
 20
5.058465391571492
 30
0.0
 10
3.701238161578544
 20
5.058465391571492
 30
0.0
 10
3.701238161578544
 20
5.058465391571492
 30
0.0
 10
3.715825661210033
 20
5.054568065559376
 30
0.0
 10
3.714133994586101
 20
5.034818066058303
 30
0.0
 10
3.714133994586101
 20
5.034818066058303
 30
0.0
 10
3.715461772330336
 20
5.013054177719216
 30
0.0
 10
3.699900661612332
 20
5.015304177662376
 30
0.0
 10
3.699900661612332
 20
5.015304177662376
 30
0.0
 10
3.650288162865649
 20
5.025670844067159
 30
0.0
 10
3.650288162865649
 20
5.025670844067159
 30
0.0
 10
3.650288162865649
 20
5.025670844067159
 30
0.0
 10
3.638786774267309
 20
5.026034836015949
 30
0.0
 10
3.638786774267309
 20
5.049362510135324
 30
0.0
 10
3.638786774267309
 20
5.049362510135324
 30
0.0
 10
3.639547885359193
 20
5.069733342954046
 30
0.0
 10
3.651747885050995
 20
5.0682555652136
 30
0.0
  0
SPLINE
  5
BA
330
70
100
AcDbEntity
  8
Layer 2
 62
   250
420
  2301728
370
    40
100
AcDbSpline
210
0.0
220
0.0
230
1.0
 70
     8
 71
     3
 72
    11
 73
     7
 74
     0
 42
0.0000000001
 43
0.0000000001
 40
0.0
 40
0.0
 40
0.0
 40
0.0
 40
1.0
 40
1.0
 40
1.0
 40
2.0
 40
2.0
 40
2.0
 40
2.0
 10
3.714670105683669
 20
5.039187613793728
 30
0.0
 10
3.714670105683669
 20
5.039187613793728
 30
0.0
 10
3.674731217803721
 20
5.047498621293521
 30
0.0
 10
3.674731217803721
 20
5.047498621293521
 30
0.0
 10
3.674731217803721
 20
5.047498621293521
 30
0.0
 10
3.662489551446305
 20
5.047134732413824
 30
0.0
 10
3.665829829139688
 20
5.06748473189974
 30
0.0
  0
SPLINE
  5
BB
330
70
100
AcDbEntity
  8
Layer 2
 62
   250
420
  2301728
370
    40
100
AcDbSpline
210
0.0
220
0.0
230
1.0
 70
     9
 71
     3
 72
    17
 73
    13
 74
     0
 42
0.0000000001
 43
0.0000000001
 40
0.0
 40
0.0
 40
0.0
 40
0.0
 40
1.0
 40
1.0
 40
1.0
 40
2.0
 40
2.0
 40
2.0
 40
3.0
 40
3.0
 40
3.0
 40
4.0
 40
4.0
 40
4.0
 40
4.0
 10
3.973539543588533
 20
8.5136277003984
 30
0.0
 10
3.976043710191927
 20
8.497444367473892
 30
0.0
 10
3.966963250282914
 20
8.48259992340445
 30
0.0
 10
3.953339544098816
 20
8.480522145679161
 30
0.0
 10
3.939693711110205
 20
8.478401312399403
 30
0.0
 10
3.926627044773617
 20
8.489862423220984
 30
0.0
 10
3.924120100392517
 20
8.506054089478613
 30
0.0
 10
3.921636767121917
 20
8.5222709471271
 30
0.0
 10
3.930675655782478
 20
8.537105477583079
 30
0.0
 10
3.94436315543669
 20
8.539204088641174
 30
0.0
 10
3.9580089884253
 20
8.541291588588439
 30
0.0
 10
3.971053432540227
 20
8.529831866655715
 30
0.0
 10
3.973539543588533
 20
8.5136277003984
 30
0.0
  0
SPLINE
  5
BC
330
70
100
AcDbEntity
  8
Layer 2
 62
   250
420
  2301728
370
    40
100
AcDbSpline
210
0.0
220
0.0
230
1.0
 70
     8
 71
     3
 72
    14
 73
    10
 74
     0
 42
0.0000000001
 43
0.0000000001
 40
0.0
 40
0.0
 40
0.0
 40
0.0
 40
1.0
 40
1.0
 40
1.0
 40
2.0
 40
2.0
 40
2.0
 40
3.0
 40
3.0
 40
3.0
 40
3.0
 10
3.935366028060697
 20
8.535337422072188
 30
0.0
 10
3.938345100033163
 20
8.539502699744742
 30
0.0
 10
3.94414787766435
 20
8.541109644148592
 30
0.0
 10
3.949140933093783
 20
8.542491588558124
 30
0.0
 10
3.962464543868311
 20
8.546219366241732
 30
0.0
 10
3.97679371017298
 20
8.536406866489617
 30
0.0
 10
3.981185472505141
 20
8.520620755777295
 30
0.0
 10
3.985597876617235
 20
8.504845756175805
 30
0.0
 10
3.978399265687976
 20
8.489026312130993
 30
0.0
 10
3.965077043802302
 20
8.485308256669364
 30
0.0
  0
SPLINE
  5
BD
330
70
100
AcDbEntity
  8
Layer 2
 62
   250
420
  2301728
370
    40
100
AcDbSpline
210
0.0
220
0.0
230
1.0
 70
     8
 71
     3
 72
    17
 73
    13
 74
     0
 42
0.0000000001
 43
0.0000000001
 40
0.0
 40
0.0
 40
0.0
 40
0.0
 40
1.0
 40
1.0
 40
1.0
 40
2.0
 40
2.0
 40
2.0
 40
3.0
 40
3.0
 40
3.0
 40
4.0
 40
4.0
 40
4.0
 40
4.0
 10
3.975764543532325
 20
8.529886033321012
 30
0.0
 10
3.975764543532325
 20
8.529886033321012
 30
0.0
 10
3.98071325028291
 20
8.528909836015978
 30
0.0
 10
3.98071325028291
 20
8.528909836015978
 30
0.0
 10
3.98071325028291
 20
8.528909836015978
 30
0.0
 10
3.995281209705947
 20
8.524990200111359
 30
0.0
 10
3.993608987525968
 20
8.505251311721115
 30
0.0
 10
3.993608987525968
 20
8.505251311721115
 30
0.0
 10
3.994915931937397
 20
8.483509645603691
 30
0.0
 10
3.979364543441369
 20
8.48573742332519
 30
0.0
 10
3.979364543441369
 20
8.48573742332519
 30
0.0
 10
3.968160377057756
 20
8.488083256599262
 30
0.0
 10
3.968160377057756
 20
8.488083256599262
 30
0.0
  0
SPLINE
  5
BE
330
70
100
AcDbEntity
  8
Layer 2
 62
   250
420
  2301728
370
    40
100
AcDbSpline
210
0.0
220
0.0
230
1.0
 70
     8
 71
     3
 72
    17
 73
    13
 74
     0
 42
0.0000000001
 43
0.0000000001
 40
0.0
 40
0.0
 40
0.0
 40
0.0
 40
1.0
 40
1.0
 40
1.0
 40
2.0
 40
2.0
 40
2.0
 40
3.0
 40
3.0
 40
3.0
 40
4.0
 40
4.0
 40
4.0
 40
4.0
 10
3.929754916949579
 20
8.496104280460409
 30
0.0
 10
3.929754916949579
 20
8.496104280460409
 30
0.0
 10
3.926968711431666
 20
8.496179089728077
 30
0.0
 10
3.924120100392517
 20
8.499061034099717
 30
0.0
 10
3.9212284337989
 20
8.502026311802586
 30
0.0
 10
3.918252044985213
 20
8.507962422763739
 30
0.0
 10
3.918252044985213
 20
8.519806866908968
 30
0.0
 10
3.918252044985213
 20
8.519806866908968
 30
0.0
 10
3.9190006560774
 20
8.540166588616859
 30
0.0
 10
3.931211766880032
 20
8.538677699765583
 30
0.0
 10
3.931211766880032
 20
8.538677699765583
 30
0.0
 10
3.940722877750873
 20
8.536815199812634
 30
0.0
 10
3.940722877750873
 20
8.536815199812634
 30
0.0
  0
SPLINE
  5
BF
330
70
100
AcDbEntity
  8
Layer 2
 62
   250
420
  2301728
370
    40
100
AcDbSpline
210
0.0
220
0.0
230
1.0
 70
     9
 71
     3
 72
    17
 73
    13
 74
     0
 42
0.0000000001
 43
0.0000000001
 40
0.0
 40
0.0
 40
0.0
 40
0.0
 40
1.0
 40
1.0
 40
1.0
 40
2.0
 40
2.0
 40
2.0
 40
3.0
 40
3.0
 40
3.0
 40
4.0
 40
4.0
 40
4.0
 40
4.0
 10
3.902378434275091
 20
8.277540206362472
 30
0.0
 10
3.904885378656204
 20
8.261368169349299
 30
0.0
 10
3.895802045552335
 20
8.246511040479667
 30
0.0
 10
3.882178434785386
 20
8.24444437386521
 30
0.0
 10
3.868535379574483
 20
8.242323540585452
 30
0.0
 10
3.855465935460188
 20
8.253773540296201
 30
0.0
 10
3.852961768856794
 20
8.26996798433154
 30
0.0
 10
3.850475657808487
 20
8.286181872810832
 30
0.0
 10
3.859515935357888
 20
8.301016594658296
 30
0.0
 10
3.873182601679306
 20
8.303105483494416
 30
0.0
 10
3.88684787911187
 20
8.305204094552511
 30
0.0
 10
3.899892323226797
 20
8.293754094841762
 30
0.0
 10
3.902378434275091
 20
8.277540206362472
 30
0.0
  0
SPLINE
  5
C0
330
70
100
AcDbEntity
  8
Layer 2
 62
   250
420
  2301728
370
    40
100
AcDbSpline
210
0.0
220
0.0
230
1.0
 70
     8
 71
     3
 72
    14
 73
    10
 74
     0
 42
0.0000000001
 43
0.0000000001
 40
0.0
 40
0.0
 40
0.0
 40
0.0
 40
1.0
 40
1.0
 40
1.0
 40
2.0
 40
2.0
 40
2.0
 40
3.0
 40
3.0
 40
3.0
 40
3.0
 10
3.864185472505141
 20
8.299237428036576
 30
0.0
 10
3.867183990719733
 20
8.303416594597667
 30
0.0
 10
3.872989546128628
 20
8.305022150112664
 30
0.0
 10
3.87795760155868
 20
8.306404094522196
 30
0.0
 10
3.891283990110915
 20
8.31011937220612
 30
0.0
 10
3.905635378637258
 20
8.300319372453689
 30
0.0
 10
3.910027045192982
 20
8.284533261741367
 30
0.0
 10
3.914438156192671
 20
8.268745762140193
 30
0.0
 10
3.907218711930593
 20
8.252948540317042
 30
0.0
 10
3.893917323377725
 20
8.249222151522291
 30
0.0
  0
SPLINE
  5
C1
330
70
100
AcDbEntity
  8
Layer 2
 62
   250
420
  2301728
370
    40
100
AcDbSpline
210
0.0
220
0.0
230
1.0
 70
     8
 71
     3
 72
    17
 73
    13
 74
     0
 42
0.0000000001
 43
0.0000000001
 40
0.0
 40
0.0
 40
0.0
 40
0.0
 40
1.0
 40
1.0
 40
1.0
 40
2.0
 40
2.0
 40
2.0
 40
3.0
 40
3.0
 40
3.0
 40
4.0
 40
4.0
 40
4.0
 40
4.0
 10
3.904606211996603
 20
8.293809650395916
 30
0.0
 10
3.904606211996603
 20
8.293809650395916
 30
0.0
 10
3.909554822982689
 20
8.292822150420862
 30
0.0
 10
3.909554822982689
 20
8.292822150420862
 30
0.0
 10
3.909554822982689
 20
8.292822150420862
 30
0.0
 10
3.924120100392517
 20
8.288891594964599
 30
0.0
 10
3.922450655990246
 20
8.269163817685187
 30
0.0
 10
3.922450655990246
 20
8.269163817685187
 30
0.0
 10
3.92375621151282
 20
8.247411040456931
 30
0.0
 10
3.908203434127939
 20
8.24963881817843
 30
0.0
 10
3.908203434127939
 20
8.24963881817843
 30
0.0
 10
3.897002045522033
 20
8.251994373674481
 30
0.0
 10
3.897002045522033
 20
8.251994373674481
 30
0.0
  0
SPLINE
  5
C2
330
70
100
AcDbEntity
  8
Layer 2
 62
   250
420
  2301728
370
    40
100
AcDbSpline
210
0.0
220
0.0
230
1.0
 70
     8
 71
     3
 72
    17
 73
    13
 74
     0
 42
0.0000000001
 43
0.0000000001
 40
0.0
 40
0.0
 40
0.0
 40
0.0
 40
1.0
 40
1.0
 40
1.0
 40
2.0
 40
2.0
 40
2.0
 40
3.0
 40
3.0
 40
3.0
 40
4.0
 40
4.0
 40
4.0
 40
4.0
 10
3.858574361394023
 20
8.260008262360921
 30
0.0
 10
3.858574361394023
 20
8.260008262360921
 30
0.0
 10
3.855788157674282
 20
8.260092984581003
 30
0.0
 10
3.852961768856794
 20
8.26296242895296
 30
0.0
 10
3.850047880041516
 20
8.265941595544365
 30
0.0
 10
3.847092324560624
 20
8.27186381761698
 30
0.0
 10
3.847092324560624
 20
8.283708261762209
 30
0.0
 10
3.847092324560624
 20
8.283708261762209
 30
0.0
 10
3.847842324541677
 20
8.304079094580931
 30
0.0
 10
3.86005065756659
 20
8.302599927951632
 30
0.0
 10
3.86005065756659
 20
8.302599927951632
 30
0.0
 10
3.869561768437442
 20
8.300716594665875
 30
0.0
 10
3.869561768437442
 20
8.300716594665875
 30
0.0
  0
INSERT
  5
C4
330
70
100
AcDbEntity
  8
Layer 2
100
AcDbBlockReference
  2
Block_0
 10
0.0
 20
0.0
 30
0.0
  0
SPLINE
  5
D7
330
70
100
AcDbEntity
  8
Layer 2
 62
   250
420
  2301728
370
    40
100
AcDbSpline
210
0.0
220
0.0
230
1.0
 70
     9
 71
     3
 72
    17
 73
    13
 74
     0
 42
0.0000000001
 43
0.0000000001
 40
0.0
 40
0.0
 40
0.0
 40
0.0
 40
1.0
 40
1.0
 40
1.0
 40
2.0
 40
2.0
 40
2.0
 40
3.0
 40
3.0
 40
3.0
 40
4.0
 40
4.0
 40
4.0
 40
4.0
 10
3.629029830069346
 20
7.816374940234709
 30
0.0
 10
3.63152566333963
 20
7.800201502682638
 30
0.0
 10
3.622453441346591
 20
7.785356885462735
 30
0.0
 10
3.608818719468811
 20
7.7832804966263
 30
0.0
 10
3.595172886480188
 20
7.781159836015969
 30
0.0
 10
3.582106220143625
 20
7.792618169349325
 30
0.0
 10
3.57961316465105
 20
7.808812613793747
 30
0.0
 10
3.577127053602755
 20
7.825007058238194
 30
0.0
 10
3.586156220041313
 20
7.839852717419388
 30
0.0
 10
3.599822886362731
 20
7.841951502682642
 30
0.0
 10
3.613488163795295
 20
7.844029106202772
 30
0.0
 10
3.626543719021039
 20
7.832588828714
 30
0.0
 10
3.629029830069346
 20
7.816374940234709
 30
0.0
  0
SPLINE
  5
D8
330
70
100
AcDbEntity
  8
Layer 2
 62
   250
420
  2301728
370
    40
100
AcDbSpline
210
0.0
220
0.0
230
1.0
 70
     8
 71
     3
 72
    14
 73
    10
 74
     0
 42
0.0000000001
 43
0.0000000001
 40
0.0
 40
0.0
 40
0.0
 40
0.0
 40
1.0
 40
1.0
 40
1.0
 40
2.0
 40
2.0
 40
2.0
 40
3.0
 40
3.0
 40
3.0
 40
3.0
 10
3.590836775478628
 20
7.838073550797666
 30
0.0
 10
3.593824361394025
 20
7.842249939581051
 30
0.0
 10
3.599629916949588
 20
7.8438568839849
 30
0.0
 10
3.604608997352935
 20
7.845249939505265
 30
0.0
 10
3.617943719238294
 20
7.848976328300017
 30
0.0
 10
3.632275663320683
 20
7.839165217436768
 30
0.0
 10
3.636667329876407
 20
7.823379106724435
 30
0.0
 10
3.641078440876084
 20
7.807592996012115
 30
0.0
 10
3.633858996614018
 20
7.791784836015974
 30
0.0
 10
3.620558996950004
 20
7.788055496505673
 30
0.0
  0
SPLINE
  5
D9
330
70
100
AcDbEntity
  8
Layer 2
 62
   250
420
  2301728
370
    40
100
AcDbSpline
210
0.0
220
0.0
230
1.0
 70
     8
 71
     3
 72
    17
 73
    13
 74
     0
 42
0.0000000001
 43
0.0000000001
 40
0.0
 40
0.0
 40
0.0
 40
0.0
 40
1.0
 40
1.0
 40
1.0
 40
2.0
 40
2.0
 40
2.0
 40
3.0
 40
3.0
 40
3.0
 40
4.0
 40
4.0
 40
4.0
 40
4.0
 10
3.631247885568869
 20
7.832633273157322
 30
0.0
 10
3.631247885568869
 20
7.832633273157322
 30
0.0
 10
3.636185472505139
 20
7.831667995403929
 30
0.0
 10
3.636185472505139
 20
7.831667995403929
 30
0.0
 10
3.636185472505139
 20
7.831667995403929
 30
0.0
 10
3.650771496186772
 20
7.827748551058498
 30
0.0
 10
3.649079829562841
 20
7.807998551557425
 30
0.0
 10
3.649079829562841
 20
7.807998551557425
 30
0.0
 10
3.650407694727366
 20
7.786257058238194
 30
0.0
 10
3.634835385478241
 20
7.788484663161498
 30
0.0
 10
3.634835385478241
 20
7.788484663161498
 30
0.0
 10
3.623631219094615
 20
7.790841607546401
 30
0.0
 10
3.623631219094615
 20
7.790841607546401
 30
0.0
  0
SPLINE
  5
DA
330
70
100
AcDbEntity
  8
Layer 2
 62
   250
420
  2301728
370
    40
100
AcDbSpline
210
0.0
220
0.0
230
1.0
 70
     8
 71
     3
 72
    17
 73
    13
 74
     0
 42
0.0000000001
 43
0.0000000001
 40
0.0
 40
0.0
 40
0.0
 40
0.0
 40
1.0
 40
1.0
 40
1.0
 40
2.0
 40
2.0
 40
2.0
 40
3.0
 40
3.0
 40
3.0
 40
4.0
 40
4.0
 40
4.0
 40
4.0
 10
3.585213250282915
 20
7.798851329566281
 30
0.0
 10
3.585213250282915
 20
7.798851329566281
 30
0.0
 10
3.582429831246549
 20
7.798917996231264
 30
0.0
 10
3.57961316465105
 20
7.801808273936027
 30
0.0
 10
3.576689553613795
 20
7.804784836015969
 30
0.0
 10
3.57373260924405
 20
7.81071799593317
 30
0.0
 10
3.57373260924405
 20
7.822542995634446
 30
0.0
 10
3.57373260924405
 20
7.822542995634446
 30
0.0
 10
3.574471498114272
 20
7.842936050674829
 30
0.0
 10
3.586679831139197
 20
7.841436050712722
 30
0.0
 10
3.586679831139197
 20
7.841436050712722
 30
0.0
 10
3.596213250282921
 20
7.839551328538113
 30
0.0
 10
3.596213250282921
 20
7.839551328538113
 30
0.0
  0
SPLINE
  5
DB
330
70
100
AcDbEntity
  8
Layer 2
 62
   250
420
  2301728
370
    40
100
AcDbSpline
210
0.0
220
0.0
230
1.0
 70
     9
 71
     3
 72
    17
 73
    13
 74
     0
 42
0.0000000001
 43
0.0000000001
 40
0.0
 40
0.0
 40
0.0
 40
0.0
 40
1.0
 40
1.0
 40
1.0
 40
2.0
 40
2.0
 40
2.0
 40
3.0
 40
3.0
 40
3.0
 40
4.0
 40
4.0
 40
4.0
 40
4.0
 10
3.697564550560236
 20
8.054637434215692
 30
0.0
 10
3.700060472505141
 20
8.038454101291183
 30
0.0
 10
3.690999272948298
 20
8.023608268332887
 30
0.0
 10
3.677354828848554
 20
8.021531879496453
 30
0.0
 10
3.663710384748785
 20
8.019409836015976
 30
0.0
 10
3.650653440634199
 20
8.030870768149421
 30
0.0
 10
3.648147885141939
 20
8.047063823295905
 30
0.0
 10
3.645663162982486
 20
8.06327910066405
 30
0.0
 10
3.654702051643021
 20
8.078102711400699
 30
0.0
 10
3.668370106853305
 20
8.080201502682635
 30
0.0
 10
3.682013162064208
 20
8.082290211294901
 30
0.0
 10
3.695068717289952
 20
8.070840391571525
 30
0.0
 10
3.697564550560236
 20
8.054637434215692
 30
0.0
  0
SPLINE
  5
DC
330
70
100
AcDbEntity
  8
Layer 2
 62
   250
420
  2301728
370
    40
100
AcDbSpline
210
0.0
220
0.0
230
1.0
 70
     8
 71
     3
 72
    14
 73
    10
 74
     0
 42
0.0000000001
 43
0.0000000001
 40
0.0
 40
0.0
 40
0.0
 40
0.0
 40
1.0
 40
1.0
 40
1.0
 40
2.0
 40
2.0
 40
2.0
 40
3.0
 40
3.0
 40
3.0
 40
3.0
 10
3.659371495969518
 20
8.076334655889796
 30
0.0
 10
3.662358995894035
 20
8.08051104467318
 30
0.0
 10
3.668165940191796
 20
8.082108266855053
 30
0.0
 10
3.673145106732679
 20
8.083501322375417
 30
0.0
 10
3.686470106396061
 20
8.08722771117017
 30
0.0
 10
3.700810472505142
 20
8.077416600306907
 30
0.0
 10
3.70521325028292
 20
8.061630489594588
 30
0.0
 10
3.709624272477804
 20
8.045831878882584
 30
0.0
 10
3.702406217104591
 20
8.03003483601598
 30
0.0
 10
3.689104828551724
 20
8.02630826826468
 30
0.0
  0
SPLINE
  5
DD
330
70
100
AcDbEntity
  8
Layer 2
 62
   250
420
  2301728
370
    40
100
AcDbSpline
210
0.0
220
0.0
230
1.0
 70
     8
 71
     3
 72
    17
 73
    13
 74
     0
 42
0.0000000001
 43
0.0000000001
 40
0.0
 40
0.0
 40
0.0
 40
0.0
 40
1.0
 40
1.0
 40
1.0
 40
2.0
 40
2.0
 40
2.0
 40
3.0
 40
3.0
 40
3.0
 40
4.0
 40
4.0
 40
4.0
 40
4.0
 10
3.699782694727357
 20
8.070895947127079
 30
0.0
 10
3.699782694727357
 20
8.070895947127079
 30
0.0
 10
3.704720105935027
 20
8.069919378274082
 30
0.0
 10
3.704720105935027
 20
8.069919378274082
 30
0.0
 10
3.704720105935027
 20
8.069919378274082
 30
0.0
 10
3.719295105566831
 20
8.06598882281782
 30
0.0
 10
3.717627050053414
 20
8.046259656649555
 30
0.0
 10
3.717627050053414
 20
8.046259656649555
 30
0.0
 10
3.718931216687135
 20
8.024517990532128
 30
0.0
 10
3.703381217079961
 20
8.026747157142482
 30
0.0
 10
3.703381217079961
 20
8.026747157142482
 30
0.0
 10
3.692165939585505
 20
8.029091601527714
 30
0.0
 10
3.692165939585505
 20
8.029091601527714
 30
0.0
  0
SPLINE
  5
DE
330
70
100
AcDbEntity
  8
Layer 2
 62
   250
420
  2301728
370
    40
100
AcDbSpline
210
0.0
220
0.0
230
1.0
 70
     8
 71
     3
 72
    17
 73
    13
 74
     0
 42
0.0000000001
 43
0.0000000001
 40
0.0
 40
0.0
 40
0.0
 40
0.0
 40
1.0
 40
1.0
 40
1.0
 40
2.0
 40
2.0
 40
2.0
 40
3.0
 40
3.0
 40
3.0
 40
4.0
 40
4.0
 40
4.0
 40
4.0
 10
3.653758996111302
 20
8.037102712436434
 30
0.0
 10
3.653758996111302
 20
8.037102712436434
 30
0.0
 10
3.650975662848281
 20
8.037179101323392
 30
0.0
 10
3.648147885141939
 20
8.04007076791701
 30
0.0
 10
3.645235385215515
 20
8.043036045619878
 30
0.0
 10
3.642267329734939
 20
8.048959656581347
 30
0.0
 10
3.642267329734939
 20
8.060794378504599
 30
0.0
 10
3.642267329734939
 20
8.060794378504599
 30
0.0
 10
3.643017329716005
 20
8.081176322434151
 30
0.0
 10
3.655225662740917
 20
8.079686044694021
 30
0.0
 10
3.655225662740917
 20
8.079686044694021
 30
0.0
 10
3.664736773611757
 20
8.077802711408265
 30
0.0
 10
3.664736773611757
 20
8.077802711408265
 30
0.0
  0
SPLINE
  5
DF
330
70
100
AcDbEntity
  8
Layer 2
 62
   250
420
  2301728
370
    40
100
AcDbSpline
210
0.0
220
0.0
230
1.0
 70
     9
 71
     3
 72
    17
 73
    13
 74
     0
 42
0.0000000001
 43
0.0000000001
 40
0.0
 40
0.0
 40
0.0
 40
0.0
 40
1.0
 40
1.0
 40
1.0
 40
2.0
 40
2.0
 40
2.0
 40
3.0
 40
3.0
 40
3.0
 40
4.0
 40
4.0
 40
4.0
 40
4.0
 10
3.973539543588533
 20
8.013658268584245
 30
0.0
 10
3.976043710191927
 20
7.997486046770568
 30
0.0
 10
3.966963250282914
 20
7.982629102701442
 30
0.0
 10
3.953339544098816
 20
7.980552713865007
 30
0.0
 10
3.939693711110205
 20
7.978442991696081
 30
0.0
 10
3.926627044773617
 20
7.989902713628806
 30
0.0
 10
3.924120100392517
 20
8.006086046553313
 30
0.0
 10
3.921636767121917
 20
8.022312613793751
 30
0.0
 10
3.930675655782478
 20
8.037124934658095
 30
0.0
 10
3.94436315543669
 20
8.03922354571619
 30
0.0
 10
3.9580089884253
 20
8.041322156774286
 30
0.0
 10
3.971053432540227
 20
8.029874934841245
 30
0.0
 10
3.973539543588533
 20
8.013658268584245
 30
0.0
  0
SPLINE
  5
E0
330
70
100
AcDbEntity
  8
Layer 2
 62
   250
420
  2301728
370
    40
100
AcDbSpline
210
0.0
220
0.0
230
1.0
 70
     8
 71
     3
 72
    14
 73
    10
 74
     0
 42
0.0000000001
 43
0.0000000001
 40
0.0
 40
0.0
 40
0.0
 40
0.0
 40
1.0
 40
1.0
 40
1.0
 40
2.0
 40
2.0
 40
2.0
 40
3.0
 40
3.0
 40
3.0
 40
3.0
 10
3.935366028060697
 20
8.0353681693493
 30
0.0
 10
3.938345100033163
 20
8.03953483601597
 30
0.0
 10
3.94414787766435
 20
8.041140212334438
 30
0.0
 10
3.949140933093783
 20
8.042522156743972
 30
0.0
 10
3.962464543868311
 20
8.046248545538723
 30
0.0
 10
3.97679371017298
 20
8.03644021245317
 30
0.0
 10
3.981185472505141
 20
8.020662435073973
 30
0.0
 10
3.985597876617235
 20
8.004865213250822
 30
0.0
 10
3.978399265687976
 20
7.98905688031684
 30
0.0
 10
3.965077043802302
 20
7.985330491522088
 30
0.0
  0
SPLINE
  5
E1
330
70
100
AcDbEntity
  8
Layer 2
 62
   250
420
  2301728
370
    40
100
AcDbSpline
210
0.0
220
0.0
230
1.0
 70
     8
 71
     3
 72
    17
 73
    13
 74
     0
 42
0.0000000001
 43
0.0000000001
 40
0.0
 40
0.0
 40
0.0
 40
0.0
 40
1.0
 40
1.0
 40
1.0
 40
2.0
 40
2.0
 40
2.0
 40
3.0
 40
3.0
 40
3.0
 40
4.0
 40
4.0
 40
4.0
 40
4.0
 10
3.975764543532325
 20
8.029916601506858
 30
0.0
 10
3.975764543532325
 20
8.029916601506858
 30
0.0
 10
3.98071325028291
 20
8.028954101531173
 30
0.0
 10
3.98071325028291
 20
8.028954101531173
 30
0.0
 10
3.98071325028291
 20
8.028954101531173
 30
0.0
 10
3.995281209705947
 20
8.025023546074912
 30
0.0
 10
3.993608987525968
 20
8.005292991017793
 30
0.0
 10
3.993608987525968
 20
8.005292991017793
 30
0.0
 10
3.994915931937397
 20
7.983540213789536
 30
0.0
 10
3.979364543441369
 20
7.985767991511036
 30
0.0
 10
3.979364543441369
 20
7.985767991511036
 30
0.0
 10
3.968160377057756
 20
7.988113824785108
 30
0.0
 10
3.968160377057756
 20
7.988113824785108
 30
0.0
  0
SPLINE
  5
E2
330
70
100
AcDbEntity
  8
Layer 2
 62
   250
420
  2301728
370
    40
100
AcDbSpline
210
0.0
220
0.0
230
1.0
 70
     8
 71
     3
 72
    17
 73
    13
 74
     0
 42
0.0000000001
 43
0.0000000001
 40
0.0
 40
0.0
 40
0.0
 40
0.0
 40
1.0
 40
1.0
 40
1.0
 40
2.0
 40
2.0
 40
2.0
 40
3.0
 40
3.0
 40
3.0
 40
4.0
 40
4.0
 40
4.0
 40
4.0
 10
3.929754916949579
 20
7.996126324582696
 30
0.0
 10
3.929754916949579
 20
7.996126324582696
 30
0.0
 10
3.926968711431666
 20
7.996211046802777
 30
0.0
 10
3.924120100392517
 20
7.999091602285564
 30
0.0
 10
3.9212284337989
 20
8.002059657766141
 30
0.0
 10
3.918252044985213
 20
8.007993169349308
 30
0.0
 10
3.918252044985213
 20
8.019826502682638
 30
0.0
 10
3.918252044985213
 20
8.019826502682638
 30
0.0
 10
3.9190006560774
 20
8.040208267913536
 30
0.0
 10
3.931211766880032
 20
8.038720767951113
 30
0.0
 10
3.931211766880032
 20
8.038720767951113
 30
0.0
 10
3.940722877750873
 20
8.03683465688765
 30
0.0
 10
3.940722877750873
 20
8.03683465688765
 30
0.0
  0
SPLINE
  5
E3
330
70
100
AcDbEntity
  8
Layer 2
 62
   250
420
  2301728
370
    40
100
AcDbSpline
210
0.0
220
0.0
230
1.0
 70
     9
 71
     3
 72
    17
 73
    13
 74
     0
 42
0.0000000001
 43
0.0000000001
 40
0.0
 40
0.0
 40
0.0
 40
0.0
 40
1.0
 40
1.0
 40
1.0
 40
2.0
 40
2.0
 40
2.0
 40
3.0
 40
3.0
 40
3.0
 40
4.0
 40
4.0
 40
4.0
 40
4.0
 10
3.902378434275091
 20
7.777559663437487
 30
0.0
 10
3.904885378656204
 20
7.76138744162381
 30
0.0
 10
3.895802045552335
 20
7.746544386443221
 30
0.0
 10
3.882178434785386
 20
7.744463830940225
 30
0.0
 10
3.868535379574483
 20
7.742345775438176
 30
0.0
 10
3.855465935460188
 20
7.75380410848206
 30
0.0
 10
3.852961768856794
 20
7.769998552517385
 30
0.0
 10
3.850475657808487
 20
7.786215391571531
 30
0.0
 10
3.859515935357888
 20
7.801036051733312
 30
0.0
 10
3.873182601679306
 20
7.803136051680262
 30
0.0
 10
3.88684787911187
 20
7.805234662738357
 30
0.0
 10
3.899892323226797
 20
7.793776329694487
 30
0.0
 10
3.902378434275091
 20
7.777559663437487
 30
0.0
  0
SPLINE
  5
E4
330
70
100
AcDbEntity
  8
Layer 2
 62
   250
420
  2301728
370
    40
100
AcDbSpline
210
0.0
220
0.0
230
1.0
 70
     8
 71
     3
 72
    14
 73
    10
 74
     0
 42
0.0000000001
 43
0.0000000001
 40
0.0
 40
0.0
 40
0.0
 40
0.0
 40
1.0
 40
1.0
 40
1.0
 40
2.0
 40
2.0
 40
2.0
 40
3.0
 40
3.0
 40
3.0
 40
3.0
 10
3.864185472505141
 20
7.79928188511096
 30
0.0
 10
3.867183990719733
 20
7.803436051672683
 30
0.0
 10
3.872989546128628
 20
7.805044384965387
 30
0.0
 10
3.87795760155868
 20
7.806434662708043
 30
0.0
 10
3.891283990110915
 20
7.810163829280504
 30
0.0
 10
3.905635378637258
 20
7.800351329528388
 30
0.0
 10
3.910027045192982
 20
7.784565218816068
 30
0.0
 10
3.914438156192671
 20
7.768777719214893
 30
0.0
 10
3.907218711930593
 20
7.752967997392058
 30
0.0
 10
3.893917323377725
 20
7.749241608597306
 30
0.0
  0
SPLINE
  5
E5
330
70
100
AcDbEntity
  8
Layer 2
 62
   250
420
  2301728
370
    40
100
AcDbSpline
210
0.0
220
0.0
230
1.0
 70
     8
 71
     3
 72
    17
 73
    13
 74
     0
 42
0.0000000001
 43
0.0000000001
 40
0.0
 40
0.0
 40
0.0
 40
0.0
 40
1.0
 40
1.0
 40
1.0
 40
2.0
 40
2.0
 40
2.0
 40
3.0
 40
3.0
 40
3.0
 40
4.0
 40
4.0
 40
4.0
 40
4.0
 10
3.904606211996603
 20
7.793840391571531
 30
0.0
 10
3.904606211996603
 20
7.793840391571531
 30
0.0
 10
3.909554822982689
 20
7.792854280460409
 30
0.0
 10
3.909554822982689
 20
7.792854280460409
 30
0.0
 10
3.909554822982689
 20
7.792854280460409
 30
0.0
 10
3.924120100392517
 20
7.78893466315013
 30
0.0
 10
3.922450655990246
 20
7.769184663649057
 30
0.0
 10
3.922450655990246
 20
7.769184663649057
 30
0.0
 10
3.92375621151282
 20
7.747442997531631
 30
0.0
 10
3.908203434127939
 20
7.749669386364277
 30
0.0
 10
3.908203434127939
 20
7.749669386364277
 30
0.0
 10
3.897002045522033
 20
7.752027719638034
 30
0.0
 10
3.897002045522033
 20
7.752027719638034
 30
0.0
  0
SPLINE
  5
E6
330
70
100
AcDbEntity
  8
Layer 2
 62
   250
420
  2301728
370
    40
100
AcDbSpline
210
0.0
220
0.0
230
1.0
 70
     8
 71
     3
 72
    17
 73
    13
 74
     0
 42
0.0000000001
 43
0.0000000001
 40
0.0
 40
0.0
 40
0.0
 40
0.0
 40
1.0
 40
1.0
 40
1.0
 40
2.0
 40
2.0
 40
2.0
 40
3.0
 40
3.0
 40
3.0
 40
4.0
 40
4.0
 40
4.0
 40
4.0
 10
3.858574361394023
 20
7.760037441657914
 30
0.0
 10
3.858574361394023
 20
7.760037441657914
 30
0.0
 10
3.855788157674282
 20
7.760123552766849
 30
0.0
 10
3.852961768856794
 20
7.763015219360466
 30
0.0
 10
3.850047880041516
 20
7.765972163730212
 30
0.0
 10
3.847092324560624
 20
7.771905496913657
 30
0.0
 10
3.847092324560624
 20
7.783749941058886
 30
0.0
 10
3.847092324560624
 20
7.783749941058886
 30
0.0
 10
3.847842324541677
 20
7.804122162766462
 30
0.0
 10
3.86005065756659
 20
7.802622162804355
 30
0.0
 10
3.86005065756659
 20
7.802622162804355
 30
0.0
 10
3.869561768437442
 20
7.800758273962552
 30
0.0
 10
3.869561768437442
 20
7.800758273962552
 30
0.0
  0
SPLINE
  5
E7
330
70
100
AcDbEntity
  8
Layer 2
 62
   250
420
  2301728
370
    40
100
AcDbSpline
210
0.0
220
0.0
230
1.0
 70
     9
 71
     3
 72
    17
 73
    13
 74
     0
 42
0.0000000001
 43
0.0000000001
 40
0.0
 40
0.0
 40
0.0
 40
0.0
 40
1.0
 40
1.0
 40
1.0
 40
2.0
 40
2.0
 40
2.0
 40
3.0
 40
3.0
 40
3.0
 40
4.0
 40
4.0
 40
4.0
 40
4.0
 10
3.629029830069346
 20
4.827488904629212
 30
0.0
 10
3.63152566333963
 20
4.811316682815534
 30
0.0
 10
3.622453441346591
 20
4.796448627635577
 30
0.0
 10
3.608818719468811
 20
4.794393072131949
 30
0.0
 10
3.595172886480188
 20
4.792272238852192
 30
0.0
 10
3.582106220143625
 20
4.803733349673771
 30
0.0
 10
3.57961316465105
 20
4.819925015931403
 30
0.0
 10
3.577127053602755
 20
4.836119459966741
 30
0.0
 10
3.586156220041313
 20
4.85096539157151
 30
0.0
 10
3.599822886362731
 20
4.853063903983133
 30
0.0
 10
3.613488163795295
 20
4.855163903930082
 30
0.0
 10
3.626543719021039
 20
4.843702793108503
 30
0.0
 10
3.629029830069346
 20
4.827488904629212
 30
0.0
  0
SPLINE
  5
E8
330
70
100
AcDbEntity
  8
Layer 2
 62
   250
420
  2301728
370
    40
100
AcDbSpline
210
0.0
220
0.0
230
1.0
 70
     8
 71
     3
 72
    14
 73
    10
 74
     0
 42
0.0000000001
 43
0.0000000001
 40
0.0
 40
0.0
 40
0.0
 40
0.0
 40
1.0
 40
1.0
 40
1.0
 40
2.0
 40
2.0
 40
2.0
 40
3.0
 40
3.0
 40
3.0
 40
3.0
 10
3.590836775478628
 20
4.849186126303316
 30
0.0
 10
3.593824361394025
 20
4.853362515086701
 30
0.0
 10
3.599629916949588
 20
4.854970848379403
 30
0.0
 10
3.604608997352935
 20
4.856341681678107
 30
0.0
 10
3.617943719238294
 20
4.8600903915715
 30
0.0
 10
3.632275663320683
 20
4.850279181831258
 30
0.0
 10
3.636667329876407
 20
4.834469460008423
 30
0.0
 10
3.641078440876084
 20
4.818705571517764
 30
0.0
 10
3.633858996614018
 20
4.802897238583782
 30
0.0
 10
3.620558996950004
 20
4.799168072011323
 30
0.0
  0
SPLINE
  5
E9
330
70
100
AcDbEntity
  8
Layer 2
 62
   250
420
  2301728
370
    40
100
AcDbSpline
210
0.0
220
0.0
230
1.0
 70
     8
 71
     3
 72
    17
 73
    13
 74
     0
 42
0.0000000001
 43
0.0000000001
 40
0.0
 40
0.0
 40
0.0
 40
0.0
 40
1.0
 40
1.0
 40
1.0
 40
2.0
 40
2.0
 40
2.0
 40
3.0
 40
3.0
 40
3.0
 40
4.0
 40
4.0
 40
4.0
 40
4.0
 10
3.631247885568869
 20
4.843766681995778
 30
0.0
 10
3.631247885568869
 20
4.843766681995778
 30
0.0
 10
3.636185472505139
 20
4.842780570909578
 30
0.0
 10
3.636185472505139
 20
4.842780570909578
 30
0.0
 10
3.636185472505139
 20
4.842780570909578
 30
0.0
 10
3.650771496186772
 20
4.838838904342487
 30
0.0
 10
3.649079829562841
 20
4.819088904841414
 30
0.0
 10
3.649079829562841
 20
4.819088904841414
 30
0.0
 10
3.650407694727366
 20
4.797369460945648
 30
0.0
 10
3.634835385478241
 20
4.799598627556002
 30
0.0
 10
3.634835385478241
 20
4.799598627556002
 30
0.0
 10
3.623631219094615
 20
4.801909836015965
 30
0.0
 10
3.623631219094615
 20
4.801909836015965
 30
0.0
  0
SPLINE
  5
EA
330
70
100
AcDbEntity
  8
Layer 2
 62
   250
420
  2301728
370
    40
100
AcDbSpline
210
0.0
220
0.0
230
1.0
 70
     8
 71
     3
 72
    17
 73
    13
 74
     0
 42
0.0000000001
 43
0.0000000001
 40
0.0
 40
0.0
 40
0.0
 40
0.0
 40
1.0
 40
1.0
 40
1.0
 40
2.0
 40
2.0
 40
2.0
 40
3.0
 40
3.0
 40
3.0
 40
4.0
 40
4.0
 40
4.0
 40
4.0
 10
3.585213250282915
 20
4.809944460627977
 30
0.0
 10
3.585213250282915
 20
4.809944460627977
 30
0.0
 10
3.582429831246549
 20
4.810030571736913
 30
0.0
 10
3.57961316465105
 20
4.812920849441676
 30
0.0
 10
3.576689553613795
 20
4.815898627144229
 30
0.0
 10
3.57373260924405
 20
4.821831960327673
 30
0.0
 10
3.57373260924405
 20
4.833677793361756
 30
0.0
 10
3.57373260924405
 20
4.833677793361756
 30
0.0
 10
3.574471498114272
 20
4.854027792847672
 30
0.0
 10
3.586679831139197
 20
4.852548724904863
 30
0.0
 10
3.586679831139197
 20
4.852548724904863
 30
0.0
 10
3.596213250282921
 20
4.850686126265423
 30
0.0
 10
3.596213250282921
 20
4.850686126265423
 30
0.0
  0
SPLINE
  5
EB
330
70
100
AcDbEntity
  8
Layer 2
 62
   250
420
  2301728
370
    40
100
AcDbSpline
210
0.0
220
0.0
230
1.0
 70
     9
 71
     3
 72
    17
 73
    13
 74
     0
 42
0.0000000001
 43
0.0000000001
 40
0.0
 40
0.0
 40
0.0
 40
0.0
 40
1.0
 40
1.0
 40
1.0
 40
2.0
 40
2.0
 40
2.0
 40
3.0
 40
3.0
 40
3.0
 40
4.0
 40
4.0
 40
4.0
 40
4.0
 10
3.902378434275091
 20
4.75741946195487
 30
0.0
 10
3.904885378656204
 20
4.741247240141192
 30
0.0
 10
3.895802045552335
 20
4.726423724904836
 30
0.0
 10
3.882178434785386
 20
4.724325018346462
 30
0.0
 10
3.868535379574483
 20
4.722225018399512
 30
0.0
 10
3.855465935460188
 20
4.733665295888284
 30
0.0
 10
3.852961768856794
 20
4.749859739923622
 30
0.0
 10
3.850475657808487
 20
4.766095850624575
 30
0.0
 10
3.859515935357888
 20
4.780897239139549
 30
0.0
 10
3.873182601679306
 20
4.783018072419306
 30
0.0
 10
3.88684787911187
 20
4.785075016811788
 30
0.0
 10
3.899892323226797
 20
4.77365835043353
 30
0.0
 10
3.902378434275091
 20
4.75741946195487
 30
0.0
  0
SPLINE
  5
EC
330
70
100
AcDbEntity
  8
Layer 2
 62
   250
420
  2301728
370
    40
100
AcDbSpline
210
0.0
220
0.0
230
1.0
 70
     8
 71
     3
 72
    14
 73
    10
 74
     0
 42
0.0000000001
 43
0.0000000001
 40
0.0
 40
0.0
 40
0.0
 40
0.0
 40
1.0
 40
1.0
 40
1.0
 40
2.0
 40
2.0
 40
2.0
 40
3.0
 40
3.0
 40
3.0
 40
3.0
 10
3.864185472505141
 20
4.779141683628343
 30
0.0
 10
3.867183990719733
 20
4.783295850190066
 30
0.0
 10
3.872989546128628
 20
4.78490418348277
 30
0.0
 10
3.87795760155868
 20
4.786316683447087
 30
0.0
 10
3.891283990110915
 20
4.790023627797887
 30
0.0
 10
3.905635378637258
 20
4.780212516934625
 30
0.0
 10
3.910027045192982
 20
4.764426406222304
 30
0.0
 10
3.914438156192671
 20
4.748637517732277
 30
0.0
 10
3.907218711930593
 20
4.732851407019956
 30
0.0
 10
3.893917323377725
 20
4.729102796003543
 30
0.0
  0
SPLINE
  5
ED
330
70
100
AcDbEntity
  8
Layer 2
 62
   250
420
  2301728
370
    40
100
AcDbSpline
210
0.0
220
0.0
230
1.0
 70
     8
 71
     3
 72
    17
 73
    13
 74
     0
 42
0.0000000001
 43
0.0000000001
 40
0.0
 40
0.0
 40
0.0
 40
0.0
 40
1.0
 40
1.0
 40
1.0
 40
2.0
 40
2.0
 40
2.0
 40
3.0
 40
3.0
 40
3.0
 40
4.0
 40
4.0
 40
4.0
 40
4.0
 10
3.904606211996603
 20
4.773700017099145
 30
0.0
 10
3.904606211996603
 20
4.773700017099145
 30
0.0
 10
3.909554822982689
 20
4.772737517123459
 30
0.0
 10
3.909554822982689
 20
4.772737517123459
 30
0.0
 10
3.909554822982689
 20
4.772737517123459
 30
0.0
 10
3.924120100392517
 20
4.768816683889174
 30
0.0
 10
3.922450655990246
 20
4.749045851055294
 30
0.0
 10
3.922450655990246
 20
4.749045851055294
 30
0.0
 10
3.92375621151282
 20
4.727304184937868
 30
0.0
 10
3.908203434127939
 20
4.729551407103321
 30
0.0
 10
3.908203434127939
 20
4.729551407103321
 30
0.0
 10
3.897002045522033
 20
4.731887518155417
 30
0.0
 10
3.897002045522033
 20
4.731887518155417
 30
0.0
  0
SPLINE
  5
EE
330
70
100
AcDbEntity
  8
Layer 2
 62
   250
420
  2301728
370
    40
100
AcDbSpline
210
0.0
220
0.0
230
1.0
 70
     8
 71
     3
 72
    17
 73
    13
 74
     0
 42
0.0000000001
 43
0.0000000001
 40
0.0
 40
0.0
 40
0.0
 40
0.0
 40
1.0
 40
1.0
 40
1.0
 40
2.0
 40
2.0
 40
2.0
 40
3.0
 40
3.0
 40
3.0
 40
4.0
 40
4.0
 40
4.0
 40
4.0
 10
3.858574361394023
 20
4.739920851285811
 30
0.0
 10
3.858574361394023
 20
4.739920851285811
 30
0.0
 10
3.855788157674282
 20
4.739984740173086
 30
0.0
 10
3.852961768856794
 20
4.742855573433896
 30
0.0
 10
3.850047880041516
 20
4.745809740025934
 30
0.0
 10
3.847092324560624
 20
4.75176529543104
 30
0.0
 10
3.847092324560624
 20
4.763590391571495
 30
0.0
 10
3.847092324560624
 20
4.763590391571495
 30
0.0
 10
3.847842324541677
 20
4.783983350172698
 30
0.0
 10
3.86005065756659
 20
4.782504183543399
 30
0.0
 10
3.86005065756659
 20
4.782504183543399
 30
0.0
 10
3.869561768437442
 20
4.780598628035982
 30
0.0
 10
3.869561768437442
 20
4.780598628035982
 30
0.0
  0
LWPOLYLINE
  5
EF
330
70
100
AcDbEntity
  8
Layer 2
 62
   250
420
  2301728
370
    53
100
AcDbPolyline
 90
        3
 70
     0
 43
0.0
 10
4.289706202268158
 20
9.868708221721741
 10
4.434629916949587
 20
9.854816555406006
 10
4.434629916949587
 20
7.688063832365009
  0
LINE
  5
F0
330
70
100
AcDbEntity
  8
Layer 2
 62
   250
420
  2301728
370
    53
100
AcDbLine
 10
3.846533991241408
 20
9.932680442327889
 30
0.0
 11
4.270032694727357
 21
9.906493169349307
 31
0.0
  0
LINE
  5
F1
330
70
100
AcDbEntity
  8
Layer 2
 62
   250
420
  2301728
370
    53
100
AcDbLine
 10
3.823228436274588
 20
9.830515167131023
 30
0.0
 11
3.853957602164971
 21
9.932959608987504
 31
0.0
  0
LWPOLYLINE
  5
F2
330
70
100
AcDbEntity
  8
Layer 2
 62
   250
420
  2301728
370
    53
100
AcDbPolyline
 90
        3
 70
     0
 43
0.0
 10
3.533492332482839
 20
9.369993169349324
 10
3.533492332482839
 20
9.802808223386515
 10
3.747422882634042
 20
9.832570722634651
  0
LWPOLYLINE
  5
F3
330
70
100
AcDbEntity
  8
Layer 2
 62
   250
420
  2301728
370
    40
100
AcDbPolyline
 90
        3
 70
     0
 43
0.0
 10
4.074589541035771
 20
7.560087446709088
 10
4.077770096510991
 20
9.77226100193598
 10
3.535421583616248
 20
9.800098501232746
  0
LINE
  5
F4
330
70
100
AcDbEntity
  8
Layer 2
 62
   250
420
  2301728
370
    40
100
AcDbLine
 10
3.800588250282923
 20
9.432691566069781
 30
0.0
 11
3.800588250282923
 21
9.786323501580731
 31
0.0
  0
LINE
  5
F5
330
70
100
AcDbEntity
  8
Layer 2
 62
   250
420
  2301728
370
    40
100
AcDbLine
 10
3.800588250282923
 20
5.624120828949053
 30
0.0
 11
3.800588250282923
 21
5.689368169349322
 31
0.0
  0
LWPOLYLINE
  5
F6
330
70
100
AcDbEntity
  8
Layer 2
 62
   250
420
  2301728
370
    53
100
AcDbPolyline
 90
        3
 70
     0
 43
0.0
 10
3.747422882634042
 20
9.832570722634651
 10
4.184263149376306
 20
9.808622112128533
 10
4.223924259485506
 20
9.759387391150085
  0
LWPOLYLINE
  5
F7
330
70
100
AcDbEntity
  8
Layer 2
 62
   250
420
  2301728
370
    40
100
AcDbPolyline
 90
        6
 70
     0
 43
0.0
 10
4.077321485411212
 20
9.774434612992182
 10
4.178704816183388
 20
9.794870723587045
 10
4.232428425937339
 20
9.73898322499887
 10
4.26987009165815
 20
9.89608322103019
 10
4.314704812747751
 20
9.825362389483416
 10
4.43487425415646
 20
9.854173724904866
  0
LINE
  5
F8
330
70
100
AcDbEntity
  8
Layer 2
 62
   250
420
  2301728
370
    40
100
AcDbLine
 10
4.02781870888398
 20
9.821238778476475
 30
0.0
 11
4.053811763782896
 21
9.915724887200667
 31
0.0
  0
LWPOLYLINE
  5
F9
330
70
100
AcDbEntity
  8
Layer 2
 62
   250
420
  2301728
370
    53
100
AcDbPolyline
 90
        5
 70
     0
 43
0.0
 10
3.258335394989431
 20
7.342516618872044
 10
3.258335394989431
 20
7.663474944097288
 10
3.366647892253227
 20
7.69396660999367
 10
3.362910392347632
 20
7.723848553683232
 10
3.533396499151914
 20
7.723848553683232
  0
SPLINE
  5
FA
330
70
100
AcDbEntity
  8
Layer 2
 62
   250
420
  2301728
370
    40
100
AcDbSpline
210
0.0
220
0.0
230
1.0
 70
     8
 71
     3
 72
    11
 73
     7
 74
     0
 42
0.0000000001
 43
0.0000000001
 40
0.0
 40
0.0
 40
0.0
 40
0.0
 40
1.0
 40
1.0
 40
1.0
 40
2.0
 40
2.0
 40
2.0
 40
2.0
 10
3.362910392347632
 20
7.723848553683232
 30
0.0
 10
3.362910392347632
 20
7.723848553683232
 30
0.0
 10
3.415199361394027
 20
7.701441609804835
 30
0.0
 10
3.403995113531992
 20
7.697704109899253
 30
0.0
 10
3.392792336037207
 20
7.69396660999367
 30
0.0
 10
3.310622893668538
 20
7.671559666115272
 30
0.0
 10
3.310622893668538
 20
7.671559666115272
 30
0.0
  0
LWPOLYLINE
  5
FB
330
70
100
AcDbEntity
  8
Layer 2
 62
   250
420
  2301728
370
    40
100
AcDbPolyline
 90
        3
 70
     0
 43
0.0
 10
4.077470096518569
 20
7.559166613399004
 10
5.191378401712224
 20
7.432120783275118
 10
5.191378401712224
 20
7.098012458382072
  0
LINE
  5
FC
330
70
100
AcDbEntity
  8
Layer 2
 62
   250
420
  2301728
370
    40
100
AcDbLine
 10
3.258335394989431
 20
7.663474944097288
 30
0.0
 11
3.529639554802378
 21
7.629306889404889
 31
0.0
  0
LINE
  5
FD
330
70
100
AcDbEntity
  8
Layer 2
 62
   250
420
  2301728
370
    53
100
AcDbLine
 10
5.308333954313234
 20
7.46867494901835
 30
0.0
 11
5.308333954313234
 21
7.150643012608068
 31
0.0
  0
LINE
  5
FE
330
70
100
AcDbEntity
  8
Layer 2
 62
   250
420
  2301728
370
    53
100
AcDbLine
 10
5.491116028060686
 20
7.48382911530219
 30
0.0
 11
5.491116028060686
 21
7.182108289590965
 31
0.0
  0
LWPOLYLINE
  5
FF
330
70
100
AcDbEntity
  8
Layer 2
 62
   250
420
  2301728
370
    53
100
AcDbPolyline
 90
        3
 70
     0
 43
0.0
 10
5.558204781334299
 20
7.253504121120688
 10
5.558204781334299
 20
7.553286057992004
 10
4.426702032140686
 20
7.683404110260501
  0
LINE
  5
100
330
70
100
AcDbEntity
  8
Layer 2
 62
   250
420
  2301728
370
    40
100
AcDbLine
 10
4.072158985541628
 20
7.56790550206713
 30
0.0
 11
4.4326242542133
 21
7.682805499164512
 31
0.0
  0
LWPOLYLINE
  5
101
330
70
100
AcDbEntity
  8
Layer 2
 62
   250
420
  2301728
370
    40
100
AcDbPolyline
 90
        6
 70
     0
 43
0.0
 10
5.192663123901992
 20
7.428993169349306
 10
5.304090898864867
 20
7.466876337952675
 10
5.254803400109974
 20
7.502101337062817
 10
5.481433949940361
 20
7.48748189298769
 10
5.448765895210069
 20
7.516077725598632
 10
5.558204781334299
 20
7.553286057992004
  0
LWPOLYLINE
  5
102
330
70
100
AcDbEntity
  8
Layer 2
 62
   250
420
  2301728
370
    40
100
AcDbPolyline
 90
        6
 70
     0
 43
0.0
 10
5.191378401712224
 20
7.098012458382072
 10
5.306190898811816
 20
7.150643012608068
 10
5.309640898724662
 20
7.184036067320043
 10
5.492400616329986
 20
7.184036067320043
 10
5.496086727347978
 20
7.231569399452584
 10
5.554542281426821
 20
7.264470787510314
  0
LINE
  5
103
330
70
100
AcDbEntity
  8
Layer 2
 62
   250
420
  2301728
370
    25
100
AcDbLine
 10
5.19261867945867
 20
7.374144395850836
 30
0.0
 11
5.295308954642274
 21
7.419299950265667
 31
0.0
  0
LINE
  5
104
330
70
100
AcDbEntity
  8
Layer 2
 62
   250
420
  2301728
370
    25
100
AcDbLine
 10
5.481433949940361
 20
7.48748189298769
 30
0.0
 11
5.547238114944674
 21
7.52038328104542
 31
0.0
  0
LINE
  5
105
330
70
100
AcDbEntity
  8
Layer 2
 62
   250
420
  2301728
370
    25
100
AcDbLine
 10
5.19261867945867
 20
7.32662356371798
 30
0.0
 11
5.302292287799192
 21
7.366840391571535
 31
0.0
  0
LINE
  5
106
330
70
100
AcDbEntity
  8
Layer 2
 62
   250
420
  2301728
370
    25
100
AcDbLine
 10
5.196282694727364
 20
7.271786065103292
 30
0.0
 11
5.302292287799192
 21
7.315655508439501
 31
0.0
  0
LINE
  5
107
330
70
100
AcDbEntity
  8
Layer 2
 62
   250
420
  2301728
370
    25
100
AcDbLine
 10
5.19261867945867
 20
7.216949955377458
 30
0.0
 11
5.298674232335037
 21
7.260819398713667
 31
0.0
  0
LWPOLYLINE
  5
108
330
70
100
AcDbEntity
  8
Layer 2
 62
   250
420
  2301728
370
    25
100
AcDbPolyline
 90
        3
 70
     0
 43
0.0
 10
5.188999235105661
 20
7.154797179169791
 10
5.305956176595524
 20
7.209634677784479
 10
5.496086727347978
 20
7.205981900098978
  0
LINE
  5
109
330
70
100
AcDbEntity
  8
Layer 2
 62
   250
420
  2301728
370
    25
100
AcDbLine
 10
5.496086727347978
 20
7.282754120381771
 30
0.0
 11
5.554542281426821
 21
7.315655508439501
 31
0.0
  0
LWPOLYLINE
  5
10A
330
70
100
AcDbEntity
  8
Layer 2
 62
   250
420
  2301728
370
    25
100
AcDbPolyline
 90
        3
 70
     0
 43
0.0
 10
5.305956176595524
 20
7.450916616133629
 10
5.492400616329986
 20
7.436297172058503
 10
5.547238114944674
 20
7.476513837709211
  0
LWPOLYLINE
  5
10B
330
70
100
AcDbEntity
  8
Layer 2
 62
   250
420
  2301728
370
    25
100
AcDbPolyline
 90
        3
 70
     0
 43
0.0
 10
5.305956176595524
 20
7.40704717279742
 10
5.489745060841515
 20
7.395309673093934
 10
5.558204781334299
 20
7.428981894465525
  0
LWPOLYLINE
  5
10C
330
70
100
AcDbEntity
  8
Layer 2
 62
   250
420
  2301728
370
    25
100
AcDbPolyline
 90
        3
 70
     0
 43
0.0
 10
5.309640898724662
 20
7.352209674182732
 10
5.488738116422508
 20
7.333938841310959
 10
5.558204781334299
 20
7.374144395850836
  0
LINE
  5
10D
330
70
100
AcDbEntity
  8
Layer 2
 62
   250
420
  2301728
370
    25
100
AcDbLine
 10
5.313260343077672
 20
7.293720786771396
 30
0.0
 11
5.488738116422508
 21
7.293720786771396
 31
0.0
  0
LINE
  5
10E
330
70
100
AcDbEntity
  8
Layer 2
 62
   250
420
  2301728
370
    25
100
AcDbLine
 10
5.313260343077672
 20
7.249851343435188
 30
0.0
 11
5.492400616329986
 21
7.242536065842209
 31
0.0
  0
LWPOLYLINE
  5
10F
330
70
100
AcDbEntity
  8
Layer 2
 62
   250
420
  2301728
370
    53
100
AcDbPolyline
 90
        5
 70
     0
 43
0.0
 10
5.156203402600819
 20
6.94738205823819
 10
5.642281168099239
 20
6.880634686095718
 10
6.581856144363579
 20
7.301945786563615
 10
6.581856144363579
 20
7.432644394373002
 10
4.440529809569144
 20
7.686554110180925
  0
LINE
  5
110
330
70
100
AcDbEntity
  8
Layer 2
 62
   250
420
  2301728
370
    40
100
AcDbLine
 10
4.068238152307344
 20
7.099970791665933
 30
0.0
 11
5.163529791304628
 21
6.94738205823819
 31
0.0
  0
LINE
  5
111
330
70
100
AcDbEntity
  8
Layer 2
 62
   250
420
  2301728
370
    40
100
AcDbLine
 10
3.780570104018882
 20
7.13915983601598
 30
0.0
 11
3.8171881586494
 21
7.134169401913115
 31
0.0
  0
LINE
  5
112
330
70
100
AcDbEntity
  8
Layer 2
 62
   250
420
  2301728
370
    40
100
AcDbLine
 10
3.291902060808133
 20
7.207780511164653
 30
0.0
 11
3.529639554802378
 21
7.174290234232911
 31
0.0
  0
LWPOLYLINE
  5
113
330
70
100
AcDbEntity
  8
Layer 2
 62
   250
420
  2301728
370
    53
100
AcDbPolyline
 90
        4
 70
     0
 43
0.0
 10
3.258945117196251
 20
7.439391616424775
 10
3.030890956290717
 20
7.368887451539194
 10
3.031575678495642
 20
7.242536065842209
 10
3.295338250282914
 20
7.207481900061085
  0
LINE
  5
114
330
70
100
AcDbEntity
  8
Layer 2
 62
   250
420
  2301728
370
    40
100
AcDbLine
 10
3.5279673326224
 20
7.301433286576562
 30
0.0
 11
3.032068734038741
 21
7.366840391571535
 31
0.0
  0
LWPOLYLINE
  5
115
330
70
100
AcDbEntity
  8
Layer 2
 62
   250
420
  2301728
370
    40
100
AcDbPolyline
 90
        3
 70
     0
 43
0.0
 10
6.581856144363579
 20
7.432644394373002
 10
5.631314501709614
 20
7.034155515550789
 10
4.068303430083473
 20
7.231173724904869
  0
LWPOLYLINE
  5
116
330
70
100
AcDbEntity
  8
Layer 2
 62
   250
420
  2301728
370
    40
100
AcDbPolyline
 90
        3
 70
     0
 43
0.0
 10
4.068303430083473
 20
7.191020947127084
 10
5.63292005722461
 20
6.985382058238213
 10
6.579114477766172
 20
7.388774951036793
  0
LINE
  5
117
330
70
100
AcDbEntity
  8
Layer 2
 62
   250
420
  2301728
370
    40
100
AcDbLine
 10
3.03572151172423
 20
7.328454119227292
 30
0.0
 11
3.5279673326224
 21
7.264622176395378
 31
0.0
  0
LINE
  5
118
330
70
100
AcDbEntity
  8
Layer 2
 62
   250
420
  2301728
370
    40
100
AcDbLine
 10
3.529639554802378
 20
7.221126344160842
 30
0.0
 11
3.03572151172423
 21
7.286405509178418
 31
0.0
  0
LINE
  5
119
330
70
100
AcDbEntity
  8
Layer 2
 62
   250
420
  2301728
370
    40
100
AcDbLine
 10
3.810678436591627
 20
7.180855511844836
 30
0.0
 11
3.772206215341295
 21
7.185997178381613
 31
0.0
  0
LWPOLYLINE
  5
11A
330
70
100
AcDbEntity
  8
Layer 2
 62
   250
420
  2301728
370
    40
100
AcDbPolyline
 90
        3
 70
     0
 43
0.0
 10
6.578171583616241
 20
7.345815229899825
 10
5.634977139171799
 20
6.935472184710406
 10
4.066739541234091
 20
7.146656901597654
  0
LINE
  5
11B
330
70
100
AcDbEntity
  8
Layer 2
 62
   250
420
  2301728
370
    40
100
AcDbLine
 10
5.631314501709614
 20
7.034155515550789
 30
0.0
 11
5.634954779395431
 21
6.880634686095718
 31
0.0
  0
LWPOLYLINE
  5
11C
330
70
100
AcDbEntity
  8
Layer 2
 62
   250
420
  2301728
370
    53
100
AcDbPolyline
 90
        5
 70
     0
 43
0.0
 10
3.291634005259349
 20
5.666898605646186
 10
3.167329841732869
 20
5.663257058238198
 10
3.163677064047369
 20
5.604734718327677
 10
3.068622899781972
 20
5.55358333073098
 10
3.068622899781972
 20
5.294007058238194
  0
LWPOLYLINE
  5
11D
330
70
100
AcDbEntity
  8
Layer 2
 62
   250
420
  2301728
370
    53
100
AcDbPolyline
 90
        6
 70
     0
 43
0.0
 10
3.068622899781972
 20
5.469484721744366
 10
2.947982625051824
 20
5.462159836015971
 10
2.947821513944783
 20
5.385602779418958
 10
2.856590960693905
 20
5.341562613793737
 10
2.856590960693905
 20
5.095525008969161
 10
3.529639554802378
 20
4.951041679285784
  0
LWPOLYLINE
  5
11E
330
70
100
AcDbEntity
  8
Layer 2
 62
   250
420
  2301728
370
    53
100
AcDbPolyline
 90
        6
 70
     0
 43
0.0
 10
3.287970116463017
 20
7.198666622506
 10
3.287970116463017
 20
6.496776362459462
 10
3.357438170263662
 20
6.452906919123253
 10
3.229481229051682
 20
6.350516643932071
 10
3.287970116463017
 20
6.306647200595862
 10
3.287970116463017
 20
5.513354280460399
  0
LWPOLYLINE
  5
11F
330
70
100
AcDbEntity
  8
Layer 2
 62
   250
420
  2301728
370
    40
100
AcDbPolyline
 90
        6
 70
     0
 43
0.0
 10
5.163379916949603
 20
6.942754128970894
 10
5.163379916949603
 20
6.120201502682649
 10
5.097575626304104
 20
6.094624983729772
 10
5.229183956312732
 20
5.959376376035328
 10
5.163379916949603
 20
5.933755543349231
 10
5.163379916949603
 20
5.114888897368877
  0
LWPOLYLINE
  5
120
330
70
100
AcDbEntity
  8
Layer 2
 62
   250
420
  2301728
370
    40
100
AcDbPolyline
 90
        6
 70
     0
 43
0.0
 10
5.324227139171802
 20
6.917177740728119
 10
5.324227139171802
 20
6.18236387040219
 10
5.276738121778079
 20
6.153102760030277
 10
5.39003117447161
 20
6.028820818725458
 10
5.324227139171802
 20
5.999559708353545
 10
5.324227139171802
 20
5.209909836015968
  0
LWPOLYLINE
  5
121
330
70
100
AcDbEntity
  8
Layer 2
 62
   250
420
  2301728
370
    40
100
AcDbPolyline
 90
        6
 70
     0
 43
0.0
 10
5.444868673086299
 20
6.902569407763823
 10
5.443368673124192
 20
6.200658314384491
 10
5.355543675342838
 20
6.175037481698382
 10
5.507053393737603
 20
6.028820818725458
 10
5.442940895357221
 20
6.010527763632024
 10
5.44124922873329
 20
5.187975006633678
  0
LWPOLYLINE
  5
122
330
70
100
AcDbEntity
  8
Layer 2
 62
   250
420
  2301728
370
    53
100
AcDbPolyline
 90
        6
 70
     0
 43
0.0
 10
5.594792280410021
 20
5.275713893306096
 10
5.594792280410021
 20
6.069049984375851
 10
5.656911723285197
 20
6.098266650304442
 10
5.543575615037196
 20
6.226233313738399
 10
5.594792280410021
 20
6.255494424110312
 10
5.594792280410021
 20
6.887916630356206
  0
LINE
  5
123
330
70
100
AcDbEntity
  8
Layer 2
 62
   250
420
  2301728
370
    40
100
AcDbLine
 10
3.5279673326224
 20
5.461281944173808
 30
0.0
 11
3.068622899781972
 21
5.55358333073098
 31
0.0
  0
LWPOLYLINE
  5
124
330
70
100
AcDbEntity
  8
Layer 2
 62
   250
420
  2301728
370
    40
100
AcDbPolyline
 90
        7
 70
     0
 43
0.0
 10
5.762922831718242
 20
5.286680559695721
 10
5.676703389451883
 20
5.235829172091446
 10
5.697118666713928
 20
5.184333340059007
 10
5.492400616329986
 20
5.184333340059007
 10
5.515685472505134
 20
5.140806952269687
 10
5.397379916949577
 20
5.071019454032668
 10
4.066632596792348
 20
5.355869446836751
  0
LINE
  5
125
330
70
100
AcDbEntity
  8
Layer 2
 62
   250
420
  2301728
370
    40
100
AcDbLine
 10
5.331575620392767
 20
5.217236117005591
 30
0.0
 11
5.163379916949603
 21
5.118529175054693
 31
0.0
  0
LWPOLYLINE
  5
126
330
70
100
AcDbEntity
  8
Layer 2
 62
   250
420
  2301728
370
    40
100
AcDbPolyline
 90
        7
 70
     0
 43
0.0
 10
4.068303430083473
 20
5.091561120180409
 10
5.598411724763031
 20
4.745638906696917
 10
5.713268805838449
 20
4.818383349303681
 10
5.686150611435449
 20
4.866280570315918
 10
5.901878383763484
 20
4.877247236705543
 10
5.880286717642269
 20
4.924244457740516
 10
5.967682548767798
 20
4.979594456342257
  0
LINE
  5
127
330
70
100
AcDbEntity
  8
Layer 2
 62
   250
420
  2301728
370
    40
100
AcDbLine
 10
2.856590960693905
 20
5.341562613793737
 30
0.0
 11
3.5279673326224
 21
5.201984728501984
 31
0.0
  0
LINE
  5
128
330
70
100
AcDbEntity
  8
Layer 2
 62
   250
420
  2301728
370
    40
100
AcDbLine
 10
5.324227139171802
 20
5.209909836015968
 30
0.0
 11
5.44124922873329
 21
5.187975006633678
 31
0.0
  0
LINE
  5
129
330
70
100
AcDbEntity
  8
Layer 2
 62
   250
420
  2301728
370
    40
100
AcDbLine
 10
5.602074361394039
 20
5.283040282009904
 30
0.0
 11
5.437564506604151
 21
5.184333340059007
 31
0.0
  0
LWPOLYLINE
  5
12A
330
70
100
AcDbEntity
  8
Layer 2
 62
   250
420
  2301728
370
    40
100
AcDbPolyline
 90
        6
 70
     0
 43
0.0
 10
5.773889498107867
 20
5.034431954956946
 10
5.699001999999684
 20
4.986193067286674
 10
5.697118666713928
 20
4.935725013006049
 10
5.51433533799809
 20
4.924758346616423
 10
5.51647713917181
 20
4.868594459146353
 10
5.393736729933556
 20
4.789508350033125
  0
LINE
  5
12B
330
70
100
AcDbEntity
  8
Layer 2
 62
   250
420
  2301728
370
    40
100
AcDbLine
 10
5.40099922975009
 20
5.074659836015952
 30
0.0
 11
5.40099922975009
 21
4.785866683458455
 31
0.0
  0
LINE
  5
12C
330
70
100
AcDbEntity
  8
Layer 2
 62
   250
420
  2301728
370
    53
100
AcDbLine
 10
5.51433533799809
 20
5.147790285426607
 30
0.0
 11
5.51433533799809
 21
4.858997237166577
 31
0.0
  0
LINE
  5
12D
330
70
100
AcDbEntity
  8
Layer 2
 62
   250
420
  2301728
370
    53
100
AcDbLine
 10
5.700758944399745
 20
5.191616673208348
 30
0.0
 11
5.700758944399745
 21
4.935725013006049
 31
0.0
  0
LINE
  5
12E
330
70
100
AcDbEntity
  8
Layer 2
 62
   250
420
  2301728
370
    40
100
AcDbLine
 10
5.594749224855553
 20
4.752965391571503
 30
0.0
 11
5.594749224855553
 21
4.464172247140695
 31
0.0
  0
LINE
  5
12F
330
70
100
AcDbEntity
  8
Layer 2
 62
   250
420
  2301728
370
    53
100
AcDbLine
 10
5.719031166160371
 20
4.818725015961717
 30
0.0
 11
5.719031166160371
 21
4.553623633769853
 31
0.0
  0
LINE
  5
130
330
70
100
AcDbEntity
  8
Layer 2
 62
   250
420
  2301728
370
    53
100
AcDbLine
 10
5.909139494691165
 20
4.881059736609231
 30
0.0
 11
5.909139494691165
 21
4.628638909652585
 31
0.0
  0
LINE
  5
131
330
70
100
AcDbEntity
  8
Layer 2
 62
   250
420
  2301728
370
    25
100
AcDbLine
 10
5.40099922975009
 20
5.038116677086084
 30
0.0
 11
5.510672838090613
 21
5.092954175700772
 31
0.0
  0
LINE
  5
132
330
70
100
AcDbEntity
  8
Layer 2
 62
   250
420
  2301728
370
    25
100
AcDbLine
 10
5.40099922975009
 20
4.979594456342257
 30
0.0
 11
5.507053393737603
 21
5.049084732364563
 31
0.0
  0
LINE
  5
133
330
70
100
AcDbEntity
  8
Layer 2
 62
   250
420
  2301728
370
    25
100
AcDbLine
 10
5.40099922975009
 20
4.921116680041753
 30
0.0
 11
5.510672838090613
 21
5.005213900139501
 31
0.0
  0
LINE
  5
134
330
70
100
AcDbEntity
  8
Layer 2
 62
   250
420
  2301728
370
    25
100
AcDbLine
 10
5.404661729657568
 20
4.862638903741248
 30
0.0
 11
5.510672838090613
 21
4.935725013006049
 31
0.0
  0
LINE
  5
135
330
70
100
AcDbEntity
  8
Layer 2
 62
   250
420
  2301728
370
    25
100
AcDbLine
 10
5.693499222360919
 20
5.202627784041295
 30
0.0
 11
5.766585331625719
 21
5.246497227377504
 31
0.0
  0
LINE
  5
136
330
70
100
AcDbEntity
  8
Layer 2
 62
   250
420
  2301728
370
    25
100
AcDbLine
 10
5.704465888750544
 20
5.144105563297468
 30
0.0
 11
5.755618665236093
 21
5.195301395337486
 31
0.0
  0
LINE
  5
137
330
70
100
AcDbEntity
  8
Layer 2
 62
   250
420
  2301728
370
    25
100
AcDbLine
 10
5.700781166621405
 20
5.096594453386589
 30
0.0
 11
5.755618665236093
 21
5.13313750801899
 31
0.0
  0
LINE
  5
138
330
70
100
AcDbEntity
  8
Layer 2
 62
   250
420
  2301728
370
    25
100
AcDbLine
 10
5.704465888750544
 20
5.030790288382275
 30
0.0
 11
5.755618665236093
 21
5.067333343014675
 31
0.0
  0
LINE
  5
139
330
70
100
AcDbEntity
  8
Layer 2
 62
   250
420
  2301728
370
    25
100
AcDbLine
 10
5.525303393276569
 20
5.129497230333172
 30
0.0
 11
5.700781166621405
 21
5.118529175054693
 31
0.0
  0
LINE
  5
13A
330
70
100
AcDbEntity
  8
Layer 2
 62
   250
420
  2301728
370
    25
100
AcDbLine
 10
5.518021449016083
 20
5.081986120422294
 30
0.0
 11
5.693499222360919
 21
5.074659836015952
 31
0.0
  0
LINE
  5
13B
330
70
100
AcDbEntity
  8
Layer 2
 62
   250
420
  2301728
370
    25
100
AcDbLine
 10
5.510672838090613
 20
5.030790288382275
 30
0.0
 11
5.697118666713928
 21
5.01982362199265
 31
0.0
  0
LINE
  5
13C
330
70
100
AcDbEntity
  8
Layer 2
 62
   250
420
  2301728
370
    25
100
AcDbLine
 10
5.51433533799809
 20
4.979594456342257
 30
0.0
 11
5.699001999999684
 21
4.986193067286674
 31
0.0
  0
LINE
  5
13D
330
70
100
AcDbEntity
  8
Layer 2
 62
   250
420
  2301728
370
    25
100
AcDbLine
 10
5.594792280410021
 20
4.720062613793743
 30
0.0
 11
5.693499222360919
 21
4.800475016422751
 31
0.0
  0
LWPOLYLINE
  5
13E
330
70
100
AcDbEntity
  8
Layer 2
 62
   250
420
  2301728
370
    25
100
AcDbPolyline
 90
        3
 70
     0
 43
0.0
 10
5.598411724763031
 20
4.687161130396412
 10
5.715433944029023
 20
4.76393196179035
 10
5.912846439041964
 20
4.778540294754646
  0
LINE
  5
13F
330
70
100
AcDbEntity
  8
Layer 2
 62
   250
420
  2301728
370
    25
100
AcDbLine
 10
5.598411724763031
 20
4.639606964931064
 30
0.0
 11
5.711749221899885
 21
4.720062613793743
 31
0.0
  0
LINE
  5
140
330
70
100
AcDbEntity
  8
Layer 2
 62
   250
420
  2301728
370
    25
100
AcDbLine
 10
5.598411724763031
 20
4.573801411037897
 30
0.0
 11
5.708085333103554
 21
4.657900020024499
 31
0.0
  0
LINE
  5
141
330
70
100
AcDbEntity
  8
Layer 2
 62
   250
420
  2301728
370
    25
100
AcDbLine
 10
5.591107558280882
 20
4.526291690015871
 30
0.0
 11
5.715433944029023
 21
4.603062613793755
 31
0.0
  0
LINE
  5
142
330
70
100
AcDbEntity
  8
Layer 2
 62
   250
420
  2301728
370
    25
100
AcDbLine
 10
5.901878383763484
 20
4.895540291798978
 30
0.0
 11
5.967682548767798
 21
4.943051401709857
 31
0.0
  0
LINE
  5
143
330
70
100
AcDbEntity
  8
Layer 2
 62
   250
420
  2301728
370
    25
100
AcDbLine
 10
5.912846439041964
 20
4.840704182073143
 30
0.0
 11
5.96399782663866
 21
4.884573625409353
 31
0.0
  0
LINE
  5
144
330
70
100
AcDbEntity
  8
Layer 2
 62
   250
420
  2301728
370
    25
100
AcDbLine
 10
5.912846439041964
 20
4.800475016422751
 30
0.0
 11
5.967682548767798
 21
4.844345848647813
 31
0.0
  0
LINE
  5
145
330
70
100
AcDbEntity
  8
Layer 2
 62
   250
420
  2301728
370
    25
100
AcDbLine
 10
5.912846439041964
 20
4.752965391571503
 30
0.0
 11
5.96399782663866
 21
4.793150016607796
 31
0.0
  0
LINE
  5
146
330
70
100
AcDbEntity
  8
Layer 2
 62
   250
420
  2301728
370
    25
100
AcDbLine
 10
5.704465888750544
 20
4.847986126333631
 30
0.0
 11
5.901878383763484
 21
4.855312613793759
 31
0.0
  0
LINE
  5
147
330
70
100
AcDbEntity
  8
Layer 2
 62
   250
420
  2301728
370
    25
100
AcDbLine
 10
5.719053388382032
 20
4.80780140512656
 30
0.0
 11
5.901878383763484
 21
4.818769460405039
 31
0.0
  0
LINE
  5
148
330
70
100
AcDbEntity
  8
Layer 2
 62
   250
420
  2301728
370
    25
100
AcDbLine
 10
5.711749221899885
 20
4.712736129750333
 30
0.0
 11
5.905497828116494
 21
4.745638906696917
 31
0.0
  0
LINE
  5
149
330
70
100
AcDbEntity
  8
Layer 2
 62
   250
420
  2301728
370
    25
100
AcDbLine
 10
5.719053388382032
 20
4.679834741692602
 30
0.0
 11
5.905497828116494
 21
4.698127796786037
 31
0.0
  0
LINE
  5
14A
330
70
100
AcDbEntity
  8
Layer 2
 62
   250
420
  2301728
370
    25
100
AcDbLine
 10
5.72271588828951
 20
4.635965391571517
 30
0.0
 11
5.905497828116494
 21
4.665226408728307
 31
0.0
  0
LINE
  5
14B
330
70
100
AcDbEntity
  8
Layer 2
 62
   250
420
  2301728
370
    53
100
AcDbLine
 10
5.097575626304104
 20
6.094624983729772
 30
0.0
 11
5.324227139171802
 21
6.178723592716374
 31
0.0
  0
LINE
  5
14C
330
70
100
AcDbEntity
  8
Layer 2
 62
   250
420
  2301728
370
    53
100
AcDbLine
 10
5.360833952986973
 20
6.164070815308769
 30
0.0
 11
5.605760335688501
 21
6.255451502682641
 31
0.0
  0
LINE
  5
14D
330
70
100
AcDbEntity
  8
Layer 2
 62
   250
420
  2301728
370
    53
100
AcDbLine
 10
5.170683957790566
 20
5.933755543349231
 30
0.0
 11
5.39003117447161
 21
6.028820818725458
 31
0.0
  0
LWPOLYLINE
  5
14E
330
70
100
AcDbEntity
  8
Layer 2
 62
   250
420
  2301728
370
    25
100
AcDbPolyline
 90
        4
 70
     0
 43
0.0
 10
5.163379916949603
 20
6.716124968029362
 10
5.196282694727364
 20
6.368809699025505
 10
5.181652013069045
 20
6.310331922725
 10
5.163379916949603
 20
6.120201502682649
  0
LWPOLYLINE
  5
14F
330
70
100
AcDbEntity
  8
Layer 2
 62
   250
420
  2301728
370
    25
100
AcDbPolyline
 90
        4
 70
     0
 43
0.0
 10
5.181652013069045
 20
6.928145947127088
 10
5.207249234644627
 20
6.584515249131881
 10
5.251118677980835
 20
6.328581922263967
 10
5.214553401126774
 20
6.142136093640652
  0
LWPOLYLINE
  5
150
330
70
100
AcDbEntity
  8
Layer 2
 62
   250
420
  2301728
370
    25
100
AcDbPolyline
 90
        3
 70
     0
 43
0.0
 10
5.207249234644627
 20
6.928145947127088
 10
5.294988121317045
 20
6.332266644393105
 10
5.269390899741463
 20
6.167755537437894
  0
LINE
  5
151
330
70
100
AcDbEntity
  8
Layer 2
 62
   250
420
  2301728
370
    25
100
AcDbLine
 10
5.251118677980835
 20
6.935472184710406
 30
0.0
 11
5.320608954003142
 21
6.368809699025505
 31
0.0
  0
LINE
  5
152
330
70
100
AcDbEntity
  8
Layer 2
 62
   250
420
  2301728
370
    25
100
AcDbLine
 10
5.291325621409567
 20
6.924504129431928
 30
0.0
 11
5.320608954003142
 21
6.657602747285535
 31
0.0
  0
LINE
  5
153
330
70
100
AcDbEntity
  8
Layer 2
 62
   250
420
  2301728
370
    25
100
AcDbLine
 10
5.196282694727364
 20
5.937441654367224
 30
0.0
 11
5.167064513437556
 21
5.549898608601842
 31
0.0
  0
LWPOLYLINE
  5
154
330
70
100
AcDbEntity
  8
Layer 2
 62
   250
420
  2301728
370
    25
100
AcDbPolyline
 90
        3
 70
     0
 43
0.0
 10
5.243836733720349
 20
5.95204998733152
 10
5.188999235105661
 20
5.323268058771443
 10
5.203586734737149
 20
5.151431952001277
  0
LWPOLYLINE
  5
155
330
70
100
AcDbEntity
  8
Layer 2
 62
   250
420
  2301728
370
    25
100
AcDbPolyline
 90
        3
 70
     0
 43
0.0
 10
5.280357566131088
 20
5.981311097703433
 10
5.232868678441869
 20
5.45851805535474
 10
5.287706177056557
 20
5.191659836015938
  0
LWPOLYLINE
  5
156
330
70
100
AcDbEntity
  8
Layer 2
 62
   250
420
  2301728
370
    25
100
AcDbPolyline
 90
        3
 70
     0
 43
0.0
 10
5.313260343077672
 20
5.98859304196392
 10
5.280357566131088
 20
5.498745832116292
 10
5.320608954003142
 20
5.304975003678009
  0
LINE
  5
157
330
70
100
AcDbEntity
  8
Layer 2
 62
   250
420
  2301728
370
    25
100
AcDbLine
 10
5.134163125379826
 20
6.109233316694067
 30
0.0
 11
5.262086733259315
 21
5.970343042424953
 31
0.0
  0
LINE
  5
158
330
70
100
AcDbEntity
  8
Layer 2
 62
   250
420
  2301728
370
    25
100
AcDbLine
 10
5.185314512976522
 20
6.123886094101686
 30
0.0
 11
5.291325621409567
 21
5.98859304196392
 31
0.0
  0
LINE
  5
159
330
70
100
AcDbEntity
  8
Layer 2
 62
   250
420
  2301728
370
    25
100
AcDbLine
 10
5.243836733720349
 20
6.14582081576979
 30
0.0
 11
5.335195064745776
 21
6.014212485761163
 31
0.0
  0
LINE
  5
15A
330
70
100
AcDbEntity
  8
Layer 2
 62
   250
420
  2301728
370
    25
100
AcDbLine
 10
5.287706177056557
 20
6.142136093640652
 30
0.0
 11
5.371760341599838
 21
6.028820818725458
 31
0.0
  0
LWPOLYLINE
  5
15B
330
70
100
AcDbEntity
  8
Layer 2
 62
   250
420
  2301728
370
    25
100
AcDbPolyline
 90
        5
 70
     0
 43
0.0
 10
5.448531172993776
 20
6.833080520630371
 10
5.492400616329986
 20
6.467516640976403
 10
5.463183950401394
 20
6.361483310321697
 10
5.459499228272256
 20
6.207940258644965
 10
5.569172836612779
 20
6.069049984375851
  0
LWPOLYLINE
  5
15C
330
70
100
AcDbEntity
  8
Layer 2
 62
   250
420
  2301728
370
    25
100
AcDbPolyline
 90
        6
 70
     0
 43
0.0
 10
5.474152005679873
 20
6.898884685634684
 10
5.481433949940361
 20
6.738059689697466
 10
5.543575615037196
 20
6.420005531065523
 10
5.510672838090613
 20
6.277429145778417
 10
5.503368671608464
 20
6.218908313923444
 10
5.605760335688501
 20
6.080016650765476
  0
LWPOLYLINE
  5
15D
330
70
100
AcDbEntity
  8
Layer 2
 62
   250
420
  2301728
370
    25
100
AcDbPolyline
 90
        3
 70
     0
 43
0.0
 10
5.510672838090613
 20
6.887916630356206
 10
5.591107558280882
 20
6.441940252733628
 10
5.558204781334299
 20
6.240843035591549
  0
LINE
  5
15E
330
70
100
AcDbEntity
  8
Layer 2
 62
   250
420
  2301728
370
    25
100
AcDbLine
 10
5.558204781334299
 20
6.884276352670389
 30
0.0
 11
5.594792280410021
 21
6.657602747285535
 31
0.0
  0
LINE
  5
15F
330
70
100
AcDbEntity
  8
Layer 2
 62
   250
420
  2301728
370
    25
100
AcDbLine
 10
5.477770061144028
 20
6.006886097057354
 30
0.0
 11
5.44124922873329
 21
5.575518052399084
 31
0.0
  0
LWPOLYLINE
  5
160
330
70
100
AcDbEntity
  8
Layer 2
 62
   250
420
  2301728
370
    25
100
AcDbPolyline
 90
        3
 70
     0
 43
0.0
 10
5.507053393737603
 20
6.028820818725458
 10
5.466803394754403
 20
5.462159836015971
 10
5.477770061144028
 20
5.21359445043092
  0
LWPOLYLINE
  5
161
330
70
100
AcDbEntity
  8
Layer 2
 62
   250
420
  2301728
370
    25
100
AcDbPolyline
 90
        3
 70
     0
 43
0.0
 10
5.572857558741916
 20
6.058081929097371
 10
5.536270059666194
 20
5.462159836015971
 10
5.583825614020396
 20
5.275713893306096
  0
LWPOLYLINE
  5
162
330
70
100
AcDbEntity
  8
Layer 2
 62
   250
420
  2301728
370
    25
100
AcDbPolyline
 90
        3
 70
     0
 43
0.0
 10
5.591107558280882
 20
5.80214721334063
 10
5.572857558741916
 20
5.535288886748692
 10
5.591107558280882
 20
5.45487638878007
  0
LWPOLYLINE
  5
163
330
70
100
AcDbEntity
  8
Layer 2
 62
   250
420
  2301728
370
    25
100
AcDbPolyline
 90
        4
 70
     0
 43
0.0
 10
5.40834784067556
 20
6.178723592716374
 10
5.543575615037196
 20
6.047115262707746
 10
5.496086727347978
 20
5.385387501646619
 10
5.525303393276569
 20
5.242811116359512
  0
LWPOLYLINE
  5
164
330
70
100
AcDbEntity
  8
Layer 2
 62
   250
420
  2301728
370
    53
100
AcDbPolyline
 90
        3
 70
     0
 43
0.0
 10
5.543575615037196
 20
6.226233313738399
 10
5.656911723285197
 20
6.098266650304442
 10
5.444868673086299
 20
5.999559708353545
  0
LWPOLYLINE
  5
165
330
70
100
AcDbEntity
  8
Layer 2
 62
   250
420
  2301728
370
    40
100
AcDbPolyline
 90
        3
 70
     0
 43
0.0
 10
2.947982625051824
 20
5.462159836015971
 10
3.013786790056137
 20
5.418290278593202
 10
2.933363180976698
 20
5.374419446368139
  0
SPLINE
  5
166
330
70
100
AcDbEntity
  8
Layer 2
 62
   250
420
  2301728
370
    40
100
AcDbSpline
210
0.0
220
0.0
230
1.0
 70
     8
 71
     3
 72
    11
 73
     7
 74
     0
 42
0.0000000001
 43
0.0000000001
 40
0.0
 40
0.0
 40
0.0
 40
0.0
 40
1.0
 40
1.0
 40
1.0
 40
2.0
 40
2.0
 40
2.0
 40
2.0
 10
3.167329841732869
 20
5.663257058238198
 30
0.0
 10
3.178296583616252
 20
5.659572216942365
 30
0.0
 10
3.211199361394025
 20
5.62666943999578
 30
0.0
 10
3.211199361394025
 20
5.62666943999578
 30
0.0
 10
3.211199361394025
 20
5.62666943999578
 30
0.0
 10
3.068622899781972
 20
5.55358333073098
 30
0.0
 10
3.068622899781972
 20
5.55358333073098
 30
0.0
  0
LWPOLYLINE
  5
167
330
70
100
AcDbEntity
  8
Layer 2
 62
   250
420
  2301728
370
    53
100
AcDbPolyline
 90
        8
 70
     0
 43
0.0
 10
3.535892332422197
 20
3.324958387030771
 10
3.535892332422197
 20
2.921648674997009
 10
4.081121485315216
 20
2.757932012466173
 10
4.220056204027653
 20
2.839801454842421
 10
4.317789534892047
 20
2.815682011007286
 10
4.338835367693718
 20
2.909462564193745
 10
4.432635365324131
 20
2.967275062733278
 10
4.432635365324131
 20
4.754227795368832
  0
LWPOLYLINE
  5
168
330
70
100
AcDbEntity
  8
Layer 2
 62
   250
420
  2301728
370
    53
100
AcDbPolyline
 90
        1
 70
     0
 43
0.0
 10
5.230511734056967
 20
4.542315300722192
  0
LWPOLYLINE
  5
169
330
70
100
AcDbEntity
  8
Layer 2
 62
   250
420
  2301728
370
    53
100
AcDbPolyline
 90
        1
 70
     0
 43
0.0
 10
4.923264519596462
 20
4.634637520612159
  0
LINE
  5
16A
330
70
100
AcDbEntity
  8
Layer 2
 62
   250
420
  2301728
370
    40
100
AcDbLine
 10
3.804614547855925
 20
3.193584779238436
 30
0.0
 11
3.804614547855925
 21
2.847641732422137
 31
0.0
  0
LINE
  5
16B
330
70
100
AcDbEntity
  8
Layer 2
 62
   250
420
  2301728
370
    40
100
AcDbLine
 10
4.075800652116299
 20
4.830743169349312
 30
0.0
 11
4.075800652116299
 21
2.763265345664775
 31
0.0
  0
LINE
  5
16C
330
70
100
AcDbEntity
  8
Layer 2
 62
   250
420
  2301728
370
    53
100
AcDbLine
 10
4.220056204027653
 20
2.839801454842421
 30
0.0
 11
4.268692313910125
 21
2.973123673696641
 31
0.0
  0
LINE
  5
16D
330
70
100
AcDbEntity
  8
Layer 2
 62
   250
420
  2301728
370
    40
100
AcDbLine
 10
4.268692313910125
 20
2.973123673696641
 30
0.0
 11
4.317789534892047
 21
2.815682011007286
 31
0.0
  0
LINE
  5
16E
330
70
100
AcDbEntity
  8
Layer 2
 62
   250
420
  2301728
370
    25
100
AcDbLine
 10
4.237366028060693
 20
2.907062613793742
 30
0.0
 11
4.255647869795199
 21
2.833932010546252
 31
0.0
  0
LINE
  5
16F
330
70
100
AcDbEntity
  8
Layer 2
 62
   250
420
  2301728
370
    25
100
AcDbLine
 10
3.85918399092183
 20
9.830086000475198
 30
0.0
 11
3.886602139171802
 21
9.917824887147617
 31
0.0
  0
LINE
  5
170
330
70
100
AcDbEntity
  8
Layer 2
 62
   250
420
  2301728
370
    25
100
AcDbLine
 10
3.896274267762628
 20
9.830044333809583
 30
0.0
 11
3.923692322625545
 21
9.923266553676814
 31
0.0
  0
LINE
  5
171
330
70
100
AcDbEntity
  8
Layer 2
 62
   250
420
  2301728
370
    25
100
AcDbLine
 10
3.940838250282922
 20
9.836180444765684
 30
0.0
 11
3.96551454379125
 21
9.918435998243289
 31
0.0
  0
LINE
  5
172
330
70
100
AcDbEntity
  8
Layer 2
 62
   250
420
  2301728
370
    25
100
AcDbLine
 10
4.071590930000436
 20
9.814986000856656
 30
0.0
 11
4.099010373752195
 21
9.908208220723887
 31
0.0
  0
LINE
  5
173
330
70
100
AcDbEntity
  8
Layer 2
 62
   250
420
  2301728
370
    25
100
AcDbLine
 10
3.979417321217813
 20
9.825213778376058
 30
0.0
 11
4.010413153768126
 21
9.915683220535052
 31
0.0
  0
LINE
  5
174
330
70
100
AcDbEntity
  8
Layer 2
 62
   250
420
  2301728
370
    25
100
AcDbLine
 10
4.119756206561444
 20
9.809458223218522
 30
0.0
 11
4.149915928021767
 21
9.90542210968316
 31
0.0
  0
LINE
  5
175
330
70
100
AcDbEntity
  8
Layer 2
 62
   250
420
  2301728
370
    25
100
AcDbLine
 10
4.168488149774816
 20
9.807337389938766
 30
0.0
 11
4.190422871442921
 21
9.911526276195621
 31
0.0
  0
LINE
  5
176
330
70
100
AcDbEntity
  8
Layer 2
 62
   250
420
  2301728
370
    25
100
AcDbLine
 10
4.207408982124926
 20
9.795065168026566
 30
0.0
 11
4.229343703793031
 21
9.899254054283421
 31
0.0
  0
LINE
  5
177
330
70
100
AcDbEntity
  8
Layer 2
 62
   250
420
  2301728
370
    40
100
AcDbLine
 10
3.800588250282923
 20
9.786323501580731
 30
0.0
 11
4.001481209549321
 21
9.814127667545006
 31
0.0
  0
LINE
  5
178
330
70
100
AcDbEntity
  8
Layer 2
 62
   250
420
  2301728
370
    25
100
AcDbLine
 10
3.634074361394027
 20
9.795042945804905
 30
0.0
 11
3.790445103769431
 21
9.828469333849371
 31
0.0
  0
LINE
  5
179
330
70
100
AcDbEntity
  8
Layer 2
 62
   250
420
  2301728
370
    25
100
AcDbLine
 10
3.72488677209224
 20
9.795684612455362
 30
0.0
 11
3.845764546816389
 21
9.822309611782758
 31
0.0
  0
LINE
  5
17A
330
70
100
AcDbEntity
  8
Layer 2
 62
   250
420
  2301728
370
    25
100
AcDbLine
 10
3.927718711412719
 20
9.783388779432646
 30
0.0
 11
4.060892319159582
 21
9.810026278759726
 31
0.0
  0
LINE
  5
17B
330
70
100
AcDbEntity
  8
Layer 2
 62
   250
420
  2301728
370
    25
100
AcDbLine
 10
4.007618709394275
 20
9.781344335039849
 30
0.0
 11
4.132607595125679
 21
9.80797928046042
 31
0.0
  0
LWPOLYLINE
  5
17C
330
70
100
AcDbEntity
  8
Layer 2
 62
   250
420
  2301728
370
    53
100
AcDbPolyline
 90
       11
 70
     0
 43
0.0
 10
4.069972874485756
 20
4.833934737799709
 10
5.587808947253102
 20
4.467512524834091
 10
5.711920055228902
 20
4.553623633769853
 10
5.722757554955124
 20
4.614030576688289
 10
5.909203383578439
 20
4.639606964931064
 10
5.909332550241843
 20
4.690545852533128
 10
5.967682548767798
 20
4.731030573732621
 10
5.967682548767798
 20
4.979594456342257
 10
5.762922831718242
 20
5.038116677086084
 10
5.762922831718242
 20
5.286680559695721
 10
5.598411724763031
 20
5.33055000303193
  0
SPLINE
  5
17D
330
70
100
AcDbEntity
  8
Layer 2
100
AcDbSpline
210
0.0
220
0.0
230
1.0
 70
     9
 71
     3
 72
    17
 73
    13
 74
     0
 42
0.0000000001
 43
0.0000000001
 40
0.0
 40
0.0
 40
0.0
 40
0.0
 40
1.0
 40
1.0
 40
1.0
 40
2.0
 40
2.0
 40
2.0
 40
3.0
 40
3.0
 40
3.0
 40
4.0
 40
4.0
 40
4.0
 40
4.0
 10
3.811736769898225
 20
3.416584773604982
 30
0.0
 10
3.815389547583726
 20
3.442181995180564
 30
0.0
 10
3.826356213973351
 20
3.46776949453417
 30
0.0
 10
3.80807436139403
 20
3.486051438516773
 30
0.0
 10
3.797106214712268
 20
3.500670882591899
 30
0.0
 10
3.775171583616244
 20
3.5043236602774
 30
0.0
 10
3.764204826654538
 20
3.493355604998921
 30
0.0
 10
3.756900660172391
 20
3.489704216202274
 30
0.0
 10
3.756900660172391
 20
3.46776949453417
 30
0.0
 10
3.760552048969038
 20
3.45680143925569
 30
0.0
 10
3.771520104247517
 20
3.434866717587586
 30
0.0
 10
3.789802048230121
 20
3.427551439994608
 30
0.0
 10
3.811736769898225
 20
3.416584773604982
 30
0.0
  0
HATCH
  5
17E
330
70
100
AcDbEntity
  8
Layer 2
 62
    43
420
 15510108
440
 33554687
100
AcDbHatch
 10
0.0
 20
0.0
 30
0.0
210
0.0
220
0.0
230
1.0
  2
SOLID
 70
     1
 71
     1
 91
        1
 92
        1
 93
        1
 72
     4
 94
        3
 73
     0
 74
     0
 95
       17
 96
       13
 40
0.0
 40
0.0
 40
0.0
 40
0.0
 40
1.0
 40
1.0
 40
1.0
 40
2.0
 40
2.0
 40
2.0
 40
3.0
 40
3.0
 40
3.0
 40
4.0
 40
4.0
 40
4.0
 40
4.0
 10
3.811736769898225
 20
3.416584773604982
 10
3.815389547583726
 20
3.442181995180564
 10
3.826356213973351
 20
3.46776949453417
 10
3.80807436139403
 20
3.486051438516773
 10
3.797106214712268
 20
3.500670882591899
 10
3.775171583616244
 20
3.5043236602774
 10
3.764204826654538
 20
3.493355604998921
 10
3.756900660172391
 20
3.489704216202274
 10
3.756900660172391
 20
3.46776949453417
 10
3.760552048969038
 20
3.45680143925569
 10
3.771520104247517
 20
3.434866717587586
 10
3.789802048230121
 20
3.427551439994608
 10
3.811736769898225
 20
3.416584773604982
 97
        0
 97
        1
330
17D
 75
     2
 76
     1
 98
        1
 10
0.0
 20
0.0
450
        0
451
        0
460
0.0
461
0.0
452
        0
462
0.0
453
        0
470

  0
INSERT
  5
180
330
70
100
AcDbEntity
  8
Layer 2
100
AcDbBlockReference
  2
Block_1
 10
0.0
 20
0.0
 30
0.0
  0
SPLINE
  5
1BA
330
70
100
AcDbEntity
  8
Layer 2
100
AcDbSpline
210
0.0
220
0.0
230
1.0
 70
     8
 71
     3
 72
    20
 73
    16
 74
     0
 42
0.0000000001
 43
0.0000000001
 40
0.0
 40
0.0
 40
0.0
 40
0.0
 40
1.0
 40
1.0
 40
1.0
 40
2.0
 40
2.0
 40
2.0
 40
3.0
 40
3.0
 40
3.0
 40
4.0
 40
4.0
 40
4.0
 40
5.0
 40
5.0
 40
5.0
 40
5.0
 10
3.807164547791519
 20
9.146124906642398
 30
0.0
 10
3.81264788098632
 20
9.162576502682641
 30
0.0
 10
3.820872880778539
 20
9.179027683588982
 30
0.0
 10
3.81264788098632
 20
9.192736016576013
 30
0.0
 10
3.807164547791519
 20
9.200962405257087
 30
0.0
 10
3.801679825707853
 20
9.20918761379375
 30
0.0
 10
3.790713250282919
 20
9.214672127132972
 30
0.0
 10
3.785229826123402
 20
9.214672127132972
 30
0.0
 10
3.77700343744233
 20
9.217413793730377
 30
0.0
 10
3.774261770844936
 20
9.214672127132972
 30
0.0
 10
3.766036771052704
 20
9.19822073865968
 30
0.0
 10
3.774261770844936
 20
9.179027683588982
 30
0.0
 10
3.771520104247517
 20
9.159834628518296
 30
0.0
 10
3.782486770637142
 20
9.159834628518296
 30
0.0
 10
3.787971492720809
 20
9.146124906642398
 30
0.0
 10
3.798938159110434
 20
9.148866573239804
 30
0.0
  0
HATCH
  5
1BB
330
70
100
AcDbEntity
  8
Layer 2
 62
    43
420
 15510108
440
 33554687
100
AcDbHatch
 10
0.0
 20
0.0
 30
0.0
210
0.0
220
0.0
230
1.0
  2
SOLID
 70
     1
 71
     1
 91
        1
 92
        1
 93
        2
 72
     4
 94
        3
 73
     0
 74
     0
 95
       20
 96
       16
 40
0.0
 40
0.0
 40
0.0
 40
0.0
 40
1.0
 40
1.0
 40
1.0
 40
2.0
 40
2.0
 40
2.0
 40
3.0
 40
3.0
 40
3.0
 40
4.0
 40
4.0
 40
4.0
 40
5.0
 40
5.0
 40
5.0
 40
5.0
 10
3.807164547791519
 20
9.146124906642398
 10
3.81264788098632
 20
9.162576502682641
 10
3.820872880778539
 20
9.179027683588982
 10
3.81264788098632
 20
9.192736016576013
 10
3.807164547791519
 20
9.200962405257087
 10
3.801679825707853
 20
9.20918761379375
 10
3.790713250282919
 20
9.214672127132972
 10
3.785229826123402
 20
9.214672127132972
 10
3.77700343744233
 20
9.217413793730377
 10
3.774261770844936
 20
9.214672127132972
 10
3.766036771052704
 20
9.19822073865968
 10
3.774261770844936
 20
9.179027683588982
 10
3.771520104247517
 20
9.159834628518296
 10
3.782486770637142
 20
9.159834628518296
 10
3.787971492720809
 20
9.146124906642398
 10
3.798938159110434
 20
9.148866573239804
 97
        0
 72
     1
 10
3.798938159110434
 20
9.148866573239805
 11
3.807164547791519
 21
9.146124906642398
 97
        0
 75
     2
 76
     1
 98
        1
 10
0.0
 20
0.0
450
        0
451
        0
460
0.0
461
0.0
452
        0
462
0.0
453
        0
470

  0
SPLINE
  5
1BC
330
70
100
AcDbEntity
  8
Layer 2
 62
   250
420
  2301728
370
    40
100
AcDbSpline
210
0.0
220
0.0
230
1.0
 70
     9
 71
     3
 72
    17
 73
    13
 74
     0
 42
0.0000000001
 43
0.0000000001
 40
0.0
 40
0.0
 40
0.0
 40
0.0
 40
1.0
 40
1.0
 40
1.0
 40
2.0
 40
2.0
 40
2.0
 40
3.0
 40
3.0
 40
3.0
 40
4.0
 40
4.0
 40
4.0
 40
4.0
 10
3.818945103049461
 20
9.181383239085031
 30
0.0
 10
3.823228436274588
 20
9.153397128680921
 30
0.0
 10
3.807571492225671
 20
9.127745740440028
 30
0.0
 10
3.78398815948809
 20
9.124126296087018
 30
0.0
 10
3.760403437861681
 20
9.120527685066816
 30
0.0
 10
3.737825660654266
 20
9.14029990678955
 30
0.0
 10
3.733520105207465
 20
9.168286017193684
 30
0.0
 10
3.72921454976069
 20
9.19632490537424
 30
0.0
 10
3.744829827144005
 20
9.221976293615119
 30
0.0
 10
3.768435472505138
 20
9.225594349079274
 30
0.0
 10
3.792061770395257
 20
9.229205460099162
 30
0.0
 10
3.814661769824333
 20
9.209422127265598
 30
0.0
 10
3.818945103049461
 20
9.181383239085031
 30
0.0
  0
SPLINE
  5
1BD
330
70
100
AcDbEntity
  8
Layer 2
 62
   250
420
  2301728
370
    40
100
AcDbSpline
210
0.0
220
0.0
230
1.0
 70
     9
 71
     3
 72
    17
 73
    13
 74
     0
 42
0.0000000001
 43
0.0000000001
 40
0.0
 40
0.0
 40
0.0
 40
0.0
 40
1.0
 40
1.0
 40
1.0
 40
2.0
 40
2.0
 40
2.0
 40
3.0
 40
3.0
 40
3.0
 40
4.0
 40
4.0
 40
4.0
 40
4.0
 10
3.818945103049461
 20
9.181383239085031
 30
0.0
 10
3.823228436274588
 20
9.153397128680921
 30
0.0
 10
3.807571492225671
 20
9.127745740440028
 30
0.0
 10
3.78398815948809
 20
9.124126296087018
 30
0.0
 10
3.760403437861681
 20
9.120527685066816
 30
0.0
 10
3.737825660654266
 20
9.14029990678955
 30
0.0
 10
3.733520105207465
 20
9.168286017193684
 30
0.0
 10
3.72921454976069
 20
9.19632490537424
 30
0.0
 10
3.744829827144005
 20
9.221976293615119
 30
0.0
 10
3.768435472505138
 20
9.225594349079274
 30
0.0
 10
3.792061770395257
 20
9.229205460099162
 30
0.0
 10
3.814661769824333
 20
9.209422127265598
 30
0.0
 10
3.818945103049461
 20
9.181383239085031
 30
0.0
  0
SPLINE
  5
1BE
330
70
100
AcDbEntity
  8
Layer 2
 62
   250
420
  2301728
370
    40
100
AcDbSpline
210
0.0
220
0.0
230
1.0
 70
     8
 71
     3
 72
    14
 73
    10
 74
     0
 42
0.0000000001
 43
0.0000000001
 40
0.0
 40
0.0
 40
0.0
 40
0.0
 40
1.0
 40
1.0
 40
1.0
 40
2.0
 40
2.0
 40
2.0
 40
3.0
 40
3.0
 40
3.0
 40
3.0
 10
3.815496492025469
 20
9.143030462276126
 30
0.0
 10
3.813717325403747
 20
9.142751295616511
 30
0.0
 10
3.812004916949578
 20
9.142611017842277
 30
0.0
 10
3.81027010326861
 20
9.142611017842277
 30
0.0
 10
3.788657694727362
 20
9.142387406736816
 30
0.0
 10
3.768971493200789
 20
9.161290184037069
 30
0.0
 10
3.765007604412037
 20
9.187209627826733
 30
0.0
 10
3.762866028060695
 20
9.201111016364443
 30
0.0
 10
3.765650659951347
 20
9.214392960473357
 30
0.0
 10
3.771861770905552
 20
9.224717960212526
 30
0.0
  0
SPLINE
  5
1BF
330
70
100
AcDbEntity
  8
Layer 2
 62
   250
420
  2301728
370
    40
100
AcDbSpline
210
0.0
220
0.0
230
1.0
 70
     9
 71
     3
 72
    17
 73
    13
 74
     0
 42
0.0000000001
 43
0.0000000001
 40
0.0
 40
0.0
 40
0.0
 40
0.0
 40
1.0
 40
1.0
 40
1.0
 40
2.0
 40
2.0
 40
2.0
 40
3.0
 40
3.0
 40
3.0
 40
4.0
 40
4.0
 40
4.0
 40
4.0
 10
3.629029830069346
 20
9.325340391571531
 30
0.0
 10
3.63152566333963
 20
9.309167958079139
 30
0.0
 10
3.622453441346591
 20
9.29431379178772
 30
0.0
 10
3.608818719468811
 20
9.292245736284421
 30
0.0
 10
3.595172886480188
 20
9.290124903004652
 30
0.0
 10
3.582106220143625
 20
9.301574902715401
 30
0.0
 10
3.57961316465105
 20
9.317780457861569
 30
0.0
 10
3.577127053602755
 20
9.333984624118885
 30
0.0
 10
3.586156220041313
 20
9.348817957077496
 30
0.0
 10
3.599822886362731
 20
9.350905457024762
 30
0.0
 10
3.613488163795295
 20
9.353005456971711
 30
0.0
 10
3.626543719021039
 20
9.341556846149815
 30
0.0
 10
3.629029830069346
 20
9.325340391571531
 30
0.0
  0
SPLINE
  5
1C0
330
70
100
AcDbEntity
  8
Layer 2
 62
   250
420
  2301728
370
    40
100
AcDbSpline
210
0.0
220
0.0
230
1.0
 70
     8
 71
     3
 72
    14
 73
    10
 74
     0
 42
0.0000000001
 43
0.0000000001
 40
0.0
 40
0.0
 40
0.0
 40
0.0
 40
1.0
 40
1.0
 40
1.0
 40
2.0
 40
2.0
 40
2.0
 40
3.0
 40
3.0
 40
3.0
 40
3.0
 10
3.590836775478628
 20
9.347040179344629
 30
0.0
 10
3.593824361394025
 20
9.351216568128013
 30
0.0
 10
3.599629916949588
 20
9.35282212364301
 30
0.0
 10
3.604608997352935
 20
9.354215391571528
 30
0.0
 10
3.617943719238294
 20
9.357933234625003
 30
0.0
 10
3.632275663320683
 20
9.348133234872571
 30
0.0
 10
3.636667329876407
 20
9.33233601304942
 30
0.0
 10
3.641078440876084
 20
9.316547124559393
 30
0.0
 10
3.633858996614018
 20
9.300749902736255
 30
0.0
 10
3.620558996950004
 20
9.297023513941489
 30
0.0
  0
SPLINE
  5
1C1
330
70
100
AcDbEntity
  8
Layer 2
 62
   250
420
  2301728
370
    40
100
AcDbSpline
210
0.0
220
0.0
230
1.0
 70
     8
 71
     3
 72
    17
 73
    13
 74
     0
 42
0.0000000001
 43
0.0000000001
 40
0.0
 40
0.0
 40
0.0
 40
0.0
 40
1.0
 40
1.0
 40
1.0
 40
2.0
 40
2.0
 40
2.0
 40
3.0
 40
3.0
 40
3.0
 40
4.0
 40
4.0
 40
4.0
 40
4.0
 10
3.631247885568869
 20
9.341609623926261
 30
0.0
 10
3.631247885568869
 20
9.341609623926261
 30
0.0
 10
3.636185472505139
 20
9.340624901728915
 30
0.0
 10
3.636185472505139
 20
9.340624901728915
 30
0.0
 10
3.636185472505139
 20
9.340624901728915
 30
0.0
 10
3.650771496186772
 20
9.336694346272652
 30
0.0
 10
3.649079829562841
 20
9.31696656899324
 30
0.0
 10
3.649079829562841
 20
9.31696656899324
 30
0.0
 10
3.650407694727366
 20
9.295224902875816
 30
0.0
 10
3.634835385478241
 20
9.297451502682658
 30
0.0
 10
3.634835385478241
 20
9.297451502682658
 30
0.0
 10
3.623631219094615
 20
9.299797124982546
 30
0.0
 10
3.623631219094615
 20
9.299797124982546
 30
0.0
  0
SPLINE
  5
1C2
330
70
100
AcDbEntity
  8
Layer 2
 62
   250
420
  2301728
370
    40
100
AcDbSpline
210
0.0
220
0.0
230
1.0
 70
     8
 71
     3
 72
    17
 73
    13
 74
     0
 42
0.0000000001
 43
0.0000000001
 40
0.0
 40
0.0
 40
0.0
 40
0.0
 40
1.0
 40
1.0
 40
1.0
 40
2.0
 40
2.0
 40
2.0
 40
3.0
 40
3.0
 40
3.0
 40
4.0
 40
4.0
 40
4.0
 40
4.0
 10
3.585213250282915
 20
9.307808235891267
 30
0.0
 10
3.585213250282915
 20
9.307808235891267
 30
0.0
 10
3.582429831246549
 20
9.307894347000202
 30
0.0
 10
3.57961316465105
 20
9.310765180261013
 30
0.0
 10
3.576689553613795
 20
9.313741569074711
 30
0.0
 10
3.57373260924405
 20
9.319674902258157
 30
0.0
 10
3.57373260924405
 20
9.331511013070262
 30
0.0
 10
3.57373260924405
 20
9.331511013070262
 30
0.0
 10
3.574471498114272
 20
9.351882058238187
 30
0.0
 10
3.586679831139197
 20
9.350404068148538
 30
0.0
 10
3.586679831139197
 20
9.350404068148538
 30
0.0
 10
3.596213250282921
 20
9.348519345973928
 30
0.0
 10
3.596213250282921
 20
9.348519345973928
 30
0.0
  0
SPLINE
  5
1C3
330
70
100
AcDbEntity
  8
Layer 2
 62
   250
420
  2301728
370
    40
100
AcDbSpline
210
0.0
220
0.0
230
1.0
 70
     9
 71
     3
 72
    17
 73
    13
 74
     0
 42
0.0000000001
 43
0.0000000001
 40
0.0
 40
0.0
 40
0.0
 40
0.0
 40
1.0
 40
1.0
 40
1.0
 40
2.0
 40
2.0
 40
2.0
 40
3.0
 40
3.0
 40
3.0
 40
4.0
 40
4.0
 40
4.0
 40
4.0
 10
3.902378434275091
 20
9.286538791984133
 30
0.0
 10
3.904885378656204
 20
9.270365181281603
 30
0.0
 10
3.895802045552335
 20
9.25550962610133
 30
0.0
 10
3.882178434785386
 20
9.253442959486871
 30
0.0
 10
3.868535379574483
 20
9.251322126207115
 30
0.0
 10
3.855465935460188
 20
9.262772125917864
 30
0.0
 10
3.852961768856794
 20
9.278966569953201
 30
0.0
 10
3.850475657808487
 20
9.295180458432493
 30
0.0
 10
3.859515935357888
 20
9.310015180279959
 30
0.0
 10
3.873182601679306
 20
9.312102680227225
 30
0.0
 10
3.88684787911187
 20
9.314202680174174
 30
0.0
 10
3.899892323226797
 20
9.302752680463425
 30
0.0
 10
3.902378434275091
 20
9.286538791984133
 30
0.0
  0
SPLINE
  5
1C4
330
70
100
AcDbEntity
  8
Layer 2
 62
   250
420
  2301728
370
    40
100
AcDbSpline
210
0.0
220
0.0
230
1.0
 70
     8
 71
     3
 72
    14
 73
    10
 74
     0
 42
0.0000000001
 43
0.0000000001
 40
0.0
 40
0.0
 40
0.0
 40
0.0
 40
1.0
 40
1.0
 40
1.0
 40
2.0
 40
2.0
 40
2.0
 40
3.0
 40
3.0
 40
3.0
 40
3.0
 10
3.864185472505141
 20
9.308236013658238
 30
0.0
 10
3.867183990719733
 20
9.31241518021933
 30
0.0
 10
3.872989546128628
 20
9.31402094712708
 30
0.0
 10
3.87795760155868
 20
9.31540268014386
 30
0.0
 10
3.891283990110915
 20
9.319118169349305
 30
0.0
 10
3.905635378637258
 20
9.30931795807535
 30
0.0
 10
3.910027045192982
 20
9.293530458474176
 30
0.0
 10
3.914438156192671
 20
9.277744347761855
 30
0.0
 10
3.907218711930593
 20
9.261947125938705
 30
0.0
 10
3.893917323377725
 20
9.258220737143952
 30
0.0
  0
SPLINE
  5
1C5
330
70
100
AcDbEntity
  8
Layer 2
 62
   250
420
  2301728
370
    40
100
AcDbSpline
210
0.0
220
0.0
230
1.0
 70
     8
 71
     3
 72
    17
 73
    13
 74
     0
 42
0.0000000001
 43
0.0000000001
 40
0.0
 40
0.0
 40
0.0
 40
0.0
 40
1.0
 40
1.0
 40
1.0
 40
2.0
 40
2.0
 40
2.0
 40
3.0
 40
3.0
 40
3.0
 40
4.0
 40
4.0
 40
4.0
 40
4.0
 10
3.904606211996603
 20
9.302806847128723
 30
0.0
 10
3.904606211996603
 20
9.302806847128723
 30
0.0
 10
3.909554822982689
 20
9.301820736042524
 30
0.0
 10
3.909554822982689
 20
9.301820736042524
 30
0.0
 10
3.909554822982689
 20
9.301820736042524
 30
0.0
 10
3.924120100392517
 20
9.29788879169742
 30
0.0
 10
3.922450655990246
 20
9.278161014417996
 30
0.0
 10
3.922450655990246
 20
9.278161014417996
 30
0.0
 10
3.92375621151282
 20
9.25640823718974
 30
0.0
 10
3.908203434127939
 20
9.258637403800094
 30
0.0
 10
3.908203434127939
 20
9.258637403800094
 30
0.0
 10
3.897002045522033
 20
9.260993169349324
 30
0.0
 10
3.897002045522033
 20
9.260993169349324
 30
0.0
  0
SPLINE
  5
1C6
330
70
100
AcDbEntity
  8
Layer 2
 62
   250
420
  2301728
370
    40
100
AcDbSpline
210
0.0
220
0.0
230
1.0
 70
     8
 71
     3
 72
    17
 73
    13
 74
     0
 42
0.0000000001
 43
0.0000000001
 40
0.0
 40
0.0
 40
0.0
 40
0.0
 40
1.0
 40
1.0
 40
1.0
 40
2.0
 40
2.0
 40
2.0
 40
3.0
 40
3.0
 40
3.0
 40
4.0
 40
4.0
 40
4.0
 40
4.0
 10
3.858574361394023
 20
9.26900545909373
 30
0.0
 10
3.858574361394023
 20
9.26900545909373
 30
0.0
 10
3.855788157674282
 20
9.269091570202665
 30
0.0
 10
3.852961768856794
 20
9.271961014574621
 30
0.0
 10
3.850047880041516
 20
9.274938792277174
 30
0.0
 10
3.847092324560624
 20
9.280861014349788
 30
0.0
 10
3.847092324560624
 20
9.29270684738387
 30
0.0
 10
3.847092324560624
 20
9.29270684738387
 30
0.0
 10
3.847842324541677
 20
9.313077680202594
 30
0.0
 10
3.86005065756659
 20
9.311598513573294
 30
0.0
 10
3.86005065756659
 20
9.311598513573294
 30
0.0
 10
3.869561768437442
 20
9.309715391571531
 30
0.0
 10
3.869561768437442
 20
9.309715391571531
 30
0.0
  0
LINE
  5
1C7
330
70
100
AcDbEntity
  8
Layer 2
 62
   250
420
  2301728
370
    40
100
AcDbLine
 10
3.800588250282923
 20
9.143126295607038
 30
0.0
 11
3.800588250282923
 21
9.221719349177165
 31
0.0
  0
MTEXT
  5
1C9
330
70
100
AcDbEntity
  8
callout
100
AcDbMText
 10
3.528482278188069
 20
2.275433222452799
 30
0.0
 40
0.2
 41
0.0
 46
0.0
 71
     7
 72
     1
  1
\C250;\c2105123;\FHelvetica Neue LT Std 55 Roman|b0|i0|c1;\H0.118000;\W1.000000;SIMPSON Strong-Tie\H0.068794;®\H0.118000; ^C
 73
     1
 44
1.0
  0
MTEXT
  5
1CA
330
70
100
AcDbEntity
  8
callout
100
AcDbMText
 10
3.610513528188069
 20
2.075427797105577
 30
0.0
 40
0.2
 41
0.0
 46
0.0
 71
     7
 72
     1
  1
\C250;\c2105123;\FHelvetica Neue LT Std 55 Roman|b0|i0|c1;\H0.118000;\W1.000000;MSTC78 Installation
 73
     1
 44
1.0
  0
MTEXT
  5
1CB
330
70
100
AcDbEntity
  8
callout
100
AcDbMText
 10
1.98201800054974
 20
5.797441562016804
 30
0.0
 40
0.2
 41
0.0
 46
0.0
 71
     7
 72
     1
  1
\C250;\c2105123;\FHelvetica Neue LT Std 57 Condensed|b0|i0|c1;\H0.118000;\W1.000000;MSTC78
 73
     1
 44
1.0
  0
LINE
  5
1CC
330
70
100
AcDbEntity
  8
callout
 62
   250
420
  2301728
370
    18
100
AcDbLine
 10
2.283234266567066
 20
6.019913203581684
 30
0.0
 11
3.515607610712411
 21
6.880634686095718
 31
0.0
  0
MTEXT
  5
1CD
330
70
100
AcDbEntity
  8
callout
100
AcDbMText
 10
5.835340711805555
 20
7.877699110243055
 30
0.0
 40
0.2
 41
0.0
 46
0.0
 71
     7
 72
     1
  1
\C250;\c2105123;\FHelvetica Neue LT Std 57 Condensed|b0|i0|c1;\H0.118000;\W0.852000;Mid Floor
 73
     1
 44
1.0
  0
LINE
  5
1CE
330
70
100
AcDbEntity
  8
callout
 62
   250
420
  2301728
370
    18
100
AcDbLine
 10
5.965384220737885
 20
7.822262729762528
 30
0.0
 11
5.66282949566812
 21
7.548755639560302
 31
0.0
  0
MTEXT
  5
1CF
330
70
100
AcDbEntity
  8
callout
100
AcDbMText
 10
4.781716320249769
 20
8.965630366777379
 30
0.0
 40
0.2
 41
0.0
 46
0.0
 71
     7
 72
     1
  1
\C250;\c2105123;\FHelvetica Neue LT Std 57 Condensed|b0|i0|c1;\H0.104821;\W0.959120;Stud
 73
     1
 44
1.0
  0
LINE
  5
1D0
330
70
100
AcDbEntity
  8
callout
 62
   250
420
  2301728
370
    18
100
AcDbLine
 10
4.729256757210451
 20
8.916211953245628
 30
0.0
 11
4.426702032140686
 21
8.642704863043402
 31
0.0
  0
MTEXT
  5
1D1
330
70
100
AcDbEntity
  8
callout
100
AcDbMText
 10
4.781716320249769
 20
3.631526947021484
 30
0.0
 40
0.2
 41
0.0
 46
0.0
 71
     7
 72
     1
  1
\C250;\c2105123;\FHelvetica Neue LT Std 57 Condensed|b0|i0|c1;\H0.104821;\W0.959120;Stud
 73
     1
 44
1.0
  0
LINE
  5
1D2
330
70
100
AcDbEntity
  8
callout
 62
   250
420
  2301728
370
    18
100
AcDbLine
 10
4.729256757210451
 20
3.684825378200305
 30
0.0
 11
4.440529809569144
 21
3.917599136238727
 31
0.0
  0
ENDSEC
  0
SECTION
  2
OBJECTS
  0
DICTIONARY
  5
C
330
0
100
AcDbDictionary
281
     1
  3
ACAD_COLOR
350
63
  3
ACAD_DETAILVIEWSTYLE
350
6A
  3
ACAD_GROUP
350
D
  3
ACAD_LAYOUT
350
62
  3
ACAD_MATERIAL
350
10
  3
ACAD_MLEADERSTYLE
350
66
  3
ACAD_MLINESTYLE
350
5F
  3
ACAD_PLOTSETTINGS
350
61
  3
ACAD_PLOTSTYLENAME
350
E
  3
ACAD_SCALELIST
350
42
  3
ACAD_SECTIONVIEWSTYLE
350
68
  3
ACAD_TABLESTYLE
350
64
  3
ACAD_VISUALSTYLE
350
29
  3
ACDB_RECOMPOSE_DATA
350
1DB
  3
AcDbVariableDictionary
350
1D3
  0
DICTIONARY
  5
63
102
{ACAD_REACTORS
330
C
102
}
330
C
100
AcDbDictionary
281
     1
  0
DICTIONARY
  5
6A
102
{ACAD_REACTORS
330
C
102
}
330
C
100
AcDbDictionary
281
     1
  3
Imperial24
350
6B
  0
DICTIONARY
  5
D
102
{ACAD_REACTORS
330
C
102
}
330
C
100
AcDbDictionary
281
     1
  0
DICTIONARY
  5
62
102
{ACAD_REACTORS
330
C
102
}
330
C
100
AcDbDictionary
281
     1
  3
Layout1
350
6F
  3
Layout2
350
77
  3
Model
350
73
  0
DICTIONARY
  5
10
102
{ACAD_REACTORS
330
C
102
}
330
C
100
AcDbDictionary
281
     1
  3
ByBlock
350
19
  3
ByLayer
350
11
  3
Global
350
21
  0
DICTIONARY
  5
66
102
{ACAD_REACTORS
330
C
102
}
330
C
100
AcDbDictionary
281
     1
  3
Standard
350
67
  0
DICTIONARY
  5
5F
102
{ACAD_REACTORS
330
C
102
}
330
C
100
AcDbDictionary
281
     1
  3
Standard
350
60
  0
DICTIONARY
  5
61
102
{ACAD_REACTORS
330
C
102
}
330
C
100
AcDbDictionary
281
     1
  0
ACDBDICTIONARYWDFLT
  5
E
102
{ACAD_REACTORS
330
C
102
}
330
C
100
AcDbDictionary
281
     1
  3
Normal
350
F
100
AcDbDictionaryWithDefault
340
F
  0
DICTIONARY
  5
42
102
{ACAD_REACTORS
330
C
102
}
330
C
100
AcDbDictionary
281
     1
  3
A0
350
43
  3
A1
350
44
  3
A2
350
45
  3
A3
350
46
  3
A4
350
47
  3
A5
350
48
  3
A6
350
49
  3
A7
350
4A
  3
A8
350
4B
  3
A9
350
4C
  3
B0
350
4D
  3
B1
350
4E
  3
B2
350
4F
  3
B3
350
50
  3
B4
350
51
  3
B5
350
52
  3
B6
350
53
  0
DICTIONARY
  5
68
102
{ACAD_REACTORS
330
C
102
}
330
C
100
AcDbDictionary
281
     1
  3
Imperial24
350
69
  0
DICTIONARY
  5
64
102
{ACAD_REACTORS
330
C
102
}
330
C
100
AcDbDictionary
281
     1
  3
Standard
350
65
  0
DICTIONARY
  5
29
102
{ACAD_REACTORS
330
C
102
}
330
C
100
AcDbDictionary
281
     1
  3
2dWireframe
350
2F
  3
Basic
350
2E
  3
Brighten
350
35
  3
ColorChange
350
39
  3
Conceptual
350
32
  3
Dim
350
34
  3
EdgeColorOff
350
41
  3
Facepattern
350
38
  3
Flat
350
2A
  3
FlatWithEdges
350
2B
  3
Gouraud
350
2C
  3
GouraudWithEdges
350
2D
  3
Hidden
350
31
  3
JitterOff
350
3F
  3
Linepattern
350
37
  3
OverhangOff
350
40
  3
Realistic
350
33
  3
Shaded
350
3E
  3
Shaded with edges
350
3D
  3
Shades of Gray
350
3A
  3
Sketchy
350
3B
  3
Thicken
350
36
  3
Wireframe
350
30
  3
X-Ray
350
3C
  0
XRECORD
  5
1DB
102
{ACAD_REACTORS
330
C
102
}
330
C
100
AcDbXrecord
280
     1
 90
        1
330
65
  0
DICTIONARY
  5
1D3
102
{ACAD_REACTORS
330
C
102
}
330
C
100
AcDbDictionary
281
     1
  3
CANNOSCALE
350
1D8
  3
CMLEADERSTYLE
350
1D5
  3
CTABLESTYLE
350
1D4
  3
CVIEWDETAILSTYLE
350
1D6
  3
CVIEWSECTIONSTYLE
350
1D7
  0
ACDBDETAILVIEWSTYLE
  5
6B
102
{ACAD_REACTORS
330
6A
102
}
330
6A
100
AcDbModelDocViewStyle
 70
     0
  3
Imperial24
290
     1
300
Imperial24
 90
        0
100
AcDbDetailViewStyle
 70
     0
 71
     0
 90
        3
 71
     1
340
55
 62
   256
 40
0.24
340
0
 62
   256
 40
0.24
300

 40
0.36
280
     3
 71
     2
340
5D
 90
       25
 62
   256
 71
     3
340
55
 62
   256
 40
0.24
 90
        1
 40
0.75
 90
        1
300
%<\AcVar ViewType \f "%tc1">% %<\AcVar ViewDetailId>%\PSCALE %<\AcVar ViewScale \f "%sn">%
 71
     4
340
5D
 90
       25
 62
   256
340
5D
 90
       25
 62
   256
280
     0
  0
LAYOUT
  5
6F
102
{ACAD_REACTORS
330
62
102
}
330
62
100
AcDbPlotSettings
  1

  2

  4

  6

 40
0.0
 41
0.0
 42
0.0
 43
0.0
 44
0.0
 45
0.0
 46
0.0
 47
0.0
 48
0.0
 49
0.0
140
0.0
141
0.0
142
1.0
143
1.0
 70
   688
 72
     0
 73
     0
 74
     5
  7

 75
    16
147
1.0
 76
     0
 77
     2
 78
   300
148
0.0
149
0.0
100
AcDbLayout
  1
Layout1
 70
     1
 71
     1
 10
0.0
 20
0.0
 11
12.0
 21
9.0
 12
0.0
 22
0.0
 32
0.0
 14
0.0
 24
0.0
 34
0.0
 15
0.0
 25
0.0
 35
0.0
146
0.0
 13
0.0
 23
0.0
 33
0.0
 16
1.0
 26
0.0
 36
0.0
 17
0.0
 27
1.0
 37
0.0
 76
     0
330
6C
  0
LAYOUT
  5
77
102
{ACAD_REACTORS
330
62
102
}
330
62
100
AcDbPlotSettings
  1

  2

  4

  6

 40
0.0
 41
0.0
 42
0.0
 43
0.0
 44
0.0
 45
0.0
 46
0.0
 47
0.0
 48
0.0
 49
0.0
140
0.0
141
0.0
142
1.0
143
1.0
 70
   688
 72
     0
 73
     0
 74
     5
  7

 75
    16
147
1.0
 76
     0
 77
     2
 78
   300
148
0.0
149
0.0
100
AcDbLayout
  1
Layout2
 70
     1
 71
     2
 10
0.0
 20
0.0
 11
12.0
 21
9.0
 12
0.0
 22
0.0
 32
0.0
 14
0.0
 24
0.0
 34
0.0
 15
0.0
 25
0.0
 35
0.0
146
0.0
 13
0.0
 23
0.0
 33
0.0
 16
1.0
 26
0.0
 36
0.0
 17
0.0
 27
1.0
 37
0.0
 76
     0
330
74
  0
LAYOUT
  5
73
102
{ACAD_REACTORS
330
62
102
}
330
62
100
AcDbPlotSettings
  1

  2

  4

  6

 40
0.0
 41
0.0
 42
0.0
 43
0.0
 44
0.0
 45
0.0
 46
0.0
 47
0.0
 48
0.0
 49
0.0
140
0.0
141
0.0
142
1.0
143
1.0
 70
  1712
 72
     0
 73
     0
 74
     0
  7

 75
     0
147
1.0
 76
     0
 77
     2
 78
   300
148
0.0
149
0.0
100
AcDbLayout
  1
Model
 70
     1
 71
     0
 10
0.0
 20
0.0
 11
12.0
 21
9.0
 12
0.0
 22
0.0
 32
0.0
 14
0.0
 24
0.0
 34
0.0
 15
0.0
 25
0.0
 35
0.0
146
0.0
 13
0.0
 23
0.0
 33
0.0
 16
1.0
 26
0.0
 36
0.0
 17
0.0
 27
1.0
 37
0.0
 76
     0
330
70
  0
MATERIAL
  5
19
102
{ACAD_XDICTIONARY
360
1A
102
}
102
{ACAD_REACTORS
330
10
102
}
330
10
100
AcDbMaterial
  1
ByBlock
 72
     0
 43
0.0208333333333333
 43
0.0
 43
0.0
 43
0.0
 43
0.0
 43
0.0208333333333333
 43
0.0
 43
0.0
 43
0.0
 43
0.0
 43
1.0
 43
0.0
 43
0.0
 43
0.0
 43
0.0
 43
1.0
 77
     0
 47
0.0208333333333333
 47
0.0
 47
0.0
 47
0.0
 47
0.0
 47
0.0208333333333333
 47
0.0
 47
0.0
 47
0.0
 47
0.0
 47
1.0
 47
0.0
 47
0.0
 47
0.0
 47
0.0
 47
1.0
171
     0
 49
0.0208333333333333
 49
0.0
 49
0.0
 49
0.0
 49
0.0
 49
0.0208333333333333
 49
0.0
 49
0.0
 49
0.0
 49
0.0
 49
1.0
 49
0.0
 49
0.0
 49
0.0
 49
0.0
 49
1.0
175
     0
142
0.0208333333333333
142
0.0
142
0.0
142
0.0
142
0.0
142
0.0208333333333333
142
0.0
142
0.0
142
0.0
142
0.0
142
1.0
142
0.0
142
0.0
142
0.0
142
0.0
142
1.0
179
     0
144
0.0208333333333333
144
0.0
144
0.0
144
0.0
144
0.0
144
0.0208333333333333
144
0.0
144
0.0
144
0.0
144
0.0
144
1.0
144
0.0
144
0.0
144
0.0
144
0.0
144
1.0
147
0.0208333333333333
147
0.0
147
0.0
147
0.0
147
0.0
147
0.0208333333333333
147
0.0
147
0.0
147
0.0
147
0.0
147
1.0
147
0.0
147
0.0
147
0.0
147
0.0
147
1.0
  0
MATERIAL
  5
11
102
{ACAD_XDICTIONARY
360
12
102
}
102
{ACAD_REACTORS
330
10
102
}
330
10
100
AcDbMaterial
  1
ByLayer
 72
     0
 43
0.0208333333333333
 43
0.0
 43
0.0
 43
0.0
 43
0.0
 43
0.0208333333333333
 43
0.0
 43
0.0
 43
0.0
 43
0.0
 43
1.0
 43
0.0
 43
0.0
 43
0.0
 43
0.0
 43
1.0
 77
     0
 47
0.0208333333333333
 47
0.0
 47
0.0
 47
0.0
 47
0.0
 47
0.0208333333333333
 47
0.0
 47
0.0
 47
0.0
 47
0.0
 47
1.0
 47
0.0
 47
0.0
 47
0.0
 47
0.0
 47
1.0
171
     0
 49
0.0208333333333333
 49
0.0
 49
0.0
 49
0.0
 49
0.0
 49
0.0208333333333333
 49
0.0
 49
0.0
 49
0.0
 49
0.0
 49
1.0
 49
0.0
 49
0.0
 49
0.0
 49
0.0
 49
1.0
175
     0
142
0.0208333333333333
142
0.0
142
0.0
142
0.0
142
0.0
142
0.0208333333333333
142
0.0
142
0.0
142
0.0
142
0.0
142
1.0
142
0.0
142
0.0
142
0.0
142
0.0
142
1.0
179
     0
144
0.0208333333333333
144
0.0
144
0.0
144
0.0
144
0.0
144
0.0208333333333333
144
0.0
144
0.0
144
0.0
144
0.0
144
1.0
144
0.0
144
0.0
144
0.0
144
0.0
144
1.0
147
0.0208333333333333
147
0.0
147
0.0
147
0.0
147
0.0
147
0.0208333333333333
147
0.0
147
0.0
147
0.0
147
0.0
147
1.0
147
0.0
147
0.0
147
0.0
147
0.0
147
1.0
  0
MATERIAL
  5
21
102
{ACAD_XDICTIONARY
360
22
102
}
102
{ACAD_REACTORS
330
10
102
}
330
10
100
AcDbMaterial
  1
Global
 72
     0
 43
0.0208333333333333
 43
0.0
 43
0.0
 43
0.0
 43
0.0
 43
0.0208333333333333
 43
0.0
 43
0.0
 43
0.0
 43
0.0
 43
1.0
 43
0.0
 43
0.0
 43
0.0
 43
0.0
 43
1.0
 77
     0
 47
0.0208333333333333
 47
0.0
 47
0.0
 47
0.0
 47
0.0
 47
0.0208333333333333
 47
0.0
 47
0.0
 47
0.0
 47
0.0
 47
1.0
 47
0.0
 47
0.0
 47
0.0
 47
0.0
 47
1.0
171
     0
 49
0.0208333333333333
 49
0.0
 49
0.0
 49
0.0
 49
0.0
 49
0.0208333333333333
 49
0.0
 49
0.0
 49
0.0
 49
0.0
 49
1.0
 49
0.0
 49
0.0
 49
0.0
 49
0.0
 49
1.0
175
     0
142
0.0208333333333333
142
0.0
142
0.0
142
0.0
142
0.0
142
0.0208333333333333
142
0.0
142
0.0
142
0.0
142
0.0
142
1.0
142
0.0
142
0.0
142
0.0
142
0.0
142
1.0
179
     0
144
0.0208333333333333
144
0.0
144
0.0
144
0.0
144
0.0
144
0.0208333333333333
144
0.0
144
0.0
144
0.0
144
0.0
144
1.0
144
0.0
144
0.0
144
0.0
144
0.0
144
1.0
147
0.0208333333333333
147
0.0
147
0.0
147
0.0
147
0.0
147
0.0208333333333333
147
0.0
147
0.0
147
0.0
147
0.0
147
1.0
147
0.0
147
0.0
147
0.0
147
0.0
147
1.0
  0
MLEADERSTYLE
  5
67
102
{ACAD_REACTORS
330
66
102
}
330
66
100
AcDbMLeaderStyle
179
     2
170
     2
171
     1
172
     0
 90
        2
 40
0.0
 41
0.0
173
     1
 91
-1056964608
340
5B
 92
       -2
290
     1
 42
0.09
291
     1
 43
0.36
  3
Standard
 44
0.18
300

342
55
174
     1
178
     6
175
     1
176
     0
 93
-1056964608
 45
0.18
292
     0
297
     0
 46
0.18
 94
-1056964608
 47
1.0
 49
1.0
140
1.0
293
     1
141
0.0
294
     1
177
     0
142
1.0
295
     1
296
     0
143
0.125
271
     0
272
     9
273
     9
298
     1
  0
MLINESTYLE
  5
60
102
{ACAD_REACTORS
330
5F
102
}
330
5F
100
AcDbMlineStyle
  2
STANDARD
 70
     0
  3

 62
   256
 51
90.0
 52
90.0
 71
     2
 49
0.5
 62
   256
  6
BYLAYER
 49
-0.5
 62
   256
  6
BYLAYER
  0
ACDBPLACEHOLDER
  5
F
102
{ACAD_REACTORS
330
E
102
}
330
E
  0
SCALE
  5
43
102
{ACAD_REACTORS
330
42
102
}
330
42
100
AcDbScale
 70
     0
300
1:1
140
1.0
141
1.0
290
     1
  0
SCALE
  5
44
102
{ACAD_REACTORS
330
42
102
}
330
42
100
AcDbScale
 70
     0
300
1/128" = 1'-0"
140
0.0078125
141
12.0
290
     0
  0
SCALE
  5
45
102
{ACAD_REACTORS
330
42
102
}
330
42
100
AcDbScale
 70
     0
300
1/64" = 1'-0"
140
0.015625
141
12.0
290
     0
  0
SCALE
  5
46
102
{ACAD_REACTORS
330
42
102
}
330
42
100
AcDbScale
 70
     0
300
1/32" = 1'-0"
140
0.03125
141
12.0
290
     0
  0
SCALE
  5
47
102
{ACAD_REACTORS
330
42
102
}
330
42
100
AcDbScale
 70
     0
300
1/16" = 1'-0"
140
0.0625
141
12.0
290
     0
  0
SCALE
  5
48
102
{ACAD_REACTORS
330
42
102
}
330
42
100
AcDbScale
 70
     0
300
3/32" = 1'-0"
140
0.09375
141
12.0
290
     0
  0
SCALE
  5
49
102
{ACAD_REACTORS
330
42
102
}
330
42
100
AcDbScale
 70
     0
300
1/8" = 1'-0"
140
0.125
141
12.0
290
     0
  0
SCALE
  5
4A
102
{ACAD_REACTORS
330
42
102
}
330
42
100
AcDbScale
 70
     0
300
3/16" = 1'-0"
140
0.1875
141
12.0
290
     0
  0
SCALE
  5
4B
102
{ACAD_REACTORS
330
42
102
}
330
42
100
AcDbScale
 70
     0
300
1/4" = 1'-0"
140
0.25
141
12.0
290
     0
  0
SCALE
  5
4C
102
{ACAD_REACTORS
330
42
102
}
330
42
100
AcDbScale
 70
     0
300
3/8" = 1'-0"
140
0.375
141
12.0
290
     0
  0
SCALE
  5
4D
102
{ACAD_REACTORS
330
42
102
}
330
42
100
AcDbScale
 70
     0
300
1/2" = 1'-0"
140
0.5
141
12.0
290
     0
  0
SCALE
  5
4E
102
{ACAD_REACTORS
330
42
102
}
330
42
100
AcDbScale
 70
     0
300
3/4" = 1'-0"
140
0.75
141
12.0
290
     0
  0
SCALE
  5
4F
102
{ACAD_REACTORS
330
42
102
}
330
42
100
AcDbScale
 70
     0
300
1" = 1'-0"
140
1.0
141
12.0
290
     0
  0
SCALE
  5
50
102
{ACAD_REACTORS
330
42
102
}
330
42
100
AcDbScale
 70
     0
300
1-1/2" = 1'-0"
140
1.5
141
12.0
290
     0
  0
SCALE
  5
51
102
{ACAD_REACTORS
330
42
102
}
330
42
100
AcDbScale
 70
     0
300
3" = 1'-0"
140
3.0
141
12.0
290
     0
  0
SCALE
  5
52
102
{ACAD_REACTORS
330
42
102
}
330
42
100
AcDbScale
 70
     0
300
6" = 1'-0"
140
6.0
141
12.0
290
     0
  0
SCALE
  5
53
102
{ACAD_REACTORS
330
42
102
}
330
42
100
AcDbScale
 70
     0
300
1'-0" = 1'-0"
140
12.0
141
12.0
290
     0
  0
ACDBSECTIONVIEWSTYLE
  5
69
102
{ACAD_REACTORS
330
68
102
}
330
68
100
AcDbModelDocViewStyle
 70
     0
  3
Imperial24
290
     1
300
Imperial24
 90
        0
100
AcDbSectionViewStyle
 70
     0
 71
     0
 90
       78
 71
     1
340
55
 62
   256
 40
0.24
340
0
340
0
 62
   256
 40
0.24
300
I, O, Q, S, X, Z
 40
0.48
 90
        3
 40
0.18
 90
        1
 71
     2
340
5D
 90
       25
 62
   256
340
5D
 90
       50
 62
   256
 40
0.24
 40
0.0
 40
0.24
 71
     3
340
55
 62
   256
 40
0.24
 90
        1
 40
0.75
 90
        1
300
%<\AcVar ViewType \f "%tc1">% %<\AcVar ViewSectionStartId>%-%<\AcVar ViewSectionEndId>%\PSCALE %<\AcVar ViewScale \f "%sn">%
 71
     4
 62
   256
 62
   257
300
ANSI31
 40
1.0
 90
        0
290
     0
290
     0
 90
        6
 40
0.0
 40
1.570796326794896
 40
0.2617993877991494
 40
1.308996938995747
 40
-0.2617993877991494
 40
1.832595714594046
  0
TABLESTYLE
  5
65
102
{ACAD_XDICTIONARY
360
1D9
102
}
102
{ACAD_REACTORS
330
64
102
}
330
64
100
AcDbTableStyle
280
     0
  3
Standard
 70
     0
 71
     0
 40
0.06
 41
0.06
280
     0
281
     0
  7
Standard
140
0.18
170
     2
 62
     0
 63
     7
283
     0
 90
      512
 91
        0
  1

274
    -2
284
     1
 64
     0
275
    -2
285
     1
 65
     0
276
    -2
286
     1
 66
     0
277
    -2
287
     1
 67
     0
278
    -2
288
     1
 68
     0
279
    -2
289
     1
 69
     0
  7
Standard
140
0.25
170
     5
 62
     0
 63
     7
283
     0
 90
      512
 91
        0
  1

274
    -2
284
     1
 64
     0
275
    -2
285
     1
 65
     0
276
    -2
286
     1
 66
     0
277
    -2
287
     1
 67
     0
278
    -2
288
     1
 68
     0
279
    -2
289
     1
 69
     0
  7
Standard
140
0.18
170
     5
 62
     0
 63
     7
283
     0
 90
      512
 91
        0
  1

274
    -2
284
     1
 64
     0
275
    -2
285
     1
 65
     0
276
    -2
286
     1
 66
     0
277
    -2
287
     1
 67
     0
278
    -2
288
     1
 68
     0
279
    -2
289
     1
 69
     0
  0
VISUALSTYLE
  5
2F
102
{ACAD_REACTORS
330
29
102
}
330
29
100
AcDbVisualStyle
  2
2dWireframe
 70
     4
177
     3
291
     0
 70
    58
 90
        0
176
     1
 90
        2
176
     1
 90
        0
176
     1
 90
        0
176
     1
 40
0.6
176
     1
 40
30.0
176
     1
 62
     7
420
 16777215
176
     1
 90
        1
176
     1
 90
        4
176
     1
 62
     7
176
     1
 62
   257
176
     1
 90
        1
176
     1
 90
        1
176
     1
 40
1.0
176
     1
 90
        0
176
     1
 62
   257
176
     1
 40
1.0
176
     1
 90
        1
176
     1
 90
        6
176
     1
 90
        2
176
     1
 62
     7
176
     1
 90
        5
176
     1
 90
        0
176
     1
 90
        0
176
     1
290
     0
176
     1
 90
        1
176
     1
 40
0.0
176
     1
 90
        0
176
     1
290
     1
176
     1
290
     1
176
     1
290
     0
176
     1
290
     0
176
     1
290
     0
176
     1
290
     0
176
     1
290
     0
176
     1
290
     0
176
     1
290
     0
176
     1
 90
       50
176
     1
 40
0.0
176
     1
 40
1.0
176
     1
 90
        0
176
     1
 62
    18
420
        0
176
     1
 90
       50
176
     1
 90
        3
176
     1
 62
     5
420
      255
176
     1
290
     0
176
     1
 90
       50
176
     1
 90
       50
176
     1
 90
       50
176
     1
290
     0
176
     1
 90
       50
176
     1
 62
   256
176
     0
 40
1.0
176
     0
 90
        2
176
     1
  1
strokes_ogs.tif
176
     1
290
     0
176
     1
 40
1.0
176
     1
 40
1.0
176
     1
  0
VISUALSTYLE
  5
2E
102
{ACAD_REACTORS
330
29
102
}
330
29
100
AcDbVisualStyle
  2
Basic
 70
     7
177
     3
291
     1
 70
    58
 90
        1
176
     1
 90
        0
176
     1
 90
        1
176
     1
 90
        0
176
     1
 40
0.6
176
     1
 40
30.0
176
     1
 62
     7
420
 16777215
176
     1
 90
        0
176
     1
 90
        4
176
     1
 62
     7
176
     1
 62
   257
176
     1
 90
        1
176
     1
 90
        1
176
     1
 40
1.0
176
     1
 90
        8
176
     1
 62
     7
176
     1
 40
1.0
176
     1
 90
        1
176
     1
 90
        6
176
     1
 90
        2
176
     1
 62
     7
176
     1
 90
        5
176
     1
 90
        0
176
     1
 90
        0
176
     1
290
     0
176
     1
 90
        1
176
     1
 40
0.0
176
     1
 90
        0
176
     1
290
     0
176
     1
290
     1
176
     1
290
     1
176
     1
290
     0
176
     1
290
     0
176
     1
290
     0
176
     1
290
     0
176
     1
290
     0
176
     1
290
     0
176
     1
 90
       50
176
     1
 40
0.0
176
     1
 40
1.0
176
     1
 90
        0
176
     1
 62
    18
420
        0
176
     1
 90
       50
176
     1
 90
        3
176
     1
 62
     5
420
      255
176
     1
290
     0
176
     1
 90
       50
176
     1
 90
       50
176
     1
 90
       50
176
     1
290
     0
176
     1
 90
       50
176
     1
 62
   256
176
     0
 40
1.0
176
     0
 90
        2
176
     1
  1
strokes_ogs.tif
176
     1
290
     0
176
     1
 40
1.0
176
     1
 40
1.0
176
     1
  0
VISUALSTYLE
  5
35
102
{ACAD_REACTORS
330
29
102
}
330
29
100
AcDbVisualStyle
  2
Brighten
 70
    12
177
     3
291
     1
 70
    58
 90
        2
176
     1
 90
        2
176
     1
 90
        0
176
     1
 90
        0
176
     1
 40
0.6
176
     1
 40
30.0
176
     1
 62
     7
420
 16777215
176
     1
 90
        1
176
     1
 90
        4
176
     1
 62
     7
176
     1
 62
   257
176
     1
 90
        1
176
     1
 90
        1
176
     1
 40
1.0
176
     1
 90
        8
176
     1
 62
     7
176
     1
 40
1.0
176
     1
 90
        1
176
     1
 90
        6
176
     1
 90
        2
176
     1
 62
     7
176
     1
 90
        5
176
     1
 90
        0
176
     1
 90
        0
176
     1
290
     0
176
     1
 90
        1
176
     1
 40
50.0
176
     1
 90
        0
176
     1
290
     0
176
     1
290
     1
176
     1
290
     1
176
     1
290
     0
176
     1
290
     0
176
     1
290
     0
176
     1
290
     0
176
     1
290
     0
176
     1
290
     0
176
     1
 90
       50
176
     1
 40
0.0
176
     1
 40
1.0
176
     1
 90
        0
176
     1
 62
    18
420
        0
176
     1
 90
       50
176
     1
 90
        3
176
     1
 62
     5
420
      255
176
     1
290
     0
176
     1
 90
       50
176
     1
 90
       50
176
     1
 90
       50
176
     1
290
     0
176
     1
 90
       50
176
     1
 62
   256
176
     0
 40
1.0
176
     0
 90
        2
176
     1
  1
strokes_ogs.tif
176
     1
290
     0
176
     1
 40
1.0
176
     1
 40
1.0
176
     1
  0
VISUALSTYLE
  5
39
102
{ACAD_REACTORS
330
29
102
}
330
29
100
AcDbVisualStyle
  2
ColorChange
 70
    16
177
     3
291
     1
 70
    58
 90
        2
176
     1
 90
        2
176
     1
 90
        3
176
     1
 90
        0
176
     1
 40
0.6
176
     1
 40
30.0
176
     1
 62
     8
420
  8421504
176
     1
 90
        1
176
     1
 90
        4
176
     1
 62
     7
176
     1
 62
   257
176
     1
 90
        1
176
     1
 90
        1
176
     1
 40
1.0
176
     1
 90
        8
176
     1
 62
     8
420
  8421504
176
     1
 40
1.0
176
     1
 90
        1
176
     1
 90
        6
176
     1
 90
        2
176
     1
 62
     7
176
     1
 90
        5
176
     1
 90
        0
176
     1
 90
        0
176
     1
290
     0
176
     1
 90
        1
176
     1
 40
0.0
176
     1
 90
        0
176
     1
290
     0
176
     1
290
     1
176
     1
290
     1
176
     1
290
     0
176
     1
290
     0
176
     1
290
     0
176
     1
290
     0
176
     1
290
     0
176
     1
290
     0
176
     1
 90
       50
176
     1
 40
0.0
176
     1
 40
1.0
176
     1
 90
        0
176
     1
 62
    18
420
        0
176
     1
 90
       50
176
     1
 90
        3
176
     1
 62
     5
420
      255
176
     1
290
     0
176
     1
 90
       50
176
     1
 90
       50
176
     1
 90
       50
176
     1
290
     0
176
     1
 90
       50
176
     1
 62
   256
176
     0
 40
1.0
176
     0
 90
        2
176
     1
  1
strokes_ogs.tif
176
     1
290
     0
176
     1
 40
1.0
176
     1
 40
1.0
176
     1
  0
VISUALSTYLE
  5
32
102
{ACAD_REACTORS
330
29
102
}
330
29
100
AcDbVisualStyle
  2
Conceptual
 70
     9
177
     3
291
     0
 70
    58
 90
        3
176
     1
 90
        2
176
     1
 90
        0
176
     1
 90
        0
176
     1
 40
0.6
176
     1
 40
30.0
176
     1
 62
     7
420
 16777215
176
     1
 90
        2
176
     1
 90
        2
176
     1
 62
     7
176
     1
 62
   257
176
     1
 90
        1
176
     1
 90
        1
176
     1
 40
179.0
176
     1
 90
        8
176
     1
 62
     7
176
     1
 40
1.0
176
     1
 90
        1
176
     1
 90
        6
176
     1
 90
        2
176
     1
 62
     7
176
     1
 90
        3
176
     1
 90
        0
176
     1
 90
        0
176
     1
290
     0
176
     1
 90
        1
176
     1
 40
0.0
176
     1
 90
        0
176
     1
290
     0
176
     1
290
     1
176
     1
290
     1
176
     1
290
     0
176
     1
290
     0
176
     1
290
     0
176
     1
290
     0
176
     1
290
     0
176
     1
290
     0
176
     1
 90
       50
176
     1
 40
0.0
176
     1
 40
1.0
176
     1
 90
        0
176
     1
 62
    18
420
        0
176
     1
 90
       50
176
     1
 90
        3
176
     1
 62
     5
420
      255
176
     1
290
     0
176
     1
 90
       50
176
     1
 90
       50
176
     1
 90
       50
176
     1
290
     0
176
     1
 90
       50
176
     1
 62
   256
176
     0
 40
1.0
176
     0
 90
        2
176
     1
  1
strokes_ogs.tif
176
     1
290
     0
176
     1
 40
1.0
176
     1
 40
1.0
176
     1
  0
VISUALSTYLE
  5
34
102
{ACAD_REACTORS
330
29
102
}
330
29
100
AcDbVisualStyle
  2
Dim
 70
    11
177
     3
291
     1
 70
    58
 90
        2
176
     1
 90
        2
176
     1
 90
        0
176
     1
 90
        0
176
     1
 40
0.6
176
     1
 40
30.0
176
     1
 62
     7
420
 16777215
176
     1
 90
        1
176
     1
 90
        4
176
     1
 62
     7
176
     1
 62
   257
176
     1
 90
        1
176
     1
 90
        1
176
     1
 40
1.0
176
     1
 90
        8
176
     1
 62
     7
176
     1
 40
1.0
176
     1
 90
        1
176
     1
 90
        6
176
     1
 90
        2
176
     1
 62
     7
176
     1
 90
        5
176
     1
 90
        0
176
     1
 90
        0
176
     1
290
     0
176
     1
 90
        1
176
     1
 40
-50.0
176
     1
 90
        0
176
     1
290
     0
176
     1
290
     1
176
     1
290
     1
176
     1
290
     0
176
     1
290
     0
176
     1
290
     0
176
     1
290
     0
176
     1
290
     0
176
     1
290
     0
176
     1
 90
       50
176
     1
 40
0.0
176
     1
 40
1.0
176
     1
 90
        0
176
     1
 62
    18
420
        0
176
     1
 90
       50
176
     1
 90
        3
176
     1
 62
     5
420
      255
176
     1
290
     0
176
     1
 90
       50
176
     1
 90
       50
176
     1
 90
       50
176
     1
290
     0
176
     1
 90
       50
176
     1
 62
   256
176
     0
 40
1.0
176
     0
 90
        2
176
     1
  1
strokes_ogs.tif
176
     1
290
     0
176
     1
 40
1.0
176
     1
 40
1.0
176
     1
  0
VISUALSTYLE
  5
41
102
{ACAD_REACTORS
330
29
102
}
330
29
100
AcDbVisualStyle
  2
EdgeColorOff
 70
    22
177
     3
291
     1
 70
    58
 90
        2
176
     0
 90
        2
176
     0
 90
        0
176
     0
 90
        0
176
     0
 40
0.6
176
     0
 40
30.0
176
     0
 62
     7
420
 16777215
176
     0
 90
        1
176
     0
 90
        4
176
     0
 62
     7
176
     0
 62
   257
176
     0
 90
        1
176
     0
 90
        1
176
     0
 40
1.0
176
     0
 90
        8
176
     2
 62
     7
176
     0
 40
1.0
176
     0
 90
        1
176
     0
 90
        6
176
     0
 90
        2
176
     0
 62
     7
176
     0
 90
        5
176
     0
 90
        0
176
     0
 90
        0
176
     0
290
     0
176
     0
 90
        1
176
     0
 40
0.0
176
     0
 90
        0
176
     0
290
     0
176
     0
290
     1
176
     0
290
     1
176
     0
290
     0
176
     0
290
     0
176
     0
290
     0
176
     0
290
     0
176
     0
290
     0
176
     0
290
     0
176
     0
 90
       50
176
     0
 40
0.0
176
     0
 40
1.0
176
     0
 90
        0
176
     0
 62
    18
420
        0
176
     0
 90
       50
176
     0
 90
        3
176
     0
 62
     5
420
      255
176
     0
290
     0
176
     0
 90
       50
176
     0
 90
       50
176
     0
 90
       50
176
     0
290
     0
176
     0
 90
       50
176
     0
 62
   256
176
     0
 40
1.0
176
     0
 90
        2
176
     0
  1
strokes_ogs.tif
176
     0
290
     0
176
     0
 40
1.0
176
     0
 40
1.0
176
     0
  0
VISUALSTYLE
  5
38
102
{ACAD_REACTORS
330
29
102
}
330
29
100
AcDbVisualStyle
  2
Facepattern
 70
    15
177
     3
291
     1
 70
    58
 90
        2
176
     1
 90
        2
176
     1
 90
        0
176
     1
 90
        0
176
     1
 40
0.6
176
     1
 40
30.0
176
     1
 62
     7
420
 16777215
176
     1
 90
        1
176
     1
 90
        4
176
     1
 62
     7
176
     1
 62
   257
176
     1
 90
        1
176
     1
 90
        1
176
     1
 40
1.0
176
     1
 90
        8
176
     1
 62
     7
176
     1
 40
1.0
176
     1
 90
        1
176
     1
 90
        6
176
     1
 90
        2
176
     1
 62
     7
176
     1
 90
        5
176
     1
 90
        0
176
     1
 90
        0
176
     1
290
     0
176
     1
 90
        1
176
     1
 40
0.0
176
     1
 90
        0
176
     1
290
     0
176
     1
290
     1
176
     1
290
     1
176
     1
290
     0
176
     1
290
     0
176
     1
290
     0
176
     1
290
     0
176
     1
290
     0
176
     1
290
     0
176
     1
 90
       50
176
     1
 40
0.0
176
     1
 40
1.0
176
     1
 90
        0
176
     1
 62
    18
420
        0
176
     1
 90
       50
176
     1
 90
        3
176
     1
 62
     5
420
      255
176
     1
290
     0
176
     1
 90
       50
176
     1
 90
       50
176
     1
 90
       50
176
     1
290
     0
176
     1
 90
       50
176
     1
 62
   256
176
     0
 40
1.0
176
     0
 90
        2
176
     1
  1
strokes_ogs.tif
176
     1
290
     0
176
     1
 40
1.0
176
     1
 40
1.0
176
     1
  0
VISUALSTYLE
  5
2A
102
{ACAD_REACTORS
330
29
102
}
330
29
100
AcDbVisualStyle
  2
Flat
 70
     0
177
     3
291
     1
 70
    58
 90
        2
176
     1
 90
        1
176
     1
 90
        1
176
     1
 90
        2
176
     1
 40
0.6
176
     1
 40
30.0
176
     1
 62
     7
420
 16777215
176
     1
 90
        0
176
     1
 90
        0
176
     1
 62
     7
176
     1
 62
   257
176
     1
 90
        1
176
     1
 90
        1
176
     1
 40
1.0
176
     1
 90
        8
176
     1
 62
     7
176
     1
 40
1.0
176
     1
 90
        1
176
     1
 90
        6
176
     1
 90
        2
176
     1
 62
     7
176
     1
 90
        5
176
     1
 90
        0
176
     1
 90
        0
176
     1
290
     0
176
     1
 90
       13
176
     1
 40
0.0
176
     1
 90
        0
176
     1
290
     0
176
     1
290
     1
176
     1
290
     1
176
     1
290
     0
176
     1
290
     0
176
     1
290
     0
176
     1
290
     0
176
     1
290
     0
176
     1
290
     0
176
     1
 90
       50
176
     1
 40
0.0
176
     1
 40
1.0
176
     1
 90
        0
176
     1
 62
    18
420
        0
176
     1
 90
       50
176
     1
 90
        3
176
     1
 62
     5
420
      255
176
     1
290
     0
176
     1
 90
       50
176
     1
 90
       50
176
     1
 90
       50
176
     1
290
     0
176
     1
 90
       50
176
     1
 62
   256
176
     0
 40
1.0
176
     0
 90
        2
176
     1
  1
strokes_ogs.tif
176
     1
290
     0
176
     1
 40
1.0
176
     1
 40
1.0
176
     1
  0
VISUALSTYLE
  5
2B
102
{ACAD_REACTORS
330
29
102
}
330
29
100
AcDbVisualStyle
  2
FlatWithEdges
 70
     1
177
     3
291
     1
 70
    58
 90
        2
176
     1
 90
        1
176
     1
 90
        1
176
     1
 90
        2
176
     1
 40
0.6
176
     1
 40
30.0
176
     1
 62
     7
420
 16777215
176
     1
 90
        1
176
     1
 90
        0
176
     1
 62
     7
176
     1
 62
   257
176
     1
 90
        1
176
     1
 90
        1
176
     1
 40
1.0
176
     1
 90
        0
176
     1
 62
   257
176
     1
 40
1.0
176
     1
 90
        1
176
     1
 90
        6
176
     1
 90
        2
176
     1
 62
     7
176
     1
 90
        5
176
     1
 90
        0
176
     1
 90
        0
176
     1
290
     0
176
     1
 90
       13
176
     1
 40
0.0
176
     1
 90
        0
176
     1
290
     0
176
     1
290
     1
176
     1
290
     1
176
     1
290
     0
176
     1
290
     0
176
     1
290
     0
176
     1
290
     0
176
     1
290
     0
176
     1
290
     0
176
     1
 90
       50
176
     1
 40
0.0
176
     1
 40
1.0
176
     1
 90
        0
176
     1
 62
    18
420
        0
176
     1
 90
       50
176
     1
 90
        3
176
     1
 62
     5
420
      255
176
     1
290
     0
176
     1
 90
       50
176
     1
 90
       50
176
     1
 90
       50
176
     1
290
     0
176
     1
 90
       50
176
     1
 62
   256
176
     0
 40
1.0
176
     0
 90
        2
176
     1
  1
strokes_ogs.tif
176
     1
290
     0
176
     1
 40
1.0
176
     1
 40
1.0
176
     1
  0
VISUALSTYLE
  5
2C
102
{ACAD_REACTORS
330
29
102
}
330
29
100
AcDbVisualStyle
  2
Gouraud
 70
     2
177
     3
291
     1
 70
    58
 90
        2
176
     1
 90
        2
176
     1
 90
        1
176
     1
 90
        2
176
     1
 40
0.6
176
     1
 40
30.0
176
     1
 62
     7
420
 16777215
176
     1
 90
        0
176
     1
 90
        0
176
     1
 62
     7
176
     1
 62
   257
176
     1
 90
        1
176
     1
 90
        1
176
     1
 40
1.0
176
     1
 90
        0
176
     1
 62
     7
176
     1
 40
1.0
176
     1
 90
        1
176
     1
 90
        6
176
     1
 90
        2
176
     1
 62
     7
176
     1
 90
        5
176
     1
 90
        0
176
     1
 90
        0
176
     1
290
     0
176
     1
 90
       13
176
     1
 40
0.0
176
     1
 90
        0
176
     1
290
     0
176
     1
290
     1
176
     1
290
     1
176
     1
290
     0
176
     1
290
     0
176
     1
290
     0
176
     1
290
     0
176
     1
290
     0
176
     1
290
     0
176
     1
 90
       50
176
     1
 40
0.0
176
     1
 40
1.0
176
     1
 90
        0
176
     1
 62
    18
420
        0
176
     1
 90
       50
176
     1
 90
        3
176
     1
 62
     5
420
      255
176
     1
290
     0
176
     1
 90
       50
176
     1
 90
       50
176
     1
 90
       50
176
     1
290
     0
176
     1
 90
       50
176
     1
 62
   256
176
     0
 40
1.0
176
     0
 90
        2
176
     1
  1
strokes_ogs.tif
176
     1
290
     0
176
     1
 40
1.0
176
     1
 40
1.0
176
     1
  0
VISUALSTYLE
  5
2D
102
{ACAD_REACTORS
330
29
102
}
330
29
100
AcDbVisualStyle
  2
GouraudWithEdges
 70
     3
177
     3
291
     1
 70
    58
 90
        2
176
     1
 90
        2
176
     1
 90
        1
176
     1
 90
        2
176
     1
 40
0.6
176
     1
 40
30.0
176
     1
 62
     7
420
 16777215
176
     1
 90
        1
176
     1
 90
        0
176
     1
 62
     7
176
     1
 62
   257
176
     1
 90
        1
176
     1
 90
        1
176
     1
 40
1.0
176
     1
 90
        0
176
     1
 62
   257
176
     1
 40
1.0
176
     1
 90
        1
176
     1
 90
        6
176
     1
 90
        2
176
     1
 62
     7
176
     1
 90
        5
176
     1
 90
        0
176
     1
 90
        0
176
     1
290
     0
176
     1
 90
       13
176
     1
 40
0.0
176
     1
 90
        0
176
     1
290
     0
176
     1
290
     1
176
     1
290
     1
176
     1
290
     0
176
     1
290
     0
176
     1
290
     0
176
     1
290
     0
176
     1
290
     0
176
     1
290
     0
176
     1
 90
       50
176
     1
 40
0.0
176
     1
 40
1.0
176
     1
 90
        0
176
     1
 62
    18
420
        0
176
     1
 90
       50
176
     1
 90
        3
176
     1
 62
     5
420
      255
176
     1
290
     0
176
     1
 90
       50
176
     1
 90
       50
176
     1
 90
       50
176
     1
290
     0
176
     1
 90
       50
176
     1
 62
   256
176
     0
 40
1.0
176
     0
 90
        2
176
     1
  1
strokes_ogs.tif
176
     1
290
     0
176
     1
 40
1.0
176
     1
 40
1.0
176
     1
  0
VISUALSTYLE
  5
31
102
{ACAD_REACTORS
330
29
102
}
330
29
100
AcDbVisualStyle
  2
Hidden
 70
     6
177
     3
291
     0
 70
    58
 90
        1
176
     1
 90
        2
176
     1
 90
        2
176
     1
 90
        0
176
     1
 40
0.6
176
     1
 40
30.0
176
     1
 62
     7
420
 16777215
176
     1
 90
        2
176
     1
 90
        2
176
     1
 62
     7
176
     1
 62
   257
176
     1
 90
        2
176
     1
 90
        1
176
     1
 40
40.0
176
     1
 90
        0
176
     1
 62
   257
176
     1
 40
1.0
176
     1
 90
        1
176
     1
 90
        6
176
     1
 90
        2
176
     1
 62
     7
176
     1
 90
        3
176
     1
 90
        0
176
     1
 90
        0
176
     1
290
     0
176
     1
 90
        1
176
     1
 40
0.0
176
     1
 90
        0
176
     1
290
     0
176
     1
290
     1
176
     1
290
     1
176
     1
290
     0
176
     1
290
     0
176
     1
290
     0
176
     1
290
     0
176
     1
290
     0
176
     1
290
     0
176
     1
 90
       50
176
     1
 40
0.0
176
     1
 40
1.0
176
     1
 90
        0
176
     1
 62
    18
420
        0
176
     1
 90
       50
176
     1
 90
        3
176
     1
 62
     5
420
      255
176
     1
290
     0
176
     1
 90
       50
176
     1
 90
       50
176
     1
 90
       50
176
     1
290
     0
176
     1
 90
       50
176
     1
 62
   256
176
     0
 40
1.0
176
     0
 90
        2
176
     1
  1
strokes_ogs.tif
176
     1
290
     0
176
     1
 40
1.0
176
     1
 40
1.0
176
     1
  0
VISUALSTYLE
  5
3F
102
{ACAD_REACTORS
330
29
102
}
330
29
100
AcDbVisualStyle
  2
JitterOff
 70
    20
177
     3
291
     1
 70
    58
 90
        2
176
     0
 90
        2
176
     0
 90
        0
176
     0
 90
        0
176
     0
 40
0.6
176
     0
 40
30.0
176
     0
 62
     7
420
 16777215
176
     0
 90
        1
176
     0
 90
        4
176
     0
 62
     7
176
     0
 62
   257
176
     0
 90
        1
176
     0
 90
        1
176
     0
 40
1.0
176
     0
 90
       10
176
     2
 62
     7
176
     0
 40
1.0
176
     0
 90
        1
176
     0
 90
        6
176
     0
 90
        2
176
     0
 62
     7
176
     0
 90
        5
176
     0
 90
        0
176
     0
 90
        0
176
     0
290
     0
176
     0
 90
        1
176
     0
 40
0.0
176
     0
 90
        0
176
     0
290
     0
176
     0
290
     1
176
     0
290
     1
176
     0
290
     0
176
     0
290
     0
176
     0
290
     0
176
     0
290
     0
176
     0
290
     0
176
     0
290
     0
176
     0
 90
       50
176
     0
 40
0.0
176
     0
 40
1.0
176
     0
 90
        0
176
     0
 62
    18
420
        0
176
     0
 90
       50
176
     0
 90
        3
176
     0
 62
     5
420
      255
176
     0
290
     0
176
     0
 90
       50
176
     0
 90
       50
176
     0
 90
       50
176
     0
290
     0
176
     0
 90
       50
176
     0
 62
   256
176
     0
 40
1.0
176
     0
 90
        2
176
     0
  1
strokes_ogs.tif
176
     0
290
     0
176
     0
 40
1.0
176
     0
 40
1.0
176
     0
  0
VISUALSTYLE
  5
37
102
{ACAD_REACTORS
330
29
102
}
330
29
100
AcDbVisualStyle
  2
Linepattern
 70
    14
177
     3
291
     1
 70
    58
 90
        2
176
     1
 90
        2
176
     1
 90
        0
176
     1
 90
        0
176
     1
 40
0.6
176
     1
 40
30.0
176
     1
 62
     7
420
 16777215
176
     1
 90
        1
176
     1
 90
        4
176
     1
 62
     7
176
     1
 62
   257
176
     1
 90
        7
176
     1
 90
        7
176
     1
 40
1.0
176
     1
 90
        8
176
     1
 62
     7
176
     1
 40
1.0
176
     1
 90
        1
176
     1
 90
        6
176
     1
 90
        2
176
     1
 62
     7
176
     1
 90
        5
176
     1
 90
        0
176
     1
 90
        0
176
     1
290
     0
176
     1
 90
        1
176
     1
 40
0.0
176
     1
 90
        0
176
     1
290
     0
176
     1
290
     1
176
     1
290
     1
176
     1
290
     0
176
     1
290
     0
176
     1
290
     0
176
     1
290
     0
176
     1
290
     0
176
     1
290
     0
176
     1
 90
       50
176
     1
 40
0.0
176
     1
 40
1.0
176
     1
 90
        0
176
     1
 62
    18
420
        0
176
     1
 90
       50
176
     1
 90
        3
176
     1
 62
     5
420
      255
176
     1
290
     0
176
     1
 90
       50
176
     1
 90
       50
176
     1
 90
       50
176
     1
290
     0
176
     1
 90
       50
176
     1
 62
   256
176
     0
 40
1.0
176
     0
 90
        2
176
     1
  1
strokes_ogs.tif
176
     1
290
     0
176
     1
 40
1.0
176
     1
 40
1.0
176
     1
  0
VISUALSTYLE
  5
40
102
{ACAD_REACTORS
330
29
102
}
330
29
100
AcDbVisualStyle
  2
OverhangOff
 70
    21
177
     3
291
     1
 70
    58
 90
        2
176
     0
 90
        2
176
     0
 90
        0
176
     0
 90
        0
176
     0
 40
0.6
176
     0
 40
30.0
176
     0
 62
     7
420
 16777215
176
     0
 90
        1
176
     0
 90
        4
176
     0
 62
     7
176
     0
 62
   257
176
     0
 90
        1
176
     0
 90
        1
176
     0
 40
1.0
176
     0
 90
        9
176
     2
 62
     7
176
     0
 40
1.0
176
     0
 90
        1
176
     0
 90
        6
176
     0
 90
        2
176
     0
 62
     7
176
     0
 90
        5
176
     0
 90
        0
176
     0
 90
        0
176
     0
290
     0
176
     0
 90
        1
176
     0
 40
0.0
176
     0
 90
        0
176
     0
290
     0
176
     0
290
     1
176
     0
290
     1
176
     0
290
     0
176
     0
290
     0
176
     0
290
     0
176
     0
290
     0
176
     0
290
     0
176
     0
290
     0
176
     0
 90
       50
176
     0
 40
0.0
176
     0
 40
1.0
176
     0
 90
        0
176
     0
 62
    18
420
        0
176
     0
 90
       50
176
     0
 90
        3
176
     0
 62
     5
420
      255
176
     0
290
     0
176
     0
 90
       50
176
     0
 90
       50
176
     0
 90
       50
176
     0
290
     0
176
     0
 90
       50
176
     0
 62
   256
176
     0
 40
1.0
176
     0
 90
        2
176
     0
  1
strokes_ogs.tif
176
     0
290
     0
176
     0
 40
1.0
176
     0
 40
1.0
176
     0
  0
VISUALSTYLE
  5
33
102
{ACAD_REACTORS
330
29
102
}
330
29
100
AcDbVisualStyle
  2
Realistic
 70
     8
177
     3
291
     0
 70
    58
 90
        2
176
     1
 90
        3
176
     1
 90
        0
176
     1
 90
        2
176
     1
 40
0.6
176
     1
 40
30.0
176
     1
 62
     7
420
 16777215
176
     1
 90
        0
176
     1
 90
        0
176
     1
 62
     7
176
     1
 62
   257
176
     1
 90
        1
176
     1
 90
        1
176
     1
 40
1.0
176
     1
 90
        8
176
     1
 62
   257
176
     1
 40
1.0
176
     1
 90
        1
176
     1
 90
        6
176
     1
 90
        2
176
     1
 62
     7
176
     1
 90
        3
176
     1
 90
        0
176
     1
 90
        0
176
     1
290
     0
176
     1
 90
       13
176
     1
 40
0.0
176
     1
 90
        0
176
     1
290
     0
176
     1
290
     1
176
     1
290
     1
176
     1
290
     0
176
     1
290
     0
176
     1
290
     0
176
     1
290
     0
176
     1
290
     0
176
     1
290
     0
176
     1
 90
       50
176
     1
 40
0.0
176
     1
 40
1.0
176
     1
 90
        0
176
     1
 62
    18
420
        0
176
     1
 90
       50
176
     1
 90
        3
176
     1
 62
     5
420
      255
176
     1
290
     0
176
     1
 90
       50
176
     1
 90
       50
176
     1
 90
       50
176
     1
290
     0
176
     1
 90
       50
176
     1
 62
   256
176
     0
 40
1.0
176
     0
 90
        2
176
     1
  1
strokes_ogs.tif
176
     1
290
     0
176
     1
 40
1.0
176
     1
 40
1.0
176
     1
  0
VISUALSTYLE
  5
3E
102
{ACAD_REACTORS
330
29
102
}
330
29
100
AcDbVisualStyle
  2
Shaded
 70
    27
177
     3
291
     0
 70
    58
 90
        2
176
     1
 90
        2
176
     1
 90
        1
176
     1
 90
        2
176
     1
 40
0.6
176
     1
 40
30.0
176
     1
 62
     7
420
 16777215
176
     1
 90
        0
176
     1
 90
        4
176
     1
 62
     7
176
     1
 62
   257
176
     1
 90
        1
176
     1
 90
        1
176
     1
 40
1.0
176
     1
 90
        8
176
     1
 62
   257
176
     1
 40
1.0
176
     1
 90
        1
176
     1
 90
        6
176
     1
 90
        2
176
     1
 62
     8
420
  7895160
176
     1
 90
        3
176
     1
 90
        0
176
     1
 90
        0
176
     1
290
     0
176
     1
 90
        5
176
     1
 40
0.0
176
     1
 90
        0
176
     1
290
     0
176
     1
290
     1
176
     1
290
     1
176
     1
290
     0
176
     1
290
     0
176
     1
290
     0
176
     1
290
     0
176
     1
290
     0
176
     1
290
     0
176
     1
 90
       50
176
     1
 40
0.0
176
     1
 40
1.0
176
     1
 90
        0
176
     1
 62
    18
420
        0
176
     1
 90
       50
176
     1
 90
        3
176
     1
 62
     5
420
      255
176
     1
290
     0
176
     1
 90
       50
176
     1
 90
       50
176
     1
 90
       50
176
     1
290
     0
176
     1
 90
       50
176
     1
 62
   256
176
     0
 40
1.0
176
     0
 90
        2
176
     1
  1
strokes_ogs.tif
176
     1
290
     0
176
     1
 40
1.0
176
     1
 40
1.0
176
     1
  0
VISUALSTYLE
  5
3D
102
{ACAD_REACTORS
330
29
102
}
330
29
100
AcDbVisualStyle
  2
Shaded with edges
 70
    26
177
     3
291
     0
 70
    58
 90
        2
176
     1
 90
        2
176
     1
 90
        1
176
     1
 90
        2
176
     1
 40
0.6
176
     1
 40
30.0
176
     1
 62
     7
420
 16777215
176
     1
 90
        1
176
     1
 90
        2
176
     1
 62
     7
176
     1
 62
   257
176
     1
 90
        2
176
     1
 90
        1
176
     1
 40
1.0
176
     1
 90
        8
176
     1
 62
   257
176
     1
 40
1.0
176
     1
 90
        1
176
     1
 90
        6
176
     1
 90
        2
176
     1
 62
     7
176
     1
 90
        3
176
     1
 90
        0
176
     1
 90
        0
176
     1
290
     0
176
     1
 90
        5
176
     1
 40
0.0
176
     1
 90
        0
176
     1
290
     0
176
     1
290
     1
176
     1
290
     1
176
     1
290
     0
176
     1
290
     0
176
     1
290
     0
176
     1
290
     0
176
     1
290
     0
176
     1
290
     0
176
     1
 90
       50
176
     1
 40
0.0
176
     1
 40
1.0
176
     1
 90
        0
176
     1
 62
    18
420
        0
176
     1
 90
       50
176
     1
 90
        3
176
     1
 62
     5
420
      255
176
     1
290
     0
176
     1
 90
       50
176
     1
 90
       50
176
     1
 90
       50
176
     1
290
     0
176
     1
 90
       50
176
     1
 62
   256
176
     0
 40
1.0
176
     0
 90
        2
176
     1
  1
strokes_ogs.tif
176
     1
290
     0
176
     1
 40
1.0
176
     1
 40
1.0
176
     1
  0
VISUALSTYLE
  5
3A
102
{ACAD_REACTORS
330
29
102
}
330
29
100
AcDbVisualStyle
  2
Shades of Gray
 70
    23
177
     3
291
     0
 70
    58
 90
        2
176
     1
 90
        2
176
     1
 90
        3
176
     1
 90
        0
176
     1
 40
0.6
176
     1
 40
30.0
176
     1
 62
     7
420
 16777215
176
     1
 90
        2
176
     1
 90
        2
176
     1
 62
     7
176
     1
 62
     7
176
     1
 90
        1
176
     1
 90
        1
176
     1
 40
40.0
176
     1
 90
        8
176
     1
 62
     7
176
     1
 40
1.0
176
     1
 90
        1
176
     1
 90
        6
176
     1
 90
        2
176
     1
 62
     7
176
     1
 90
        3
176
     1
 90
        0
176
     1
 90
        0
176
     1
290
     0
176
     1
 90
        1
176
     1
 40
0.0
176
     1
 90
        0
176
     1
290
     0
176
     1
290
     1
176
     1
290
     1
176
     1
290
     0
176
     1
290
     0
176
     1
290
     0
176
     1
290
     0
176
     1
290
     0
176
     1
290
     0
176
     1
 90
       50
176
     1
 40
0.0
176
     1
 40
1.0
176
     1
 90
        0
176
     1
 62
    18
420
        0
176
     1
 90
       50
176
     1
 90
        3
176
     1
 62
     5
420
      255
176
     1
290
     0
176
     1
 90
       50
176
     1
 90
       50
176
     1
 90
       50
176
     1
290
     0
176
     1
 90
       50
176
     1
 62
   256
176
     0
 40
1.0
176
     0
 90
        2
176
     1
  1
strokes_ogs.tif
176
     1
290
     0
176
     1
 40
1.0
176
     1
 40
1.0
176
     1
  0
VISUALSTYLE
  5
3B
102
{ACAD_REACTORS
330
29
102
}
330
29
100
AcDbVisualStyle
  2
Sketchy
 70
    24
177
     3
291
     0
 70
    58
 90
        1
176
     1
 90
        2
176
     1
 90
        2
176
     1
 90
        0
176
     1
 40
0.6
176
     1
 40
30.0
176
     1
 62
     7
420
 16777215
176
     1
 90
        2
176
     1
 90
        2
176
     1
 62
     7
176
     1
 62
     7
176
     1
 90
        1
176
     1
 90
        1
176
     1
 40
40.0
176
     1
 90
       11
176
     1
 62
     7
176
     1
 40
1.0
176
     1
 90
        1
176
     1
 90
        6
176
     1
 90
        2
176
     1
 62
     7
176
     1
 90
        6
176
     1
 90
        0
176
     1
 90
        0
176
     1
290
     0
176
     1
 90
        1
176
     1
 40
0.0
176
     1
 90
        0
176
     1
290
     0
176
     1
290
     1
176
     1
290
     1
176
     1
290
     0
176
     1
290
     0
176
     1
290
     0
176
     1
290
     0
176
     1
290
     0
176
     1
290
     0
176
     1
 90
       50
176
     1
 40
0.0
176
     1
 40
1.0
176
     1
 90
        0
176
     1
 62
    18
420
        0
176
     1
 90
       50
176
     1
 90
        3
176
     1
 62
     5
420
      255
176
     1
290
     0
176
     1
 90
       50
176
     1
 90
       50
176
     1
 90
       50
176
     1
290
     0
176
     1
 90
       50
176
     1
 62
   256
176
     0
 40
1.0
176
     0
 90
        2
176
     1
  1
strokes_ogs.tif
176
     1
290
     0
176
     1
 40
1.0
176
     1
 40
1.0
176
     1
  0
VISUALSTYLE
  5
36
102
{ACAD_REACTORS
330
29
102
}
330
29
100
AcDbVisualStyle
  2
Thicken
 70
    13
177
     3
291
     1
 70
    58
 90
        2
176
     1
 90
        2
176
     1
 90
        0
176
     1
 90
        0
176
     1
 40
0.6
176
     1
 40
30.0
176
     1
 62
     7
420
 16777215
176
     1
 90
        1
176
     1
 90
        4
176
     1
 62
     7
176
     1
 62
   257
176
     1
 90
        1
176
     1
 90
        1
176
     1
 40
1.0
176
     1
 90
       12
176
     1
 62
     7
176
     1
 40
1.0
176
     1
 90
        1
176
     1
 90
        6
176
     1
 90
        2
176
     1
 62
     7
176
     1
 90
        5
176
     1
 90
        0
176
     1
 90
        0
176
     1
290
     0
176
     1
 90
        1
176
     1
 40
0.0
176
     1
 90
        0
176
     1
290
     0
176
     1
290
     1
176
     1
290
     1
176
     1
290
     0
176
     1
290
     0
176
     1
290
     0
176
     1
290
     0
176
     1
290
     0
176
     1
290
     0
176
     1
 90
       50
176
     1
 40
0.0
176
     1
 40
1.0
176
     1
 90
        0
176
     1
 62
    18
420
        0
176
     1
 90
       50
176
     1
 90
        3
176
     1
 62
     5
420
      255
176
     1
290
     0
176
     1
 90
       50
176
     1
 90
       50
176
     1
 90
       50
176
     1
290
     0
176
     1
 90
       50
176
     1
 62
   256
176
     0
 40
1.0
176
     0
 90
        2
176
     1
  1
strokes_ogs.tif
176
     1
290
     0
176
     1
 40
1.0
176
     1
 40
1.0
176
     1
  0
VISUALSTYLE
  5
30
102
{ACAD_REACTORS
330
29
102
}
330
29
100
AcDbVisualStyle
  2
Wireframe
 70
     5
177
     3
291
     0
 70
    58
 90
        0
176
     1
 90
        2
176
     1
 90
        0
176
     1
 90
        0
176
     1
 40
0.6
176
     1
 40
30.0
176
     1
 62
     7
420
 16777215
176
     1
 90
        1
176
     1
 90
        4
176
     1
 62
     7
176
     1
 62
   257
176
     1
 90
        1
176
     1
 90
        1
176
     1
 40
1.0
176
     1
 90
        0
176
     1
 62
   257
176
     1
 40
1.0
176
     1
 90
        1
176
     1
 90
        6
176
     1
 90
        2
176
     1
 62
     7
176
     1
 90
        3
176
     1
 90
        0
176
     1
 90
        0
176
     1
290
     0
176
     1
 90
        1
176
     1
 40
0.0
176
     1
 90
        0
176
     1
290
     0
176
     1
290
     1
176
     1
290
     1
176
     1
290
     0
176
     1
290
     0
176
     1
290
     0
176
     1
290
     0
176
     1
290
     0
176
     1
290
     0
176
     1
 90
       50
176
     1
 40
0.0
176
     1
 40
1.0
176
     1
 90
        0
176
     1
 62
    18
420
        0
176
     1
 90
       50
176
     1
 90
        3
176
     1
 62
     5
420
      255
176
     1
290
     0
176
     1
 90
       50
176
     1
 90
       50
176
     1
 90
       50
176
     1
290
     0
176
     1
 90
       50
176
     1
 62
   256
176
     0
 40
1.0
176
     0
 90
        2
176
     1
  1
strokes_ogs.tif
176
     1
290
     0
176
     1
 40
1.0
176
     1
 40
1.0
176
     1
  0
VISUALSTYLE
  5
3C
102
{ACAD_REACTORS
330
29
102
}
330
29
100
AcDbVisualStyle
  2
X-Ray
 70
    25
177
     3
291
     0
 70
    58
 90
        2
176
     1
 90
        2
176
     1
 90
        1
176
     1
 90
        1
176
     1
 40
0.5
176
     1
 40
30.0
176
     1
 62
     7
420
 16777215
176
     1
 90
        1
176
     1
 90
        0
176
     1
 62
     7
176
     1
 62
   257
176
     1
 90
        1
176
     1
 90
        1
176
     1
 40
1.0
176
     1
 90
        8
176
     1
 62
     7
176
     1
 40
1.0
176
     1
 90
        1
176
     1
 90
        6
176
     1
 90
        2
176
     1
 62
     7
176
     1
 90
        3
176
     1
 90
        0
176
     1
 90
        0
176
     1
290
     0
176
     1
 90
       13
176
     1
 40
0.0
176
     1
 90
        0
176
     1
290
     0
176
     1
290
     1
176
     1
290
     1
176
     1
290
     0
176
     1
290
     0
176
     1
290
     0
176
     1
290
     0
176
     1
290
     0
176
     1
290
     0
176
     1
 90
       50
176
     1
 40
0.0
176
     1
 40
1.0
176
     1
 90
        0
176
     1
 62
    18
420
        0
176
     1
 90
       50
176
     1
 90
        3
176
     1
 62
     5
420
      255
176
     1
290
     0
176
     1
 90
       50
176
     1
 90
       50
176
     1
 90
       50
176
     1
290
     0
176
     1
 90
       50
176
     1
 62
   256
176
     0
 40
1.0
176
     0
 90
        2
176
     1
  1
strokes_ogs.tif
176
     1
290
     0
176
     1
 40
1.0
176
     1
 40
1.0
176
     1
  0
DICTIONARYVAR
  5
1D8
102
{ACAD_REACTORS
330
1D3
102
}
330
1D3
100
DictionaryVariables
280
     0
  1
1:1
  0
DICTIONARYVAR
  5
1D5
102
{ACAD_REACTORS
330
1D3
102
}
330
1D3
100
DictionaryVariables
280
     0
  1
STANDARD
  0
DICTIONARYVAR
  5
1D4
102
{ACAD_REACTORS
330
1D3
102
}
330
1D3
100
DictionaryVariables
280
     0
  1
STANDARD
  0
DICTIONARYVAR
  5
1D6
102
{ACAD_REACTORS
330
1D3
102
}
330
1D3
100
DictionaryVariables
280
     0
  1
Imperial24
  0
DICTIONARYVAR
  5
1D7
102
{ACAD_REACTORS
330
1D3
102
}
330
1D3
100
DictionaryVariables
280
     0
  1
Imperial24
  0
DICTIONARY
  5
1A
330
19
100
AcDbDictionary
280
     1
281
     1
  3
BUMPTILE
360
1C
  3
DIFFUSETILE
360
1B
  3
OPACITYTILE
360
1F
  3
REFLECTIONTILE
360
1E
  3
REFRACTIONTILE
360
20
  3
SPECULARTILE
360
1D
  0
DICTIONARY
  5
12
330
11
100
AcDbDictionary
280
     1
281
     1
  3
BUMPTILE
360
14
  3
DIFFUSETILE
360
13
  3
OPACITYTILE
360
17
  3
REFLECTIONTILE
360
16
  3
REFRACTIONTILE
360
18
  3
SPECULARTILE
360
15
  0
DICTIONARY
  5
22
330
21
100
AcDbDictionary
280
     1
281
     1
  3
BUMPTILE
360
24
  3
DIFFUSETILE
360
23
  3
OPACITYTILE
360
27
  3
REFLECTIONTILE
360
26
  3
REFRACTIONTILE
360
28
  3
SPECULARTILE
360
25
  0
DICTIONARY
  5
1D9
330
65
100
AcDbDictionary
280
     1
281
     1
  3
ACAD_ROUNDTRIP_2008_TABLESTYLE_CELLSTYLEMAP
360
1DA
  0
XRECORD
  5
1C
102
{ACAD_REACTORS
330
1A
102
}
330
1A
100
AcDbXrecord
280
     1
270
     1
271
     1
  0
XRECORD
  5
1B
102
{ACAD_REACTORS
330
1A
102
}
330
1A
100
AcDbXrecord
280
     1
270
     1
271
     1
  0
XRECORD
  5
1F
102
{ACAD_REACTORS
330
1A
102
}
330
1A
100
AcDbXrecord
280
     1
270
     1
271
     1
  0
XRECORD
  5
1E
102
{ACAD_REACTORS
330
1A
102
}
330
1A
100
AcDbXrecord
280
     1
270
     1
271
     1
  0
XRECORD
  5
20
102
{ACAD_REACTORS
330
1A
102
}
330
1A
100
AcDbXrecord
280
     1
270
     1
271
     1
  0
XRECORD
  5
1D
102
{ACAD_REACTORS
330
1A
102
}
330
1A
100
AcDbXrecord
280
     1
270
     1
271
     1
  0
XRECORD
  5
14
102
{ACAD_REACTORS
330
12
102
}
330
12
100
AcDbXrecord
280
     1
270
     1
271
     1
  0
XRECORD
  5
13
102
{ACAD_REACTORS
330
12
102
}
330
12
100
AcDbXrecord
280
     1
270
     1
271
     1
  0
XRECORD
  5
17
102
{ACAD_REACTORS
330
12
102
}
330
12
100
AcDbXrecord
280
     1
270
     1
271
     1
  0
XRECORD
  5
16
102
{ACAD_REACTORS
330
12
102
}
330
12
100
AcDbXrecord
280
     1
270
     1
271
     1
  0
XRECORD
  5
18
102
{ACAD_REACTORS
330
12
102
}
330
12
100
AcDbXrecord
280
     1
270
     1
271
     1
  0
XRECORD
  5
15
102
{ACAD_REACTORS
330
12
102
}
330
12
100
AcDbXrecord
280
     1
270
     1
271
     1
  0
XRECORD
  5
24
102
{ACAD_REACTORS
330
22
102
}
330
22
100
AcDbXrecord
280
     1
270
     1
271
     1
  0
XRECORD
  5
23
102
{ACAD_REACTORS
330
22
102
}
330
22
100
AcDbXrecord
280
     1
270
     1
271
     1
  0
XRECORD
  5
27
102
{ACAD_REACTORS
330
22
102
}
330
22
100
AcDbXrecord
280
     1
270
     1
271
     1
  0
XRECORD
  5
26
102
{ACAD_REACTORS
330
22
102
}
330
22
100
AcDbXrecord
280
     1
270
     1
271
     1
  0
XRECORD
  5
28
102
{ACAD_REACTORS
330
22
102
}
330
22
100
AcDbXrecord
280
     1
270
     1
271
     1
  0
XRECORD
  5
25
102
{ACAD_REACTORS
330
22
102
}
330
22
100
AcDbXrecord
280
     1
270
     1
271
     1
  0
CELLSTYLEMAP
  5
1DA
102
{ACAD_REACTORS
330
1D9
102
}
330
1D9
100
AcDbCellStyleMap
 90
        3
300
CELLSTYLE
  1
TABLEFORMAT_BEGIN
 90
        5
170
     1
 91
        0
 92
    32768
 62
   257
 93
        1
300
CONTENTFORMAT
  1
CONTENTFORMAT_BEGIN
 90
        0
 91
        0
 92
      512
 93
        0
300

 40
0.0
140
1.0
 94
        5
 62
     0
340
55
144
0.25
309
CONTENTFORMAT_END
171
     0
 94
        0
309
TABLEFORMAT_END
  1
CELLSTYLE_BEGIN
 90
        1
 91
        1
300
_TITLE
309
CELLSTYLE_END
300
CELLSTYLE
  1
TABLEFORMAT_BEGIN
 90
        5
170
     1
 91
        0
 92
        0
 62
   257
 93
        1
300
CONTENTFORMAT
  1
CONTENTFORMAT_BEGIN
 90
        0
 91
        0
 92
      512
 93
        0
300

 40
0.0
140
1.0
 94
        5
 62
     0
340
55
144
0.18
309
CONTENTFORMAT_END
171
     0
 94
        0
309
TABLEFORMAT_END
  1
CELLSTYLE_BEGIN
 90
        2
 91
        1
300
_HEADER
309
CELLSTYLE_END
300
CELLSTYLE
  1
TABLEFORMAT_BEGIN
 90
        5
170
     1
 91
        0
 92
        0
 62
   257
 93
        1
300
CONTENTFORMAT
  1
CONTENTFORMAT_BEGIN
 90
        0
 91
        0
 92
      512
 93
        0
300

 40
0.0
140
1.0
 94
        2
 62
     0
340
55
144
0.18
309
CONTENTFORMAT_END
171
     0
 94
        0
309
TABLEFORMAT_END
  1
CELLSTYLE_BEGIN
 90
        3
 91
        2
300
_DATA
309
CELLSTYLE_END
  0
ENDSEC
  0
EOF
