  0
SECTION
  2
HEADER
  9
$ACADVER
  1
AC1024
  9
$ACADMAINTVER
 70
     6
  9
$DWGCODEPAGE
  3
ANSI_1252
  9
$INSBASE
 10
0.0
 20
0.0
 30
0.0
  9
$EXTMIN
 10
1.000000000000000E+20
 20
1.000000000000000E+20
 30
1.000000000000000E+20
  9
$EXTMAX
 10
-1.000000000000000E+20
 20
-1.000000000000000E+20
 30
-1.000000000000000E+20
  9
$LIMMIN
 10
0.0
 20
0.0
  9
$LIMMAX
 10
12.0
 20
9.0
  9
$ORTHOMODE
 70
     0
  9
$REGENMODE
 70
     1
  9
$FILLMODE
 70
     1
  9
$QTEXTMODE
 70
     0
  9
$MIRRTEXT
 70
     1
  9
$LTSCALE
 40
1.0
  9
$ATTMODE
 70
     1
  9
$TEXTSIZE
 40
0.2
  9
$TRACEWID
 40
0.05
  9
$TEXTSTYLE
  7
Standard
  9
$CLAYER
  8
0
  9
$CELTYPE
  6
ByLayer
  9
$CECOLOR
 62
   256
  9
$CELTSCALE
 40
1.0
  9
$DISPSILH
 70
     0
  9
$DIMSCALE
 40
1.0
  9
$DIMASZ
 40
0.18
  9
$DIMEXO
 40
0.0625
  9
$DIMDLI
 40
0.38
  9
$DIMRND
 40
0.0
  9
$DIMDLE
 40
0.0
  9
$DIMEXE
 40
0.18
  9
$DIMTP
 40
0.0
  9
$DIMTM
 40
0.0
  9
$DIMTXT
 40
0.18
  9
$DIMCEN
 40
0.09
  9
$DIMTSZ
 40
0.0
  9
$DIMTOL
 70
     0
  9
$DIMLIM
 70
     0
  9
$DIMTIH
 70
     1
  9
$DIMTOH
 70
     1
  9
$DIMSE1
 70
     0
  9
$DIMSE2
 70
     0
  9
$DIMTAD
 70
     0
  9
$DIMZIN
 70
     0
  9
$DIMBLK
  1

  9
$DIMASO
 70
     1
  9
$DIMSHO
 70
     1
  9
$DIMPOST
  1

  9
$DIMAPOST
  1

  9
$DIMALT
 70
     0
  9
$DIMALTD
 70
     2
  9
$DIMALTF
 40
25.4
  9
$DIMLFAC
 40
1.0
  9
$DIMTOFL
 70
     0
  9
$DIMTVP
 40
0.0
  9
$DIMTIX
 70
     0
  9
$DIMSOXD
 70
     0
  9
$DIMSAH
 70
     0
  9
$DIMBLK1
  1

  9
$DIMBLK2
  1

  9
$DIMSTYLE
  2
Standard
  9
$DIMCLRD
 70
     0
  9
$DIMCLRE
 70
     0
  9
$DIMCLRT
 70
     0
  9
$DIMTFAC
 40
1.0
  9
$DIMGAP
 40
0.09
  9
$DIMJUST
 70
     0
  9
$DIMSD1
 70
     0
  9
$DIMSD2
 70
     0
  9
$DIMTOLJ
 70
     1
  9
$DIMTZIN
 70
     0
  9
$DIMALTZ
 70
     0
  9
$DIMALTTZ
 70
     0
  9
$DIMUPT
 70
     0
  9
$DIMDEC
 70
     4
  9
$DIMTDEC
 70
     4
  9
$DIMALTU
 70
     2
  9
$DIMALTTD
 70
     2
  9
$DIMTXSTY
  7
Standard
  9
$DIMAUNIT
 70
     0
  9
$DIMADEC
 70
     0
  9
$DIMALTRND
 40
0.0
  9
$DIMAZIN
 70
     0
  9
$DIMDSEP
 70
    46
  9
$DIMATFIT
 70
     3
  9
$DIMFRAC
 70
     0
  9
$DIMLDRBLK
  1

  9
$DIMLUNIT
 70
     2
  9
$DIMLWD
 70
    -2
  9
$DIMLWE
 70
    -2
  9
$DIMTMOVE
 70
     0
  9
$DIMFXL
 40
1.0
  9
$DIMFXLON
 70
     0
  9
$DIMJOGANG
 40
0.7853981633974483
  9
$DIMTFILL
 70
     0
  9
$DIMTFILLCLR
 70
     0
  9
$DIMARCSYM
 70
     0
  9
$DIMLTYPE
  6

  9
$DIMLTEX1
  6

  9
$DIMLTEX2
  6

  9
$DIMTXTDIRECTION
 70
     0
  9
$LUNITS
 70
     2
  9
$LUPREC
 70
     4
  9
$SKETCHINC
 40
0.1
  9
$FILLETRAD
 40
0.5
  9
$AUNITS
 70
     0
  9
$AUPREC
 70
     0
  9
$MENU
  1
.
  9
$ELEVATION
 40
0.0
  9
$PELEVATION
 40
0.0
  9
$THICKNESS
 40
0.0
  9
$LIMCHECK
 70
     0
  9
$CHAMFERA
 40
0.5
  9
$CHAMFERB
 40
0.5
  9
$CHAMFERC
 40
1.0
  9
$CHAMFERD
 40
0.0
  9
$SKPOLY
 70
     0
  9
$TDCREATE
 40
2458838.56723566
  9
$TDUCREATE
 40
2458838.025568993
  9
$TDUPDATE
 40
2458838.567235799
  9
$TDUUPDATE
 40
2458838.025569132
  9
$TDINDWG
 40
0.0000000116
  9
$TDUSRTIMER
 40
0.0000000116
  9
$USRTIMER
 70
     1
  9
$ANGBASE
 50
0.0
  9
$ANGDIR
 70
     0
  9
$PDMODE
 70
     0
  9
$PDSIZE
 40
0.0
  9
$PLINEWID
 40
0.0
  9
$SPLFRAME
 70
     0
  9
$SPLINETYPE
 70
     6
  9
$SPLINESEGS
 70
     8
  9
$HANDSEED
  5
146
  9
$SURFTAB1
 70
     6
  9
$SURFTAB2
 70
     6
  9
$SURFTYPE
 70
     6
  9
$SURFU
 70
     6
  9
$SURFV
 70
     6
  9
$UCSBASE
  2

  9
$UCSNAME
  2

  9
$UCSORG
 10
0.0
 20
0.0
 30
0.0
  9
$UCSXDIR
 10
1.0
 20
0.0
 30
0.0
  9
$UCSYDIR
 10
0.0
 20
1.0
 30
0.0
  9
$UCSORTHOREF
  2

  9
$UCSORTHOVIEW
 70
     0
  9
$UCSORGTOP
 10
0.0
 20
0.0
 30
0.0
  9
$UCSORGBOTTOM
 10
0.0
 20
0.0
 30
0.0
  9
$UCSORGLEFT
 10
0.0
 20
0.0
 30
0.0
  9
$UCSORGRIGHT
 10
0.0
 20
0.0
 30
0.0
  9
$UCSORGFRONT
 10
0.0
 20
0.0
 30
0.0
  9
$UCSORGBACK
 10
0.0
 20
0.0
 30
0.0
  9
$PUCSBASE
  2

  9
$PUCSNAME
  2

  9
$PUCSORG
 10
0.0
 20
0.0
 30
0.0
  9
$PUCSXDIR
 10
1.0
 20
0.0
 30
0.0
  9
$PUCSYDIR
 10
0.0
 20
1.0
 30
0.0
  9
$PUCSORTHOREF
  2

  9
$PUCSORTHOVIEW
 70
     0
  9
$PUCSORGTOP
 10
0.0
 20
0.0
 30
0.0
  9
$PUCSORGBOTTOM
 10
0.0
 20
0.0
 30
0.0
  9
$PUCSORGLEFT
 10
0.0
 20
0.0
 30
0.0
  9
$PUCSORGRIGHT
 10
0.0
 20
0.0
 30
0.0
  9
$PUCSORGFRONT
 10
0.0
 20
0.0
 30
0.0
  9
$PUCSORGBACK
 10
0.0
 20
0.0
 30
0.0
  9
$USERI1
 70
     0
  9
$USERI2
 70
     0
  9
$USERI3
 70
     0
  9
$USERI4
 70
     0
  9
$USERI5
 70
     0
  9
$USERR1
 40
0.0
  9
$USERR2
 40
0.0
  9
$USERR3
 40
0.0
  9
$USERR4
 40
0.0
  9
$USERR5
 40
0.0
  9
$WORLDVIEW
 70
     1
  9
$SHADEDGE
 70
     3
  9
$SHADEDIF
 70
    70
  9
$TILEMODE
 70
     1
  9
$MAXACTVP
 70
    64
  9
$PINSBASE
 10
0.0
 20
0.0
 30
0.0
  9
$PLIMCHECK
 70
     0
  9
$PEXTMIN
 10
1.000000000000000E+20
 20
1.000000000000000E+20
 30
1.000000000000000E+20
  9
$PEXTMAX
 10
-1.000000000000000E+20
 20
-1.000000000000000E+20
 30
-1.000000000000000E+20
  9
$PLIMMIN
 10
0.0
 20
0.0
  9
$PLIMMAX
 10
12.0
 20
9.0
  9
$UNITMODE
 70
     0
  9
$VISRETAIN
 70
     1
  9
$PLINEGEN
 70
     0
  9
$PSLTSCALE
 70
     1
  9
$TREEDEPTH
 70
  3020
  9
$CMLSTYLE
  2
Standard
  9
$CMLJUST
 70
     0
  9
$CMLSCALE
 40
1.0
  9
$PROXYGRAPHICS
 70
     1
  9
$MEASUREMENT
 70
     0
  9
$CELWEIGHT
370
    -1
  9
$ENDCAPS
280
     0
  9
$JOINSTYLE
280
     0
  9
$LWDISPLAY
290
     1
  9
$INSUNITS
 70
     1
  9
$HYPERLINKBASE
  1

  9
$STYLESHEET
  1

  9
$XEDIT
290
     1
  9
$CEPSNTYPE
380
     0
  9
$PSTYLEMODE
290
     1
  9
$FINGERPRINTGUID
  2
{BA2BB14B-B5D3-4BF0-AEEE-E395A3FD04E5}
  9
$VERSIONGUID
  2
{FAEB1C32-E019-11D5-929B-00C0DF256EC4}
  9
$EXTNAMES
290
     1
  9
$PSVPSCALE
 40
0.0
  9
$OLESTARTUP
290
     0
  9
$SORTENTS
280
   127
  9
$INDEXCTL
280
     0
  9
$HIDETEXT
280
     1
  9
$XCLIPFRAME
280
     2
  9
$HALOGAP
280
     0
  9
$OBSCOLOR
 70
   257
  9
$OBSLTYPE
280
     0
  9
$INTERSECTIONDISPLAY
280
     0
  9
$INTERSECTIONCOLOR
 70
   257
  9
$DIMASSOC
280
     2
  9
$PROJECTNAME
  1

  9
$CAMERADISPLAY
290
     0
  9
$LENSLENGTH
 40
50.0
  9
$CAMERAHEIGHT
 40
0.0
  9
$STEPSPERSEC
 40
2.0
  9
$STEPSIZE
 40
6.0
  9
$3DDWFPREC
 40
2.0
  9
$PSOLWIDTH
 40
0.25
  9
$PSOLHEIGHT
 40
4.0
  9
$LOFTANG1
 40
1.570796326794897
  9
$LOFTANG2
 40
1.570796326794897
  9
$LOFTMAG1
 40
0.0
  9
$LOFTMAG2
 40
0.0
  9
$LOFTPARAM
 70
     7
  9
$LOFTNORMALS
280
     1
  9
$LATITUDE
 40
37.795
  9
$LONGITUDE
 40
-122.394
  9
$NORTHDIRECTION
 40
0.0
  9
$TIMEZONE
 70
 -8000
  9
$LIGHTGLYPHDISPLAY
280
     1
  9
$TILEMODELIGHTSYNCH
280
     1
  9
$CMATERIAL
347
3C
  9
$SOLIDHIST
280
     1
  9
$SHOWHIST
280
     1
  9
$DWFFRAME
280
     2
  9
$DGNFRAME
280
     2
  9
$REALWORLDSCALE
290
     1
  9
$INTERFERECOLOR
 62
   256
  9
$CSHADOW
280
     0
  9
$SHADOWPLANELOCATION
 40
0.0
  0
ENDSEC
  0
SECTION
  2
CLASSES
  0
CLASS
  1
ACDBDICTIONARYWDFLT
  2
AcDbDictionaryWithDefault
  3
ObjectDBX Classes
 90
        0
 91
        4
280
     0
281
     0
  0
CLASS
  1
VISUALSTYLE
  2
AcDbVisualStyle
  3
ObjectDBX Classes
 90
     4095
 91
        4
280
     0
281
     0
  0
CLASS
  1
MATERIAL
  2
AcDbMaterial
  3
ObjectDBX Classes
 90
     1153
 91
        4
280
     0
281
     0
  0
CLASS
  1
SUN
  2
AcDbSun
  3
SCENEOE
 90
     1024
 91
        4
280
     0
281
     0
  0
ENDSEC
  0
SECTION
  2
TABLES
  0
TABLE
  2
VPORT
  5
8
330
0
100
AcDbSymbolTable
 70
     1
  0
VPORT
  5
29
330
8
100
AcDbSymbolTableRecord
100
AcDbViewportTableRecord
  2
*Active
 70
     0
 10
0.0
 20
0.0
 11
1.0
 21
1.0
 12
0.0
 22
0.0
 13
0.0
 23
0.0
 14
0.5
 24
0.5
 15
0.5
 25
0.5
 16
0.0
 26
0.0
 36
1.0
 17
4.394307527879341
 27
7.313707454129093
 37
0.0
 40
11.69291338582677
 41
0.7070707070707066
 42
50.0
 43
0.0
 44
0.0
 50
0.0
 51
0.0
 71
     0
 72
   100
 73
     1
 74
     3
 75
     0
 76
     0
 77
     0
 78
     0
281
     0
 65
     1
110
0.0
120
0.0
130
0.0
111
1.0
121
0.0
131
0.0
112
0.0
122
1.0
132
0.0
 79
     0
146
0.0
 60
     3
 61
     5
292
     1
282
     1
141
0.0
142
0.0
 63
   250
361
3F
  0
ENDTAB
  0
TABLE
  2
LTYPE
  5
5
330
0
100
AcDbSymbolTable
 70
     1
  0
LTYPE
  5
14
330
5
100
AcDbSymbolTableRecord
100
AcDbLinetypeTableRecord
  2
ByBlock
 70
     0
  3

 72
    65
 73
     0
 40
0.0
  0
LTYPE
  5
15
330
5
100
AcDbSymbolTableRecord
100
AcDbLinetypeTableRecord
  2
ByLayer
 70
     0
  3

 72
    65
 73
     0
 40
0.0
  0
LTYPE
  5
16
330
5
100
AcDbSymbolTableRecord
100
AcDbLinetypeTableRecord
  2
Continuous
 70
     0
  3
Solid line
 72
    65
 73
     0
 40
0.0
  0
ENDTAB
  0
TABLE
  2
LAYER
  5
2
330
0
100
AcDbSymbolTable
 70
     3
  0
LAYER
  5
10
330
2
100
AcDbSymbolTableRecord
100
AcDbLayerTableRecord
  2
0
 70
     0
 62
     7
  6
Continuous
370
    -3
390
F
347
3E
  0
LAYER
  5
40
330
2
100
AcDbSymbolTableRecord
100
AcDbLayerTableRecord
  2
Layer 1
 70
     0
 62
     7
  6
Continuous
370
    -3
390
F
347
3E
  0
LAYER
  5
12F
330
2
100
AcDbSymbolTableRecord
100
AcDbLayerTableRecord
  2
callout
 70
     0
 62
     7
  6
Continuous
370
    -3
390
F
347
3E
  0
ENDTAB
  0
TABLE
  2
STYLE
  5
3
330
0
100
AcDbSymbolTable
 70
     1
  0
STYLE
  5
11
330
3
100
AcDbSymbolTableRecord
100
AcDbTextStyleTableRecord
  2
Standard
 70
     0
 40
0.0
 41
1.0
 50
0.0
 71
     0
 42
0.2
  3
txt
  4

  0
ENDTAB
  0
TABLE
  2
VIEW
  5
6
330
0
100
AcDbSymbolTable
 70
     0
  0
ENDTAB
  0
TABLE
  2
UCS
  5
7
330
0
100
AcDbSymbolTable
 70
     0
  0
ENDTAB
  0
TABLE
  2
APPID
  5
9
330
0
100
AcDbSymbolTable
 70
     1
  0
APPID
  5
12
330
9
100
AcDbSymbolTableRecord
100
AcDbRegAppTableRecord
  2
ACAD
 70
     0
  0
ENDTAB
  0
TABLE
  2
DIMSTYLE
  5
A
330
0
100
AcDbSymbolTable
 70
     1
100
AcDbDimStyleTable
  0
DIMSTYLE
105
27
330
A
100
AcDbSymbolTableRecord
100
AcDbDimStyleTableRecord
  2
Standard
 70
     0
178
     0
340
11
  0
ENDTAB
  0
TABLE
  2
BLOCK_RECORD
  5
1
330
0
100
AcDbSymbolTable
 70
     8
  0
BLOCK_RECORD
  5
1F
330
1
100
AcDbSymbolTableRecord
100
AcDbBlockTableRecord
  2
*Model_Space
340
22
 70
     0
280
     1
281
     0
  0
BLOCK_RECORD
  5
1B
330
1
100
AcDbSymbolTableRecord
100
AcDbBlockTableRecord
  2
*Paper_Space
340
1E
 70
     0
280
     1
281
     0
  0
BLOCK_RECORD
  5
23
330
1
100
AcDbSymbolTableRecord
100
AcDbBlockTableRecord
  2
*Paper_Space0
340
26
 70
     0
280
     1
281
     0
  0
BLOCK_RECORD
  5
41
330
1
100
AcDbSymbolTableRecord
100
AcDbBlockTableRecord
  2
block 2
340
0
102
{BLKREFS
331
42
102
}
 70
     0
280
     1
281
     0
  0
BLOCK_RECORD
  5
D1
330
1
100
AcDbSymbolTableRecord
100
AcDbBlockTableRecord
  2
block 3
340
0
102
{BLKREFS
331
D2
102
}
 70
     0
280
     1
281
     0
  0
BLOCK_RECORD
  5
FF
330
1
100
AcDbSymbolTableRecord
100
AcDbBlockTableRecord
  2
block 4
340
0
102
{BLKREFS
331
100
102
}
 70
     0
280
     1
281
     0
  0
BLOCK_RECORD
  5
107
330
1
100
AcDbSymbolTableRecord
100
AcDbBlockTableRecord
  2
block 5
340
0
102
{BLKREFS
331
108
102
}
 70
     0
280
     1
281
     0
  0
BLOCK_RECORD
  5
10F
330
1
100
AcDbSymbolTableRecord
100
AcDbBlockTableRecord
  2
block 6
340
0
102
{BLKREFS
331
110
102
}
 70
     0
280
     1
281
     0
  0
BLOCK_RECORD
  5
123
330
1
100
AcDbSymbolTableRecord
100
AcDbBlockTableRecord
  2
block 7
340
0
102
{BLKREFS
331
124
102
}
 70
     0
280
     1
281
     0
  0
BLOCK_RECORD
  5
129
330
1
100
AcDbSymbolTableRecord
100
AcDbBlockTableRecord
  2
block 8
340
0
102
{BLKREFS
331
12A
102
}
 70
     0
280
     1
281
     0
  0
ENDTAB
  0
ENDSEC
  0
SECTION
  2
BLOCKS
  0
BLOCK
  5
20
330
1F
100
AcDbEntity
  8
0
100
AcDbBlockBegin
  2
*Model_Space
 70
     0
 10
0.0
 20
0.0
 30
0.0
  3
*Model_Space
  1

  0
ENDBLK
  5
21
330
1F
100
AcDbEntity
  8
0
100
AcDbBlockEnd
  0
BLOCK
  5
1C
330
1B
100
AcDbEntity
 67
     1
  8
0
100
AcDbBlockBegin
  2
*Paper_Space
 70
     0
 10
0.0
 20
0.0
 30
0.0
  3
*Paper_Space
  1

  0
ENDBLK
  5
1D
330
1B
100
AcDbEntity
 67
     1
  8
0
100
AcDbBlockEnd
  0
BLOCK
  5
24
330
23
100
AcDbEntity
  8
0
100
AcDbBlockBegin
  2
*Paper_Space0
 70
     0
 10
0.0
 20
0.0
 30
0.0
  3
*Paper_Space0
  1

  0
ENDBLK
  5
25
330
23
100
AcDbEntity
  8
0
100
AcDbBlockEnd
  0
BLOCK
  5
43
330
41
100
AcDbEntity
  8
0
100
AcDbBlockBegin
  2
block 2
 70
     0
 10
0.0
 20
0.0
 30
0.0
  3
block 2
  1

  0
POLYLINE
  5
45
330
41
100
AcDbEntity
  8
Layer 1
 62
   250
420
  2301728
370
    35
100
AcDb2dPolyline
 66
     1
 10
0.0
 20
0.0
 30
0.0
  0
VERTEX
  5
46
330
45
100
AcDbEntity
  8
Layer 1
 62
   250
420
  2301728
370
    35
100
AcDbVertex
100
AcDb2dVertex
 10
2.605650077279241
 20
8.990008950466125
 30
0.0
  0
VERTEX
  5
47
330
45
100
AcDbEntity
  8
Layer 1
 62
   250
420
  2301728
370
    35
100
AcDbVertex
100
AcDb2dVertex
 10
2.582831765522958
 20
7.125697330249143
 30
0.0
  0
VERTEX
  5
48
330
45
100
AcDbEntity
  8
Layer 1
 62
   250
420
  2301728
370
    35
100
AcDbVertex
100
AcDb2dVertex
 10
5.704014583551902
 20
6.309440489783772
 30
0.0
  0
VERTEX
  5
49
330
45
100
AcDbEntity
  8
Layer 1
 62
   250
420
  2301728
370
    35
100
AcDbVertex
100
AcDb2dVertex
 10
6.015928934675458
 20
6.620026596419329
 30
0.0
  0
VERTEX
  5
4A
330
45
100
AcDbEntity
  8
Layer 1
 62
   250
420
  2301728
370
    35
100
AcDbVertex
100
AcDb2dVertex
 10
6.015928934675458
 20
7.533996298250763
 30
0.0
  0
VERTEX
  5
4B
330
45
100
AcDbEntity
  8
Layer 1
 62
   250
420
  2301728
370
    35
100
AcDbVertex
100
AcDb2dVertex
 10
6.097377301758645
 20
7.589580217002322
 30
0.0
  0
VERTEX
  5
4C
330
45
100
AcDbEntity
  8
Layer 1
 62
   250
420
  2301728
370
    35
100
AcDbVertex
100
AcDb2dVertex
 10
5.962980751079891
 20
7.720228108920878
 30
0.0
  0
VERTEX
  5
4D
330
45
100
AcDbEntity
  8
Layer 1
 62
   250
420
  2301728
370
    35
100
AcDbVertex
100
AcDb2dVertex
 10
6.015928934675458
 20
7.752733779692688
 30
0.0
  0
VERTEX
  5
4E
330
45
100
AcDbEntity
  8
Layer 1
 62
   250
420
  2301728
370
    35
100
AcDbVertex
100
AcDb2dVertex
 10
6.015928934675458
 20
8.847147570606706
 30
0.0
  0
VERTEX
  5
4F
330
45
100
AcDbEntity
  8
Layer 1
 62
   250
420
  2301728
370
    35
100
AcDbVertex
100
AcDb2dVertex
 10
3.039537223508862
 20
9.042855579736901
 30
0.0
  0
VERTEX
  5
50
330
45
100
AcDbEntity
  8
Layer 1
 62
   250
420
  2301728
370
    35
100
AcDbVertex
100
AcDb2dVertex
 10
2.605650077279241
 20
8.990008950466125
 30
0.0
  0
SEQEND
  5
52
330
45
100
AcDbEntity
  8
Layer 1
 62
   250
420
  2301728
370
    35
  0
HATCH
  5
51
330
41
100
AcDbEntity
  8
Layer 1
 62
    43
420
 15444572
100
AcDbHatch
 10
0.0
 20
0.0
 30
0.0
210
0.0
220
0.0
230
1.0
  2
SOLID
 70
     1
 71
     0
 91
        1
 92
        1
 93
       10
 72
     1
 10
2.605650077279241
 20
8.990008950466125
 11
2.582831765522958
 21
7.125697330249143
 72
     1
 10
2.582831765522958
 20
7.125697330249143
 11
5.704014583551902
 21
6.309440489783772
 72
     1
 10
5.704014583551902
 20
6.309440489783772
 11
6.015928934675458
 21
6.620026596419329
 72
     1
 10
6.015928934675458
 20
6.620026596419329
 11
6.015928934675458
 21
7.533996298250763
 72
     1
 10
6.015928934675458
 20
7.533996298250763
 11
6.097377301758645
 21
7.589580217002322
 72
     1
 10
6.097377301758645
 20
7.589580217002322
 11
5.962980751079891
 21
7.720228108920878
 72
     1
 10
5.962980751079891
 20
7.720228108920878
 11
6.015928934675458
 21
7.752733779692688
 72
     1
 10
6.015928934675458
 20
7.752733779692688
 11
6.015928934675458
 21
8.847147570606706
 72
     1
 10
6.015928934675458
 20
8.847147570606706
 11
3.039537223508862
 21
9.042855579736901
 72
     1
 10
3.039537223508862
 20
9.042855579736901
 11
2.605650077279241
 21
8.990008950466125
 97
        0
 75
     2
 76
     1
 98
        0
  0
POLYLINE
  5
53
330
41
100
AcDbEntity
  8
Layer 1
 62
   250
420
  2301728
370
    35
100
AcDb2dPolyline
 66
     1
 10
0.0
 20
0.0
 30
0.0
  0
VERTEX
  5
54
330
53
100
AcDbEntity
  8
Layer 1
 62
   250
420
  2301728
370
    35
100
AcDbVertex
100
AcDb2dVertex
 10
3.476805854839464
 20
6.002675075048665
 30
0.0
  0
VERTEX
  5
55
330
53
100
AcDbEntity
  8
Layer 1
 62
   250
420
  2301728
370
    35
100
AcDbVertex
100
AcDb2dVertex
 10
3.485457417359081
 20
7.401544812978588
 30
0.0
  0
VERTEX
  5
56
330
53
100
AcDbEntity
  8
Layer 1
 62
   250
420
  2301728
370
    35
100
AcDbVertex
100
AcDb2dVertex
 10
3.429935760067906
 20
7.414640473477889
 30
0.0
  0
VERTEX
  5
57
330
53
100
AcDbEntity
  8
Layer 1
 62
   250
420
  2301728
370
    35
100
AcDbVertex
100
AcDb2dVertex
 10
3.545765424416736
 20
7.573562851090135
 30
0.0
  0
VERTEX
  5
58
330
53
100
AcDbEntity
  8
Layer 1
 62
   250
420
  2301728
370
    35
100
AcDbVertex
100
AcDb2dVertex
 10
3.485457417359081
 20
7.586598844356571
 30
0.0
  0
VERTEX
  5
59
330
53
100
AcDbEntity
  8
Layer 1
 62
   250
420
  2301728
370
    35
100
AcDbVertex
100
AcDb2dVertex
 10
3.485457417359081
 20
8.734189110887554
 30
0.0
  0
VERTEX
  5
5A
330
53
100
AcDbEntity
  8
Layer 1
 62
   250
420
  2301728
370
    35
100
AcDbVertex
100
AcDb2dVertex
 10
4.301142215530439
 20
8.858733162797863
 30
0.0
  0
VERTEX
  5
5B
330
53
100
AcDbEntity
  8
Layer 1
 62
   250
420
  2301728
370
    35
100
AcDbVertex
100
AcDb2dVertex
 10
4.635353952151541
 20
8.83651322678961
 30
0.0
  0
VERTEX
  5
5C
330
53
100
AcDbEntity
  8
Layer 1
 62
   250
420
  2301728
370
    35
100
AcDbVertex
100
AcDb2dVertex
 10
4.635276125326072
 20
6.588630649794027
 30
0.0
  0
VERTEX
  5
5D
330
53
100
AcDbEntity
  8
Layer 1
 62
   250
420
  2301728
370
    35
100
AcDbVertex
100
AcDb2dVertex
 10
3.844835755110049
 20
5.865959284970876
 30
0.0
  0
VERTEX
  5
5E
330
53
100
AcDbEntity
  8
Layer 1
 62
   250
420
  2301728
370
    35
100
AcDbVertex
100
AcDb2dVertex
 10
3.476805854839464
 20
6.002675075048665
 30
0.0
  0
SEQEND
  5
60
330
53
100
AcDbEntity
  8
Layer 1
 62
   250
420
  2301728
370
    35
  0
HATCH
  5
5F
330
41
100
AcDbEntity
  8
Layer 1
 62
    43
420
 15444572
100
AcDbHatch
 10
0.0
 20
0.0
 30
0.0
210
0.0
220
0.0
230
1.0
  2
SOLID
 70
     1
 71
     0
 91
        1
 92
        1
 93
       10
 72
     1
 10
3.476805854839464
 20
6.002675075048665
 11
3.485457417359081
 21
7.401544812978588
 72
     1
 10
3.485457417359081
 20
7.401544812978588
 11
3.429935760067906
 21
7.414640473477889
 72
     1
 10
3.429935760067906
 20
7.414640473477889
 11
3.545765424416736
 21
7.573562851090135
 72
     1
 10
3.545765424416736
 20
7.573562851090135
 11
3.485457417359081
 21
7.586598844356571
 72
     1
 10
3.485457417359081
 20
7.586598844356571
 11
3.485457417359081
 21
8.734189110887554
 72
     1
 10
3.485457417359081
 20
8.734189110887554
 11
4.301142215530439
 21
8.858733162797863
 72
     1
 10
4.301142215530439
 20
8.858733162797863
 11
4.635353952151541
 21
8.83651322678961
 72
     1
 10
4.635353952151541
 20
8.83651322678961
 11
4.635276125326072
 21
6.588630649794027
 72
     1
 10
4.635276125326072
 20
6.588630649794027
 11
3.844835755110049
 21
5.865959284970876
 72
     1
 10
3.844835755110049
 20
5.865959284970876
 11
3.476805854839464
 21
6.002675075048665
 97
        0
 75
     2
 76
     1
 98
        0
  0
POLYLINE
  5
61
330
41
100
AcDbEntity
  8
Layer 1
 62
   250
420
  2301728
370
    20
100
AcDb2dPolyline
 66
     1
 10
0.0
 20
0.0
 30
0.0
  0
VERTEX
  5
62
330
61
100
AcDbEntity
  8
Layer 1
 62
   250
420
  2301728
370
    20
100
AcDbVertex
100
AcDb2dVertex
 10
3.844633405363841
 20
5.867466531157498
 30
0.0
  0
VERTEX
  5
63
330
61
100
AcDbEntity
  8
Layer 1
 62
   250
420
  2301728
370
    20
100
AcDbVertex
100
AcDb2dVertex
 10
3.853285154128722
 20
7.314622964165992
 30
0.0
  0
VERTEX
  5
64
330
61
100
AcDbEntity
  8
Layer 1
 62
   250
420
  2301728
370
    20
100
AcDbVertex
100
AcDb2dVertex
 10
3.804705649669586
 20
7.326236982425105
 30
0.0
  0
VERTEX
  5
65
330
61
100
AcDbEntity
  8
Layer 1
 62
   250
420
  2301728
370
    20
100
AcDbVertex
100
AcDb2dVertex
 10
3.932048495733119
 20
7.491367689276116
 30
0.0
  0
VERTEX
  5
66
330
61
100
AcDbEntity
  8
Layer 1
 62
   250
420
  2301728
370
    20
100
AcDbVertex
100
AcDb2dVertex
 10
3.853285154128722
 20
7.508465900038484
 30
0.0
  0
VERTEX
  5
67
330
61
100
AcDbEntity
  8
Layer 1
 62
   250
420
  2301728
370
    20
100
AcDbVertex
100
AcDb2dVertex
 10
3.853285154128722
 20
8.696567996694334
 30
0.0
  0
VERTEX
  5
68
330
61
100
AcDbEntity
  8
Layer 1
 62
   250
420
  2301728
370
    20
100
AcDbVertex
100
AcDb2dVertex
 10
4.635226835003272
 20
8.836386109641353
 30
0.0
  0
SEQEND
  5
69
330
61
100
AcDbEntity
  8
Layer 1
 62
   250
420
  2301728
370
    20
  0
POLYLINE
  5
6A
330
41
100
AcDbEntity
  8
Layer 1
 62
   250
420
  2301728
370
    20
100
AcDb2dPolyline
 66
     1
 10
0.0
 20
0.0
 30
0.0
  0
VERTEX
  5
6B
330
6A
100
AcDbEntity
  8
Layer 1
 62
   250
420
  2301728
370
    20
100
AcDbVertex
100
AcDb2dVertex
 10
3.486393933492245
 20
8.735455468137186
 30
0.0
  0
VERTEX
  5
6C
330
6A
100
AcDbEntity
  8
Layer 1
 62
   250
420
  2301728
370
    20
100
AcDbVertex
100
AcDb2dVertex
 10
3.852652162614883
 20
8.697784316159629
 30
0.0
  0
SEQEND
  5
6D
330
6A
100
AcDbEntity
  8
Layer 1
 62
   250
420
  2301728
370
    20
  0
POLYLINE
  5
6E
330
41
100
AcDbEntity
  8
Layer 1
 62
   250
420
  2301728
370
    20
100
AcDb2dPolyline
 66
     1
 10
0.0
 20
0.0
 30
0.0
  0
VERTEX
  5
6F
330
6E
100
AcDbEntity
  8
Layer 1
 62
   250
420
  2301728
370
    20
100
AcDbVertex
100
AcDb2dVertex
 10
3.545765424416736
 20
7.575500739044362
 30
0.0
  0
VERTEX
  5
70
330
6E
100
AcDbEntity
  8
Layer 1
 62
   250
420
  2301728
370
    20
100
AcDbVertex
100
AcDb2dVertex
 10
3.853285154128722
 20
7.508593360415564
 30
0.0
  0
SEQEND
  5
71
330
6E
100
AcDbEntity
  8
Layer 1
 62
   250
420
  2301728
370
    20
  0
POLYLINE
  5
72
330
41
100
AcDbEntity
  8
Layer 1
 62
   250
420
  2301728
370
    20
100
AcDb2dPolyline
 66
     1
 10
0.0
 20
0.0
 30
0.0
  0
VERTEX
  5
73
330
72
100
AcDbEntity
  8
Layer 1
 62
   250
420
  2301728
370
    20
100
AcDbVertex
100
AcDb2dVertex
 10
3.485366805857552
 20
7.403812508409146
 30
0.0
  0
VERTEX
  5
74
330
72
100
AcDbEntity
  8
Layer 1
 62
   250
420
  2301728
370
    20
100
AcDbVertex
100
AcDb2dVertex
 10
3.804249260143971
 20
7.326288866975434
 30
0.0
  0
SEQEND
  5
75
330
72
100
AcDbEntity
  8
Layer 1
 62
   250
420
  2301728
370
    20
  0
SPLINE
  5
76
330
41
100
AcDbEntity
  8
Layer 1
 62
   250
420
  2301728
370
    13
100
AcDbSpline
210
0.0
220
0.0
230
1.0
 70
     8
 71
     3
 72
    32
 73
    28
 74
     0
 42
0.0000000001
 43
0.0000000001
 12
1.0
 22
0.0
 32
0.0
 13
1.0
 23
0.0
 33
0.0
 40
0.0
 40
0.0
 40
0.0
 40
0.0
 40
1.0
 40
1.0
 40
1.0
 40
2.0
 40
2.0
 40
2.0
 40
3.0
 40
3.0
 40
3.0
 40
4.0
 40
4.0
 40
4.0
 40
5.0
 40
5.0
 40
5.0
 40
6.0
 40
6.0
 40
6.0
 40
7.0
 40
7.0
 40
7.0
 40
8.0
 40
8.0
 40
8.0
 40
9.0
 40
9.0
 40
9.0
 40
9.0
 10
3.488661474885728
 20
5.999027591161583
 30
0.0
 10
3.4944126907433
 20
6.021828256797132
 30
0.0
 10
3.496908337613414
 20
6.079272236677462
 30
0.0
 10
3.497352137282885
 20
6.103201391282318
 30
0.0
 10
3.497805940333844
 20
6.127143517024794
 30
0.0
 10
3.495629383448166
 20
6.074395088947932
 30
0.0
 10
3.495629383448166
 20
6.086798090700502
 30
0.0
 10
3.495629383448166
 20
6.099159584812835
 30
0.0
 10
3.507713295216338
 20
6.6655079879945
 30
0.0
 10
3.510714816452011
 20
6.68597903732095
 30
0.0
 10
3.513729308825266
 20
6.706460463557467
 30
0.0
 10
3.516274246018169
 20
6.82231347595392
 30
0.0
 10
3.515008262990502
 20
6.851802060124972
 30
0.0
 10
3.513729308825266
 20
6.881293238523552
 30
0.0
 10
3.518769892888283
 20
7.043723011737042
 30
0.0
 10
3.521379685769084
 20
7.067221524574316
 30
0.0
 10
3.524015420925037
 20
7.090717443184088
 30
0.0
 10
3.524837791047528
 20
7.139411093653936
 30
0.0
 10
3.523558836882279
 20
7.155674640263227
 30
0.0
 10
3.522279882717031
 20
7.171976431658587
 30
0.0
 10
3.51409768913249
 20
7.238593600034455
 30
0.0
 10
3.511550157712072
 20
7.248879712134226
 30
0.0
 10
3.508992249381574
 20
7.259152853096427
 30
0.0
 10
3.49750241571452
 20
7.281369817540937
 30
0.0
 10
3.500073295182574
 20
7.302297450910146
 30
0.0
 10
3.50260785546541
 20
7.323222490051863
 30
0.0
 10
3.506888330866344
 20
7.383177682167368
 30
0.0
 10
3.505622347838678
 20
7.396844072720127
 30
0.0
  0
SPLINE
  5
77
330
41
100
AcDbEntity
  8
Layer 1
 62
   250
420
  2301728
370
    13
100
AcDbSpline
210
0.0
220
0.0
230
1.0
 70
     8
 71
     3
 72
    35
 73
    31
 74
     0
 42
0.0000000001
 43
0.0000000001
 12
1.0
 22
0.0
 32
0.0
 13
1.0
 23
0.0
 33
0.0
 40
0.0
 40
0.0
 40
0.0
 40
0.0
 40
1.0
 40
1.0
 40
1.0
 40
2.0
 40
2.0
 40
2.0
 40
3.0
 40
3.0
 40
3.0
 40
4.0
 40
4.0
 40
4.0
 40
5.0
 40
5.0
 40
5.0
 40
6.0
 40
6.0
 40
6.0
 40
7.0
 40
7.0
 40
7.0
 40
8.0
 40
8.0
 40
8.0
 40
9.0
 40
9.0
 40
9.0
 40
10.0
 40
10.0
 40
10.0
 40
10.0
 10
3.556772731765881
 20
5.973757220931083
 30
0.0
 10
3.559761281863985
 20
5.987854253251435
 30
0.0
 10
3.563144154544463
 20
6.033113146490463
 30
0.0
 10
3.561878171516797
 20
6.058777839303363
 30
0.0
 10
3.560596623124032
 20
6.084416589841074
 30
0.0
 10
3.561483848934409
 20
6.073129412886209
 30
0.0
 10
3.561040424402411
 20
6.112436841238238
 30
0.0
 10
3.560596623124032
 20
6.15174198232872
 30
0.0
 10
3.569769811619583
 20
6.777015669302146
 30
0.0
 10
3.567577877907158
 20
6.805201951260338
 30
0.0
 10
3.56542466901471
 20
6.833421958176195
 30
0.0
 10
3.568807353211254
 20
6.960764804239716
 30
0.0
 10
3.564967896488004
 20
6.991140614221156
 30
0.0
 10
3.561141410902337
 20
7.021542366477724
 30
0.0
 10
3.556860935501415
 20
7.045383317347095
 30
0.0
 10
3.557304736685435
 20
7.065966250503821
 30
0.0
 10
3.557761132449375
 20
7.086512532947268
 30
0.0
 10
3.561141410902337
 20
7.151863385729294
 30
0.0
 10
3.557304736685435
 20
7.173232037776188
 30
0.0
 10
3.55349122214102
 20
7.194626632098245
 30
0.0
 10
3.552212079793283
 20
7.207382448792954
 30
0.0
 10
3.550476541585264
 20
7.218112173797926
 30
0.0
 10
3.548766945652396
 20
7.228826333437811
 30
0.0
 10
3.546284269919877
 20
7.234769708676303
 30
0.0
 10
3.547944575529931
 20
7.250158666299474
 30
0.0
 10
3.549602286912469
 20
7.265537247012579
 30
0.0
 10
3.55475701698616
 20
7.287411773425029
 30
0.0
 10
3.553047421053331
 20
7.306186197956208
 30
0.0
 10
3.551312070972749
 20
7.324958028259895
 30
0.0
 10
3.548702089964523
 20
7.365949417235558
 30
0.0
 10
3.552593431238089
 20
7.385595502212014
 30
0.0
  0
SPLINE
  5
78
330
41
100
AcDbEntity
  8
Layer 1
 62
   250
420
  2301728
370
    13
100
AcDbSpline
210
0.0
220
0.0
230
1.0
 70
     8
 71
     3
 72
    38
 73
    34
 74
     0
 42
0.0000000001
 43
0.0000000001
 12
1.0
 22
0.0
 32
0.0
 13
1.0
 23
0.0
 33
0.0
 40
0.0
 40
0.0
 40
0.0
 40
0.0
 40
1.0
 40
1.0
 40
1.0
 40
2.0
 40
2.0
 40
2.0
 40
3.0
 40
3.0
 40
3.0
 40
4.0
 40
4.0
 40
4.0
 40
5.0
 40
5.0
 40
5.0
 40
6.0
 40
6.0
 40
6.0
 40
7.0
 40
7.0
 40
7.0
 40
8.0
 40
8.0
 40
8.0
 40
9.0
 40
9.0
 40
9.0
 40
10.0
 40
10.0
 40
10.0
 40
11.0
 40
11.0
 40
11.0
 40
11.0
 10
3.617903108946014
 20
5.950650436448679
 30
0.0
 10
3.620476582641597
 20
5.978847095316888
 30
0.0
 10
3.613179020639917
 20
5.963268759085079
 30
0.0
 10
3.616193702779658
 20
5.988487244765275
 30
0.0
 10
3.619195034248845
 20
6.01368238239781
 30
0.0
 10
3.623921716782458
 20
6.055130355416281
 30
0.0
 10
3.620476582641597
 20
6.080779482864083
 30
0.0
 10
3.61702885427322
 20
6.106431204539363
 30
0.0
 10
3.618411577539101
 20
6.729958976394729
 30
0.0
 10
3.621400127637192
 20
6.750074616551538
 30
0.0
 10
3.624401648872865
 20
6.770177285570766
 30
0.0
 10
3.631292107302506
 20
6.807391479283587
 30
0.0
 10
3.625301845820811
 20
6.825784552369959
 30
0.0
 10
3.619296209121949
 20
6.844164654318736
 30
0.0
 10
3.618917641739952
 20
6.860365605154343
 30
0.0
 10
3.613736779555792
 20
6.874478202839795
 30
0.0
 10
3.608582049482063
 20
6.888575235160172
 30
0.0
 10
3.600905730263106
 20
6.912960973807811
 30
0.0
 10
3.594913064701814
 20
6.928326583383333
 30
0.0
 10
3.588910022230468
 20
6.943715541006504
 30
0.0
 10
3.590188976395716
 20
6.951835473130674
 30
0.0
 10
3.588910022230468
 20
6.968493008009027
 30
0.0
 10
3.587628473837715
 20
6.98513757174981
 30
0.0
 10
3.590251426967218
 20
7.068562740199935
 30
0.0
 10
3.590251426967218
 20
7.087778183408798
 30
0.0
 10
3.590251426967218
 20
7.106970278569975
 30
0.0
 10
3.594469451796625
 20
7.162577545369167
 30
0.0
 10
3.590632589300905
 20
7.189077579442142
 30
0.0
 10
3.586806103715225
 20
7.215564642377507
 30
0.0
 10
3.584183339696867
 20
7.268614000846228
 30
0.0
 10
3.584639923739612
 20
7.289085050172654
 30
0.0
 10
3.585083536644801
 20
7.309579447546753
 30
0.0
 10
3.586414375360341
 20
7.359996004561948
 30
0.0
 10
3.584261166522323
 20
7.377553396913337
 30
0.0
  0
SPLINE
  5
79
330
41
100
AcDbEntity
  8
Layer 1
 62
   250
420
  2301728
370
    13
100
AcDbSpline
210
0.0
220
0.0
230
1.0
 70
     8
 71
     3
 72
    32
 73
    28
 74
     0
 42
0.0000000001
 43
0.0000000001
 12
1.0
 22
0.0
 32
0.0
 13
1.0
 23
0.0
 33
0.0
 40
0.0
 40
0.0
 40
0.0
 40
0.0
 40
1.0
 40
1.0
 40
1.0
 40
2.0
 40
2.0
 40
2.0
 40
3.0
 40
3.0
 40
3.0
 40
4.0
 40
4.0
 40
4.0
 40
5.0
 40
5.0
 40
5.0
 40
6.0
 40
6.0
 40
6.0
 40
7.0
 40
7.0
 40
7.0
 40
8.0
 40
8.0
 40
8.0
 40
9.0
 40
9.0
 40
9.0
 40
9.0
 10
3.636791869774722
 20
7.364784609081008
 30
0.0
 10
3.641946409561594
 20
7.334395827962011
 30
0.0
 10
3.643744399692448
 20
7.306577926311079
 30
0.0
 10
3.642402993604365
 20
7.281369817540937
 30
0.0
 10
3.64105918375123
 20
7.256151331860754
 30
0.0
 10
3.642781750821655
 20
7.221860832558137
 30
0.0
 10
3.64022384249117
 20
7.199288458943947
 30
0.0
 10
3.637676311070739
 20
7.176703114192214
 30
0.0
 10
3.632129852642164
 20
7.158688798323143
 30
0.0
 10
3.635966715137897
 20
7.143312811837543
 30
0.0
 10
3.639780229585982
 20
7.127921259986843
 30
0.0
 10
3.64705184931251
 20
7.121474604610285
 30
0.0
 10
3.655612800114341
 20
7.09972460111861
 30
0.0
 10
3.664150402868548
 20
7.077974597626949
 30
0.0
 10
3.671878606637834
 20
7.042861728201829
 30
0.0
 10
3.674436514968319
 20
7.012535208543214
 30
0.0
 10
3.67699701752632
 20
6.982224584181305
 30
0.0
 10
3.691031788386302
 20
6.927831085927828
 30
0.0
 10
3.687648915705823
 20
6.899242698704724
 30
0.0
 10
3.684279014162914
 20
6.870625774978937
 30
0.0
 10
3.682089486139653
 20
6.76034775751374
 30
0.0
 10
3.681251550652076
 20
6.730389618162349
 30
0.0
 10
3.680442151667181
 20
6.700480769133769
 30
0.0
 10
3.671281934309225
 20
6.108229312060391
 30
0.0
 10
3.670446593049165
 20
6.049202545542875
 30
0.0
 10
3.669611251789117
 20
5.990147550375329
 30
0.0
 10
3.671281934309225
 20
5.950131590945514
 30
0.0
 10
3.66826744193597
 20
5.932208073039519
 30
0.0
  0
SPLINE
  5
7A
330
41
100
AcDbEntity
  8
Layer 1
 62
   250
420
  2301728
370
    13
100
AcDbSpline
210
0.0
220
0.0
230
1.0
 70
     8
 71
     3
 72
    35
 73
    31
 74
     0
 42
0.0000000001
 43
0.0000000001
 12
1.0
 22
0.0
 32
0.0
 13
1.0
 23
0.0
 33
0.0
 40
0.0
 40
0.0
 40
0.0
 40
0.0
 40
1.0
 40
1.0
 40
1.0
 40
2.0
 40
2.0
 40
2.0
 40
3.0
 40
3.0
 40
3.0
 40
4.0
 40
4.0
 40
4.0
 40
5.0
 40
5.0
 40
5.0
 40
6.0
 40
6.0
 40
6.0
 40
7.0
 40
7.0
 40
7.0
 40
8.0
 40
8.0
 40
8.0
 40
9.0
 40
9.0
 40
9.0
 40
10.0
 40
10.0
 40
10.0
 40
10.0
 10
3.728588420131207
 20
5.909609757150179
 30
0.0
 10
3.729032033036383
 20
5.944647393977308
 30
0.0
 10
3.734212705385251
 20
5.981596976483552
 30
0.0
 10
3.733315102664821
 20
6.014517723657895
 30
0.0
 10
3.732427876854445
 20
6.047467007334868
 30
0.0
 10
3.738519123061337
 20
6.670587485470264
 30
0.0
 10
3.738975707104095
 20
6.698810086613636
 30
0.0
 10
3.739419512888705
 20
6.727019716619439
 30
0.0
 10
3.745412178601378
 20
6.783882589536246
 30
0.0
 10
3.743245805594951
 20
6.805655941075567
 30
0.0
 10
3.74107981854071
 20
6.827431886842419
 30
0.0
 10
3.738078104383665
 20
6.943271928101328
 30
0.0
 10
3.740254661269343
 20
6.970215575079465
 30
0.0
 10
3.742420841244956
 20
6.997146250919993
 30
0.0
 10
3.738583978749223
 20
7.032562644964464
 30
0.0
 10
3.736417798773611
 20
7.050120376790763
 30
0.0
 10
3.734251618797985
 20
7.067662543251989
 30
0.0
 10
3.723521893793026
 20
7.138194400949045
 30
0.0
 10
3.715871516849208
 20
7.154838964689828
 30
0.0
 10
3.708208168767808
 20
7.171522441843345
 30
0.0
 10
3.701748542253692
 20
7.20018606166439
 30
0.0
 10
3.696199681385186
 20
7.222392649198847
 30
0.0
 10
3.690650436941496
 20
7.24460961364337
 30
0.0
 10
3.69148837242906
 20
7.262219567024872
 30
0.0
 10
3.68464739447015
 20
7.276697613785156
 30
0.0
 10
3.677819387648797
 20
7.291199345597975
 30
0.0
 10
3.674843808688289
 20
7.304489573160948
 30
0.0
 10
3.674843808688289
 20
7.313862517175178
 30
0.0
 10
3.674843808688289
 20
7.323222490051863
 30
0.0
 10
3.678654728908858
 20
7.335750014725224
 30
0.0
 10
3.674843808688289
 20
7.355803393421625
 30
0.0
  0
SPLINE
  5
7B
330
41
100
AcDbEntity
  8
Layer 1
 62
   250
420
  2301728
370
    13
100
AcDbSpline
210
0.0
220
0.0
230
1.0
 70
     8
 71
     3
 72
    44
 73
    40
 74
     0
 42
0.0000000001
 43
0.0000000001
 12
1.0
 22
0.0
 32
0.0
 13
1.0
 23
0.0
 33
0.0
 40
0.0
 40
0.0
 40
0.0
 40
0.0
 40
1.0
 40
1.0
 40
1.0
 40
2.0
 40
2.0
 40
2.0
 40
3.0
 40
3.0
 40
3.0
 40
4.0
 40
4.0
 40
4.0
 40
5.0
 40
5.0
 40
5.0
 40
6.0
 40
6.0
 40
6.0
 40
7.0
 40
7.0
 40
7.0
 40
8.0
 40
8.0
 40
8.0
 40
9.0
 40
9.0
 40
9.0
 40
10.0
 40
10.0
 40
10.0
 40
11.0
 40
11.0
 40
11.0
 40
12.0
 40
12.0
 40
12.0
 40
13.0
 40
13.0
 40
13.0
 40
13.0
 10
3.779030579946619
 20
5.890786042296187
 30
0.0
 10
3.781183788784662
 20
5.914271583995906
 30
0.0
 10
3.781183788784662
 20
5.922492690993181
 30
0.0
 10
3.779891863481831
 20
5.950650436448679
 30
0.0
 10
3.778649228501813
 20
5.978797804994088
 30
0.0
 10
3.777814081091126
 20
5.971196718373082
 30
0.0
 10
3.77435578196331
 20
6.005347129389835
 30
0.0
 10
3.770923618960031
 20
6.039484569269044
 30
0.0
 10
3.765426450854243
 20
6.021410586167108
 30
0.0
 10
3.763260464360327
 20
6.041917954678777
 30
0.0
 10
3.761094090903018
 20
6.062389310699839
 30
0.0
 10
3.76672875306714
 20
6.63682912401455
 30
0.0
 10
3.768453914365081
 20
6.668890860674992
 30
0.0
 10
3.770176481435517
 20
6.700911410901362
 30
0.0
 10
3.773569731026075
 20
6.731694514602736
 30
0.0
 10
3.772277805723231
 20
6.754785733720066
 30
0.0
 10
3.770998851557995
 20
6.777903219882559
 30
0.0
 10
3.764121554413843
 20
6.852258644167755
 30
0.0
 10
3.768023272597475
 20
6.879189320008297
 30
0.0
 10
3.771912019643524
 20
6.906132966986446
 30
0.0
 10
3.777826858379335
 20
6.954761761768408
 30
0.0
 10
3.772277805723231
 20
6.983871588722145
 30
0.0
 10
3.76672875306714
 20
7.012966181019022
 30
0.0
 10
3.764614457641831
 20
7.070690006762838
 30
0.0
 10
3.764196787011807
 20
7.088590176621197
 30
0.0
 10
3.763740202969037
 20
7.106552607939963
 30
0.0
 10
3.768023272597475
 20
7.124045484078364
 30
0.0
 10
3.764196787011807
 20
7.142856227794772
 30
0.0
 10
3.760346953378479
 20
7.161703290696386
 30
0.0
 10
3.75868664776845
 20
7.179616431692352
 30
0.0
 10
3.757799421958073
 20
7.192447480985025
 30
0.0
 10
3.756912196147697
 20
7.205291501415318
 30
0.0
 10
3.758243034863262
 20
7.221038462435672
 30
0.0
 10
3.753518946557152
 20
7.236048662841527
 30
0.0
 10
3.748805235161108
 20
7.251058863247421
 30
0.0
 10
3.748413506806236
 20
7.263498184185247
 30
0.0
 10
3.744968372665375
 20
7.282257043351339
 30
0.0
 10
3.741523238524514
 20
7.301031467882504
 30
0.0
 10
3.73648006023398
 20
7.326288866975434
 30
0.0
 10
3.738140365844048
 20
7.341247182830998
 30
0.0
  0
SPLINE
  5
7C
330
41
100
AcDbEntity
  8
Layer 1
 62
   250
420
  2301728
370
    13
100
AcDbSpline
210
0.0
220
0.0
230
1.0
 70
     8
 71
     3
 72
    26
 73
    22
 74
     0
 42
0.0000000001
 43
0.0000000001
 12
1.0
 22
0.0
 32
0.0
 13
1.0
 23
0.0
 33
0.0
 40
0.0
 40
0.0
 40
0.0
 40
0.0
 40
1.0
 40
1.0
 40
1.0
 40
2.0
 40
2.0
 40
2.0
 40
3.0
 40
3.0
 40
3.0
 40
4.0
 40
4.0
 40
4.0
 40
5.0
 40
5.0
 40
5.0
 40
6.0
 40
6.0
 40
6.0
 40
7.0
 40
7.0
 40
7.0
 40
7.0
 10
3.793672400045276
 20
7.328340900940361
 30
0.0
 10
3.796663544370883
 20
7.307843909338733
 30
0.0
 10
3.792331184419658
 20
7.277532955045242
 30
0.0
 10
3.800487630151186
 20
7.248057342011748
 30
0.0
 10
3.808659447032091
 20
7.218555786703127
 30
0.0
 10
3.812065473131636
 20
7.167620723659726
 30
0.0
 10
3.816322600484922
 20
7.123210142818316
 30
0.0
 10
3.820603075885831
 20
7.078786590839336
 30
0.0
 10
3.823161179211247
 20
7.046218658607144
 30
0.0
 10
3.820146491843072
 20
7.017627677156547
 30
0.0
 10
3.817157941744982
 20
6.98903928993343
 30
0.0
 10
3.808659447032091
 20
6.909108545946954
 30
0.0
 10
3.815497636134928
 20
6.87191802742681
 30
0.0
 10
3.822325642956268
 20
6.834703506568947
 30
0.0
 10
3.83049745963073
 20
6.712489448303977
 30
0.0
 10
3.82833127965513
 20
6.681265325924906
 30
0.0
 10
3.826152128541935
 20
6.650041203545861
 30
0.0
 10
3.812332678565756
 20
6.064565560890906
 30
0.0
 10
3.817043795734283
 20
6.022245927427181
 30
0.0
 10
3.821793826315545
 20
5.979936670873498
 30
0.0
 10
3.840542504005586
 20
5.926633381373386
 30
0.0
 10
3.84444402675519
 20
5.906530409089037
 30
0.0
  0
SPLINE
  5
7D
330
41
100
AcDbEntity
  8
Layer 1
 62
   250
420
  2301728
370
    13
100
AcDbSpline
210
0.0
220
0.0
230
1.0
 70
     8
 71
     3
 72
    14
 73
    10
 74
     0
 42
0.0000000001
 43
0.0000000001
 12
1.0
 22
0.0
 32
0.0
 13
1.0
 23
0.0
 33
0.0
 40
0.0
 40
0.0
 40
0.0
 40
0.0
 40
1.0
 40
1.0
 40
1.0
 40
2.0
 40
2.0
 40
2.0
 40
3.0
 40
3.0
 40
3.0
 40
3.0
 10
3.453447244042763
 20
7.410500086362807
 30
0.0
 10
3.465860622705425
 20
7.420773227325021
 30
0.0
 10
3.475614918164486
 20
7.431375835181711
 30
0.0
 10
3.493170055763282
 20
7.455746008464264
 30
0.0
 10
3.510714816452011
 20
7.480131747111916
 30
0.0
 10
3.517947522765805
 20
7.501879156376098
 30
0.0
 10
3.535492283454535
 20
7.512178239613477
 30
0.0
 10
3.553047421053331
 20
7.522438409438084
 30
0.0
 10
3.575772854090928
 20
7.551926993609135
 30
0.0
 10
3.585132826967601
 20
7.564329995361732
 30
0.0
  0
SPLINE
  5
7E
330
41
100
AcDbEntity
  8
Layer 1
 62
   250
420
  2301728
370
    13
100
AcDbSpline
210
0.0
220
0.0
230
1.0
 70
     8
 71
     3
 72
    14
 73
    10
 74
     0
 42
0.0000000001
 43
0.0000000001
 12
1.0
 22
0.0
 32
0.0
 13
1.0
 23
0.0
 33
0.0
 40
0.0
 40
0.0
 40
0.0
 40
0.0
 40
1.0
 40
1.0
 40
1.0
 40
2.0
 40
2.0
 40
2.0
 40
3.0
 40
3.0
 40
3.0
 40
3.0
 10
3.491068731475555
 20
7.401088569448852
 30
0.0
 10
3.506888330866344
 20
7.413096908106038
 30
0.0
 10
3.511550157712072
 20
7.421139013404741
 30
0.0
 10
3.534654347966959
 20
7.443371543214349
 30
0.0
 10
3.557761132449375
 20
7.465588507658859
 30
0.0
 10
3.568869614671623
 20
7.487400772610941
 30
0.0
 10
3.582512657176734
 20
7.495964317640287
 30
0.0
 10
3.596179047729493
 20
7.504514891532065
 30
0.0
 10
3.624009920518006
 20
7.537448609843952
 30
0.0
 10
3.627846783013726
 20
7.555841682930336
 30
0.0
  0
SPLINE
  5
7F
330
41
100
AcDbEntity
  8
Layer 1
 62
   250
420
  2301728
370
    13
100
AcDbSpline
210
0.0
220
0.0
230
1.0
 70
     8
 71
     3
 72
    14
 73
    10
 74
     0
 42
0.0000000001
 43
0.0000000001
 12
1.0
 22
0.0
 32
0.0
 13
1.0
 23
0.0
 33
0.0
 40
0.0
 40
0.0
 40
0.0
 40
0.0
 40
1.0
 40
1.0
 40
1.0
 40
2.0
 40
2.0
 40
2.0
 40
3.0
 40
3.0
 40
3.0
 40
3.0
 10
3.530817673080934
 20
7.391663400371258
 30
0.0
 10
3.546209037321925
 20
7.401492928428297
 30
0.0
 10
3.564599516180768
 20
7.418137492169067
 30
0.0
 10
3.582512657176734
 20
7.434820969322585
 30
0.0
 10
3.6004750884955
 20
7.451465533063356
 30
0.0
 10
3.627340908648168
 20
7.488744582464088
 30
0.0
 10
3.639780229585982
 20
7.497673913573142
 30
0.0
 10
3.652232521661378
 20
7.506629186957361
 30
0.0
 10
3.67736280360604
 20
7.532662260077485
 30
0.0
 10
3.684279014162914
 20
7.544214355204935
 30
0.0
  0
SPLINE
  5
80
330
41
100
AcDbEntity
  8
Layer 1
 62
   250
420
  2301728
370
    13
100
AcDbSpline
210
0.0
220
0.0
230
1.0
 70
     8
 71
     3
 72
    14
 73
    10
 74
     0
 42
0.0000000001
 43
0.0000000001
 12
1.0
 22
0.0
 32
0.0
 13
1.0
 23
0.0
 33
0.0
 40
0.0
 40
0.0
 40
0.0
 40
0.0
 40
1.0
 40
1.0
 40
1.0
 40
2.0
 40
2.0
 40
2.0
 40
3.0
 40
3.0
 40
3.0
 40
3.0
 10
3.603855366948462
 20
7.374562252587705
 30
0.0
 10
3.620121173471944
 20
7.383507149061908
 30
0.0
 10
3.635966715137897
 20
7.400592731480337
 30
0.0
 10
3.652598307741098
 20
7.418137492169067
 30
0.0
 10
3.669281784894603
 20
7.435695565382616
 30
0.0
 10
3.69148837242906
 20
7.470808093420474
 30
0.0
 10
3.704750063489364
 20
7.482297927087542
 30
0.0
 10
3.718037696824821
 20
7.493785166527092
 30
0.0
 10
3.739811048364155
 20
7.519437231705157
 30
0.0
 10
3.745803713925435
 20
7.53100195446743
 30
0.0
  0
SPLINE
  5
81
330
41
100
AcDbEntity
  8
Layer 1
 62
   250
420
  2301728
370
    13
100
AcDbSpline
210
0.0
220
0.0
230
1.0
 70
     8
 71
     3
 72
    14
 73
    10
 74
     0
 42
0.0000000001
 43
0.0000000001
 12
1.0
 22
0.0
 32
0.0
 13
1.0
 23
0.0
 33
0.0
 40
0.0
 40
0.0
 40
0.0
 40
0.0
 40
1.0
 40
1.0
 40
1.0
 40
2.0
 40
2.0
 40
2.0
 40
3.0
 40
3.0
 40
3.0
 40
3.0
 10
3.660339482647966
 20
7.36128759038983
 30
0.0
 10
3.678263000553986
 20
7.372372724564469
 30
0.0
 10
3.687319448811321
 20
7.384773132089536
 30
0.0
 10
3.714198240101571
 20
7.407864351206866
 30
0.0
 10
3.74107981854071
 20
7.43096854146174
 30
0.0
 10
3.753062362514394
 20
7.456633234274641
 30
0.0
 10
3.770176481435517
 20
7.469020670662151
 30
0.0
 10
3.787300977266694
 20
7.481410701277165
 30
0.0
 10
3.810013439166722
 20
7.507454151307355
 30
0.0
 10
3.814662294874855
 20
7.51644833810432
 30
0.0
  0
SPLINE
  5
82
330
41
100
AcDbEntity
  8
Layer 1
 62
   250
420
  2301728
370
    13
100
AcDbSpline
210
0.0
220
0.0
230
1.0
 70
     8
 71
     3
 72
    14
 73
    10
 74
     0
 42
0.0000000001
 43
0.0000000001
 12
1.0
 22
0.0
 32
0.0
 13
1.0
 23
0.0
 33
0.0
 40
0.0
 40
0.0
 40
0.0
 40
0.0
 40
1.0
 40
1.0
 40
1.0
 40
2.0
 40
2.0
 40
2.0
 40
3.0
 40
3.0
 40
3.0
 40
3.0
 10
3.711196718865899
 20
7.348900154002333
 30
0.0
 10
3.729576820814701
 20
7.360831006347085
 30
0.0
 10
3.751415028041897
 20
7.384378809507173
 30
0.0
 10
3.770176481435517
 20
7.401492928428297
 30
0.0
 10
3.788961282876749
 20
7.418620018486977
 30
0.0
 10
3.809481622526
 20
7.445537723189962
 30
0.0
 10
3.824873369414869
 20
7.455367251246975
 30
0.0
 10
3.840262131999869
 20
7.465170837028836
 30
0.0
 10
3.868471762005672
 20
7.492431322584416
 30
0.0
 10
3.876199965774971
 20
7.502348711556439
 30
0.0
  0
SPLINE
  5
83
330
41
100
AcDbEntity
  8
Layer 1
 62
   250
420
  2301728
370
    13
100
AcDbSpline
210
0.0
220
0.0
230
1.0
 70
     8
 71
     3
 72
    14
 73
    10
 74
     0
 42
0.0000000001
 43
0.0000000001
 12
1.0
 22
0.0
 32
0.0
 13
1.0
 23
0.0
 33
0.0
 40
0.0
 40
0.0
 40
0.0
 40
0.0
 40
1.0
 40
1.0
 40
1.0
 40
2.0
 40
2.0
 40
2.0
 40
3.0
 40
3.0
 40
3.0
 40
3.0
 10
3.755558009384496
 20
7.338245661595338
 30
0.0
 10
3.775230036636117
 20
7.346326680306762
 30
0.0
 10
3.792774797324846
 20
7.361731203295031
 30
0.0
 10
3.809050980758393
 20
7.376284819658154
 30
0.0
 10
3.82532716419194
 20
7.390828059111211
 30
0.0
 10
3.853030919832185
 20
7.423331135655505
 30
0.0
 10
3.862481690671908
 20
7.430146171339262
 30
0.0
 10
3.871916896146533
 20
7.437000120435767
 30
0.0
 10
3.903571660293197
 20
7.468084154528974
 30
0.0
 10
3.915961690908223
 20
7.470680976272193
 30
0.0
  0
SPLINE
  5
84
330
41
100
AcDbEntity
  8
Layer 1
 62
   250
420
  2301728
370
    13
100
AcDbSpline
210
0.0
220
0.0
230
1.0
 70
     8
 71
     3
 72
    20
 73
    16
 74
     0
 42
0.0000000001
 43
0.0000000001
 12
1.0
 22
0.0
 32
0.0
 13
1.0
 23
0.0
 33
0.0
 40
0.0
 40
0.0
 40
0.0
 40
0.0
 40
1.0
 40
1.0
 40
1.0
 40
2.0
 40
2.0
 40
2.0
 40
3.0
 40
3.0
 40
3.0
 40
4.0
 40
4.0
 40
4.0
 40
5.0
 40
5.0
 40
5.0
 40
5.0
 10
3.509827590641635
 20
7.581796929225005
 30
0.0
 10
3.516274246018169
 20
7.598454464103345
 30
0.0
 10
3.513259753644913
 20
7.647666960076322
 30
0.0
 10
3.51200674175483
 20
7.673329058661706
 30
0.0
 10
3.510714816452011
 20
7.698980780337024
 30
0.0
 10
3.501785485342945
 20
7.758022804367013
 30
0.0
 10
3.505165763795907
 20
7.781075110071583
 30
0.0
 10
3.508535665338816
 20
7.8041170388661
 30
0.0
 10
3.507661410666022
 20
7.82715896766063
 30
0.0
 10
3.507282653448732
 20
7.851985724985941
 30
0.0
 10
3.506888330866344
 20
7.876815076538782
 30
0.0
 10
3.499554449679433
 20
7.891812658716831
 30
0.0
 10
3.498719108419373
 20
7.899475653888518
 30
0.0
 10
3.497896925074972
 20
7.907139001969893
 30
0.0
 10
3.496615189904143
 20
7.963558261981499
 30
0.0
 10
3.485506707681869
 20
7.976391905501714
 30
0.0
  0
SPLINE
  5
85
330
41
100
AcDbEntity
  8
Layer 1
 62
   250
420
  2301728
370
    13
100
AcDbSpline
210
0.0
220
0.0
230
1.0
 70
     8
 71
     3
 72
    53
 73
    49
 74
     0
 42
0.0000000001
 43
0.0000000001
 12
1.0
 22
0.0
 32
0.0
 13
1.0
 23
0.0
 33
0.0
 40
0.0
 40
0.0
 40
0.0
 40
0.0
 40
1.0
 40
1.0
 40
1.0
 40
2.0
 40
2.0
 40
2.0
 40
3.0
 40
3.0
 40
3.0
 40
4.0
 40
4.0
 40
4.0
 40
5.0
 40
5.0
 40
5.0
 40
6.0
 40
6.0
 40
6.0
 40
7.0
 40
7.0
 40
7.0
 40
8.0
 40
8.0
 40
8.0
 40
9.0
 40
9.0
 40
9.0
 40
10.0
 40
10.0
 40
10.0
 40
11.0
 40
11.0
 40
11.0
 40
12.0
 40
12.0
 40
12.0
 40
13.0
 40
13.0
 40
13.0
 40
14.0
 40
14.0
 40
14.0
 40
15.0
 40
15.0
 40
15.0
 40
16.0
 40
16.0
 40
16.0
 40
16.0
 10
3.557304736685435
 20
7.571207292505871
 30
0.0
 10
3.559432003302062
 20
7.589587394454661
 30
0.0
 10
3.56240998815752
 20
7.618253608503235
 30
0.0
 10
3.561141410902337
 20
7.640013988904987
 30
0.0
 10
3.559875427874671
 20
7.661789934671837
 30
0.0
 10
3.555986680828621
 20
7.705009765083546
 30
0.0
 10
3.558139889666664
 20
7.724645473149912
 30
0.0
 10
3.560332011917429
 20
7.744317500401532
 30
0.0
 10
3.549654171462786
 20
7.826780210443328
 30
0.0
 10
3.55475701698616
 20
7.851985724985941
 30
0.0
 10
3.559875427874671
 20
7.877207157434428
 30
0.0
 10
3.557683305623893
 20
7.926406329729034
 30
0.0
 10
3.555594952473749
 20
7.949904842566323
 30
0.0
 10
3.55349122214102
 20
7.973387790038512
 30
0.0
 10
3.54486522746879
 20
7.993490459057726
 30
0.0
 10
3.544042857346299
 20
8.01443106356453
 30
0.0
 10
3.543218080919284
 20
8.035369073843803
 30
0.0
 10
3.539746816580292
 20
8.04684593637329
 30
0.0
 10
3.541051713020693
 20
8.061856136779182
 30
0.0
 10
3.542320290275875
 20
8.07685336604748
 30
0.0
 10
3.545827685877119
 20
8.107229176028921
 30
0.0
 10
3.540659984665821
 20
8.119162622601165
 30
0.0
 10
3.535492283454535
 20
8.131106446083473
 30
0.0
 10
3.528726538093565
 20
8.161038643159714
 30
0.0
 10
3.525268432815134
 20
8.165322072607308
 30
0.0
 10
3.521836269811843
 20
8.16958921705149
 30
0.0
 10
3.513729308825266
 20
8.185803139024655
 30
0.0
 10
3.513729308825266
 20
8.19690124433685
 30
0.0
 10
3.513729308825266
 20
8.20799711631878
 30
0.0
 10
3.516717858923357
 20
8.218801713024453
 30
0.0
 10
3.519278361481358
 20
8.232014113761958
 30
0.0
 10
3.521836269811843
 20
8.245224282109612
 30
0.0
 10
3.526028541477242
 20
8.249556642170294
 30
0.0
 10
3.522658639934333
 20
8.270053271824773
 30
0.0
 10
3.519278361481358
 20
8.290547669198872
 30
0.0
 10
3.522279882717031
 20
8.303316457031176
 30
0.0
 10
3.521836269811843
 20
8.322127200747584
 30
0.0
 10
3.521379685769084
 20
8.340963886739145
 30
0.0
 10
3.524433091555074
 20
8.369995886867413
 30
0.0
 10
3.519721974386546
 20
8.387553618693724
 30
0.0
 10
3.515008262990502
 20
8.405108756292533
 30
0.0
 10
3.51284208301489
 20
8.422222875213643
 30
0.0
 10
3.51284208301489
 20
8.442717272587755
 30
0.0
 10
3.51284208301489
 20
8.463214264189332
 30
0.0
 10
3.519340622941741
 20
8.48624322184628
 30
0.0
 10
3.516717858923357
 20
8.506802474908264
 30
0.0
 10
3.51409768913249
 20
8.52734653156982
 30
0.0
 10
3.512450541805732
 20
8.716442000452592
 30
0.0
 10
3.513259753644913
 20
8.729716662650464
 30
0.0
  0
SPLINE
  5
86
330
41
100
AcDbEntity
  8
Layer 1
 62
   250
420
  2301728
370
    13
100
AcDbSpline
210
0.0
220
0.0
230
1.0
 70
     8
 71
     3
 72
    47
 73
    43
 74
     0
 42
0.0000000001
 43
0.0000000001
 12
1.0
 22
0.0
 32
0.0
 13
1.0
 23
0.0
 33
0.0
 40
0.0
 40
0.0
 40
0.0
 40
0.0
 40
1.0
 40
1.0
 40
1.0
 40
2.0
 40
2.0
 40
2.0
 40
3.0
 40
3.0
 40
3.0
 40
4.0
 40
4.0
 40
4.0
 40
5.0
 40
5.0
 40
5.0
 40
6.0
 40
6.0
 40
6.0
 40
7.0
 40
7.0
 40
7.0
 40
8.0
 40
8.0
 40
8.0
 40
9.0
 40
9.0
 40
9.0
 40
10.0
 40
10.0
 40
10.0
 40
11.0
 40
11.0
 40
11.0
 40
12.0
 40
12.0
 40
12.0
 40
13.0
 40
13.0
 40
13.0
 40
14.0
 40
14.0
 40
14.0
 40
14.0
 10
3.544042857346299
 20
8.727044608309294
 30
0.0
 10
3.545308840373966
 20
8.704371059822012
 30
0.0
 10
3.547866748704463
 20
8.533795412209201
 30
0.0
 10
3.548323332747221
 20
8.506408152325877
 30
0.0
 10
3.548766945652396
 20
8.479023486670068
 30
0.0
 10
3.547500962624756
 20
8.414938650474557
 30
0.0
 10
3.551312070972749
 20
8.395292199373102
 30
0.0
 10
3.555151527792999
 20
8.375620172121469
 30
0.0
 10
3.555594952473749
 20
8.356848341817807
 30
0.0
 10
3.555594952473749
 20
8.346131587950417
 30
0.0
 10
3.555594952473749
 20
8.335414834083029
 30
0.0
 10
3.552655692698459
 20
8.31963155387747
 30
0.0
 10
3.559040086614611
 20
8.313221217686152
 30
0.0
 10
3.56542466901471
 20
8.306761591172037
 30
0.0
 10
3.561979346389914
 20
8.307155913754425
 30
0.0
 10
3.57097093895935
 20
8.284101013822339
 30
0.0
 10
3.579965125756315
 20
8.261072056165403
 30
0.0
 10
3.589745363490528
 20
8.233217835329242
 30
0.0
 10
3.597470973032311
 20
8.221297359894567
 30
0.0
 10
3.605186205664015
 20
8.209363913322324
 30
0.0
 10
3.608644500518216
 20
8.191809136211821
 30
0.0
 10
3.605186205664015
 20
8.177696538169862
 30
0.0
 10
3.601741071523154
 20
8.163599145717727
 30
0.0
 10
3.597079244677439
 20
8.13627414729476
 30
0.0
 10
3.596635631772251
 20
8.124265468124552
 30
0.0
 10
3.596179047729493
 20
8.11225938318186
 30
0.0
 10
3.584702185199995
 20
8.029428292832828
 30
0.0
 10
3.588528670785662
 20
8.013149515171765
 30
0.0
 10
3.592355156371329
 20
7.9968863028758
 30
0.0
 10
3.597522857582614
 20
7.974212754388518
 30
0.0
 10
3.597079244677439
 20
7.950270628646043
 30
0.0
 10
3.596635631772251
 20
7.926331097131095
 30
0.0
 10
3.591517220883752
 20
7.831429066151473
 30
0.0
 10
3.596635631772251
 20
7.8041170388661
 30
0.0
 10
3.601741071523154
 20
7.776820576945839
 30
0.0
 10
3.606008575786505
 20
7.76353294361037
 30
0.0
 10
3.603463638593591
 20
7.739590817867906
 30
0.0
 10
3.600905730263106
 20
7.715664605950413
 30
0.0
 10
3.591960833788941
 20
7.683158934357443
 30
0.0
 10
3.592798769276517
 20
7.659232026341366
 30
0.0
 10
3.593634110536577
 20
7.635289900598877
 30
0.0
 10
3.591138463666463
 20
7.577539801871719
 30
0.0
 10
3.587693329525602
 20
7.565152365484209
 30
0.0
  0
SPLINE
  5
87
330
41
100
AcDbEntity
  8
Layer 1
 62
   250
420
  2301728
370
    13
100
AcDbSpline
210
0.0
220
0.0
230
1.0
 70
     8
 71
     3
 72
    41
 73
    37
 74
     0
 42
0.0000000001
 43
0.0000000001
 12
1.0
 22
0.0
 32
0.0
 13
1.0
 23
0.0
 33
0.0
 40
0.0
 40
0.0
 40
0.0
 40
0.0
 40
1.0
 40
1.0
 40
1.0
 40
2.0
 40
2.0
 40
2.0
 40
3.0
 40
3.0
 40
3.0
 40
4.0
 40
4.0
 40
4.0
 40
5.0
 40
5.0
 40
5.0
 40
6.0
 40
6.0
 40
6.0
 40
7.0
 40
7.0
 40
7.0
 40
8.0
 40
8.0
 40
8.0
 40
9.0
 40
9.0
 40
9.0
 40
10.0
 40
10.0
 40
10.0
 40
11.0
 40
11.0
 40
11.0
 40
12.0
 40
12.0
 40
12.0
 40
12.0
 10
3.627392793198472
 20
7.556653676142749
 30
0.0
 10
3.624009920518006
 20
7.580974559102515
 30
0.0
 10
3.623958035967676
 20
7.596428372413584
 30
0.0
 10
3.625680603038113
 20
7.619924291023342
 30
0.0
 10
3.627392793198472
 20
7.643396861585465
 30
0.0
 10
3.631621384049089
 20
7.681905574828634
 30
0.0
 10
3.629950701528969
 20
7.704529832993115
 30
0.0
 10
3.628290395918914
 20
7.727216352617991
 30
0.0
 10
3.63257346554734
 20
7.742138349288338
 30
0.0
 10
3.632129852642164
 20
7.773336529392231
 30
0.0
 10
3.631673268599393
 20
7.804560651771289
 30
0.0
 10
3.639780229585982
 20
7.886631633458225
 30
0.0
 10
3.638514246558316
 20
7.91869109709733
 30
0.0
 10
3.637222321255497
 20
7.950714241551231
 30
0.0
 10
3.635966715137897
 20
7.989285216254757
 30
0.0
 10
3.634674789835066
 20
8.019155151870626
 30
0.0
 10
3.6334088068074
 20
8.049025087486484
 30
0.0
 10
3.63729755385345
 20
8.143483505560917
 30
0.0
 10
3.63813289511351
 20
8.167423396948127
 30
0.0
 10
3.638945078667171
 20
8.191352191680759
 30
0.0
 10
3.644934959659698
 20
8.248303268333087
 30
0.0
 10
3.63938850123111
 20
8.270053271824773
 30
0.0
 10
3.633839448574993
 20
8.291813652226539
 30
0.0
 10
3.627846783013726
 20
8.318770634037858
 30
0.0
 10
3.626124215943302
 20
8.33158834849736
 30
0.0
 10
3.624401648872865
 20
8.344409020879993
 30
0.0
 10
3.620170463794743
 20
8.37645551338153
 30
0.0
 10
3.611189248135373
 20
8.388845543996542
 30
0.0
 10
3.602197655565937
 20
8.401232980384053
 30
0.0
 10
3.594469451796625
 20
8.411493150208672
 30
0.0
 10
3.592355156371329
 20
8.426884702059372
 30
0.0
 10
3.590251426967218
 20
8.442263282772489
 30
0.0
 10
3.589794653813328
 20
8.472639092753903
 30
0.0
 10
3.589794653813328
 20
8.486749096211838
 30
0.0
 10
3.589794653813328
 20
8.500861693897289
 30
0.0
 10
3.585905906767278
 20
8.70877865237119
 30
0.0
 10
3.588466409325279
 20
8.72199142699056
 30
0.0
  0
SPLINE
  5
88
330
41
100
AcDbEntity
  8
Layer 1
 62
   250
420
  2301728
370
    13
100
AcDbSpline
210
0.0
220
0.0
230
1.0
 70
     8
 71
     3
 72
    35
 73
    31
 74
     0
 42
0.0000000001
 43
0.0000000001
 12
1.0
 22
0.0
 32
0.0
 13
1.0
 23
0.0
 33
0.0
 40
0.0
 40
0.0
 40
0.0
 40
0.0
 40
1.0
 40
1.0
 40
1.0
 40
2.0
 40
2.0
 40
2.0
 40
3.0
 40
3.0
 40
3.0
 40
4.0
 40
4.0
 40
4.0
 40
5.0
 40
5.0
 40
5.0
 40
6.0
 40
6.0
 40
6.0
 40
7.0
 40
7.0
 40
7.0
 40
8.0
 40
8.0
 40
8.0
 40
9.0
 40
9.0
 40
9.0
 40
10.0
 40
10.0
 40
10.0
 40
10.0
 10
3.6334088068074
 20
8.715150075149772
 30
0.0
 10
3.63293925162706
 20
8.688613721891594
 30
0.0
 10
3.626554857710908
 20
8.541015147385412
 30
0.0
 10
3.63513156412273
 20
8.518341598898132
 30
0.0
 10
3.643681947769601
 20
8.495678427320904
 30
0.0
 10
3.64105918375123
 20
8.502519773617337
 30
0.0
 10
3.655159001049924
 20
8.476019371206865
 30
0.0
 10
3.669281784894603
 20
8.449545646408334
 30
0.0
 10
3.682089486139653
 20
8.44660601963378
 30
0.0
 10
3.683381411442484
 20
8.414938650474557
 30
0.0
 10
3.68464739447015
 20
8.38328352020287
 30
0.0
 10
3.686826545583345
 20
8.345296246690356
 30
0.0
 10
3.683822430120156
 20
8.324763299750543
 30
0.0
 10
3.680807937746901
 20
8.304217017307097
 30
0.0
 10
3.677819387648797
 20
8.262768680960676
 30
0.0
 10
3.678263000553986
 20
8.233293067927194
 30
0.0
 10
3.678719584596769
 20
8.203804483756155
 30
0.0
 10
3.677440630431508
 20
8.172071892784022
 30
0.0
 10
3.677440630431508
 20
8.146041413891401
 30
0.0
 10
3.677440630431508
 20
8.119984992723642
 30
0.0
 10
3.681646064654425
 20
8.045136340440434
 30
0.0
 10
3.679554925856817
 20
8.010972958286086
 30
0.0
 10
3.677440630431508
 20
7.976832924179373
 30
0.0
 10
3.679998538761993
 20
7.848971232612699
 30
0.0
 10
3.678263000553986
 20
7.805395993031349
 30
0.0
 10
3.676540433483549
 20
7.761784434264793
 30
0.0
 10
3.682987088860096
 20
7.685719089276719
 30
0.0
 10
3.67699701752632
 20
7.656227910878151
 30
0.0
 10
3.670978409689888
 20
7.626739326707113
 30
0.0
 10
3.671878606637834
 20
7.573321587931168
 30
0.0
 10
3.671434993732658
 20
7.548116073388554
 30
0.0
  0
SPLINE
  5
89
330
41
100
AcDbEntity
  8
Layer 1
 62
   250
420
  2301728
370
    13
100
AcDbSpline
210
0.0
220
0.0
230
1.0
 70
     8
 71
     3
 72
    44
 73
    40
 74
     0
 42
0.0000000001
 43
0.0000000001
 12
1.0
 22
0.0
 32
0.0
 13
1.0
 23
0.0
 33
0.0
 40
0.0
 40
0.0
 40
0.0
 40
0.0
 40
1.0
 40
1.0
 40
1.0
 40
2.0
 40
2.0
 40
2.0
 40
3.0
 40
3.0
 40
3.0
 40
4.0
 40
4.0
 40
4.0
 40
5.0
 40
5.0
 40
5.0
 40
6.0
 40
6.0
 40
6.0
 40
7.0
 40
7.0
 40
7.0
 40
8.0
 40
8.0
 40
8.0
 40
9.0
 40
9.0
 40
9.0
 40
10.0
 40
10.0
 40
10.0
 40
11.0
 40
11.0
 40
11.0
 40
12.0
 40
12.0
 40
12.0
 40
13.0
 40
13.0
 40
13.0
 40
13.0
 10
3.724927965106543
 20
7.536107394218346
 30
0.0
 10
3.723192426898524
 20
7.572042633765932
 30
0.0
 10
3.721864182410488
 20
7.596428372413584
 30
0.0
 10
3.723143136575736
 20
7.630197431985543
 30
0.0
 10
3.724422090740973
 20
7.663956114647438
 30
0.0
 10
3.722305201088172
 20
7.706644128418424
 30
0.0
 10
3.724865896157944
 20
7.740402811080318
 30
0.0
 10
3.727410640839075
 20
7.774171870652291
 30
0.0
 10
3.735061210552228
 20
7.794655891116324
 30
0.0
 10
3.732972664632749
 20
7.823789066117721
 30
0.0
 10
3.730868746117494
 20
7.852873302722363
 30
0.0
 10
3.722748813993348
 20
7.892647647067141
 30
0.0
 10
3.730868746117494
 20
7.931524740617546
 30
0.0
 10
3.738975707104095
 20
7.970386268802839
 30
0.0
 10
3.746309588290993
 20
7.993490459057726
 30
0.0
 10
3.742420841244956
 20
8.032811165513307
 30
0.0
 10
3.738519123061337
 20
8.072116306603801
 30
0.0
 10
3.741585499984896
 20
8.135833128617099
 30
0.0
 10
3.742420841244956
 20
8.161038643159714
 30
0.0
 10
3.743245805594951
 20
8.186246751929843
 30
0.0
 10
3.745865975385818
 20
8.22684641255066
 30
0.0
 10
3.743702389637709
 20
8.252051927093285
 30
0.0
 10
3.741523238524514
 20
8.277273007000998
 30
0.0
 10
3.742420841244956
 20
8.33158834849736
 30
0.0
 10
3.744968372665375
 20
8.35807541143274
 30
0.0
 10
3.747513502942184
 20
8.38456247436813
 30
0.0
 10
3.749630199511103
 20
8.405946691780096
 30
0.0
 10
3.750073812416291
 20
8.418778107294795
 30
0.0
 10
3.750527802231545
 20
8.431608790365468
 30
0.0
 10
3.749248848066296
 20
8.437549571376444
 30
0.0
 10
3.743245805594951
 20
8.456373286230422
 30
0.0
 10
3.737240361720473
 20
8.47520997222197
 30
0.0
 10
3.721026439337695
 20
8.511069979171616
 30
0.0
 10
3.716315129754384
 20
8.522635045436623
 30
0.0
 10
3.711591041448287
 20
8.53417416942649
 30
0.0
 10
3.71541493280645
 20
8.54235895723856
 30
0.0
 10
3.707307971819849
 20
8.54873038001713
 30
0.0
 10
3.69920101083326
 20
8.555101802795699
 30
0.0
 10
3.694147455632661
 20
8.699784838895097
 30
0.0
 10
3.694982796892721
 20
8.711336560701675
 30
0.0
  0
SPLINE
  5
8A
330
41
100
AcDbEntity
  8
Layer 1
 62
   250
420
  2301728
370
    13
100
AcDbSpline
210
0.0
220
0.0
230
1.0
 70
     8
 71
     3
 72
    44
 73
    40
 74
     0
 42
0.0000000001
 43
0.0000000001
 12
1.0
 22
0.0
 32
0.0
 13
1.0
 23
0.0
 33
0.0
 40
0.0
 40
0.0
 40
0.0
 40
0.0
 40
1.0
 40
1.0
 40
1.0
 40
2.0
 40
2.0
 40
2.0
 40
3.0
 40
3.0
 40
3.0
 40
4.0
 40
4.0
 40
4.0
 40
5.0
 40
5.0
 40
5.0
 40
6.0
 40
6.0
 40
6.0
 40
7.0
 40
7.0
 40
7.0
 40
8.0
 40
8.0
 40
8.0
 40
9.0
 40
9.0
 40
9.0
 40
10.0
 40
10.0
 40
10.0
 40
11.0
 40
11.0
 40
11.0
 40
12.0
 40
12.0
 40
12.0
 40
13.0
 40
13.0
 40
13.0
 40
13.0
 10
3.781334253980567
 20
7.524098715048138
 30
0.0
 10
3.780019174535179
 20
7.548481859468274
 30
0.0
 10
3.779497540899443
 20
7.56009881028361
 30
0.0
 10
3.780854321890173
 20
7.581036820562884
 30
0.0
 10
3.784286484893439
 20
7.636493622166173
 30
0.0
 10
3.784348746353821
 20
7.646398729531218
 30
0.0
 10
3.781741547700537
 20
7.684894124926725
 30
0.0
 10
3.779105812544572
 20
7.723376895894742
 30
0.0
 10
3.778358868883187
 20
7.73837412516304
 30
0.0
 10
3.77744550693453
 20
7.775502709367843
 30
0.0
 10
3.776547904214087
 20
7.812667612757878
 30
0.0
 10
3.775735911001675
 20
7.81399845147343
 30
0.0
 10
3.775292298096486
 20
7.841333826806463
 30
0.0
 10
3.774835714053729
 20
7.868643259864294
 30
0.0
 10
3.778737432237348
 20
7.934905019070507
 30
0.0
 10
3.781297934795349
 20
7.964826839236681
 30
0.0
 10
3.783829900850681
 20
7.994759036312921
 30
0.0
 10
3.790289527364798
 20
8.058411002638321
 30
0.0
 10
3.790289527364798
 20
8.081515192893209
 30
0.0
 10
3.790289527364798
 20
8.104619383148108
 30
0.0
 10
3.786390403408682
 20
8.19007323751551
 30
0.0
 10
3.790670878809603
 20
8.208907329279542
 30
0.0
 10
3.794938383072942
 20
8.227744015271103
 30
0.0
 10
3.802666781319431
 20
8.248671648640311
 30
0.0
 10
3.801387632677006
 20
8.26833070475435
 30
0.0
 10
3.800132026559393
 20
8.288003094924319
 30
0.0
 10
3.793750226870745
 20
8.302076416278673
 30
0.0
 10
3.79157107575755
 20
8.320036253369937
 30
0.0
 10
3.789378953506773
 20
8.337972742413525
 30
0.0
 10
3.788136318526754
 20
8.39445685811303
 30
0.0
 10
3.788136318526754
 20
8.422222875213643
 30
0.0
 10
3.788136318526754
 20
8.45000186345184
 30
0.0
 10
3.781663720875069
 20
8.487662264297366
 30
0.0
 10
3.780854321890173
 20
8.498314162476857
 30
0.0
 10
3.780019174535179
 20
8.508968654883876
 30
0.0
 10
3.776952603706541
 20
8.529071323903104
 30
0.0
 10
3.774835714053729
 20
8.538457239054928
 30
0.0
 10
3.772747360903572
 20
8.54783018306917
 30
0.0
 10
3.76672875306714
 20
8.691246862820043
 30
0.0
 10
3.767628950015086
 20
8.704054564065093
 30
0.0
  0
SPLINE
  5
8B
330
41
100
AcDbEntity
  8
Layer 1
 62
   250
420
  2301728
370
    13
100
AcDbSpline
210
0.0
220
0.0
230
1.0
 70
     8
 71
     3
 72
    17
 73
    13
 74
     0
 42
0.0000000001
 43
0.0000000001
 12
1.0
 22
0.0
 32
0.0
 13
1.0
 23
0.0
 33
0.0
 40
0.0
 40
0.0
 40
0.0
 40
0.0
 40
1.0
 40
1.0
 40
1.0
 40
2.0
 40
2.0
 40
2.0
 40
3.0
 40
3.0
 40
3.0
 40
4.0
 40
4.0
 40
4.0
 40
4.0
 10
3.814610410324551
 20
8.692881226154933
 30
0.0
 10
3.818488780460547
 20
8.666407134357136
 30
0.0
 10
3.821046688791019
 20
8.535883765359346
 30
0.0
 10
3.821046688791019
 20
8.507687106491112
 30
0.0
 10
3.821046688791019
 20
8.479464505347726
 30
0.0
 10
3.816714328839794
 20
8.458983079111224
 30
0.0
 10
3.823161179211247
 20
8.424767812406559
 30
0.0
 10
3.829610233820378
 20
8.390568111067005
 30
0.0
 10
3.833877738083717
 20
8.381169224777572
 30
0.0
 10
3.835156692248953
 20
8.35807541143274
 30
0.0
 10
3.836425269504136
 20
8.334971221177852
 30
0.0
 10
3.850929595544458
 20
8.26137558078474
 30
0.0
 10
3.852701452937683
 20
8.21566010350293
 30
0.0
  0
POLYLINE
  5
8C
330
41
100
AcDbEntity
  8
Layer 1
 62
   250
420
  2301728
370
    20
100
AcDb2dPolyline
 66
     1
 10
0.0
 20
0.0
 30
0.0
  0
VERTEX
  5
8D
330
8C
100
AcDbEntity
  8
Layer 1
 62
   250
420
  2301728
370
    20
100
AcDbVertex
100
AcDb2dVertex
 10
2.605650077279241
 20
8.989235491214735
 30
0.0
  0
VERTEX
  5
8E
330
8C
100
AcDbEntity
  8
Layer 1
 62
   250
420
  2301728
370
    20
100
AcDbVertex
100
AcDb2dVertex
 10
5.703809875177663
 20
8.761719658514442
 30
0.0
  0
SEQEND
  5
8F
330
8C
100
AcDbEntity
  8
Layer 1
 62
   250
420
  2301728
370
    20
  0
POLYLINE
  5
90
330
41
100
AcDbEntity
  8
Layer 1
 62
   250
420
  2301728
370
    20
100
AcDb2dPolyline
 66
     1
 10
0.0
 20
0.0
 30
0.0
  0
VERTEX
  5
91
330
90
100
AcDbEntity
  8
Layer 1
 62
   250
420
  2301728
370
    20
100
AcDbVertex
100
AcDb2dVertex
 10
5.704014583551902
 20
6.309440489783772
 30
0.0
  0
VERTEX
  5
92
330
90
100
AcDbEntity
  8
Layer 1
 62
   250
420
  2301728
370
    20
100
AcDbVertex
100
AcDb2dVertex
 10
5.704014583551902
 20
7.321049132623898
 30
0.0
  0
VERTEX
  5
93
330
90
100
AcDbEntity
  8
Layer 1
 62
   250
420
  2301728
370
    20
100
AcDbVertex
100
AcDb2dVertex
 10
5.768413687401814
 20
7.365550511428346
 30
0.0
  0
VERTEX
  5
94
330
90
100
AcDbEntity
  8
Layer 1
 62
   250
420
  2301728
370
    20
100
AcDbVertex
100
AcDb2dVertex
 10
5.616254694310681
 20
7.507293914431594
 30
0.0
  0
VERTEX
  5
95
330
90
100
AcDbEntity
  8
Layer 1
 62
   250
420
  2301728
370
    20
100
AcDbVertex
100
AcDb2dVertex
 10
5.704014583551902
 20
7.561814545111019
 30
0.0
  0
VERTEX
  5
96
330
90
100
AcDbEntity
  8
Layer 1
 62
   250
420
  2301728
370
    20
100
AcDbVertex
100
AcDb2dVertex
 10
5.704014583551902
 20
8.760744228968544
 30
0.0
  0
VERTEX
  5
97
330
90
100
AcDbEntity
  8
Layer 1
 62
   250
420
  2301728
370
    20
100
AcDbVertex
100
AcDb2dVertex
 10
6.015472350632712
 20
8.846703957701518
 30
0.0
  0
SEQEND
  5
98
330
90
100
AcDbEntity
  8
Layer 1
 62
   250
420
  2301728
370
    20
  0
POLYLINE
  5
99
330
41
100
AcDbEntity
  8
Layer 1
 62
   250
420
  2301728
370
    20
100
AcDb2dPolyline
 66
     1
 10
0.0
 20
0.0
 30
0.0
  0
VERTEX
  5
9A
330
99
100
AcDbEntity
  8
Layer 1
 62
   250
420
  2301728
370
    20
100
AcDbVertex
100
AcDb2dVertex
 10
5.704165048747781
 20
7.562068434198244
 30
0.0
  0
VERTEX
  5
9B
330
99
100
AcDbEntity
  8
Layer 1
 62
   250
420
  2301728
370
    20
100
AcDbVertex
100
AcDb2dVertex
 10
5.962980751079891
 20
7.721737949335015
 30
0.0
  0
SEQEND
  5
9C
330
99
100
AcDbEntity
  8
Layer 1
 62
   250
420
  2301728
370
    20
  0
POLYLINE
  5
9D
330
41
100
AcDbEntity
  8
Layer 1
 62
   250
420
  2301728
370
    20
100
AcDb2dPolyline
 66
     1
 10
0.0
 20
0.0
 30
0.0
  0
VERTEX
  5
9E
330
9D
100
AcDbEntity
  8
Layer 1
 62
   250
420
  2301728
370
    20
100
AcDbVertex
100
AcDb2dVertex
 10
5.768413687401814
 20
7.36543636541766
 30
0.0
  0
VERTEX
  5
9F
330
9D
100
AcDbEntity
  8
Layer 1
 62
   250
420
  2301728
370
    20
100
AcDbVertex
100
AcDb2dVertex
 10
6.015547583230651
 20
7.535238933230794
 30
0.0
  0
SEQEND
  5
A0
330
9D
100
AcDbEntity
  8
Layer 1
 62
   250
420
  2301728
370
    20
  0
SPLINE
  5
A1
330
41
100
AcDbEntity
  8
Layer 1
 62
   250
420
  2301728
370
    13
100
AcDbSpline
210
0.0
220
0.0
230
1.0
 70
     8
 71
     3
 72
    50
 73
    46
 74
     0
 42
0.0000000001
 43
0.0000000001
 12
1.0
 22
0.0
 32
0.0
 13
1.0
 23
0.0
 33
0.0
 40
0.0
 40
0.0
 40
0.0
 40
0.0
 40
1.0
 40
1.0
 40
1.0
 40
2.0
 40
2.0
 40
2.0
 40
3.0
 40
3.0
 40
3.0
 40
4.0
 40
4.0
 40
4.0
 40
5.0
 40
5.0
 40
5.0
 40
6.0
 40
6.0
 40
6.0
 40
7.0
 40
7.0
 40
7.0
 40
8.0
 40
8.0
 40
8.0
 40
9.0
 40
9.0
 40
9.0
 40
10.0
 40
10.0
 40
10.0
 40
11.0
 40
11.0
 40
11.0
 40
12.0
 40
12.0
 40
12.0
 40
13.0
 40
13.0
 40
13.0
 40
14.0
 40
14.0
 40
14.0
 40
15.0
 40
15.0
 40
15.0
 40
15.0
 10
5.728587106580688
 20
6.333901461029363
 30
0.0
 10
5.727725823045476
 20
6.345959430522385
 30
0.0
 10
5.730006149031775
 20
6.358855335502956
 30
0.0
 10
5.730818142244187
 20
6.383874065664448
 30
0.0
 10
5.73165348350421
 20
6.408903172736005
 30
0.0
 10
5.734514916454044
 20
6.407242867125937
 30
0.0
 10
5.73281829165881
 20
6.426307845138871
 30
0.0
 10
5.731069782313195
 20
6.445409142337034
 30
0.0
 10
5.720480145594061
 20
6.47688749901263
 30
0.0
 10
5.723546522517633
 20
6.498523356493642
 30
0.0
 10
5.726613135616819
 20
6.52014624283706
 30
0.0
 10
5.726864539510213
 20
6.532014833721417
 30
0.0
 10
5.726864539510213
 20
6.546340158063167
 30
0.0
 10
5.726864539510213
 20
6.560616192082092
 30
0.0
 10
5.724356157621135
 20
6.594375195513735
 30
0.0
 10
5.723774814539031
 20
6.61404690199562
 30
0.0
 10
5.723217055623157
 20
6.633692986972063
 30
0.0
 10
5.722711181257611
 20
6.694914162115246
 30
0.0
 10
5.721595663425811
 20
6.705882556051657
 30
0.0
 10
5.720430855271261
 20
6.716879486490736
 30
0.0
 10
5.719899038630577
 20
6.732561591823203
 30
0.0
 10
5.721595663425811
 20
6.740173055354299
 30
0.0
 10
5.723217055623157
 20
6.747761170837735
 30
0.0
 10
5.728890631200025
 20
6.770284254129099
 30
0.0
 10
5.736188193201668
 20
6.779530080995086
 30
0.0
 10
5.743433870653083
 20
6.788814821273806
 30
0.0
 10
5.751286597343121
 20
6.814391636678983
 30
0.0
 10
5.753870447948757
 20
6.833225728918819
 30
0.0
 10
5.756405008231594
 20
6.852062088106764
 30
0.0
 10
5.768717449260369
 20
6.888238590813304
 30
0.0
 10
5.774341497275221
 20
6.900031949099722
 30
0.0
 10
5.779965782529239
 20
6.911851249661279
 30
0.0
 10
5.784474549951558
 20
6.937705321082817
 30
0.0
 10
5.786754875937858
 20
6.951511799921402
 30
0.0
 10
5.788985911601356
 20
6.965281959574781
 30
0.0
 10
5.789491785966953
 20
7.028212730650832
 30
0.0
 10
5.788985911601356
 20
7.049858965041885
 30
0.0
 10
5.788477443008282
 20
7.071494822522898
 30
0.0
 10
5.789289673979637
 20
7.138314340644974
 30
0.0
 10
5.787870393769607
 20
7.167297050450454
 30
0.0
 10
5.786477293593659
 20
7.196279760255934
 30
0.0
 10
5.778344390331944
 20
7.278285886254972
 30
0.0
 10
5.781410767255516
 20
7.293753009141142
 30
0.0
 10
5.784474549951558
 20
7.30919351287711
 30
0.0
 10
5.786298291895112
 20
7.357241200695537
 30
0.0
 10
5.781991874219001
 20
7.374101085320123
 30
0.0
  0
SPLINE
  5
A2
330
41
100
AcDbEntity
  8
Layer 1
 62
   250
420
  2301728
370
    13
100
AcDbSpline
210
0.0
220
0.0
230
1.0
 70
     8
 71
     3
 72
    20
 73
    16
 74
     0
 42
0.0000000001
 43
0.0000000001
 12
1.0
 22
0.0
 32
0.0
 13
1.0
 23
0.0
 33
0.0
 40
0.0
 40
0.0
 40
0.0
 40
0.0
 40
1.0
 40
1.0
 40
1.0
 40
2.0
 40
2.0
 40
2.0
 40
3.0
 40
3.0
 40
3.0
 40
4.0
 40
4.0
 40
4.0
 40
5.0
 40
5.0
 40
5.0
 40
5.0
 10
5.72179801317207
 20
7.329423638383256
 30
0.0
 10
5.723546522517633
 20
7.307268934839398
 30
0.0
 10
5.727373008103338
 20
7.287861180015461
 30
0.0
 10
5.725497617756875
 20
7.269040059389011
 30
0.0
 10
5.723546522517633
 20
7.250203373397463
 30
0.0
 10
5.716199670193141
 20
7.203803020051496
 30
0.0
 10
5.719012048803784
 20
7.179103379874441
 30
0.0
 10
5.72179801317207
 20
7.154414116607464
 30
0.0
 10
5.724939622693581
 20
7.140630985816503
 30
0.0
 10
5.721595663425811
 20
7.125444377939541
 30
0.0
 10
5.718199819607762
 20
7.110244798925009
 30
0.0
 10
5.709789334001849
 20
7.091166849774519
 30
0.0
 10
5.710321386406601
 20
7.081908384856824
 30
0.0
 10
5.710803676960469
 20
7.072636282629825
 30
0.0
 10
5.708953992741777
 20
7.049529498147383
 30
0.0
 10
5.704165048747781
 20
7.036646564304369
 30
0.0
  0
SPLINE
  5
A3
330
41
100
AcDbEntity
  8
Layer 1
 62
   250
420
  2301728
370
    13
100
AcDbSpline
210
0.0
220
0.0
230
1.0
 70
     8
 71
     3
 72
    47
 73
    43
 74
     0
 42
0.0000000001
 43
0.0000000001
 12
1.0
 22
0.0
 32
0.0
 13
1.0
 23
0.0
 33
0.0
 40
0.0
 40
0.0
 40
0.0
 40
0.0
 40
1.0
 40
1.0
 40
1.0
 40
2.0
 40
2.0
 40
2.0
 40
3.0
 40
3.0
 40
3.0
 40
4.0
 40
4.0
 40
4.0
 40
5.0
 40
5.0
 40
5.0
 40
6.0
 40
6.0
 40
6.0
 40
7.0
 40
7.0
 40
7.0
 40
8.0
 40
8.0
 40
8.0
 40
9.0
 40
9.0
 40
9.0
 40
10.0
 40
10.0
 40
10.0
 40
11.0
 40
11.0
 40
11.0
 40
12.0
 40
12.0
 40
12.0
 40
13.0
 40
13.0
 40
13.0
 40
14.0
 40
14.0
 40
14.0
 40
14.0
 10
5.772694162802736
 20
6.379666228633987
 30
0.0
 10
5.77327786399375
 20
6.390901828004504
 30
0.0
 10
5.771555296923325
 20
6.402456517359458
 30
0.0
 10
5.771301062626788
 20
6.422115573473509
 30
0.0
 10
5.771046828330251
 20
6.44178760072513
 30
0.0
 10
5.766488770585132
 20
6.451920653401467
 30
0.0
 10
5.769300913212166
 20
6.47356948202005
 30
0.0
 10
5.7721130558392
 20
6.495192368363468
 30
0.0
 10
5.774645021894558
 20
6.51421843296368
 30
0.0
 10
5.77550630542977
 20
6.528582670718138
 30
0.0
 10
5.776318536073404
 20
6.542933937335028
 30
0.0
 10
5.77327786399375
 20
6.550584633942346
 30
0.0
 10
5.778292505781615
 20
6.5713199748119
 30
0.0
 10
5.783361626347338
 20
6.592068606482548
 30
0.0
 10
5.792885035557472
 20
6.628424110887686
 30
0.0
 10
5.797699921826657
 20
6.648324430160667
 30
0.0
 10
5.802512213868264
 20
6.66823772057123
 30
0.0
 10
5.814572777588814
 20
6.67870024014207
 30
0.0
 10
5.8159918200399
 20
6.70115846774556
 30
0.0
 10
5.817359216408704
 20
6.72364263762419
 30
0.0
 10
5.822983263194727
 20
6.765762515569236
 30
0.0
 10
5.820171120567693
 20
6.792185048583519
 30
0.0
 10
5.817359216408704
 20
6.818609524291698
 30
0.0
 10
5.822070095109185
 20
6.845602461592648
 30
0.0
 10
5.822399562003662
 20
6.862462673759422
 30
0.0
 10
5.822729267501901
 20
6.879296288566656
 30
0.0
 10
5.821309986447103
 20
6.932345647035352
 30
0.0
 10
5.820702937208428
 20
6.958516214213823
 30
0.0
 10
5.820171120567693
 20
6.984686781392295
 30
0.0
 10
5.820804112081507
 20
7.055153783401452
 30
0.0
 10
5.824705830265152
 20
7.068937246950592
 30
0.0
 10
5.828607548448796
 20
7.082717450755846
 30
0.0
 10
5.829416947433679
 20
7.131296955214983
 30
0.0
 10
5.829214836454993
 20
7.143697362740062
 30
0.0
 10
5.828911073068133
 20
7.156074422217519
 30
0.0
 10
5.83149492367377
 20
7.241019807991847
 30
0.0
 10
5.828379256427398
 20
7.258385566981992
 30
0.0
 10
5.825237646905887
 20
7.275751325972136
 30
0.0
 10
5.82151493042084
 20
7.302492623204052
 30
0.0
 10
5.823818843085999
 20
7.319352507828638
 30
0.0
 10
5.826098930441099
 20
7.33617347904049
 30
0.0
 10
5.835954400773239
 20
7.391453873172686
 30
0.0
 10
5.831749157970307
 20
7.408376019257666
 30
0.0
  0
SPLINE
  5
A4
330
41
100
AcDbEntity
  8
Layer 1
 62
   250
420
  2301728
370
    13
100
AcDbSpline
210
0.0
220
0.0
230
1.0
 70
     8
 71
     3
 72
    53
 73
    49
 74
     0
 42
0.0000000001
 43
0.0000000001
 12
1.0
 22
0.0
 32
0.0
 13
1.0
 23
0.0
 33
0.0
 40
0.0
 40
0.0
 40
0.0
 40
0.0
 40
1.0
 40
1.0
 40
1.0
 40
2.0
 40
2.0
 40
2.0
 40
3.0
 40
3.0
 40
3.0
 40
4.0
 40
4.0
 40
4.0
 40
5.0
 40
5.0
 40
5.0
 40
6.0
 40
6.0
 40
6.0
 40
7.0
 40
7.0
 40
7.0
 40
8.0
 40
8.0
 40
8.0
 40
9.0
 40
9.0
 40
9.0
 40
10.0
 40
10.0
 40
10.0
 40
11.0
 40
11.0
 40
11.0
 40
12.0
 40
12.0
 40
12.0
 40
13.0
 40
13.0
 40
13.0
 40
14.0
 40
14.0
 40
14.0
 40
15.0
 40
15.0
 40
15.0
 40
16.0
 40
16.0
 40
16.0
 40
16.0
 10
5.950819012486262
 20
7.487660800592708
 30
0.0
 10
5.940963542154072
 20
7.470800915968134
 30
0.0
 10
5.947475053218492
 20
7.483354382916635
 30
0.0
 10
5.940180085444328
 20
7.456437020760922
 30
0.0
 10
5.932882523442635
 20
7.429506002373095
 30
0.0
 10
5.929437389301786
 20
7.417953907245646
 30
0.0
 10
5.917379419808766
 20
7.401916392743551
 30
0.0
 10
5.905318856088266
 20
7.38589444360654
 30
0.0
 10
5.892627895081432
 20
7.359482613269127
 30
0.0
 10
5.888752359444551
 20
7.354452406116163
 30
0.0
 10
5.884850400989333
 20
7.349385879777969
 30
0.0
 10
5.872992187015042
 20
7.337833784650544
 30
0.0
 10
5.875474862747549
 20
7.319010069796566
 30
0.0
 10
5.878035365305575
 20
7.300186693542615
 30
0.0
 10
5.883633708284454
 20
7.27975421902886
 30
0.0
 10
5.87970604782567
 20
7.254992317391434
 30
0.0
 10
5.875830271917216
 20
7.230240792664063
 30
0.0
 10
5.875350339826809
 20
7.22097940043299
 30
0.0
 10
5.874968988382003
 20
7.206360928382018
 30
0.0
 10
5.874714754085466
 20
7.191745050558476
 30
0.0
 10
5.857893782873589
 20
7.138898041836013
 30
0.0
 10
5.860376458606146
 20
7.11079996361338
 30
0.0
 10
5.862859134338653
 20
7.082717450755846
 30
0.0
 10
5.861211799866169
 20
7.056295243508366
 30
0.0
 10
5.862630842317255
 20
7.035240492990889
 30
0.0
 10
5.864023942493203
 20
7.014162394425751
 30
0.0
 10
5.873853470550253
 20
6.989678075132499
 30
0.0
 10
5.870460220959684
 20
6.959922285527353
 30
0.0
 10
5.867064616865289
 20
6.930192438197322
 30
0.0
 10
5.864861877980805
 20
6.899196936309813
 30
0.0
 10
5.866862027395377
 20
6.88295707165125
 30
0.0
 10
5.868838828762389
 20
6.866680560157761
 30
0.0
 10
5.869344703127934
 20
6.821432043828811
 30
0.0
 10
5.866278326204363
 20
6.782925924813171
 30
0.0
 10
5.86321454350832
 20
6.744430182707561
 30
0.0
 10
5.863746360149055
 20
6.733080437326343
 30
0.0
 10
5.864023942493203
 20
6.715714678336174
 30
0.0
 10
5.86427817678974
 20
6.698346325118526
 30
0.0
 10
5.869370645403074
 20
6.66913532329166
 30
0.0
 10
5.862630842317255
 20
6.651694331703551
 30
0.0
 10
5.855867691183827
 20
6.634276688163115
 30
0.0
 10
5.855359222590752
 20
6.625915492879976
 30
0.0
 10
5.847989022218649
 20
6.607600246619072
 30
0.0
 10
5.840691460216956
 20
6.589282406130665
 30
0.0
 10
5.834815534893878
 20
6.56458276595361
 30
0.0
 10
5.835396641857364
 20
6.542933937335028
 30
0.0
 10
5.835954400773239
 20
6.521298079854041
 30
0.0
 10
5.836309809942905
 20
6.461179451405023
 30
0.0
 10
5.831142108731632
 20
6.436163315471049
 30
0.0
  0
SPLINE
  5
A5
330
41
100
AcDbEntity
  8
Layer 1
 62
   250
420
  2301728
370
    13
100
AcDbSpline
210
0.0
220
0.0
230
1.0
 70
     8
 71
     3
 72
    47
 73
    43
 74
     0
 42
0.0000000001
 43
0.0000000001
 12
1.0
 22
0.0
 32
0.0
 13
1.0
 23
0.0
 33
0.0
 40
0.0
 40
0.0
 40
0.0
 40
0.0
 40
1.0
 40
1.0
 40
1.0
 40
2.0
 40
2.0
 40
2.0
 40
3.0
 40
3.0
 40
3.0
 40
4.0
 40
4.0
 40
4.0
 40
5.0
 40
5.0
 40
5.0
 40
6.0
 40
6.0
 40
6.0
 40
7.0
 40
7.0
 40
7.0
 40
8.0
 40
8.0
 40
8.0
 40
9.0
 40
9.0
 40
9.0
 40
10.0
 40
10.0
 40
10.0
 40
11.0
 40
11.0
 40
11.0
 40
12.0
 40
12.0
 40
12.0
 40
13.0
 40
13.0
 40
13.0
 40
14.0
 40
14.0
 40
14.0
 40
14.0
 10
5.908359290736649
 20
6.516509135860044
 30
0.0
 10
5.914338985160384
 20
6.550786664025091
 30
0.0
 10
5.911425908504573
 20
6.545746079962075
 30
0.0
 10
5.913148234730644
 20
6.567963044406585
 30
0.0
 10
5.914896744076259
 20
6.590182603078611
 30
0.0
 10
5.920214910483461
 20
6.59094271174072
 30
0.0
 10
5.923561463978709
 20
6.601075764417082
 30
0.0
 10
5.926954713569229
 20
6.61120881709342
 30
0.0
 10
5.928627990316904
 20
6.619328749217591
 30
0.0
 10
5.928373756020366
 20
6.624701715938486
 30
0.0
 10
5.928119521723829
 20
6.630071767031634
 30
0.0
 10
5.937368184317038
 20
6.633692986972063
 30
0.0
 10
5.933136757739172
 20
6.66713517387705
 30
0.0
 10
5.92895745721138
 20
6.70057736078205
 30
0.0
 10
5.933186048061972
 20
6.728937780152831
 30
0.0
 10
5.932882523442635
 20
6.754524321971189
 30
0.0
 10
5.932578998823297
 20
6.780113782186125
 30
0.0
 10
5.937290357489549
 20
6.851480981143241
 30
0.0
 10
5.936226724181298
 20
6.885745538170706
 30
0.0
 10
5.935137148597151
 20
6.92003344324582
 30
0.0
 10
5.935137148597151
 20
6.995289389248973
 30
0.0
 10
5.933136757739172
 20
7.022282326549922
 30
0.0
 10
5.931159956372211
 20
7.049277858078375
 30
0.0
 10
5.929842088794254
 20
7.076535406585903
 30
0.0
 10
5.928119521723829
 20
7.095955793768489
 30
0.0
 10
5.926422896928544
 20
7.115347978379013
 30
0.0
 10
5.922697586215969
 20
7.13641536610348
 30
0.0
 10
5.928627990316904
 20
7.149044065649946
 30
0.0
 10
5.934555800190259
 20
7.161685736333993
 30
0.0
 10
5.943472160161769
 20
7.194227726291021
 30
0.0
 10
5.950261495395782
 20
7.2100113428186
 30
0.0
 10
5.957026998931345
 20
7.225768344426986
 30
0.0
 10
5.962371107613686
 20
7.252141598737997
 30
0.0
 10
5.970478068600262
 20
7.267314898091058
 30
0.0
 10
5.978662856412357
 20
7.282517071333094
 30
0.0
 10
5.985984009189527
 20
7.292979590903959
 30
0.0
 10
5.987402808912748
 20
7.30867466737397
 30
0.0
 10
5.988821851363834
 20
7.324382714981602
 30
0.0
 10
5.991125525397794
 20
7.359734253338135
 30
0.0
 10
5.991633993990868
 20
7.381118470750114
 30
0.0
 10
5.992139868356414
 20
7.402500093934602
 30
0.0
 10
5.998929204819913
 20
7.463391802183271
 30
0.0
 10
5.996928812350411
 20
7.520506315169087
 30
0.0
  0
SPLINE
  5
A6
330
41
100
AcDbEntity
  8
Layer 1
 62
   250
420
  2301728
370
    13
100
AcDbSpline
210
0.0
220
0.0
230
1.0
 70
     8
 71
     3
 72
    32
 73
    28
 74
     0
 42
0.0000000001
 43
0.0000000001
 12
1.0
 22
0.0
 32
0.0
 13
1.0
 23
0.0
 33
0.0
 40
0.0
 40
0.0
 40
0.0
 40
0.0
 40
1.0
 40
1.0
 40
1.0
 40
2.0
 40
2.0
 40
2.0
 40
3.0
 40
3.0
 40
3.0
 40
4.0
 40
4.0
 40
4.0
 40
5.0
 40
5.0
 40
5.0
 40
6.0
 40
6.0
 40
6.0
 40
7.0
 40
7.0
 40
7.0
 40
8.0
 40
8.0
 40
8.0
 40
9.0
 40
9.0
 40
9.0
 40
9.0
 10
5.97058183770092
 20
6.575805394186558
 30
0.0
 10
5.976408472701197
 20
6.59744125166757
 30
0.0
 10
5.977319289068141
 20
6.598263621790061
 30
0.0
 10
5.977547338580558
 20
6.626688572679654
 30
0.0
 10
5.977824920924755
 20
6.655077204384055
 30
0.0
 10
5.984616608560903
 20
6.662094589814046
 30
0.0
 10
5.979243963375843
 20
6.701993809005607
 30
0.0
 10
5.973847970143171
 20
6.741882975783255
 30
0.0
 10
5.975547189165986
 20
6.748394487012155
 30
0.0
 10
5.976660112770205
 20
6.773096396756134
 30
0.0
 10
5.977824920924755
 20
6.797809008070758
 30
0.0
 10
5.973316153502487
 20
6.87114003725728
 30
0.0
 10
5.975267012594259
 20
6.894763073015319
 30
0.0
 10
5.97726975623641
 20
6.918362760725699
 30
0.0
 10
5.979142788502764
 20
6.93159883879956
 30
0.0
 10
5.975267012594259
 20
6.946458244720803
 30
0.0
 10
5.971391236685804
 20
6.96132868688062
 30
0.0
 10
5.962980751079891
 20
6.97232528727995
 30
0.0
 10
5.967185993882822
 20
6.982964544908163
 30
0.0
 10
5.971391236685804
 20
6.993618706728853
 30
0.0
 10
5.973570387799024
 20
7.010795087110371
 30
0.0
 10
5.980865355573187
 20
7.028793837614343
 30
0.0
 10
5.988212207897681
 20
7.046795182345843
 30
0.0
 10
5.987350924362418
 20
7.055231610226921
 30
0.0
 10
5.992139868356414
 20
7.068695651033433
 30
0.0
 10
5.996928812350411
 20
7.082149314929906
 30
0.0
 10
6.014408717351292
 20
7.120720289633444
 30
0.0
 10
6.015472350632712
 20
7.131929946728822
 30
0.0
  0
SPLINE
  5
A7
330
41
100
AcDbEntity
  8
Layer 1
 62
   250
420
  2301728
370
    13
100
AcDbSpline
210
0.0
220
0.0
230
1.0
 70
     8
 71
     3
 72
    17
 73
    13
 74
     0
 42
0.0000000001
 43
0.0000000001
 12
1.0
 22
0.0
 32
0.0
 13
1.0
 23
0.0
 33
0.0
 40
0.0
 40
0.0
 40
0.0
 40
0.0
 40
1.0
 40
1.0
 40
1.0
 40
2.0
 40
2.0
 40
2.0
 40
3.0
 40
3.0
 40
3.0
 40
4.0
 40
4.0
 40
4.0
 40
4.0
 10
6.015472350632712
 20
6.910458149485331
 30
0.0
 10
6.016307691892785
 20
6.925569524764328
 30
0.0
 10
5.99920913833676
 20
6.863284716339712
 30
0.0
 10
6.000879820856855
 20
6.833225728918819
 30
0.0
 10
6.00252715532934
 20
6.803166087890695
 30
0.0
 10
5.999385545807828
 20
6.725339262419475
 30
0.0
 10
6.005339297956374
 20
6.695547153629086
 30
0.0
 10
6.01129305010492
 20
6.665742396273735
 30
0.0
 10
6.004983888786708
 20
6.652529672963624
 30
0.0
 10
6.005339297956374
 20
6.63930430108855
 30
0.0
 10
6.005694707125991
 20
6.62611784262621
 30
0.0
 10
6.005388831497208
 20
6.616275343431615
 30
0.0
 10
6.004527304743962
 20
6.609257958001623
 30
0.0
  0
SPLINE
  5
A8
330
41
100
AcDbEntity
  8
Layer 1
 62
   250
420
  2301728
370
    13
100
AcDbSpline
210
0.0
220
0.0
230
1.0
 70
     8
 71
     3
 72
    17
 73
    13
 74
     0
 42
0.0000000001
 43
0.0000000001
 12
1.0
 22
0.0
 32
0.0
 13
1.0
 23
0.0
 33
0.0
 40
0.0
 40
0.0
 40
0.0
 40
0.0
 40
1.0
 40
1.0
 40
1.0
 40
2.0
 40
2.0
 40
2.0
 40
3.0
 40
3.0
 40
3.0
 40
4.0
 40
4.0
 40
4.0
 40
4.0
 10
5.650153231870743
 20
7.527663788884928
 30
0.0
 10
5.658740124947776
 20
7.515035089338463
 30
0.0
 10
5.667812138570171
 20
7.509789561301696
 30
0.0
 10
5.686610146314024
 20
7.493829873625069
 30
0.0
 10
5.705381741452659
 20
7.477880562858495
 30
0.0
 10
5.707864417185217
 20
7.486939605343347
 30
0.0
 10
5.719266047116712
 20
7.471371646021591
 30
0.0
 10
5.730716967371058
 20
7.455816657837405
 30
0.0
 10
5.747032064217339
 20
7.444819727398314
 30
0.0
 10
5.759292383456568
 20
7.43459847098643
 30
0.0
 10
5.771555296923325
 20
7.42440056262218
 30
0.0
 10
5.80296879791106
 20
7.405945228075463
 30
0.0
 10
5.811101701172775
 20
7.394899007313559
 30
0.0
  0
SPLINE
  5
A9
330
41
100
AcDbEntity
  8
Layer 1
 62
   250
420
  2301728
370
    13
100
AcDbSpline
210
0.0
220
0.0
230
1.0
 70
     8
 71
     3
 72
    14
 73
    10
 74
     0
 42
0.0000000001
 43
0.0000000001
 12
1.0
 22
0.0
 32
0.0
 13
1.0
 23
0.0
 33
0.0
 40
0.0
 40
0.0
 40
0.0
 40
0.0
 40
1.0
 40
1.0
 40
1.0
 40
2.0
 40
2.0
 40
2.0
 40
3.0
 40
3.0
 40
3.0
 40
3.0
 10
5.868382244719593
 20
7.433763471700849
 30
0.0
 10
5.85449793905554
 20
7.443162016015776
 30
0.0
 10
5.850775222570493
 20
7.447618898887766
 30
0.0
 10
5.836081517921508
 20
7.458678090787215
 30
0.0
 10
5.82141375554771
 20
7.469698369273955
 30
0.0
 10
5.79853526308668
 20
7.489686892282482
 30
0.0
 10
5.787870393769607
 20
7.499529391477077
 30
0.0
 10
5.777228872500195
 20
7.509345948396533
 30
0.0
 10
5.728714459957624
 20
7.561559965605157
 30
0.0
 10
5.714780627742053
 20
7.568136332357476
 30
0.0
  0
SPLINE
  5
AA
330
41
100
AcDbEntity
  8
Layer 1
 62
   250
420
  2301728
370
    13
100
AcDbSpline
210
0.0
220
0.0
230
1.0
 70
     8
 71
     3
 72
    14
 73
    10
 74
     0
 42
0.0000000001
 43
0.0000000001
 12
1.0
 22
0.0
 32
0.0
 13
1.0
 23
0.0
 33
0.0
 40
0.0
 40
0.0
 40
0.0
 40
0.0
 40
1.0
 40
1.0
 40
1.0
 40
2.0
 40
2.0
 40
2.0
 40
3.0
 40
3.0
 40
3.0
 40
3.0
 10
5.925917022562948
 20
7.473727204605843
 30
0.0
 10
5.912006774623756
 20
7.486420759840207
 30
0.0
 10
5.907599182074565
 20
7.490587089230429
 30
0.0
 10
5.890018102200606
 20
7.499150634259788
 30
0.0
 10
5.872434667958487
 20
7.50768823701397
 30
0.0
 10
5.858602006985393
 20
7.516630539260632
 30
0.0
 10
5.845911045978558
 20
7.527282437440122
 30
0.0
 10
5.833217490744194
 20
7.537949900984712
 30
0.0
 10
5.780902298662441
 20
7.585362003061782
 30
0.0
 10
5.757240349491667
 20
7.593925548091129
 30
0.0
  0
SPLINE
  5
AB
330
41
100
AcDbEntity
  8
Layer 1
 62
   250
420
  2301728
370
    13
100
AcDbSpline
210
0.0
220
0.0
230
1.0
 70
     8
 71
     3
 72
    14
 73
    10
 74
     0
 42
0.0000000001
 43
0.0000000001
 12
1.0
 22
0.0
 32
0.0
 13
1.0
 23
0.0
 33
0.0
 40
0.0
 40
0.0
 40
0.0
 40
0.0
 40
1.0
 40
1.0
 40
1.0
 40
2.0
 40
2.0
 40
2.0
 40
3.0
 40
3.0
 40
3.0
 40
3.0
 10
5.976963637389543
 20
7.50768823701397
 30
0.0
 10
5.95533037413606
 20
7.515857459460941
 30
0.0
 10
5.954162971753981
 20
7.520760549465623
 30
0.0
 10
5.941067311254679
 20
7.530159435755031
 30
0.0
 10
5.92799240457551
 20
7.53954535090688
 30
0.0
 10
5.916110842553608
 20
7.551022558373031
 30
0.0
 10
5.899795745707327
 20
7.563282532675593
 30
0.0
 10
5.883431358538246
 20
7.57553247500477
 30
0.0
 10
5.848318489113126
 20
7.618752305416453
 30
0.0
 10
5.820119236017363
 20
7.632294173048447
 30
0.0
  0
SPLINE
  5
AC
330
41
100
AcDbEntity
  8
Layer 1
 62
   250
420
  2301728
370
    13
100
AcDbSpline
210
0.0
220
0.0
230
1.0
 70
     8
 71
     3
 72
    17
 73
    13
 74
     0
 42
0.0000000001
 43
0.0000000001
 12
1.0
 22
0.0
 32
0.0
 13
1.0
 23
0.0
 33
0.0
 40
0.0
 40
0.0
 40
0.0
 40
0.0
 40
1.0
 40
1.0
 40
1.0
 40
2.0
 40
2.0
 40
2.0
 40
3.0
 40
3.0
 40
3.0
 40
4.0
 40
4.0
 40
4.0
 40
4.0
 10
6.032902965310742
 20
7.546119468244493
 30
0.0
 10
6.016183168971994
 20
7.555051048768253
 30
0.0
 10
6.011749634147665
 20
7.557925452855657
 30
0.0
 10
6.000298713893319
 20
7.568136332357476
 30
0.0
 10
5.988847793639025
 20
7.578344617631791
 30
0.0
 10
5.983957674771899
 20
7.585312712738983
 30
0.0
 10
5.968856676402967
 20
7.594304305308419
 30
0.0
 10
5.953708981938765
 20
7.603311463242966
 30
0.0
 10
5.944790027739726
 20
7.613901099962074
 30
0.0
 10
5.929665681323185
 20
7.62205994549898
 30
0.0
 10
5.914515392631452
 20
7.630242139083533
 30
0.0
 10
5.887890835637714
 20
7.657995185046565
 30
0.0
 10
5.871168445071488
 20
7.663367830231588
 30
0.0
  0
SPLINE
  5
AD
330
41
100
AcDbEntity
  8
Layer 1
 62
   250
420
  2301728
370
    13
100
AcDbSpline
210
0.0
220
0.0
230
1.0
 70
     8
 71
     3
 72
    17
 73
    13
 74
     0
 42
0.0000000001
 43
0.0000000001
 12
1.0
 22
0.0
 32
0.0
 13
1.0
 23
0.0
 33
0.0
 40
0.0
 40
0.0
 40
0.0
 40
0.0
 40
1.0
 40
1.0
 40
1.0
 40
2.0
 40
2.0
 40
2.0
 40
3.0
 40
3.0
 40
3.0
 40
4.0
 40
4.0
 40
4.0
 40
4.0
 10
5.900963148089355
 20
7.681683076492491
 30
0.0
 10
5.91038538242641
 20
7.674717575612817
 30
0.0
 10
5.921457545463479
 20
7.675552916872877
 30
0.0
 10
5.935772492895138
 20
7.656804434616851
 30
0.0
 10
5.950058903824129
 20
7.63803295144794
 30
0.0
 10
5.964348151161908
 20
7.631002594702775
 30
0.0
 10
5.978662856412357
 20
7.621222356721482
 30
0.0
 10
5.992951861568877
 20
7.611483279917441
 30
0.0
 10
6.008050265710279
 20
7.605337554932728
 30
0.0
 10
6.022313328591609
 20
7.594304305308419
 30
0.0
 10
6.036602333748129
 20
7.583260678774056
 30
0.0
 10
6.0529433728696
 20
7.57553247500477
 30
0.0
 10
6.062342259158994
 20
7.565715918085338
 30
0.0
  0
SPLINE
  5
AE
330
41
100
AcDbEntity
  8
Layer 1
 62
   250
420
  2301728
370
    13
100
AcDbSpline
210
0.0
220
0.0
230
1.0
 70
     8
 71
     3
 72
    14
 73
    10
 74
     0
 42
0.0000000001
 43
0.0000000001
 12
1.0
 22
0.0
 32
0.0
 13
1.0
 23
0.0
 33
0.0
 40
0.0
 40
0.0
 40
0.0
 40
0.0
 40
1.0
 40
1.0
 40
1.0
 40
2.0
 40
2.0
 40
2.0
 40
3.0
 40
3.0
 40
3.0
 40
3.0
 10
5.936506659282082
 20
7.703775518016262
 30
0.0
 10
5.955735315592215
 20
7.698024115613937
 30
0.0
 10
5.96194046584608
 20
7.691133847332215
 30
0.0
 10
5.975798829234994
 20
7.676831871038113
 30
0.0
 10
5.989631250348768
 20
7.662542865881593
 30
0.0
 10
6.010558883717977
 20
7.639249297018055
 30
0.0
 10
6.023605253894478
 20
7.632294173048447
 30
0.0
 10
6.036602333748129
 20
7.62531570103119
 30
0.0
 10
6.05626163436543
 20
7.619195918321641
 30
0.0
 10
6.090995502069973
 20
7.585691469956272
 30
0.0
  0
SPLINE
  5
AF
330
41
100
AcDbEntity
  8
Layer 1
 62
   250
420
  2301728
370
    13
100
AcDbSpline
210
0.0
220
0.0
230
1.0
 70
     8
 71
     3
 72
    44
 73
    40
 74
     0
 42
0.0000000001
 43
0.0000000001
 12
1.0
 22
0.0
 32
0.0
 13
1.0
 23
0.0
 33
0.0
 40
0.0
 40
0.0
 40
0.0
 40
0.0
 40
1.0
 40
1.0
 40
1.0
 40
2.0
 40
2.0
 40
2.0
 40
3.0
 40
3.0
 40
3.0
 40
4.0
 40
4.0
 40
4.0
 40
5.0
 40
5.0
 40
5.0
 40
6.0
 40
6.0
 40
6.0
 40
7.0
 40
7.0
 40
7.0
 40
8.0
 40
8.0
 40
8.0
 40
9.0
 40
9.0
 40
9.0
 40
10.0
 40
10.0
 40
10.0
 40
11.0
 40
11.0
 40
11.0
 40
12.0
 40
12.0
 40
12.0
 40
13.0
 40
13.0
 40
13.0
 40
13.0
 10
5.720682495340321
 20
7.574126403691253
 30
0.0
 10
5.724356157621135
 20
7.611229045620903
 30
0.0
 10
5.71521126950966
 20
7.633433038927844
 30
0.0
 10
5.719771921482308
 20
7.66769759595531
 30
0.0
 10
5.724356157621135
 20
7.701975124120357
 30
0.0
 10
5.730867668850022
 20
7.723359341532336
 30
0.0
 10
5.729017748348294
 20
7.752962071714073
 30
0.0
 10
5.727194006404741
 20
7.782601121081029
 30
0.0
 10
5.730867668850022
 20
7.810343790134008
 30
0.0
 10
5.729017748348294
 20
7.824277386120873
 30
0.0
 10
5.727194006404741
 20
7.838198010970157
 30
0.0
 10
5.724356157621135
 20
7.867878567977376
 30
0.0
 10
5.733604342596032
 20
7.884523131718171
 30
0.0
 10
5.742902054012347
 20
7.901191397289267
 30
0.0
 10
5.747587228905685
 20
7.905839899214723
 30
0.0
 10
5.750350317985193
 20
7.936407682032305
 30
0.0
 10
5.753086991239014
 20
7.966998812897536
 30
0.0
 10
5.761396301971798
 20
7.997499145799704
 30
0.0
 10
5.769755140292924
 20
8.021630650150819
 30
0.0
 10
5.778090156035407
 20
8.045749183364352
 30
0.0
 10
5.779965782529239
 20
8.065166976319409
 30
0.0
 10
5.787364519404061
 20
8.088336022262208
 30
0.0
 10
5.794812546601634
 20
8.111505427300674
 30
0.0
 10
5.811431168067252
 20
8.16338997892554
 30
0.0
 10
5.812393626475593
 20
8.179159927587142
 30
0.0
 10
5.813330142608796
 20
8.194917265517574
 30
0.0
 10
5.818853252989735
 20
8.214386943022923
 30
0.0
 10
5.809555541573419
 20
8.246801815831695
 30
0.0
 10
5.800335656982573
 20
8.27922965977805
 30
0.0
 10
5.790150719755906
 20
8.314469646351414
 30
0.0
 10
5.783665150966676
 20
8.34593503188944
 30
0.0
 10
5.777179582177395
 20
8.377413754378114
 30
0.0
 10
5.773529504062808
 20
8.394057952305818
 30
0.0
 10
5.763295513615579
 20
8.436707052664044
 30
0.0
 10
5.753086991239014
 20
8.479345776112217
 30
0.0
 10
5.75582130704058
 20
8.492226115727703
 30
0.0
 10
5.753086991239014
 20
8.530278244928102
 30
0.0
 10
5.750350317985193
 20
8.568307026080863
 30
0.0
 10
5.751237307020321
 20
8.73786833073503
 30
0.0
 10
5.742014828201945
 20
8.767497003191933
 30
0.0
  0
SPLINE
  5
B0
330
41
100
AcDbEntity
  8
Layer 1
 62
   250
420
  2301728
370
    13
100
AcDbSpline
210
0.0
220
0.0
230
1.0
 70
     8
 71
     3
 72
    29
 73
    25
 74
     0
 42
0.0000000001
 43
0.0000000001
 12
1.0
 22
0.0
 32
0.0
 13
1.0
 23
0.0
 33
0.0
 40
0.0
 40
0.0
 40
0.0
 40
0.0
 40
1.0
 40
1.0
 40
1.0
 40
2.0
 40
2.0
 40
2.0
 40
3.0
 40
3.0
 40
3.0
 40
4.0
 40
4.0
 40
4.0
 40
5.0
 40
5.0
 40
5.0
 40
6.0
 40
6.0
 40
6.0
 40
7.0
 40
7.0
 40
7.0
 40
8.0
 40
8.0
 40
8.0
 40
8.0
 10
5.722760471580411
 20
8.762897437806561
 30
0.0
 10
5.716326787341409
 20
8.753576753658422
 30
0.0
 10
5.708624525847299
 20
8.609031209622446
 30
0.0
 10
5.711410961990699
 20
8.58030273411349
 30
0.0
 10
5.714248811101369
 20
8.551584635514612
 30
0.0
 10
5.707711357761759
 20
8.541438611700679
 30
0.0
 10
5.718809463073967
 20
8.509923935839867
 30
0.0
 10
5.729930916433785
 20
8.478370346566306
 30
0.0
 10
5.721621605701001
 20
8.450565416052957
 30
0.0
 10
5.738266169441759
 20
8.417224404021088
 30
0.0
 10
5.754936675457707
 20
8.383922305401939
 30
0.0
 10
5.750350317985193
 20
8.375563704346328
 30
0.0
 10
5.752173823153472
 20
8.350532003047267
 30
0.0
 10
5.754049449647355
 20
8.325503260477426
 30
0.0
 10
5.759595908075905
 20
8.334761693979278
 30
0.0
 10
5.751237307020321
 20
8.31257067180992
 30
0.0
 10
5.742902054012347
 20
8.290351476751564
 30
0.0
 10
5.735529259412715
 20
8.292138535896203
 30
0.0
 10
5.732743059060819
 20
8.269906006086595
 30
0.0
 10
5.729930916433785
 20
8.247714983917223
 30
0.0
 10
5.724356157621135
 20
8.233856620528323
 30
0.0
 10
5.720682495340321
 20
8.221783085670216
 30
0.0
 10
5.716985721130413
 20
8.20973808731478
 30
0.0
 10
5.715058210086251
 20
8.178259730639184
 30
0.0
 10
5.704925393037607
 20
8.153230623567639
 30
0.0
  0
SPLINE
  5
B1
330
41
100
AcDbEntity
  8
Layer 1
 62
   250
420
  2301728
370
    13
100
AcDbSpline
210
0.0
220
0.0
230
1.0
 70
     8
 71
     3
 72
    56
 73
    52
 74
     0
 42
0.0000000001
 43
0.0000000001
 12
1.0
 22
0.0
 32
0.0
 13
1.0
 23
0.0
 33
0.0
 40
0.0
 40
0.0
 40
0.0
 40
0.0
 40
1.0
 40
1.0
 40
1.0
 40
2.0
 40
2.0
 40
2.0
 40
3.0
 40
3.0
 40
3.0
 40
4.0
 40
4.0
 40
4.0
 40
5.0
 40
5.0
 40
5.0
 40
6.0
 40
6.0
 40
6.0
 40
7.0
 40
7.0
 40
7.0
 40
8.0
 40
8.0
 40
8.0
 40
9.0
 40
9.0
 40
9.0
 40
10.0
 40
10.0
 40
10.0
 40
11.0
 40
11.0
 40
11.0
 40
12.0
 40
12.0
 40
12.0
 40
13.0
 40
13.0
 40
13.0
 40
14.0
 40
14.0
 40
14.0
 40
15.0
 40
15.0
 40
15.0
 40
16.0
 40
16.0
 40
16.0
 40
17.0
 40
17.0
 40
17.0
 40
17.0
 10
5.764460084667891
 20
8.772854083011882
 30
0.0
 10
5.771604587246125
 20
8.754271631316845
 30
0.0
 10
5.770795188261243
 20
8.626778320057408
 30
0.0
 10
5.772035229013732
 20
8.61158911795293
 30
0.0
 10
5.77332715431655
 20
8.596389538938398
 30
0.0
 10
5.77332715431655
 20
8.597224880198457
 30
0.0
 10
5.77885026469749
 20
8.57738941661335
 30
0.0
 10
5.784324084755629
 20
8.557538387663158
 30
0.0
 10
5.786477293593659
 20
8.547760744156461
 30
0.0
 10
5.788985911601356
 20
8.527087345083789
 30
0.0
 10
5.791468825147882
 20
8.506413946011106
 30
0.0
 10
5.799067079727416
 20
8.516105980009797
 30
0.0
 10
5.799067079727416
 20
8.47384860800643
 30
0.0
 10
5.799067079727416
 20
8.431588641775559
 30
0.0
 10
5.802006339502719
 20
8.427383398972601
 30
0.0
 10
5.807124750391191
 20
8.403695507526663
 30
0.0
 10
5.812191276729386
 20
8.380010210308253
 30
0.0
 10
5.806743398946385
 20
8.35678964510723
 30
0.0
 10
5.813052798623858
 20
8.339045128451517
 30
0.0
 10
5.81933577930762
 20
8.321297653172753
 30
0.0
 10
5.82151493042084
 20
8.310708016453658
 30
0.0
 10
5.822376213956052
 20
8.294683836812258
 30
0.0
 10
5.823159670665796
 20
8.27864595858701
 30
0.0
 10
5.816396519532317
 20
8.26424540164732
 30
0.0
 10
5.826555514483844
 20
8.242280439671124
 30
0.0
 10
5.836714509435372
 20
8.220327724033899
 30
0.0
 10
5.837523908420255
 20
8.20718054049693
 30
0.0
 10
5.840919752238303
 20
8.170863587991903
 30
0.0
 10
5.844339183253674
 20
8.134544402771995
 30
0.0
 10
5.845581579084031
 20
8.11259500288477
 30
0.0
 10
5.84897742290213
 20
8.094847533326641
 30
0.0
 10
5.852321382169849
 20
8.077087451754108
 30
0.0
 10
5.858298482366055
 20
8.023366188358839
 30
0.0
 10
5.856575915295631
 20
7.991698453074592
 30
0.0
 10
5.854827405950017
 20
7.960030717790346
 30
0.0
 10
5.855283989992813
 20
7.955319600621818
 30
0.0
 10
5.846442862619242
 20
7.929149033443359
 30
0.0
 10
5.837523908420255
 20
7.902978466264901
 30
0.0
 10
5.838411134230657
 20
7.883584021357465
 30
0.0
 10
5.827795555236333
 20
7.863266031454448
 30
0.0
 10
5.817257803067529
 20
7.842973983826583
 30
0.0
 10
5.809200132403753
 20
7.821400387805952
 30
0.0
 10
5.802436981270325
 20
7.803655871598519
 30
0.0
 10
5.795673830136845
 20
7.785908761163555
 30
0.0
 10
5.792277986318797
 20
7.789670391061336
 30
0.0
 10
5.792734570361593
 20
7.757584985147067
 30
0.0
 10
5.793191154404338
 20
7.725486608095202
 30
0.0
 10
5.801601640010252
 20
7.725536247763266
 30
0.0
 10
5.79737045493213
 20
7.699303069779186
 30
0.0
 10
5.793191154404338
 20
7.673070241140344
 30
0.0
 10
5.792734570361593
 20
7.631635239259455
 30
0.0
 10
5.787260750303403
 20
7.613078729839597
 30
0.0
  0
SPLINE
  5
B2
330
41
100
AcDbEntity
  8
Layer 1
 62
   250
420
  2301728
370
    13
100
AcDbSpline
210
0.0
220
0.0
230
1.0
 70
     8
 71
     3
 72
    59
 73
    55
 74
     0
 42
0.0000000001
 43
0.0000000001
 12
1.0
 22
0.0
 32
0.0
 13
1.0
 23
0.0
 33
0.0
 40
0.0
 40
0.0
 40
0.0
 40
0.0
 40
1.0
 40
1.0
 40
1.0
 40
2.0
 40
2.0
 40
2.0
 40
3.0
 40
3.0
 40
3.0
 40
4.0
 40
4.0
 40
4.0
 40
5.0
 40
5.0
 40
5.0
 40
6.0
 40
6.0
 40
6.0
 40
7.0
 40
7.0
 40
7.0
 40
8.0
 40
8.0
 40
8.0
 40
9.0
 40
9.0
 40
9.0
 40
10.0
 40
10.0
 40
10.0
 40
11.0
 40
11.0
 40
11.0
 40
12.0
 40
12.0
 40
12.0
 40
13.0
 40
13.0
 40
13.0
 40
14.0
 40
14.0
 40
14.0
 40
15.0
 40
15.0
 40
15.0
 40
16.0
 40
16.0
 40
16.0
 40
17.0
 40
17.0
 40
17.0
 40
18.0
 40
18.0
 40
18.0
 40
18.0
 10
5.860301226008156
 20
7.662086281838835
 30
0.0
 10
5.866685619924308
 20
7.69253991864572
 30
0.0
 10
5.862454434846237
 20
7.706079540903943
 30
0.0
 10
5.871295562219757
 20
7.730566105570965
 30
0.0
 10
5.880188574143605
 20
7.755089338276952
 30
0.0
 10
5.876006679388284
 20
7.77748530442006
 30
0.0
 10
5.885760974847345
 20
7.785908761163555
 30
0.0
 10
5.895414095433276
 20
7.794345189044671
 30
0.0
 10
5.904307107357125
 20
7.799450628795562
 30
0.0
 10
5.903038530101967
 20
7.812535912384797
 30
0.0
 10
5.901746604799099
 20
7.825608224836438
 30
0.0
 10
5.904307107357125
 20
7.837425283342289
 30
0.0
 10
5.898376943770901
 20
7.856894608675866
 30
0.0
 10
5.892425545335173
 20
7.876364639336771
 30
0.0
 10
5.903038530101967
 20
7.869588163910243
 30
0.0
 10
5.8962496771543
 20
7.899582976188904
 30
0.0
 10
5.88948628555987
 20
7.92959264634856
 30
0.0
 10
5.880237864466405
 20
7.962157984353224
 30
0.0
 10
5.8818592566637
 20
7.980727464910652
 30
0.0
 10
5.883558475686514
 20
7.99929953969561
 30
0.0
 10
5.88520321593147
 20
8.042000524604152
 30
0.0
 10
5.880188574143605
 20
8.064394254425274
 30
0.0
 10
5.875122047805411
 20
8.086815804938004
 30
0.0
 10
5.870055521467217
 20
8.121461713410287
 30
0.0
 10
5.868838828762389
 20
8.140018222830134
 30
0.0
 10
5.867520961184381
 20
8.158613645662728
 30
0.0
 10
5.864986400901544
 20
8.178526936073302
 30
0.0
 10
5.860757810050952
 20
8.191612219662538
 30
0.0
 10
5.856575915295631
 20
8.204684532114179
 30
0.0
 10
5.853535480647198
 20
8.21395630125533
 30
0.0
 10
5.852726081662316
 20
8.227915839517348
 30
0.0
 10
5.851914327790862
 20
8.241898725827014
 30
0.0
 10
5.843833069738467
 20
8.271908749728722
 30
0.0
 10
5.843833069738467
 20
8.292579554573877
 30
0.0
 10
5.843833069738467
 20
8.31326592478413
 30
0.0
 10
5.846442862619242
 20
8.32890911670385
 30
0.0
 10
5.843477660568801
 20
8.344541931713504
 30
0.0
 10
5.840463168195558
 20
8.36015918135806
 30
0.0
 10
5.835879168175299
 20
8.367316655073902
 30
0.0
 10
5.834587242872481
 20
8.384682414064047
 30
0.0
 10
5.833318665617323
 20
8.402037796144125
 30
0.0
 10
5.834966000089758
 20
8.419416526271851
 30
0.0
 10
5.828656838771596
 20
8.436707052664044
 30
0.0
 10
5.822376213956052
 20
8.453984607918654
 30
0.0
 10
5.820171120567693
 20
8.45864643476438
 30
0.0
 10
5.820602000885249
 20
8.477685470502163
 30
0.0
 10
5.821058346378044
 20
8.496711535102362
 30
0.0
 10
5.823566964385742
 20
8.503007725282991
 30
0.0
 10
5.81933577930762
 20
8.520765212628021
 30
0.0
 10
5.815130536504689
 20
8.538499351925376
 30
0.0
 10
5.805832825088373
 20
8.56000809225812
 30
0.0
 10
5.804994889600821
 20
8.572714618630053
 30
0.0
 10
5.804159548340749
 20
8.585418921842209
 30
0.0
 10
5.800231887881965
 20
8.770296174681372
 30
0.0
 10
5.802006339502719
 20
8.785116996478614
 30
0.0
  0
SPLINE
  5
B3
330
41
100
AcDbEntity
  8
Layer 1
 62
   250
420
  2301728
370
    13
100
AcDbSpline
210
0.0
220
0.0
230
1.0
 70
     8
 71
     3
 72
    47
 73
    43
 74
     0
 42
0.0000000001
 43
0.0000000001
 12
1.0
 22
0.0
 32
0.0
 13
1.0
 23
0.0
 33
0.0
 40
0.0
 40
0.0
 40
0.0
 40
0.0
 40
1.0
 40
1.0
 40
1.0
 40
2.0
 40
2.0
 40
2.0
 40
3.0
 40
3.0
 40
3.0
 40
4.0
 40
4.0
 40
4.0
 40
5.0
 40
5.0
 40
5.0
 40
6.0
 40
6.0
 40
6.0
 40
7.0
 40
7.0
 40
7.0
 40
8.0
 40
8.0
 40
8.0
 40
9.0
 40
9.0
 40
9.0
 40
10.0
 40
10.0
 40
10.0
 40
11.0
 40
11.0
 40
11.0
 40
12.0
 40
12.0
 40
12.0
 40
13.0
 40
13.0
 40
13.0
 40
14.0
 40
14.0
 40
14.0
 40
14.0
 10
5.845581579084031
 20
8.796466741859831
 30
0.0
 10
5.842185974361225
 20
8.77534972988197
 30
0.0
 10
5.842185974361225
 20
8.656899895742287
 30
0.0
 10
5.845581579084031
 20
8.638265559496947
 30
0.0
 10
5.84897742290213
 20
8.619633817479135
 30
0.0
 10
5.854827405950017
 20
8.618808853129142
 30
0.0
 10
5.854827405950017
 20
8.590915718880257
 30
0.0
 10
5.854827405950017
 20
8.56302517885888
 30
0.0
 10
5.845936988253698
 20
8.571510897062756
 30
0.0
 10
5.854827405950017
 20
8.551218849434893
 30
0.0
 10
5.863694475598726
 20
8.530914200360282
 30
0.0
 10
5.866278326204363
 20
8.531279616749163
 30
0.0
 10
5.866278326204363
 20
8.498371840712416
 30
0.0
 10
5.866278326204363
 20
8.465422557035417
 30
0.0
 10
5.86544298494429
 20
8.461142081634495
 30
0.0
 10
5.868838828762389
 20
8.433705531428371
 30
0.0
 10
5.872208730305298
 20
8.406256010084665
 30
0.0
 10
5.873119304163311
 20
8.423608797937238
 30
0.0
 10
5.875576037620678
 20
8.385126026969235
 30
0.0
 10
5.878035365305575
 20
8.346630284863648
 30
0.0
 10
5.882772424749242
 20
8.312049232079264
 30
0.0
 10
5.883177124241708
 20
8.280319235334634
 30
0.0
 10
5.883558475686514
 20
8.248612586637666
 30
0.0
 10
5.883177124241708
 20
8.22619327244691
 30
0.0
 10
5.889942869602666
 20
8.200871017666094
 30
0.0
 10
5.896706020736095
 20
8.175512443700061
 30
0.0
 10
5.884850400989333
 20
8.164097842630932
 30
0.0
 10
5.897110720228562
 20
8.118901210852275
 30
0.0
 10
5.90934769142013
 20
8.07370457907363
 30
0.0
 10
5.910639616722947
 20
8.069437074810278
 30
0.0
 10
5.917379419808766
 20
8.037338697758425
 30
0.0
 10
5.924142570942245
 20
8.005227349569003
 30
0.0
 10
5.934301565893722
 20
7.969289871296913
 30
0.0
 10
5.937645525161492
 20
7.93297292480151
 30
0.0
 10
5.941067311254679
 20
7.896656333809144
 30
0.0
 10
5.948261104155764
 20
7.872208333701097
 30
0.0
 10
5.953327630493959
 20
7.845531892157068
 30
0.0
 10
5.958394156832102
 20
7.818842479475468
 30
0.0
 10
5.962576051587424
 20
7.805391409806525
 30
0.0
 10
5.962576051587424
 20
7.778307674542538
 30
0.0
 10
5.962576051587424
 20
7.751249881553703
 30
0.0
 10
5.964752608473114
 20
7.722077793139571
 30
0.0
 10
5.964752608473114
 20
7.722077793139571
 30
0.0
  0
SPLINE
  5
B4
330
41
100
AcDbEntity
  8
Layer 1
 62
   250
420
  2301728
370
    13
100
AcDbSpline
210
0.0
220
0.0
230
1.0
 70
     8
 71
     3
 72
    41
 73
    37
 74
     0
 42
0.0000000001
 43
0.0000000001
 12
1.0
 22
0.0
 32
0.0
 13
1.0
 23
0.0
 33
0.0
 40
0.0
 40
0.0
 40
0.0
 40
0.0
 40
1.0
 40
1.0
 40
1.0
 40
2.0
 40
2.0
 40
2.0
 40
3.0
 40
3.0
 40
3.0
 40
4.0
 40
4.0
 40
4.0
 40
5.0
 40
5.0
 40
5.0
 40
6.0
 40
6.0
 40
6.0
 40
7.0
 40
7.0
 40
7.0
 40
8.0
 40
8.0
 40
8.0
 40
9.0
 40
9.0
 40
9.0
 40
10.0
 40
10.0
 40
10.0
 40
11.0
 40
11.0
 40
11.0
 40
12.0
 40
12.0
 40
12.0
 40
12.0
 10
5.998524262272617
 20
7.742382811905018
 30
0.0
 10
5.995966353942119
 20
7.767326309468545
 30
0.0
 10
5.998550204547755
 20
7.786744102423616
 30
0.0
 10
5.993483678209562
 20
7.814637236672511
 30
0.0
 10
5.988365267321089
 20
7.842543342058977
 30
0.0
 10
5.985426007545786
 20
7.858186533978684
 30
0.0
 10
5.983348031305695
 20
7.877199627441314
 30
0.0
 10
5.981194822467665
 20
7.896199749766348
 30
0.0
 10
5.975342245192248
 20
7.909285387342745
 30
0.0
 10
5.972353695094145
 20
7.930858629376214
 30
0.0
 10
5.969339202720903
 20
7.952429631169315
 30
0.0
 10
5.964220791832379
 20
7.964248931730885
 30
0.0
 10
5.963842034615102
 20
7.983262025193501
 30
0.0
 10
5.963437335122635
 20
8.002288446130326
 30
0.0
 10
5.959662734087311
 20
8.047484721572358
 30
0.0
 10
5.958798856324569
 20
8.073273937306011
 30
0.0
 10
5.957963515064496
 20
8.099053134910694
 30
0.0
 10
5.960041733377062
 20
8.11387359792684
 30
0.0
 10
5.949477796860643
 20
8.14723795800636
 30
0.0
 10
5.938963392739449
 20
8.18061565006499
 30
0.0
 10
5.936405484408952
 20
8.211904267290404
 30
0.0
 10
5.936405484408952
 20
8.237249870118893
 30
0.0
 10
5.936405484408952
 20
8.262585096037267
 30
0.0
 10
5.947399820620553
 20
8.248145625684831
 30
0.0
 10
5.937240825669025
 20
8.284537449275199
 30
0.0
 10
5.927107772992687
 20
8.32092927286553
 30
0.0
 10
5.913605059672818
 20
8.40503931737981
 30
0.0
 10
5.913148234730644
 20
8.42783998301536
 30
0.0
 10
5.912743535238229
 20
8.45062767751334
 30
0.0
 10
5.90934769142013
 20
8.47857269631254
 30
0.0
 10
5.906434373920016
 20
8.496711535102362
 30
0.0
 10
5.903495114144713
 20
8.514824431617033
 30
0.0
 10
5.904255222806796
 20
8.52249037392595
 30
0.0
 10
5.899188696468652
 20
8.546544051451594
 30
0.0
 10
5.894171460453259
 20
8.57061070011481
 30
0.0
 10
5.880997973128488
 20
8.767432147504046
 30
0.0
 10
5.88738236704464
 20
8.807956575526898
 30
0.0
  0
SPLINE
  5
B5
330
41
100
AcDbEntity
  8
Layer 1
 62
   250
420
  2301728
370
    13
100
AcDbSpline
210
0.0
220
0.0
230
1.0
 70
     8
 71
     3
 72
    35
 73
    31
 74
     0
 42
0.0000000001
 43
0.0000000001
 12
1.0
 22
0.0
 32
0.0
 13
1.0
 23
0.0
 33
0.0
 40
0.0
 40
0.0
 40
0.0
 40
0.0
 40
1.0
 40
1.0
 40
1.0
 40
2.0
 40
2.0
 40
2.0
 40
3.0
 40
3.0
 40
3.0
 40
4.0
 40
4.0
 40
4.0
 40
5.0
 40
5.0
 40
5.0
 40
6.0
 40
6.0
 40
6.0
 40
7.0
 40
7.0
 40
7.0
 40
8.0
 40
8.0
 40
8.0
 40
9.0
 40
9.0
 40
9.0
 40
10.0
 40
10.0
 40
10.0
 40
10.0
 10
5.925385205922263
 20
8.819394524643661
 30
0.0
 10
5.92244594614696
 20
8.789778823324342
 30
0.0
 10
5.92244594614696
 20
8.664070340595698
 30
0.0
 10
5.924977912202267
 20
8.632337749623565
 30
0.0
 10
5.927512472485154
 20
8.600607752878949
 30
0.0
 10
5.928373756020366
 20
8.588726190856997
 30
0.0
 10
5.933035824256345
 20
8.559185722135641
 30
0.0
 10
5.937645525161492
 20
8.529621905366627
 30
0.0
 10
5.941951942837552
 20
8.523313113547236
 30
0.0
 10
5.945703195825268
 20
8.492049708256634
 30
0.0
 10
5.949477796860643
 20
8.460763324417206
 30
0.0
 10
5.951579121148344
 20
8.435744594255715
 30
0.0
 10
5.954162971753981
 20
8.413413483800518
 30
0.0
 10
5.956697532036817
 20
8.391066807980199
 30
0.0
 10
5.955885538824405
 20
8.365225707696242
 30
0.0
 10
5.961359358882545
 20
8.345807914741158
 30
0.0
 10
5.966830584713206
 20
8.326413469833735
 30
0.0
 10
5.970252370806393
 20
8.30865598248872
 30
0.0
 10
5.975267012594259
 20
8.270629795563472
 30
0.0
 10
5.980310190884792
 20
8.232578028517297
 30
0.0
 10
5.985781416715453
 20
8.231677469415128
 30
0.0
 10
5.98709952704942
 20
8.20213700069376
 30
0.0
 10
5.988365267321089
 20
8.172586155062351
 30
0.0
 10
5.987529926061016
 20
8.153051621869054
 30
0.0
 10
5.991761111139137
 20
8.132811458791505
 30
0.0
 10
5.995966353942119
 20
8.11259500288477
 30
0.0
 10
5.999333661257499
 20
8.070778290435921
 30
0.0
 10
6.003160146843154
 20
8.053399560308169
 30
0.0
 10
6.007009980476469
 20
8.036046772455608
 30
0.0
 10
6.014813416843708
 20
7.991241869031821
 30
0.0
 10
6.015853702077518
 20
7.966300965695811
 30
0.0
  0
SPLINE
  5
B6
330
41
100
AcDbEntity
  8
Layer 1
 62
   250
420
  2301728
370
    13
100
AcDbSpline
210
0.0
220
0.0
230
1.0
 70
     8
 71
     3
 72
    26
 73
    22
 74
     0
 42
0.0000000001
 43
0.0000000001
 12
1.0
 22
0.0
 32
0.0
 13
1.0
 23
0.0
 33
0.0
 40
0.0
 40
0.0
 40
0.0
 40
0.0
 40
1.0
 40
1.0
 40
1.0
 40
2.0
 40
2.0
 40
2.0
 40
3.0
 40
3.0
 40
3.0
 40
4.0
 40
4.0
 40
4.0
 40
5.0
 40
5.0
 40
5.0
 40
6.0
 40
6.0
 40
6.0
 40
7.0
 40
7.0
 40
7.0
 40
7.0
 10
6.015853702077518
 20
8.232121082320305
 30
0.0
 10
6.014029960133964
 20
8.274518542609522
 30
0.0
 10
6.014029960133964
 20
8.307198026624885
 30
0.0
 10
6.006099406618457
 20
8.334014556454752
 30
0.0
 10
5.994293077194495
 20
8.373714020127636
 30
0.0
 10
5.998550204547755
 20
8.383860043941569
 30
0.0
 10
5.994749661237241
 20
8.411753178190464
 30
0.0
 10
5.990923175651586
 20
8.439633341301764
 30
0.0
 10
5.988821851363834
 20
8.440468682561812
 30
0.0
 10
5.986691990573465
 20
8.468361816810708
 30
0.0
 10
5.984616608560903
 20
8.496255319874876
 30
0.0
 10
5.99049253388398
 20
8.516928350132275
 30
0.0
 10
5.982894041490479
 20
8.54483445551874
 30
0.0
 10
5.975267012594259
 20
8.572714618630053
 30
0.0
 10
5.977775630601955
 20
8.582873613581556
 30
0.0
 10
5.974810428551513
 20
8.60316566120942
 30
0.0
 10
5.97189735342335
 20
8.623457708837286
 30
0.0
 10
5.96850386146083
 20
8.649249518798456
 30
0.0
 10
5.967235284205622
 20
8.669097953521133
 30
0.0
 10
5.965969301177993
 20
8.68893601133377
 30
0.0
 10
5.965969301177993
 20
8.820229865903721
 30
0.0
 10
5.965969301177993
 20
8.829919305674883
 30
0.0
  0
SPLINE
  5
B7
330
41
100
AcDbEntity
  8
Layer 1
 62
   250
420
  2301728
370
    13
100
AcDbSpline
210
0.0
220
0.0
230
1.0
 70
     8
 71
     3
 72
    14
 73
    10
 74
     0
 42
0.0000000001
 43
0.0000000001
 12
1.0
 22
0.0
 32
0.0
 13
1.0
 23
0.0
 33
0.0
 40
0.0
 40
0.0
 40
0.0
 40
0.0
 40
1.0
 40
1.0
 40
1.0
 40
2.0
 40
2.0
 40
2.0
 40
3.0
 40
3.0
 40
3.0
 40
3.0
 10
5.995966353942119
 20
8.835860086685859
 30
0.0
 10
5.998145505055289
 20
8.819773281860964
 30
0.0
 10
5.999715012702305
 20
8.707975047071537
 30
0.0
 10
6.001463522047869
 20
8.681347895850308
 30
0.0
 10
6.003160146843154
 20
8.65473371576666
 30
0.0
 10
6.003995488103227
 20
8.643322081455556
 30
0.0
 10
6.006556233908744
 20
8.628957471170615
 30
0.0
 10
6.00908795671656
 20
8.614590639188602
 30
0.0
 10
6.014206367605033
 20
8.598516805501276
 30
0.0
 10
6.015423060309912
 20
8.573171202672825
 30
0.0
  0
POLYLINE
  5
B8
330
41
100
AcDbEntity
  8
Layer 1
 62
   250
420
  2301728
370
    20
100
AcDb2dPolyline
 66
     1
 10
0.0
 20
0.0
 30
0.0
  0
VERTEX
  5
B9
330
B8
100
AcDbEntity
  8
Layer 1
 62
   250
420
  2301728
370
    20
100
AcDbVertex
100
AcDb2dVertex
 10
2.603598043314314
 20
8.986093881693211
 30
0.0
  0
VERTEX
  5
BA
330
B8
100
AcDbEntity
  8
Layer 1
 62
   250
420
  2301728
370
    20
100
AcDbVertex
100
AcDb2dVertex
 10
5.701734493112654
 20
8.758603991268084
 30
0.0
  0
SEQEND
  5
BB
330
B8
100
AcDbEntity
  8
Layer 1
 62
   250
420
  2301728
370
    20
  0
POLYLINE
  5
BC
330
41
100
AcDbEntity
  8
Layer 1
 62
   250
420
  2301728
370
    35
100
AcDb2dPolyline
 66
     1
 10
0.0
 20
0.0
 30
0.0
  0
VERTEX
  5
BD
330
BC
100
AcDbEntity
  8
Layer 1
 62
   250
420
  2301728
370
    35
100
AcDbVertex
100
AcDb2dVertex
 10
4.916967725891658
 20
8.038637800513596
 30
0.0
  0
VERTEX
  5
141
330
BC
100
AcDbEntity
  8
0
100
AcDbVertex
100
AcDb2dVertex
 10
4.916967725891658
 20
8.038637800513596
 30
0.0
  0
SEQEND
  5
BE
330
BC
100
AcDbEntity
  8
Layer 1
 62
   250
420
  2301728
370
    35
  0
POLYLINE
  5
BF
330
41
100
AcDbEntity
  8
Layer 1
 62
   250
420
  2301728
370
    35
100
AcDb2dPolyline
 66
     1
 10
0.0
 20
0.0
 30
0.0
  0
VERTEX
  5
C0
330
BF
100
AcDbEntity
  8
Layer 1
 62
   250
420
  2301728
370
    35
100
AcDbVertex
100
AcDb2dVertex
 10
4.555599615636134
 20
7.552713044546408
 30
0.0
  0
VERTEX
  5
142
330
BF
100
AcDbEntity
  8
0
100
AcDbVertex
100
AcDb2dVertex
 10
4.555599615636134
 20
7.552713044546408
 30
0.0
  0
SEQEND
  5
C1
330
BF
100
AcDbEntity
  8
Layer 1
 62
   250
420
  2301728
370
    35
  0
POLYLINE
  5
C2
330
41
100
AcDbEntity
  8
Layer 1
 62
   250
420
  2301728
370
    35
100
AcDb2dPolyline
 66
     1
 10
0.0
 20
0.0
 30
0.0
  0
VERTEX
  5
C3
330
C2
100
AcDbEntity
  8
Layer 1
 62
   250
420
  2301728
370
    35
100
AcDbVertex
100
AcDb2dVertex
 10
4.563758461173014
 20
7.517978932338602
 30
0.0
  0
VERTEX
  5
143
330
C2
100
AcDbEntity
  8
0
100
AcDbVertex
100
AcDb2dVertex
 10
4.563758461173014
 20
7.517978932338602
 30
0.0
  0
SEQEND
  5
C4
330
C2
100
AcDbEntity
  8
Layer 1
 62
   250
420
  2301728
370
    35
  0
POLYLINE
  5
C5
330
41
100
AcDbEntity
  8
Layer 1
 62
   250
420
  2301728
370
    13
100
AcDb2dPolyline
 66
     1
 10
0.0
 20
0.0
 30
0.0
  0
VERTEX
  5
C6
330
C5
100
AcDbEntity
  8
Layer 1
 62
   250
420
  2301728
370
    13
100
AcDbVertex
100
AcDb2dVertex
 10
4.664310719681857
 20
7.033081490467616
 30
0.0
  0
VERTEX
  5
C7
330
C5
100
AcDbEntity
  8
Layer 1
 62
   250
420
  2301728
370
    13
100
AcDbVertex
100
AcDb2dVertex
 10
4.664310719681857
 20
7.005113123620768
 30
0.0
  0
SEQEND
  5
C8
330
C5
100
AcDbEntity
  8
Layer 1
 62
   250
420
  2301728
370
    13
  0
POLYLINE
  5
C9
330
41
100
AcDbEntity
  8
Layer 1
 62
   250
420
  2301728
370
    13
100
AcDb2dPolyline
 66
     1
 10
0.0
 20
0.0
 30
0.0
  0
VERTEX
  5
CA
330
C9
100
AcDbEntity
  8
Layer 1
 62
   250
420
  2301728
370
    13
100
AcDbVertex
100
AcDb2dVertex
 10
4.664310719681857
 20
7.29327732183804
 30
0.0
  0
VERTEX
  5
CB
330
C9
100
AcDbEntity
  8
Layer 1
 62
   250
420
  2301728
370
    13
100
AcDbVertex
100
AcDb2dVertex
 10
4.664310719681857
 20
7.063874971079043
 30
0.0
  0
SEQEND
  5
CC
330
C9
100
AcDbEntity
  8
Layer 1
 62
   250
420
  2301728
370
    13
  0
POLYLINE
  5
CD
330
41
100
AcDbEntity
  8
Layer 1
 62
   250
420
  2301728
370
    13
100
AcDb2dPolyline
 66
     1
 10
0.0
 20
0.0
 30
0.0
  0
VERTEX
  5
CE
330
CD
100
AcDbEntity
  8
Layer 1
 62
   250
420
  2301728
370
    13
100
AcDbVertex
100
AcDb2dVertex
 10
4.664310719681857
 20
8.493564131895608
 30
0.0
  0
VERTEX
  5
CF
330
CD
100
AcDbEntity
  8
Layer 1
 62
   250
420
  2301728
370
    13
100
AcDbVertex
100
AcDb2dVertex
 10
4.664310719681857
 20
8.459997422069856
 30
0.0
  0
SEQEND
  5
D0
330
CD
100
AcDbEntity
  8
Layer 1
 62
   250
420
  2301728
370
    13
  0
INSERT
  5
D2
330
41
100
AcDbEntity
  8
Layer 1
100
AcDbBlockReference
  2
block 3
 10
0.0
 20
0.0
 30
0.0
  0
INSERT
  5
100
330
41
100
AcDbEntity
  8
Layer 1
100
AcDbBlockReference
  2
block 4
 10
0.0
 20
0.0
 30
0.0
  0
INSERT
  5
108
330
41
100
AcDbEntity
  8
Layer 1
100
AcDbBlockReference
  2
block 5
 10
0.0
 20
0.0
 30
0.0
  0
INSERT
  5
110
330
41
100
AcDbEntity
  8
Layer 1
100
AcDbBlockReference
  2
block 6
 10
0.0
 20
0.0
 30
0.0
  0
SPLINE
  5
117
330
41
100
AcDbEntity
  8
Layer 1
 62
   250
420
  2301728
370
    15
100
AcDbSpline
210
0.0
220
0.0
230
1.0
 70
     8
 71
     3
 72
     8
 73
     4
 74
     0
 42
0.0000000001
 43
0.0000000001
 12
1.0
 22
0.0
 32
0.0
 13
1.0
 23
0.0
 33
0.0
 40
0.0
 40
0.0
 40
0.0
 40
0.0
 40
1.0
 40
1.0
 40
1.0
 40
1.0
 10
4.567709469679458
 20
6.887524573016283
 30
0.0
 10
4.566267079180711
 20
6.889475432108092
 30
0.0
 10
4.564544512110286
 20
6.891488552660298
 30
0.0
 10
4.562414651319892
 20
6.893377150291712
 30
0.0
  0
SPLINE
  5
118
330
41
100
AcDbEntity
  8
Layer 1
 62
   250
420
  2301728
370
    15
100
AcDbSpline
210
0.0
220
0.0
230
1.0
 70
     8
 71
     3
 72
    11
 73
     7
 74
     0
 42
0.0000000001
 43
0.0000000001
 12
1.0
 22
0.0
 32
0.0
 13
1.0
 23
0.0
 33
0.0
 40
0.0
 40
0.0
 40
0.0
 40
0.0
 40
1.0
 40
1.0
 40
1.0
 40
2.0
 40
2.0
 40
2.0
 40
2.0
 10
4.536347853242053
 20
6.834804681442089
 30
0.0
 10
4.536347853242053
 20
6.834804681442089
 30
0.0
 10
4.570319262560259
 20
6.83329743525543
 30
0.0
 10
4.573258522335537
 20
6.868687887024723
 30
0.0
 10
4.573258522335537
 20
6.868687887024723
 30
0.0
 10
4.573689164103143
 20
6.872983927790756
 30
0.0
 10
4.572041829630684
 20
6.878556328494483
 30
0.0
  0
SPLINE
  5
119
330
41
100
AcDbEntity
  8
Layer 1
 62
   250
420
  2301728
370
    25
100
AcDbSpline
210
0.0
220
0.0
230
1.0
 70
    11
 71
     3
 72
    17
 73
    13
 74
     0
 42
0.0000000001
 43
0.0000000001
 12
1.0
 22
0.0
 32
0.0
 13
1.0
 23
0.0
 33
0.0
 40
0.0
 40
0.0
 40
0.0
 40
0.0
 40
1.0
 40
1.0
 40
1.0
 40
2.0
 40
2.0
 40
2.0
 40
3.0
 40
3.0
 40
3.0
 40
4.0
 40
4.0
 40
4.0
 40
4.0
 10
4.558388410215533
 20
6.863063601770679
 30
0.0
 10
4.558388410215533
 20
6.849181890334105
 30
0.0
 10
4.547822121544034
 20
6.83792034868841
 30
0.0
 10
4.534902868515827
 20
6.83792034868841
 30
0.0
 10
4.521905788662125
 20
6.83792034868841
 30
0.0
 10
4.511417326816122
 20
6.849181890334105
 30
0.0
 10
4.511417326816122
 20
6.863063601770679
 30
0.0
 10
4.511417326816122
 20
6.876934936297162
 30
0.0
 10
4.521905788662125
 20
6.888196477942844
 30
0.0
 10
4.534902868515827
 20
6.888196477942844
 30
0.0
 10
4.547822121544034
 20
6.888196477942844
 30
0.0
 10
4.558388410215533
 20
6.876934936297162
 30
0.0
 10
4.558388410215533
 20
6.863063601770679
 30
0.0
  0
HATCH
  5
11A
330
41
100
AcDbEntity
  8
Layer 1
 62
     9
420
 12307926
100
AcDbHatch
 10
0.0
 20
0.0
 30
0.0
210
0.0
220
0.0
230
1.0
  2
SOLID
 70
     1
 71
     0
 91
        1
 92
        1
 93
        1
 72
     4
 94
        3
 73
     0
 74
     1
 95
       17
 96
       13
 40
0.0
 40
0.0
 40
0.0
 40
0.0
 40
1.0
 40
1.0
 40
1.0
 40
2.0
 40
2.0
 40
2.0
 40
3.0
 40
3.0
 40
3.0
 40
4.0
 40
4.0
 40
4.0
 40
4.0
 10
4.558388410215533
 20
6.863063601770679
 10
4.558388410215533
 20
6.849181890334105
 10
4.547822121544034
 20
6.83792034868841
 10
4.534902868515827
 20
6.83792034868841
 10
4.521905788662125
 20
6.83792034868841
 10
4.511417326816122
 20
6.849181890334105
 10
4.511417326816122
 20
6.863063601770679
 10
4.511417326816122
 20
6.876934936297162
 10
4.521905788662125
 20
6.888196477942844
 10
4.534902868515827
 20
6.888196477942844
 10
4.547822121544034
 20
6.888196477942844
 10
4.558388410215533
 20
6.876934936297162
 10
4.558388410215533
 20
6.863063601770679
 97
        0
 97
        0
 75
     2
 76
     1
 98
        0
  0
SPLINE
  5
11B
330
41
100
AcDbEntity
  8
Layer 1
 62
   250
420
  2301728
370
    25
100
AcDbSpline
210
0.0
220
0.0
230
1.0
 70
    11
 71
     3
 72
    17
 73
    13
 74
     0
 42
0.0000000001
 43
0.0000000001
 12
1.0
 22
0.0
 32
0.0
 13
1.0
 23
0.0
 33
0.0
 40
0.0
 40
0.0
 40
0.0
 40
0.0
 40
1.0
 40
1.0
 40
1.0
 40
2.0
 40
2.0
 40
2.0
 40
3.0
 40
3.0
 40
3.0
 40
4.0
 40
4.0
 40
4.0
 40
4.0
 10
4.558388410215533
 20
6.858910243518026
 30
0.0
 10
4.558388410215533
 20
6.845038908991543
 30
0.0
 10
4.547822121544034
 20
6.833777367345836
 30
0.0
 10
4.534902868515827
 20
6.833777367345836
 30
0.0
 10
4.521905788662125
 20
6.833777367345836
 30
0.0
 10
4.511417326816122
 20
6.845038908991543
 30
0.0
 10
4.511417326816122
 20
6.858910243518026
 30
0.0
 10
4.511417326816122
 20
6.872791954954563
 30
0.0
 10
4.521905788662125
 20
6.88405349660027
 30
0.0
 10
4.534902868515827
 20
6.88405349660027
 30
0.0
 10
4.547822121544034
 20
6.88405349660027
 30
0.0
 10
4.558388410215533
 20
6.872791954954563
 30
0.0
 10
4.558388410215533
 20
6.858910243518026
 30
0.0
  0
HATCH
  5
11C
330
41
100
AcDbEntity
  8
Layer 1
 62
     9
420
 12307926
100
AcDbHatch
 10
0.0
 20
0.0
 30
0.0
210
0.0
220
0.0
230
1.0
  2
SOLID
 70
     1
 71
     0
 91
        1
 92
        1
 93
        1
 72
     4
 94
        3
 73
     0
 74
     1
 95
       17
 96
       13
 40
0.0
 40
0.0
 40
0.0
 40
0.0
 40
1.0
 40
1.0
 40
1.0
 40
2.0
 40
2.0
 40
2.0
 40
3.0
 40
3.0
 40
3.0
 40
4.0
 40
4.0
 40
4.0
 40
4.0
 10
4.558388410215533
 20
6.858910243518026
 10
4.558388410215533
 20
6.845038908991543
 10
4.547822121544034
 20
6.833777367345836
 10
4.534902868515827
 20
6.833777367345836
 10
4.521905788662125
 20
6.833777367345836
 10
4.511417326816122
 20
6.845038908991543
 10
4.511417326816122
 20
6.858910243518026
 10
4.511417326816122
 20
6.872791954954563
 10
4.521905788662125
 20
6.88405349660027
 10
4.534902868515827
 20
6.88405349660027
 10
4.547822121544034
 20
6.88405349660027
 10
4.558388410215533
 20
6.872791954954563
 10
4.558388410215533
 20
6.858910243518026
 97
        0
 97
        0
 75
     2
 76
     1
 98
        0
  0
SPLINE
  5
11D
330
41
100
AcDbEntity
  8
Layer 1
 62
   250
420
  2301728
370
    15
100
AcDbSpline
210
0.0
220
0.0
230
1.0
 70
     8
 71
     3
 72
     8
 73
     4
 74
     0
 42
0.0000000001
 43
0.0000000001
 12
1.0
 22
0.0
 32
0.0
 13
1.0
 23
0.0
 33
0.0
 40
0.0
 40
0.0
 40
0.0
 40
0.0
 40
1.0
 40
1.0
 40
1.0
 40
1.0
 10
4.567709469679458
 20
7.380427801000741
 30
0.0
 10
4.566267079180711
 20
7.382378660092538
 30
0.0
 10
4.564544512110286
 20
7.384391780644743
 30
0.0
 10
4.562414651319892
 20
7.386280378276157
 30
0.0
  0
SPLINE
  5
11E
330
41
100
AcDbEntity
  8
Layer 1
 62
   250
420
  2301728
370
    15
100
AcDbSpline
210
0.0
220
0.0
230
1.0
 70
     8
 71
     3
 72
    11
 73
     7
 74
     0
 42
0.0000000001
 43
0.0000000001
 12
1.0
 22
0.0
 32
0.0
 13
1.0
 23
0.0
 33
0.0
 40
0.0
 40
0.0
 40
0.0
 40
0.0
 40
1.0
 40
1.0
 40
1.0
 40
2.0
 40
2.0
 40
2.0
 40
2.0
 10
4.536347853242053
 20
7.327707909426547
 30
0.0
 10
4.536347853242053
 20
7.327707909426547
 30
0.0
 10
4.570319262560259
 20
7.3262006632399
 30
0.0
 10
4.573258522335537
 20
7.361591115009168
 30
0.0
 10
4.573258522335537
 20
7.361591115009168
 30
0.0
 10
4.573689164103143
 20
7.365887155775213
 30
0.0
 10
4.572041829630684
 20
7.371459556478928
 30
0.0
  0
SPLINE
  5
11F
330
41
100
AcDbEntity
  8
Layer 1
 62
   250
420
  2301728
370
    25
100
AcDbSpline
210
0.0
220
0.0
230
1.0
 70
    11
 71
     3
 72
    17
 73
    13
 74
     0
 42
0.0000000001
 43
0.0000000001
 12
1.0
 22
0.0
 32
0.0
 13
1.0
 23
0.0
 33
0.0
 40
0.0
 40
0.0
 40
0.0
 40
0.0
 40
1.0
 40
1.0
 40
1.0
 40
2.0
 40
2.0
 40
2.0
 40
3.0
 40
3.0
 40
3.0
 40
4.0
 40
4.0
 40
4.0
 40
4.0
 10
4.558388410215533
 20
7.355966829755125
 30
0.0
 10
4.558388410215533
 20
7.342085118318563
 30
0.0
 10
4.547822121544034
 20
7.330823576672893
 30
0.0
 10
4.534902868515827
 20
7.330823576672893
 30
0.0
 10
4.521905788662125
 20
7.330823576672893
 30
0.0
 10
4.511417326816122
 20
7.342085118318563
 30
0.0
 10
4.511417326816122
 20
7.355966829755125
 30
0.0
 10
4.511417326816122
 20
7.369838164281608
 30
0.0
 10
4.521905788662125
 20
7.38109970592729
 30
0.0
 10
4.534902868515827
 20
7.38109970592729
 30
0.0
 10
4.547822121544034
 20
7.38109970592729
 30
0.0
 10
4.558388410215533
 20
7.369838164281608
 30
0.0
 10
4.558388410215533
 20
7.355966829755125
 30
0.0
  0
HATCH
  5
120
330
41
100
AcDbEntity
  8
Layer 1
 62
     9
420
 12307926
100
AcDbHatch
 10
0.0
 20
0.0
 30
0.0
210
0.0
220
0.0
230
1.0
  2
SOLID
 70
     1
 71
     0
 91
        1
 92
        1
 93
        1
 72
     4
 94
        3
 73
     0
 74
     1
 95
       17
 96
       13
 40
0.0
 40
0.0
 40
0.0
 40
0.0
 40
1.0
 40
1.0
 40
1.0
 40
2.0
 40
2.0
 40
2.0
 40
3.0
 40
3.0
 40
3.0
 40
4.0
 40
4.0
 40
4.0
 40
4.0
 10
4.558388410215533
 20
7.355966829755125
 10
4.558388410215533
 20
7.342085118318563
 10
4.547822121544034
 20
7.330823576672893
 10
4.534902868515827
 20
7.330823576672893
 10
4.521905788662125
 20
7.330823576672893
 10
4.511417326816122
 20
7.342085118318563
 10
4.511417326816122
 20
7.355966829755125
 10
4.511417326816122
 20
7.369838164281608
 10
4.521905788662125
 20
7.38109970592729
 10
4.534902868515827
 20
7.38109970592729
 10
4.547822121544034
 20
7.38109970592729
 10
4.558388410215533
 20
7.369838164281608
 10
4.558388410215533
 20
7.355966829755125
 97
        0
 97
        0
 75
     2
 76
     1
 98
        0
  0
SPLINE
  5
121
330
41
100
AcDbEntity
  8
Layer 1
 62
   250
420
  2301728
370
    25
100
AcDbSpline
210
0.0
220
0.0
230
1.0
 70
    11
 71
     3
 72
    17
 73
    13
 74
     0
 42
0.0000000001
 43
0.0000000001
 12
1.0
 22
0.0
 32
0.0
 13
1.0
 23
0.0
 33
0.0
 40
0.0
 40
0.0
 40
0.0
 40
0.0
 40
1.0
 40
1.0
 40
1.0
 40
2.0
 40
2.0
 40
2.0
 40
3.0
 40
3.0
 40
3.0
 40
4.0
 40
4.0
 40
4.0
 40
4.0
 10
4.558388410215533
 20
7.351813471502472
 30
0.0
 10
4.558388410215533
 20
7.337942136975989
 30
0.0
 10
4.547822121544034
 20
7.326680595330306
 30
0.0
 10
4.534902868515827
 20
7.326680595330306
 30
0.0
 10
4.521905788662125
 20
7.326680595330306
 30
0.0
 10
4.511417326816122
 20
7.337942136975989
 30
0.0
 10
4.511417326816122
 20
7.351813471502472
 30
0.0
 10
4.511417326816122
 20
7.365695182939033
 30
0.0
 10
4.521905788662125
 20
7.376956724584702
 30
0.0
 10
4.534902868515827
 20
7.376956724584702
 30
0.0
 10
4.547822121544034
 20
7.376956724584702
 30
0.0
 10
4.558388410215533
 20
7.365695182939033
 30
0.0
 10
4.558388410215533
 20
7.351813471502472
 30
0.0
  0
HATCH
  5
122
330
41
100
AcDbEntity
  8
Layer 1
 62
     9
420
 12307926
100
AcDbHatch
 10
0.0
 20
0.0
 30
0.0
210
0.0
220
0.0
230
1.0
  2
SOLID
 70
     1
 71
     0
 91
        1
 92
        1
 93
        1
 72
     4
 94
        3
 73
     0
 74
     1
 95
       17
 96
       13
 40
0.0
 40
0.0
 40
0.0
 40
0.0
 40
1.0
 40
1.0
 40
1.0
 40
2.0
 40
2.0
 40
2.0
 40
3.0
 40
3.0
 40
3.0
 40
4.0
 40
4.0
 40
4.0
 40
4.0
 10
4.558388410215533
 20
7.351813471502472
 10
4.558388410215533
 20
7.337942136975989
 10
4.547822121544034
 20
7.326680595330306
 10
4.534902868515827
 20
7.326680595330306
 10
4.521905788662125
 20
7.326680595330306
 10
4.511417326816122
 20
7.337942136975989
 10
4.511417326816122
 20
7.351813471502472
 10
4.511417326816122
 20
7.365695182939033
 10
4.521905788662125
 20
7.376956724584702
 10
4.534902868515827
 20
7.376956724584702
 10
4.547822121544034
 20
7.376956724584702
 10
4.558388410215533
 20
7.365695182939033
 10
4.558388410215533
 20
7.351813471502472
 97
        0
 97
        0
 75
     2
 76
     1
 98
        0
  0
ENDBLK
  5
44
330
41
100
AcDbEntity
  8
0
100
AcDbBlockEnd
  0
BLOCK
  5
D3
330
D1
100
AcDbEntity
  8
0
100
AcDbBlockBegin
  2
block 3
 70
     0
 10
0.0
 20
0.0
 30
0.0
  3
block 3
  1

  0
SPLINE
  5
D5
330
D1
100
AcDbEntity
  8
Layer 1
 62
   250
420
  2301728
370
    20
100
AcDbSpline
210
0.0
220
0.0
230
1.0
 70
    11
 71
     3
 72
   140
 73
   136
 74
     0
 42
0.0000000001
 43
0.0000000001
 12
1.0
 22
0.0
 32
0.0
 13
1.0
 23
0.0
 33
0.0
 40
0.0
 40
0.0
 40
0.0
 40
0.0
 40
1.0
 40
1.0
 40
1.0
 40
2.0
 40
2.0
 40
2.0
 40
3.0
 40
3.0
 40
3.0
 40
4.0
 40
4.0
 40
4.0
 40
5.0
 40
5.0
 40
5.0
 40
6.0
 40
6.0
 40
6.0
 40
7.0
 40
7.0
 40
7.0
 40
8.0
 40
8.0
 40
8.0
 40
9.0
 40
9.0
 40
9.0
 40
10.0
 40
10.0
 40
10.0
 40
11.0
 40
11.0
 40
11.0
 40
12.0
 40
12.0
 40
12.0
 40
13.0
 40
13.0
 40
13.0
 40
14.0
 40
14.0
 40
14.0
 40
15.0
 40
15.0
 40
15.0
 40
16.0
 40
16.0
 40
16.0
 40
17.0
 40
17.0
 40
17.0
 40
18.0
 40
18.0
 40
18.0
 40
19.0
 40
19.0
 40
19.0
 40
20.0
 40
20.0
 40
20.0
 40
21.0
 40
21.0
 40
21.0
 40
22.0
 40
22.0
 40
22.0
 40
23.0
 40
23.0
 40
23.0
 40
24.0
 40
24.0
 40
24.0
 40
25.0
 40
25.0
 40
25.0
 40
26.0
 40
26.0
 40
26.0
 40
27.0
 40
27.0
 40
27.0
 40
28.0
 40
28.0
 40
28.0
 40
29.0
 40
29.0
 40
29.0
 40
30.0
 40
30.0
 40
30.0
 40
31.0
 40
31.0
 40
31.0
 40
32.0
 40
32.0
 40
32.0
 40
33.0
 40
33.0
 40
33.0
 40
34.0
 40
34.0
 40
34.0
 40
35.0
 40
35.0
 40
35.0
 40
36.0
 40
36.0
 40
36.0
 40
37.0
 40
37.0
 40
37.0
 40
38.0
 40
38.0
 40
38.0
 40
39.0
 40
39.0
 40
39.0
 40
40.0
 40
40.0
 40
40.0
 40
41.0
 40
41.0
 40
41.0
 40
42.0
 40
42.0
 40
42.0
 40
43.0
 40
43.0
 40
43.0
 40
44.0
 40
44.0
 40
44.0
 40
45.0
 40
45.0
 40
45.0
 40
45.0
 10
4.507845075526979
 20
6.696161380320101
 30
0.0
 10
4.510076111190503
 20
6.705129624841915
 30
0.0
 10
4.514558936337632
 20
6.713350731839189
 30
0.0
 10
4.514558936337632
 20
6.728272728509523
 30
0.0
 10
4.514558936337632
 20
6.743233638592616
 30
0.0
 10
4.51379882767555
 20
6.767871017309302
 30
0.0
 10
4.51379882767555
 20
6.767871017309302
 30
0.0
 10
4.51379882767555
 20
6.767871017309302
 30
0.0
 10
4.485425761336248
 20
6.770872863137393
 30
0.0
 10
4.480232117849785
 20
6.771619676069488
 30
0.0
 10
4.474986801274452
 20
6.772366813594001
 30
0.0
 10
4.467512620340282
 20
6.774610820395095
 30
0.0
 10
4.467512620340282
 20
6.788061890064037
 30
0.0
 10
4.467512620340282
 20
6.801502582822915
 30
0.0
 10
4.467512620340282
 20
6.970343021859194
 30
0.0
 10
4.467512620340282
 20
6.977829632838052
 30
0.0
 10
4.467512620340282
 20
6.98530100808331
 30
0.0
 10
4.464524070242178
 20
6.998741700842174
 30
0.0
 10
4.47422648115091
 20
7.006962807839462
 30
0.0
 10
4.483928892059692
 20
7.015183914836737
 30
0.0
 10
4.49662265930202
 20
7.0278774700711
 30
0.0
 10
4.503362250379824
 20
7.033867541404851
 30
0.0
 10
4.510076111190503
 20
7.039847235828549
 30
0.0
 10
4.51379882767555
 20
7.044317089838121
 30
0.0
 10
4.51379882767555
 20
7.060012166308158
 30
0.0
 10
4.51379882767555
 20
7.075694603933483
 30
0.0
 10
4.514558936337632
 20
7.273034564532976
 30
0.0
 10
4.514558936337632
 20
7.273034564532976
 30
0.0
 10
4.514558936337632
 20
7.273034564532976
 30
0.0
 10
4.510657430516529
 20
7.269083556026557
 30
0.0
 10
4.503362250379824
 20
7.267537733566428
 30
0.0
 10
4.499079180751424
 20
7.266613851431593
 30
0.0
 10
4.493657245243563
 20
7.26680323004027
 30
0.0
 10
4.487148328406672
 20
7.268274157041648
 30
0.0
 10
4.480535642469122
 20
7.269703576402801
 30
0.0
 10
4.467512620340282
 20
7.270704948223877
 30
0.0
 10
4.467512620340282
 20
7.281154496657159
 30
0.0
 10
4.467512620340282
 20
7.291629987365582
 30
0.0
 10
4.467512620340282
 20
7.470188073044217
 30
0.0
 10
4.467512620340282
 20
7.47840918004148
 30
0.0
 10
4.467512620340282
 20
7.486617315901198
 30
0.0
 10
4.469717713728642
 20
7.496319726809942
 30
0.0
 10
4.47648086486207
 20
7.503056935668231
 30
0.0
 10
4.484689212428344
 20
7.511278042665506
 30
0.0
 10
4.503362250379824
 20
7.529214531709107
 30
0.0
 10
4.505590691815844
 20
7.53293984242167
 30
0.0
 10
4.507845075526979
 20
7.536688845120428
 30
0.0
 10
4.514558936337632
 20
7.550129193940746
 30
0.0
 10
4.514558936337632
 20
7.561338851036124
 30
0.0
 10
4.514558936337632
 20
7.572551102359019
 30
0.0
 10
4.514558936337632
 20
8.642465008614685
 30
0.0
 10
4.514558936337632
 20
8.642465008614685
 30
0.0
 10
4.514558936337632
 20
8.642465008614685
 30
0.0
 10
4.579972383146216
 20
8.659275602916459
 30
0.0
 10
4.606446474944
 20
8.666368220944403
 30
0.0
 10
4.620660247502554
 20
8.6701817353925
 30
0.0
 10
4.642293510756038
 20
8.67682036360519
 30
0.0
 10
4.659469891137531
 20
8.67607359880252
 30
0.0
 10
4.676648865746554
 20
8.675323494328634
 30
0.0
 10
4.909722048440295
 20
8.659631012086113
 30
0.0
 10
4.909722048440295
 20
8.659631012086113
 30
0.0
 10
4.909722048440295
 20
8.659631012086113
 30
0.0
 10
4.909722048440295
 20
7.60841110930864
 30
0.0
 10
4.909722048440295
 20
7.597201452213262
 30
0.0
 10
4.909722048440295
 20
7.585989200890354
 30
0.0
 10
4.909722048440295
 20
7.554614957706828
 30
0.0
 10
4.881348982100993
 20
7.558350645423805
 30
0.0
 10
4.860473233282088
 20
7.561074584384123
 30
0.0
 10
4.843979134737234
 20
7.562098959698219
 30
0.0
 10
4.834276723828477
 20
7.563582857837205
 30
0.0
 10
4.82457431291972
 20
7.56507713288627
 30
0.0
 10
4.817100343446959
 20
7.561338851036124
 30
0.0
 10
4.817100343446959
 20
7.547887781367169
 30
0.0
 10
4.817100343446959
 20
7.534447088608291
 30
0.0
 10
4.817100343446959
 20
7.395476914819343
 30
0.0
 10
4.817100343446959
 20
7.383517525971948
 30
0.0
 10
4.817100343446959
 20
7.371560731352032
 30
0.0
 10
4.815580126122768
 20
7.36333962435477
 30
0.0
 10
4.832048282392482
 20
7.361098211781192
 30
0.0
 10
4.848490496387032
 20
7.358867176117693
 30
0.0
 10
4.880614815714049
 20
7.357372901068642
 30
0.0
 10
4.886568567862595
 20
7.355878626019603
 30
0.0
 10
4.892545668058801
 20
7.354371379832969
 30
0.0
 10
4.909722048440295
 20
7.353637213446025
 30
0.0
 10
4.909722048440295
 20
7.327479617405149
 30
0.0
 10
4.909722048440295
 20
7.301347963639412
 30
0.0
 10
4.909722048440295
 20
7.10724786091416
 30
0.0
 10
4.909722048440295
 20
7.098279616392359
 30
0.0
 10
4.909722048440295
 20
7.089311371870571
 30
0.0
 10
4.897765253820404
 20
7.07794865535176
 30
0.0
 10
4.882083148487936
 20
7.079432553490745
 30
0.0
 10
4.866401043155469
 20
7.080926828539797
 30
0.0
 10
4.84993288688578
 20
7.080926828539797
 30
0.0
 10
4.836531107539612
 20
7.082421103588849
 30
0.0
 10
4.823106200401475
 20
7.0839153786379
 30
0.0
 10
4.817100343446959
 20
7.084649545024844
 30
0.0
 10
4.817100343446959
 20
7.066726027118799
 30
0.0
 10
4.817100343446959
 20
7.048815480350375
 30
0.0
 10
4.817100343446959
 20
6.908348437284872
 30
0.0
 10
4.817100343446959
 20
6.897125809051898
 30
0.0
 10
4.817100343446959
 20
6.885929123094115
 30
0.0
 10
4.814137735624045
 20
6.882191168648546
 30
0.0
 10
4.828299623632296
 20
6.879189320008297
 30
0.0
 10
4.842485080433385
 20
6.876213741047788
 30
0.0
 10
4.87014970191568
 20
6.871894352234133
 30
0.0
 10
4.885502340353646
 20
6.869372763088866
 30
0.0
 10
4.899487820890827
 20
6.867030175642172
 30
0.0
 10
4.909722048440295
 20
6.857540491389702
 30
0.0
 10
4.909722048440295
 20
6.847077971818875
 30
0.0
 10
4.909722048440295
 20
6.836628423385617
 30
0.0
 10
4.909722048440295
 20
6.797764300972794
 30
0.0
 10
4.909722048440295
 20
6.787314752539524
 30
0.0
 10
4.909722048440295
 20
6.776839586574283
 30
0.0
 10
4.913143834533508
 20
6.75274667089271
 30
0.0
 10
4.892545668058801
 20
6.734265394070803
 30
0.0
 10
4.880739338634789
 20
6.72363684393896
 30
0.0
 10
4.589978318674285
 20
6.544917916154367
 30
0.0
 10
4.581746834766944
 20
6.536696809157054
 30
0.0
 10
4.573536104679735
 20
6.528475702159779
 30
0.0
 10
4.569053493370322
 20
6.518010588361435
 30
0.0
 10
4.569053493370322
 20
6.512780625689768
 30
0.0
 10
4.569053493370322
 20
6.502318423927098
 30
0.0
 10
4.566064729434502
 20
6.482150581411802
 30
0.0
 10
4.566064729434502
 20
6.482150581411802
 30
0.0
 10
4.566064729434502
 20
6.482150581411802
 30
0.0
 10
4.413778385807442
 20
6.339112658878232
 30
0.0
 10
4.400376816037907
 20
6.32716883539591
 30
0.0
 10
4.386925536792331
 20
6.315199069638449
 30
0.0
 10
4.363061237875323
 20
6.316060353173636
 30
0.0
 10
4.33990537111913
 20
6.31906218758805
 30
0.0
 10
4.33990537111913
 20
6.31906218758805
 30
0.0
 10
4.3636684957633
 20
6.332020040850276
 30
0.0
 10
4.369090431408115
 20
6.347157672292913
 30
0.0
 10
4.374486424777084
 20
6.362294675958562
 30
0.0
 10
4.505590691815844
 20
6.687193135798288
 30
0.0
 10
4.507845075526979
 20
6.696161380320101
 30
0.0
  0
SPLINE
  5
D6
330
D1
100
AcDbEntity
  8
Layer 1
 62
   250
420
  2301728
370
    20
100
AcDbSpline
210
0.0
220
0.0
230
1.0
 70
    11
 71
     3
 72
   104
 73
   100
 74
     0
 42
0.0000000001
 43
0.0000000001
 12
1.0
 22
0.0
 32
0.0
 13
1.0
 23
0.0
 33
0.0
 40
0.0
 40
0.0
 40
0.0
 40
0.0
 40
1.0
 40
1.0
 40
1.0
 40
2.0
 40
2.0
 40
2.0
 40
3.0
 40
3.0
 40
3.0
 40
4.0
 40
4.0
 40
4.0
 40
5.0
 40
5.0
 40
5.0
 40
6.0
 40
6.0
 40
6.0
 40
7.0
 40
7.0
 40
7.0
 40
8.0
 40
8.0
 40
8.0
 40
9.0
 40
9.0
 40
9.0
 40
10.0
 40
10.0
 40
10.0
 40
11.0
 40
11.0
 40
11.0
 40
12.0
 40
12.0
 40
12.0
 40
13.0
 40
13.0
 40
13.0
 40
14.0
 40
14.0
 40
14.0
 40
15.0
 40
15.0
 40
15.0
 40
16.0
 40
16.0
 40
16.0
 40
17.0
 40
17.0
 40
17.0
 40
18.0
 40
18.0
 40
18.0
 40
19.0
 40
19.0
 40
19.0
 40
20.0
 40
20.0
 40
20.0
 40
21.0
 40
21.0
 40
21.0
 40
22.0
 40
22.0
 40
22.0
 40
23.0
 40
23.0
 40
23.0
 40
24.0
 40
24.0
 40
24.0
 40
25.0
 40
25.0
 40
25.0
 40
26.0
 40
26.0
 40
26.0
 40
27.0
 40
27.0
 40
27.0
 40
28.0
 40
28.0
 40
28.0
 40
29.0
 40
29.0
 40
29.0
 40
30.0
 40
30.0
 40
30.0
 40
31.0
 40
31.0
 40
31.0
 40
32.0
 40
32.0
 40
32.0
 40
33.0
 40
33.0
 40
33.0
 40
33.0
 10
4.737071018814908
 20
8.365549380905488
 30
0.0
 10
4.736435433073565
 20
8.365764701789292
 30
0.0
 10
4.735675324411456
 20
8.366081197546212
 30
0.0
 10
4.734814040876245
 20
8.366436606715865
 30
0.0
 10
4.734510516256907
 20
8.366563723864134
 30
0.0
 10
4.73415770131477
 20
8.366716783287567
 30
0.0
 10
4.733851582467929
 20
8.366841671118284
 30
0.0
 10
4.733244533229254
 20
8.367095540504856
 30
0.0
 10
4.73258559944025
 20
8.367373122849042
 30
0.0
 10
4.731900723376106
 20
8.367679241695884
 30
0.0
 10
4.7314700816085
 20
8.367868620304547
 30
0.0
 10
4.731016091793233
 20
8.368070970050756
 30
0.0
 10
4.730559507750487
 20
8.368286290934558
 30
0.0
 10
4.729874631686344
 20
8.368576844416339
 30
0.0
 10
4.72921569789734
 20
8.368880369035663
 30
0.0
 10
4.728507473785561
 20
8.369199459020098
 30
0.0
 10
4.727999005192487
 20
8.369438127951538
 30
0.0
 10
4.727467188551777
 20
8.369679391110493
 30
0.0
 10
4.726935371911041
 20
8.36992065426946
 30
0.0
 10
4.726175263248958
 20
8.370263092301531
 30
0.0
 10
4.725415154586825
 20
8.37061590724367
 30
0.0
 10
4.724631697877081
 20
8.370984287550893
 30
0.0
 10
4.724123229284007
 20
8.371225915730594
 30
0.0
 10
4.723617572660815
 20
8.371466813868828
 30
0.0
 10
4.72311148055289
 20
8.371705482800268
 30
0.0
 10
4.722198312467374
 20
8.372112776520238
 30
0.0
 10
4.721311086656972
 20
8.372530447150261
 30
0.0
 10
4.720426672735887
 20
8.372974060055437
 30
0.0
 10
4.71991798648105
 20
8.373202352076834
 30
0.0
 10
4.719461402438279
 20
8.373417672960638
 30
0.0
 10
4.719007412623037
 20
8.373656341892076
 30
0.0
 10
4.717993069664392
 20
8.374112925934847
 30
0.0
 10
4.717030611256076
 20
8.374595452252782
 30
0.0
 10
4.71601648584778
 20
8.375062413205594
 30
0.0
 10
4.715585626529824
 20
8.375277734089398
 30
0.0
 10
4.715154984762219
 20
8.375480448963849
 30
0.0
 10
4.714724342994587
 20
8.375685027809368
 30
0.0
 10
4.713611419390367
 20
8.376229815587685
 30
0.0
 10
4.712469959283453
 20
8.376784980276017
 30
0.0
 10
4.711354441451704
 20
8.377306420006676
 30
0.0
 10
4.71110280138267
 20
8.37744391406501
 30
0.0
 10
4.710799276763333
 20
8.377571031213279
 30
0.0
 10
4.710545042466795
 20
8.377711484683699
 30
0.0
 10
4.709151942290847
 20
8.378383024425704
 30
0.0
 10
4.707782190162561
 20
8.37906530626233
 30
0.0
 10
4.706440974536942
 20
8.37971126891374
 30
0.0
 10
4.706440974536942
 20
8.37971126891374
 30
0.0
 10
4.706440974536942
 20
8.35596111600743
 30
0.0
 10
4.706440974536942
 20
8.35596111600743
 30
0.0
 10
4.706440974536942
 20
8.35596111600743
 30
0.0
 10
4.72316077087569
 20
8.323356864590032
 30
0.0
 10
4.732863181784447
 20
8.323356864590032
 30
0.0
 10
4.733244533229254
 20
8.323356864590032
 30
0.0
 10
4.733701117271999
 20
8.323481387510771
 30
0.0
 10
4.734105816764465
 20
8.323559214336253
 30
0.0
 10
4.734105816764465
 20
8.323559214336253
 30
0.0
 10
4.734105816764465
 20
8.323559214336253
 30
0.0
 10
4.734105816764465
 20
8.323559214336253
 30
0.0
 10
4.73466357568034
 20
8.324104002114545
 30
0.0
 10
4.735221334596215
 20
8.32466176103042
 30
0.0
 10
4.73575315123695
 20
8.325206548808726
 30
0.0
 10
4.735880268385219
 20
8.325331071729478
 30
0.0
 10
4.736030733581098
 20
8.32547116001533
 30
0.0
 10
4.736131908454227
 20
8.325611248301167
 30
0.0
 10
4.737172193688037
 20
8.326635968169878
 30
0.0
 10
4.738183942419154
 20
8.32768922454127
 30
0.0
 10
4.739172343102634
 20
8.328713944409957
 30
0.0
 10
4.739247575700599
 20
8.32880214814549
 30
0.0
 10
4.739299460250903
 20
8.32886700383339
 30
0.0
 10
4.739348750573703
 20
8.328929265293759
 30
0.0
 10
4.743201178434522
 20
8.332984042900824
 30
0.0
 10
4.746646312575371
 20
8.336896137994497
 30
0.0
 10
4.74900187115966
 20
8.339658990298732
 30
0.0
 10
4.749053755709964
 20
8.339658990298732
 30
0.0
 10
4.749053755709964
 20
8.339684932573883
 30
0.0
 10
4.7490771037576
 20
8.339695309483949
 30
0.0
 10
4.749660804948639
 20
8.340419098960853
 30
0.0
 10
4.750218563864514
 20
8.341039119337085
 30
0.0
 10
4.750675366333174
 20
8.34159687825296
 30
0.0
 10
4.750724438230084
 20
8.341659139713354
 30
0.0
 10
4.750802265055553
 20
8.341736966538809
 30
0.0
 10
4.750851555378353
 20
8.341799227999193
 30
0.0
 10
4.751079847399751
 20
8.34206679771743
 30
0.0
 10
4.751256254870819
 20
8.34229213122718
 30
0.0
 10
4.751435256569366
 20
8.342497075200917
 30
0.0
 10
4.751637606315626
 20
8.342735744132357
 30
0.0
 10
4.751839956061834
 20
8.342977007291324
 30
0.0
 10
4.751941130934963
 20
8.343117095577162
 30
0.0
 10
4.752042305808041
 20
8.343257183863013
 30
0.0
 10
4.752143480681171
 20
8.34334538759856
 30
0.0
 10
4.75221871327911
 20
8.3434206201965
 30
0.0
 10
4.752244655554301
 20
8.343472504746817
 30
0.0
 10
4.752345830427379
 20
8.343586650757516
 30
0.0
 10
4.752345830427379
 20
8.343586650757516
 30
0.0
 10
4.752345830427379
 20
8.343586650757516
 30
0.0
 10
4.752345830427379
 20
8.378027615256075
 30
0.0
 10
4.752345830427379
 20
8.378027615256075
 30
0.0
 10
4.750522088483851
 20
8.372592708610643
 30
0.0
 10
4.746519195427102
 20
8.36211721790221
 30
0.0
 10
4.737071018814908
 20
8.365549380905488
 30
0.0
  0
SPLINE
  5
D7
330
D1
100
AcDbEntity
  8
Layer 1
 62
   250
420
  2301728
370
    20
100
AcDbSpline
210
0.0
220
0.0
230
1.0
 70
    11
 71
     3
 72
    23
 73
    19
 74
     0
 42
0.0000000001
 43
0.0000000001
 12
1.0
 22
0.0
 32
0.0
 13
1.0
 23
0.0
 33
0.0
 40
0.0
 40
0.0
 40
0.0
 40
0.0
 40
1.0
 40
1.0
 40
1.0
 40
2.0
 40
2.0
 40
2.0
 40
3.0
 40
3.0
 40
3.0
 40
4.0
 40
4.0
 40
4.0
 40
5.0
 40
5.0
 40
5.0
 40
6.0
 40
6.0
 40
6.0
 40
6.0
 10
4.752524832125977
 20
8.551960193274214
 30
0.0
 10
4.752524832125977
 20
8.551960193274214
 30
0.0
 10
4.752244655554301
 20
8.55203542587214
 30
0.0
 10
4.752244655554301
 20
8.55203542587214
 30
0.0
 10
4.748571229392054
 20
8.523548213522151
 30
0.0
 10
4.723617572660815
 20
8.452840315436536
 30
0.0
 10
4.718906237749934
 20
8.440426569691365
 30
0.0
 10
4.714192526353902
 20
8.428000219891121
 30
0.0
 10
4.727721422848314
 20
8.4133821139258
 30
0.0
 10
4.731825490778166
 20
8.409290651047842
 30
0.0
 10
4.73590361643283
 20
8.40519955425557
 30
0.0
 10
4.747128838893306
 20
8.39407550666821
 30
0.0
 10
4.750042156393445
 20
8.391694371346627
 30
0.0
 10
4.751334081696288
 20
8.39059405334213
 30
0.0
 10
4.752016363532903
 20
8.388440844504101
 30
0.0
 10
4.752371772702569
 20
8.386082691692321
 30
0.0
 10
4.752371772702569
 20
8.386082691692321
 30
0.0
 10
4.752524832125977
 20
8.551960193274214
 30
0.0
 10
4.752524832125977
 20
8.551960193274214
 30
0.0
  0
SPLINE
  5
D8
330
D1
100
AcDbEntity
  8
Layer 1
 62
   250
420
  2301728
370
    20
100
AcDbSpline
210
0.0
220
0.0
230
1.0
 70
    11
 71
     3
 72
    17
 73
    13
 74
     0
 42
0.0000000001
 43
0.0000000001
 12
1.0
 22
0.0
 32
0.0
 13
1.0
 23
0.0
 33
0.0
 40
0.0
 40
0.0
 40
0.0
 40
0.0
 40
1.0
 40
1.0
 40
1.0
 40
2.0
 40
2.0
 40
2.0
 40
3.0
 40
3.0
 40
3.0
 40
4.0
 40
4.0
 40
4.0
 40
4.0
 10
4.838152720372742
 20
8.522116199933482
 30
0.0
 10
4.839901009082521
 20
8.525333042052958
 30
0.0
 10
4.840941294316331
 20
8.529450081120393
 30
0.0
 10
4.840941294316331
 20
8.534555520871297
 30
0.0
 10
4.840941294316331
 20
8.551047025188659
 30
0.0
 10
4.83014671362346
 20
8.558191897510799
 30
0.0
 10
4.819481844306387
 20
8.5577608859993
 30
0.0
 10
4.817175576044948
 20
8.554492159329508
 30
0.0
 10
4.81575912782134
 20
8.55035177221445
 30
0.0
 10
4.81575912782134
 20
8.545435711072185
 30
0.0
 10
4.81575912782134
 20
8.531463201672572
 30
0.0
 10
4.827210048075686
 20
8.522710278034562
 30
0.0
 10
4.838152720372742
 20
8.522116199933482
 30
0.0
  0
SPLINE
  5
D9
330
D1
100
AcDbEntity
  8
Layer 1
 62
   250
420
  2301728
370
    20
100
AcDbSpline
210
0.0
220
0.0
230
1.0
 70
    11
 71
     3
 72
    17
 73
    13
 74
     0
 42
0.0000000001
 43
0.0000000001
 12
1.0
 22
0.0
 32
0.0
 13
1.0
 23
0.0
 33
0.0
 40
0.0
 40
0.0
 40
0.0
 40
0.0
 40
1.0
 40
1.0
 40
1.0
 40
2.0
 40
2.0
 40
2.0
 40
3.0
 40
3.0
 40
3.0
 40
4.0
 40
4.0
 40
4.0
 40
4.0
 10
4.838152720372742
 20
7.667997921116921
 30
0.0
 10
4.839901009082521
 20
7.671188820961245
 30
0.0
 10
4.840941294316331
 20
7.675318831166249
 30
0.0
 10
4.840941294316331
 20
7.680424270917165
 30
0.0
 10
4.840941294316331
 20
7.696915775234515
 30
0.0
 10
4.83014671362346
 20
7.704047306675193
 30
0.0
 10
4.819481844306387
 20
7.703616664907586
 30
0.0
 10
4.817175576044948
 20
7.700334967100225
 30
0.0
 10
4.81575912782134
 20
7.696217928032789
 30
0.0
 10
4.81575912782134
 20
7.691304808962526
 30
0.0
 10
4.81575912782134
 20
7.677318980580859
 30
0.0
 10
4.827210048075686
 20
7.668566056942861
 30
0.0
 10
4.838152720372742
 20
7.667997921116921
 30
0.0
  0
SPLINE
  5
DA
330
D1
100
AcDbEntity
  8
Layer 1
 62
   250
420
  2301728
370
    20
100
AcDbSpline
210
0.0
220
0.0
230
1.0
 70
    11
 71
     3
 72
    17
 73
    13
 74
     0
 42
0.0000000001
 43
0.0000000001
 12
1.0
 22
0.0
 32
0.0
 13
1.0
 23
0.0
 33
0.0
 40
0.0
 40
0.0
 40
0.0
 40
0.0
 40
1.0
 40
1.0
 40
1.0
 40
2.0
 40
2.0
 40
2.0
 40
3.0
 40
3.0
 40
3.0
 40
4.0
 40
4.0
 40
4.0
 40
4.0
 10
4.838152720372742
 20
6.776610969809717
 30
0.0
 10
4.839901009082521
 20
6.779827811929193
 30
0.0
 10
4.840941294316331
 20
6.783931879859046
 30
0.0
 10
4.840941294316331
 20
6.789050290747518
 30
0.0
 10
4.840941294316331
 20
6.805531743622825
 30
0.0
 10
4.83014671362346
 20
6.812662949595506
 30
0.0
 10
4.819481844306387
 20
6.812255655875522
 30
0.0
 10
4.817175576044948
 20
6.808963581158107
 30
0.0
 10
4.81575912782134
 20
6.804846542090685
 30
0.0
 10
4.81575912782134
 20
6.79993048094842
 30
0.0
 10
4.81575912782134
 20
6.785960565776299
 30
0.0
 10
4.827210048075686
 20
6.777194671000769
 30
0.0
 10
4.838152720372742
 20
6.776610969809717
 30
0.0
  0
HATCH
  5
DB
330
D1
100
AcDbEntity
  8
Layer 1
 62
     9
420
 12307926
100
AcDbHatch
 10
0.0
 20
0.0
 30
0.0
210
0.0
220
0.0
230
1.0
  2
SOLID
 70
     1
 71
     0
 91
        6
 92
        1
 93
        1
 72
     4
 94
        3
 73
     0
 74
     1
 95
      140
 96
      136
 40
0.0
 40
0.0
 40
0.0
 40
0.0
 40
1.0
 40
1.0
 40
1.0
 40
2.0
 40
2.0
 40
2.0
 40
3.0
 40
3.0
 40
3.0
 40
4.0
 40
4.0
 40
4.0
 40
5.0
 40
5.0
 40
5.0
 40
6.0
 40
6.0
 40
6.0
 40
7.0
 40
7.0
 40
7.0
 40
8.0
 40
8.0
 40
8.0
 40
9.0
 40
9.0
 40
9.0
 40
10.0
 40
10.0
 40
10.0
 40
11.0
 40
11.0
 40
11.0
 40
12.0
 40
12.0
 40
12.0
 40
13.0
 40
13.0
 40
13.0
 40
14.0
 40
14.0
 40
14.0
 40
15.0
 40
15.0
 40
15.0
 40
16.0
 40
16.0
 40
16.0
 40
17.0
 40
17.0
 40
17.0
 40
18.0
 40
18.0
 40
18.0
 40
19.0
 40
19.0
 40
19.0
 40
20.0
 40
20.0
 40
20.0
 40
21.0
 40
21.0
 40
21.0
 40
22.0
 40
22.0
 40
22.0
 40
23.0
 40
23.0
 40
23.0
 40
24.0
 40
24.0
 40
24.0
 40
25.0
 40
25.0
 40
25.0
 40
26.0
 40
26.0
 40
26.0
 40
27.0
 40
27.0
 40
27.0
 40
28.0
 40
28.0
 40
28.0
 40
29.0
 40
29.0
 40
29.0
 40
30.0
 40
30.0
 40
30.0
 40
31.0
 40
31.0
 40
31.0
 40
32.0
 40
32.0
 40
32.0
 40
33.0
 40
33.0
 40
33.0
 40
34.0
 40
34.0
 40
34.0
 40
35.0
 40
35.0
 40
35.0
 40
36.0
 40
36.0
 40
36.0
 40
37.0
 40
37.0
 40
37.0
 40
38.0
 40
38.0
 40
38.0
 40
39.0
 40
39.0
 40
39.0
 40
40.0
 40
40.0
 40
40.0
 40
41.0
 40
41.0
 40
41.0
 40
42.0
 40
42.0
 40
42.0
 40
43.0
 40
43.0
 40
43.0
 40
44.0
 40
44.0
 40
44.0
 40
45.0
 40
45.0
 40
45.0
 40
45.0
 10
4.507845075526979
 20
6.696161380320101
 10
4.510076111190503
 20
6.705129624841915
 10
4.514558936337632
 20
6.713350731839189
 10
4.514558936337632
 20
6.728272728509523
 10
4.514558936337632
 20
6.743233638592616
 10
4.51379882767555
 20
6.767871017309302
 10
4.51379882767555
 20
6.767871017309302
 10
4.51379882767555
 20
6.767871017309302
 10
4.485425761336248
 20
6.770872863137393
 10
4.480232117849785
 20
6.771619676069488
 10
4.474986801274452
 20
6.772366813594001
 10
4.467512620340282
 20
6.774610820395095
 10
4.467512620340282
 20
6.788061890064037
 10
4.467512620340282
 20
6.801502582822915
 10
4.467512620340282
 20
6.970343021859194
 10
4.467512620340282
 20
6.977829632838052
 10
4.467512620340282
 20
6.98530100808331
 10
4.464524070242178
 20
6.998741700842174
 10
4.47422648115091
 20
7.006962807839462
 10
4.483928892059692
 20
7.015183914836737
 10
4.49662265930202
 20
7.0278774700711
 10
4.503362250379824
 20
7.033867541404851
 10
4.510076111190503
 20
7.039847235828549
 10
4.51379882767555
 20
7.044317089838121
 10
4.51379882767555
 20
7.060012166308158
 10
4.51379882767555
 20
7.075694603933483
 10
4.514558936337632
 20
7.273034564532976
 10
4.514558936337632
 20
7.273034564532976
 10
4.514558936337632
 20
7.273034564532976
 10
4.510657430516529
 20
7.269083556026557
 10
4.503362250379824
 20
7.267537733566428
 10
4.499079180751424
 20
7.266613851431593
 10
4.493657245243563
 20
7.26680323004027
 10
4.487148328406672
 20
7.268274157041648
 10
4.480535642469122
 20
7.269703576402801
 10
4.467512620340282
 20
7.270704948223877
 10
4.467512620340282
 20
7.281154496657159
 10
4.467512620340282
 20
7.291629987365582
 10
4.467512620340282
 20
7.470188073044217
 10
4.467512620340282
 20
7.47840918004148
 10
4.467512620340282
 20
7.486617315901198
 10
4.469717713728642
 20
7.496319726809942
 10
4.47648086486207
 20
7.503056935668231
 10
4.484689212428344
 20
7.511278042665506
 10
4.503362250379824
 20
7.529214531709107
 10
4.505590691815844
 20
7.53293984242167
 10
4.507845075526979
 20
7.536688845120428
 10
4.514558936337632
 20
7.550129193940746
 10
4.514558936337632
 20
7.561338851036124
 10
4.514558936337632
 20
7.572551102359019
 10
4.514558936337632
 20
8.642465008614685
 10
4.514558936337632
 20
8.642465008614685
 10
4.514558936337632
 20
8.642465008614685
 10
4.579972383146216
 20
8.659275602916459
 10
4.606446474944
 20
8.666368220944403
 10
4.620660247502554
 20
8.6701817353925
 10
4.642293510756038
 20
8.67682036360519
 10
4.659469891137531
 20
8.67607359880252
 10
4.676648865746554
 20
8.675323494328634
 10
4.909722048440295
 20
8.659631012086113
 10
4.909722048440295
 20
8.659631012086113
 10
4.909722048440295
 20
8.659631012086113
 10
4.909722048440295
 20
7.60841110930864
 10
4.909722048440295
 20
7.597201452213262
 10
4.909722048440295
 20
7.585989200890354
 10
4.909722048440295
 20
7.554614957706828
 10
4.881348982100993
 20
7.558350645423805
 10
4.860473233282088
 20
7.561074584384123
 10
4.843979134737234
 20
7.562098959698219
 10
4.834276723828477
 20
7.563582857837205
 10
4.82457431291972
 20
7.56507713288627
 10
4.817100343446959
 20
7.561338851036124
 10
4.817100343446959
 20
7.547887781367169
 10
4.817100343446959
 20
7.534447088608291
 10
4.817100343446959
 20
7.395476914819343
 10
4.817100343446959
 20
7.383517525971948
 10
4.817100343446959
 20
7.371560731352032
 10
4.815580126122768
 20
7.36333962435477
 10
4.832048282392482
 20
7.361098211781192
 10
4.848490496387032
 20
7.358867176117693
 10
4.880614815714049
 20
7.357372901068642
 10
4.886568567862595
 20
7.355878626019603
 10
4.892545668058801
 20
7.354371379832969
 10
4.909722048440295
 20
7.353637213446025
 10
4.909722048440295
 20
7.327479617405149
 10
4.909722048440295
 20
7.301347963639412
 10
4.909722048440295
 20
7.10724786091416
 10
4.909722048440295
 20
7.098279616392359
 10
4.909722048440295
 20
7.089311371870571
 10
4.897765253820404
 20
7.07794865535176
 10
4.882083148487936
 20
7.079432553490745
 10
4.866401043155469
 20
7.080926828539797
 10
4.84993288688578
 20
7.080926828539797
 10
4.836531107539612
 20
7.082421103588849
 10
4.823106200401475
 20
7.0839153786379
 10
4.817100343446959
 20
7.084649545024844
 10
4.817100343446959
 20
7.066726027118799
 10
4.817100343446959
 20
7.048815480350375
 10
4.817100343446959
 20
6.908348437284872
 10
4.817100343446959
 20
6.897125809051898
 10
4.817100343446959
 20
6.885929123094115
 10
4.814137735624045
 20
6.882191168648546
 10
4.828299623632296
 20
6.879189320008297
 10
4.842485080433385
 20
6.876213741047788
 10
4.87014970191568
 20
6.871894352234133
 10
4.885502340353646
 20
6.869372763088866
 10
4.899487820890827
 20
6.867030175642172
 10
4.909722048440295
 20
6.857540491389702
 10
4.909722048440295
 20
6.847077971818875
 10
4.909722048440295
 20
6.836628423385617
 10
4.909722048440295
 20
6.797764300972794
 10
4.909722048440295
 20
6.787314752539524
 10
4.909722048440295
 20
6.776839586574283
 10
4.913143834533508
 20
6.75274667089271
 10
4.892545668058801
 20
6.734265394070803
 10
4.880739338634789
 20
6.72363684393896
 10
4.589978318674285
 20
6.544917916154367
 10
4.581746834766944
 20
6.536696809157054
 10
4.573536104679735
 20
6.528475702159779
 10
4.569053493370322
 20
6.518010588361435
 10
4.569053493370322
 20
6.512780625689768
 10
4.569053493370322
 20
6.502318423927098
 10
4.566064729434502
 20
6.482150581411802
 10
4.566064729434502
 20
6.482150581411802
 10
4.566064729434502
 20
6.482150581411802
 10
4.413778385807442
 20
6.339112658878232
 10
4.400376816037907
 20
6.32716883539591
 10
4.386925536792331
 20
6.315199069638449
 10
4.363061237875323
 20
6.316060353173636
 10
4.33990537111913
 20
6.31906218758805
 10
4.33990537111913
 20
6.31906218758805
 10
4.3636684957633
 20
6.332020040850276
 10
4.369090431408115
 20
6.347157672292913
 10
4.374486424777084
 20
6.362294675958562
 10
4.505590691815844
 20
6.687193135798288
 10
4.507845075526979
 20
6.696161380320101
 97
        0
 97
        0
 92
        1
 93
        1
 72
     4
 94
        3
 73
     0
 74
     1
 95
      104
 96
      100
 40
0.0
 40
0.0
 40
0.0
 40
0.0
 40
1.0
 40
1.0
 40
1.0
 40
2.0
 40
2.0
 40
2.0
 40
3.0
 40
3.0
 40
3.0
 40
4.0
 40
4.0
 40
4.0
 40
5.0
 40
5.0
 40
5.0
 40
6.0
 40
6.0
 40
6.0
 40
7.0
 40
7.0
 40
7.0
 40
8.0
 40
8.0
 40
8.0
 40
9.0
 40
9.0
 40
9.0
 40
10.0
 40
10.0
 40
10.0
 40
11.0
 40
11.0
 40
11.0
 40
12.0
 40
12.0
 40
12.0
 40
13.0
 40
13.0
 40
13.0
 40
14.0
 40
14.0
 40
14.0
 40
15.0
 40
15.0
 40
15.0
 40
16.0
 40
16.0
 40
16.0
 40
17.0
 40
17.0
 40
17.0
 40
18.0
 40
18.0
 40
18.0
 40
19.0
 40
19.0
 40
19.0
 40
20.0
 40
20.0
 40
20.0
 40
21.0
 40
21.0
 40
21.0
 40
22.0
 40
22.0
 40
22.0
 40
23.0
 40
23.0
 40
23.0
 40
24.0
 40
24.0
 40
24.0
 40
25.0
 40
25.0
 40
25.0
 40
26.0
 40
26.0
 40
26.0
 40
27.0
 40
27.0
 40
27.0
 40
28.0
 40
28.0
 40
28.0
 40
29.0
 40
29.0
 40
29.0
 40
30.0
 40
30.0
 40
30.0
 40
31.0
 40
31.0
 40
31.0
 40
32.0
 40
32.0
 40
32.0
 40
33.0
 40
33.0
 40
33.0
 40
33.0
 10
4.737071018814908
 20
8.365549380905488
 10
4.736435433073565
 20
8.365764701789292
 10
4.735675324411456
 20
8.366081197546212
 10
4.734814040876245
 20
8.366436606715865
 10
4.734510516256907
 20
8.366563723864134
 10
4.73415770131477
 20
8.366716783287567
 10
4.733851582467929
 20
8.366841671118284
 10
4.733244533229254
 20
8.367095540504856
 10
4.73258559944025
 20
8.367373122849042
 10
4.731900723376106
 20
8.367679241695884
 10
4.7314700816085
 20
8.367868620304547
 10
4.731016091793233
 20
8.368070970050756
 10
4.730559507750487
 20
8.368286290934558
 10
4.729874631686344
 20
8.368576844416339
 10
4.72921569789734
 20
8.368880369035663
 10
4.728507473785561
 20
8.369199459020098
 10
4.727999005192487
 20
8.369438127951538
 10
4.727467188551777
 20
8.369679391110493
 10
4.726935371911041
 20
8.36992065426946
 10
4.726175263248958
 20
8.370263092301531
 10
4.725415154586825
 20
8.37061590724367
 10
4.724631697877081
 20
8.370984287550893
 10
4.724123229284007
 20
8.371225915730594
 10
4.723617572660815
 20
8.371466813868828
 10
4.72311148055289
 20
8.371705482800268
 10
4.722198312467374
 20
8.372112776520238
 10
4.721311086656972
 20
8.372530447150261
 10
4.720426672735887
 20
8.372974060055437
 10
4.71991798648105
 20
8.373202352076834
 10
4.719461402438279
 20
8.373417672960638
 10
4.719007412623037
 20
8.373656341892076
 10
4.717993069664392
 20
8.374112925934847
 10
4.717030611256076
 20
8.374595452252782
 10
4.71601648584778
 20
8.375062413205594
 10
4.715585626529824
 20
8.375277734089398
 10
4.715154984762219
 20
8.375480448963849
 10
4.714724342994587
 20
8.375685027809368
 10
4.713611419390367
 20
8.376229815587685
 10
4.712469959283453
 20
8.376784980276017
 10
4.711354441451704
 20
8.377306420006676
 10
4.71110280138267
 20
8.37744391406501
 10
4.710799276763333
 20
8.377571031213279
 10
4.710545042466795
 20
8.377711484683699
 10
4.709151942290847
 20
8.378383024425704
 10
4.707782190162561
 20
8.37906530626233
 10
4.706440974536942
 20
8.37971126891374
 10
4.706440974536942
 20
8.37971126891374
 10
4.706440974536942
 20
8.35596111600743
 10
4.706440974536942
 20
8.35596111600743
 10
4.706440974536942
 20
8.35596111600743
 10
4.72316077087569
 20
8.323356864590032
 10
4.732863181784447
 20
8.323356864590032
 10
4.733244533229254
 20
8.323356864590032
 10
4.733701117271999
 20
8.323481387510771
 10
4.734105816764465
 20
8.323559214336253
 10
4.734105816764465
 20
8.323559214336253
 10
4.734105816764465
 20
8.323559214336253
 10
4.734105816764465
 20
8.323559214336253
 10
4.73466357568034
 20
8.324104002114545
 10
4.735221334596215
 20
8.32466176103042
 10
4.73575315123695
 20
8.325206548808726
 10
4.735880268385219
 20
8.325331071729478
 10
4.736030733581098
 20
8.32547116001533
 10
4.736131908454227
 20
8.325611248301167
 10
4.737172193688037
 20
8.326635968169878
 10
4.738183942419154
 20
8.32768922454127
 10
4.739172343102634
 20
8.328713944409957
 10
4.739247575700599
 20
8.32880214814549
 10
4.739299460250903
 20
8.32886700383339
 10
4.739348750573703
 20
8.328929265293759
 10
4.743201178434522
 20
8.332984042900824
 10
4.746646312575371
 20
8.336896137994497
 10
4.74900187115966
 20
8.339658990298732
 10
4.749053755709964
 20
8.339658990298732
 10
4.749053755709964
 20
8.339684932573883
 10
4.7490771037576
 20
8.339695309483949
 10
4.749660804948639
 20
8.340419098960853
 10
4.750218563864514
 20
8.341039119337085
 10
4.750675366333174
 20
8.34159687825296
 10
4.750724438230084
 20
8.341659139713354
 10
4.750802265055553
 20
8.341736966538809
 10
4.750851555378353
 20
8.341799227999193
 10
4.751079847399751
 20
8.34206679771743
 10
4.751256254870819
 20
8.34229213122718
 10
4.751435256569366
 20
8.342497075200917
 10
4.751637606315626
 20
8.342735744132357
 10
4.751839956061834
 20
8.342977007291324
 10
4.751941130934963
 20
8.343117095577162
 10
4.752042305808041
 20
8.343257183863013
 10
4.752143480681171
 20
8.34334538759856
 10
4.75221871327911
 20
8.3434206201965
 10
4.752244655554301
 20
8.343472504746817
 10
4.752345830427379
 20
8.343586650757516
 10
4.752345830427379
 20
8.343586650757516
 10
4.752345830427379
 20
8.343586650757516
 10
4.752345830427379
 20
8.378027615256075
 10
4.752345830427379
 20
8.378027615256075
 10
4.750522088483851
 20
8.372592708610643
 10
4.746519195427102
 20
8.36211721790221
 10
4.737071018814908
 20
8.365549380905488
 97
        0
 97
        0
 92
        1
 93
        1
 72
     4
 94
        3
 73
     0
 74
     1
 95
       23
 96
       19
 40
0.0
 40
0.0
 40
0.0
 40
0.0
 40
1.0
 40
1.0
 40
1.0
 40
2.0
 40
2.0
 40
2.0
 40
3.0
 40
3.0
 40
3.0
 40
4.0
 40
4.0
 40
4.0
 40
5.0
 40
5.0
 40
5.0
 40
6.0
 40
6.0
 40
6.0
 40
6.0
 10
4.752524832125977
 20
8.551960193274214
 10
4.752524832125977
 20
8.551960193274214
 10
4.752244655554301
 20
8.55203542587214
 10
4.752244655554301
 20
8.55203542587214
 10
4.748571229392054
 20
8.523548213522151
 10
4.723617572660815
 20
8.452840315436536
 10
4.718906237749934
 20
8.440426569691365
 10
4.714192526353902
 20
8.428000219891121
 10
4.727721422848314
 20
8.4133821139258
 10
4.731825490778166
 20
8.409290651047842
 10
4.73590361643283
 20
8.40519955425557
 10
4.747128838893306
 20
8.39407550666821
 10
4.750042156393445
 20
8.391694371346627
 10
4.751334081696288
 20
8.39059405334213
 10
4.752016363532903
 20
8.388440844504101
 10
4.752371772702569
 20
8.386082691692321
 10
4.752371772702569
 20
8.386082691692321
 10
4.752524832125977
 20
8.551960193274214
 10
4.752524832125977
 20
8.551960193274214
 97
        0
 97
        0
 92
        1
 93
        1
 72
     4
 94
        3
 73
     0
 74
     1
 95
       17
 96
       13
 40
0.0
 40
0.0
 40
0.0
 40
0.0
 40
1.0
 40
1.0
 40
1.0
 40
2.0
 40
2.0
 40
2.0
 40
3.0
 40
3.0
 40
3.0
 40
4.0
 40
4.0
 40
4.0
 40
4.0
 10
4.838152720372742
 20
8.522116199933482
 10
4.839901009082521
 20
8.525333042052958
 10
4.840941294316331
 20
8.529450081120393
 10
4.840941294316331
 20
8.534555520871297
 10
4.840941294316331
 20
8.551047025188659
 10
4.83014671362346
 20
8.558191897510799
 10
4.819481844306387
 20
8.5577608859993
 10
4.817175576044948
 20
8.554492159329508
 10
4.81575912782134
 20
8.55035177221445
 10
4.81575912782134
 20
8.545435711072185
 10
4.81575912782134
 20
8.531463201672572
 10
4.827210048075686
 20
8.522710278034562
 10
4.838152720372742
 20
8.522116199933482
 97
        0
 97
        0
 92
        1
 93
        1
 72
     4
 94
        3
 73
     0
 74
     1
 95
       17
 96
       13
 40
0.0
 40
0.0
 40
0.0
 40
0.0
 40
1.0
 40
1.0
 40
1.0
 40
2.0
 40
2.0
 40
2.0
 40
3.0
 40
3.0
 40
3.0
 40
4.0
 40
4.0
 40
4.0
 40
4.0
 10
4.838152720372742
 20
7.667997921116921
 10
4.839901009082521
 20
7.671188820961245
 10
4.840941294316331
 20
7.675318831166249
 10
4.840941294316331
 20
7.680424270917165
 10
4.840941294316331
 20
7.696915775234515
 10
4.83014671362346
 20
7.704047306675193
 10
4.819481844306387
 20
7.703616664907586
 10
4.817175576044948
 20
7.700334967100225
 10
4.81575912782134
 20
7.696217928032789
 10
4.81575912782134
 20
7.691304808962526
 10
4.81575912782134
 20
7.677318980580859
 10
4.827210048075686
 20
7.668566056942861
 10
4.838152720372742
 20
7.667997921116921
 97
        0
 97
        0
 92
        1
 93
        1
 72
     4
 94
        3
 73
     0
 74
     1
 95
       17
 96
       13
 40
0.0
 40
0.0
 40
0.0
 40
0.0
 40
1.0
 40
1.0
 40
1.0
 40
2.0
 40
2.0
 40
2.0
 40
3.0
 40
3.0
 40
3.0
 40
4.0
 40
4.0
 40
4.0
 40
4.0
 10
4.838152720372742
 20
6.776610969809717
 10
4.839901009082521
 20
6.779827811929193
 10
4.840941294316331
 20
6.783931879859046
 10
4.840941294316331
 20
6.789050290747518
 10
4.840941294316331
 20
6.805531743622825
 10
4.83014671362346
 20
6.812662949595506
 10
4.819481844306387
 20
6.812255655875522
 10
4.817175576044948
 20
6.808963581158107
 10
4.81575912782134
 20
6.804846542090685
 10
4.81575912782134
 20
6.79993048094842
 10
4.81575912782134
 20
6.785960565776299
 10
4.827210048075686
 20
6.777194671000769
 10
4.838152720372742
 20
6.776610969809717
 97
        0
 97
        0
 75
     2
 76
     1
 98
        0
  0
SPLINE
  5
DC
330
D1
100
AcDbEntity
  8
Layer 1
 62
   250
420
  2301728
370
    13
100
AcDbSpline
210
0.0
220
0.0
230
1.0
 70
     8
 71
     3
 72
    74
 73
    70
 74
     0
 42
0.0000000001
 43
0.0000000001
 12
1.0
 22
0.0
 32
0.0
 13
1.0
 23
0.0
 33
0.0
 40
0.0
 40
0.0
 40
0.0
 40
0.0
 40
1.0
 40
1.0
 40
1.0
 40
2.0
 40
2.0
 40
2.0
 40
3.0
 40
3.0
 40
3.0
 40
4.0
 40
4.0
 40
4.0
 40
5.0
 40
5.0
 40
5.0
 40
6.0
 40
6.0
 40
6.0
 40
7.0
 40
7.0
 40
7.0
 40
8.0
 40
8.0
 40
8.0
 40
9.0
 40
9.0
 40
9.0
 40
10.0
 40
10.0
 40
10.0
 40
11.0
 40
11.0
 40
11.0
 40
12.0
 40
12.0
 40
12.0
 40
13.0
 40
13.0
 40
13.0
 40
14.0
 40
14.0
 40
14.0
 40
15.0
 40
15.0
 40
15.0
 40
16.0
 40
16.0
 40
16.0
 40
17.0
 40
17.0
 40
17.0
 40
18.0
 40
18.0
 40
18.0
 40
19.0
 40
19.0
 40
19.0
 40
20.0
 40
20.0
 40
20.0
 40
21.0
 40
21.0
 40
21.0
 40
22.0
 40
22.0
 40
22.0
 40
23.0
 40
23.0
 40
23.0
 40
23.0
 10
4.876611922657326
 20
7.55915969992293
 30
0.0
 10
4.896193151945858
 20
7.556881968164134
 30
0.0
 10
4.892545668058801
 20
7.574841805255383
 30
0.0
 10
4.892545668058801
 20
7.581695754351876
 30
0.0
 10
4.892545668058801
 20
7.588573396745296
 30
0.0
 10
4.892545668058801
 20
8.645290122379278
 30
0.0
 10
4.892545668058801
 20
8.645290122379278
 30
0.0
 10
4.892545668058801
 20
8.645290122379278
 30
0.0
 10
4.688654950689245
 20
8.660391120748208
 30
0.0
 10
4.66836290306138
 20
8.661151229410317
 30
0.0
 10
4.649362780736333
 20
8.661859453522109
 30
0.0
 10
4.634287724642591
 20
8.659174428043343
 30
0.0
 10
4.62271228146748
 20
8.65602021959949
 30
0.0
 10
4.602848281379718
 20
8.650610883013996
 30
0.0
 10
4.535484188469026
 20
8.633245124023851
 30
0.0
 10
4.535484188469026
 20
8.633245124023851
 30
0.0
 10
4.535484188469026
 20
8.633245124023851
 30
0.0
 10
4.535484188469026
 20
7.572551102359019
 30
0.0
 10
4.535484188469026
 20
7.548697180352102
 30
0.0
 10
4.535484188469026
 20
7.524859167349947
 30
0.0
 10
4.527706481387238
 20
7.522591468861505
 30
0.0
 10
4.523807357431147
 20
7.518676779540303
 30
0.0
 10
4.519905639247503
 20
7.514749119081531
 30
0.0
 10
4.505489516942715
 20
7.500029472157406
 30
0.0
 10
4.498622596708628
 20
7.495129319268913
 30
0.0
 10
4.491784212977235
 20
7.490212915237962
 30
0.0
 10
4.491099336913091
 20
7.484020494157991
 30
0.0
 10
4.491099336913091
 20
7.476178144377981
 30
0.0
 10
4.491099336913091
 20
7.468325417687942
 30
0.0
 10
4.491099336913091
 20
7.318397226872636
 30
0.0
 10
4.491099336913091
 20
7.285398652872837
 30
0.0
 10
4.491099336913091
 20
7.252389701962973
 30
0.0
 10
4.514558936337632
 20
7.273327712242248
 30
0.0
 10
4.523148423642144
 20
7.27854729800385
 30
0.0
 10
4.531735316719126
 20
7.283777598225027
 30
0.0
 10
4.535484188469026
 20
7.277164574738006
 30
0.0
 10
4.535484188469026
 20
7.264486584868715
 30
0.0
 10
4.535484188469026
 20
7.255998272437321
 30
0.0
 10
4.535484188469026
 20
7.06359738873487
 30
0.0
 10
4.535484188469026
 20
7.04692688271891
 30
0.0
 10
4.535484188469026
 20
7.030282318978164
 30
0.0
 10
4.529327873584558
 20
7.027332682292795
 30
0.0
 10
4.524463696992623
 20
7.0224295922881
 30
0.0
 10
4.519576172353027
 20
7.01755244455857
 30
0.0
 10
4.504527058534373
 20
7.002503330739942
 30
0.0
 10
4.497966257147153
 20
6.996285297671609
 30
0.0
 10
4.491454746082733
 20
6.990102923214875
 30
0.0
 10
4.491099336913091
 20
6.985505952057046
 30
0.0
 10
4.491099336913091
 20
6.976688172731137
 30
0.0
 10
4.491099336913091
 20
6.967872987632783
 30
0.0
 10
4.491099336913091
 20
6.826088076989296
 30
0.0
 10
4.491099336913091
 20
6.788531445244378
 30
0.0
 10
4.491099336913091
 20
6.750972219271981
 30
0.0
 10
4.517902895605377
 20
6.779067703267085
 30
0.0
 10
4.526085089189918
 20
6.78623814812051
 30
0.0
 10
4.534217992451683
 20
6.793444912159138
 30
0.0
 10
4.535484188469026
 20
6.778408769478106
 30
0.0
 10
4.535484188469026
 20
6.774483703246839
 30
0.0
 10
4.535484188469026
 20
6.770556042788042
 30
0.0
 10
4.535484188469026
 20
6.738229373714817
 30
0.0
 10
4.535484188469026
 20
6.72973068437337
 30
0.0
 10
4.535484188469026
 20
6.721219347232401
 30
0.0
 10
4.531937666465359
 20
6.711109319265599
 30
0.0
 10
4.530619798887376
 20
6.705889733503997
 30
0.0
 10
4.529327873584558
 20
6.700647122513133
 30
0.0
 10
4.389584829299919
 20
6.34200262833071
 30
0.0
 10
4.382087511590119
 20
6.327638390576251
 30
0.0
 10
4.37456144845247
 20
6.313274152821767
 30
0.0
 10
4.352040959388609
 20
6.316654431274742
 30
0.0
 10
4.344211788903976
 20
6.317972612003928
 30
0.0
  0
SPLINE
  5
DD
330
D1
100
AcDbEntity
  8
Layer 1
 62
   250
420
  2301728
370
    13
100
AcDbSpline
210
0.0
220
0.0
230
1.0
 70
     8
 71
     3
 72
    26
 73
    22
 74
     0
 42
0.0000000001
 43
0.0000000001
 12
1.0
 22
0.0
 32
0.0
 13
1.0
 23
0.0
 33
0.0
 40
0.0
 40
0.0
 40
0.0
 40
0.0
 40
1.0
 40
1.0
 40
1.0
 40
2.0
 40
2.0
 40
2.0
 40
3.0
 40
3.0
 40
3.0
 40
4.0
 40
4.0
 40
4.0
 40
5.0
 40
5.0
 40
5.0
 40
6.0
 40
6.0
 40
6.0
 40
7.0
 40
7.0
 40
7.0
 40
7.0
 10
4.835441531983027
 20
7.563733323033122
 30
0.0
 10
4.817100343446959
 20
7.567015365545153
 30
0.0
 10
4.800658129452409
 20
7.564708752579033
 30
0.0
 10
4.800658129452409
 20
7.547708779668596
 30
0.0
 10
4.800658129452409
 20
7.530734749033298
 30
0.0
 10
4.800658129452409
 20
7.37392926107389
 30
0.0
 10
4.800658129452409
 20
7.36739440196181
 30
0.0
 10
4.800658129452409
 20
7.360856948622224
 30
0.0
 10
4.804103263593283
 20
7.346466768592601
 30
0.0
 10
4.821712879969886
 20
7.344832405257711
 30
0.0
 10
4.839343250166646
 20
7.343187665012742
 30
0.0
 10
4.869086068634235
 20
7.339296323739177
 30
0.0
 10
4.877597729113277
 20
7.337994021526292
 30
0.0
 10
4.886086041544659
 20
7.336689125085904
 30
0.0
 10
4.892545668058801
 20
7.336689125085904
 30
0.0
 10
4.892545668058801
 20
7.317725321946088
 30
0.0
 10
4.892545668058801
 20
7.298800432218981
 30
0.0
 10
4.892545668058801
 20
7.113557022232359
 30
0.0
 10
4.892545668058801
 20
7.103753436450498
 30
0.0
 10
4.892545668058801
 20
7.093973198716311
 30
0.0
 10
4.892545668058801
 20
7.078620560278333
 30
0.0
 10
4.870707460831555
 20
7.080241952475653
 30
0.0
  0
SPLINE
  5
DE
330
D1
100
AcDbEntity
  8
Layer 1
 62
   250
420
  2301728
370
    13
100
AcDbSpline
210
0.0
220
0.0
230
1.0
 70
     8
 71
     3
 72
    26
 73
    22
 74
     0
 42
0.0000000001
 43
0.0000000001
 12
1.0
 22
0.0
 32
0.0
 13
1.0
 23
0.0
 33
0.0
 40
0.0
 40
0.0
 40
0.0
 40
0.0
 40
1.0
 40
1.0
 40
1.0
 40
2.0
 40
2.0
 40
2.0
 40
3.0
 40
3.0
 40
3.0
 40
4.0
 40
4.0
 40
4.0
 40
5.0
 40
5.0
 40
5.0
 40
6.0
 40
6.0
 40
6.0
 40
7.0
 40
7.0
 40
7.0
 40
7.0
 10
4.833493267118734
 20
7.082864716494024
 30
0.0
 10
4.823282387616902
 20
7.083510679145434
 30
0.0
 10
4.800658129452409
 20
7.088753612954696
 30
0.0
 10
4.800658129452409
 20
7.060645157821997
 30
0.0
 10
4.800658129452409
 20
7.032549673826881
 30
0.0
 10
4.800658129452409
 20
6.890450861654004
 30
0.0
 10
4.800658129452409
 20
6.884255846346491
 30
0.0
 10
4.800658129452409
 20
6.878024511853747
 30
0.0
 10
4.801496284649753
 20
6.864978141677284
 30
0.0
 10
4.823687087109369
 20
6.861709415007491
 30
0.0
 10
4.845906645781396
 20
6.858440688337686
 30
0.0
 10
4.873242021114416
 20
6.853387133137087
 30
0.0
 10
4.88053698888858
 20
6.851905829225605
 30
0.0
 10
4.885377817432905
 20
6.850917428542124
 30
0.0
 10
4.892545668058801
 20
6.848979540587897
 30
0.0
 10
4.892545668058801
 20
6.837868464138118
 30
0.0
 10
4.892545668058801
 20
6.826747010778275
 30
0.0
 10
4.892545668058801
 20
6.765665923920942
 30
0.0
 10
4.892545668058801
 20
6.760448932386844
 30
0.0
 10
4.892545668058801
 20
6.755203728546689
 30
0.0
 10
4.896219094221047
 20
6.737912877957923
 30
0.0
 10
4.887403909122668
 20
6.72973068437337
 30
0.0
  0
POLYLINE
  5
DF
330
D1
100
AcDbEntity
  8
Layer 1
 62
   250
420
  2301728
370
    13
100
AcDb2dPolyline
 66
     1
 10
0.0
 20
0.0
 30
0.0
  0
VERTEX
  5
E0
330
DF
100
AcDbEntity
  8
Layer 1
 62
   250
420
  2301728
370
    13
100
AcDbVertex
100
AcDb2dVertex
 10
4.621926230530233
 20
6.607670006001386
 30
0.0
  0
VERTEX
  5
E1
330
DF
100
AcDbEntity
  8
Layer 1
 62
   250
420
  2301728
370
    13
100
AcDbVertex
100
AcDb2dVertex
 10
4.623143138439269
 20
7.440621662047697
 30
0.0
  0
SEQEND
  5
E2
330
DF
100
AcDbEntity
  8
Layer 1
 62
   250
420
  2301728
370
    13
  0
POLYLINE
  5
E3
330
D1
100
AcDbEntity
  8
Layer 1
 62
   250
420
  2301728
370
    13
100
AcDb2dPolyline
 66
     1
 10
0.0
 20
0.0
 30
0.0
  0
VERTEX
  5
E4
330
E3
100
AcDbEntity
  8
Layer 1
 62
   250
420
  2301728
370
    13
100
AcDbVertex
100
AcDb2dVertex
 10
4.623293388430991
 20
7.417190684435998
 30
0.0
  0
VERTEX
  5
E5
330
E3
100
AcDbEntity
  8
Layer 1
 62
   250
420
  2301728
370
    13
100
AcDbVertex
100
AcDb2dVertex
 10
4.625091188099405
 20
8.605593252933948
 30
0.0
  0
SEQEND
  5
E6
330
E3
100
AcDbEntity
  8
Layer 1
 62
   250
420
  2301728
370
    13
  0
POLYLINE
  5
E7
330
D1
100
AcDbEntity
  8
Layer 1
 62
   250
420
  2301728
370
    13
100
AcDb2dPolyline
 66
     1
 10
0.0
 20
0.0
 30
0.0
  0
VERTEX
  5
E8
330
E7
100
AcDbEntity
  8
Layer 1
 62
   250
420
  2301728
370
    13
100
AcDbVertex
100
AcDb2dVertex
 10
4.643686610931986
 20
8.61819638146499
 30
0.0
  0
VERTEX
  5
E9
330
E7
100
AcDbEntity
  8
Layer 1
 62
   250
420
  2301728
370
    13
100
AcDbVertex
100
AcDb2dVertex
 10
4.643686610931986
 20
7.42199000534006
 30
0.0
  0
SEQEND
  5
EA
330
E7
100
AcDbEntity
  8
Layer 1
 62
   250
420
  2301728
370
    13
  0
POLYLINE
  5
EB
330
D1
100
AcDbEntity
  8
Layer 1
 62
   250
420
  2301728
370
    13
100
AcDb2dPolyline
 66
     1
 10
0.0
 20
0.0
 30
0.0
  0
VERTEX
  5
EC
330
EB
100
AcDbEntity
  8
Layer 1
 62
   250
420
  2301728
370
    13
100
AcDbVertex
100
AcDb2dVertex
 10
4.643686610931986
 20
7.437189499044418
 30
0.0
  0
VERTEX
  5
ED
330
EB
100
AcDbEntity
  8
Layer 1
 62
   250
420
  2301728
370
    13
100
AcDbVertex
100
AcDb2dVertex
 10
4.643686610931986
 20
6.656804676390126
 30
0.0
  0
SEQEND
  5
EE
330
EB
100
AcDbEntity
  8
Layer 1
 62
   250
420
  2301728
370
    13
  0
SPLINE
  5
EF
330
D1
100
AcDbEntity
  8
Layer 1
 62
   250
420
  2301728
370
    20
100
AcDbSpline
210
0.0
220
0.0
230
1.0
 70
     8
 71
     3
 72
    14
 73
    10
 74
     0
 42
0.0000000001
 43
0.0000000001
 12
1.0
 22
0.0
 32
0.0
 13
1.0
 23
0.0
 33
0.0
 40
0.0
 40
0.0
 40
0.0
 40
0.0
 40
1.0
 40
1.0
 40
1.0
 40
2.0
 40
2.0
 40
2.0
 40
3.0
 40
3.0
 40
3.0
 40
3.0
 10
4.700969965876589
 20
8.566399663626612
 30
0.0
 10
4.700969965876589
 20
8.566399663626612
 30
0.0
 10
4.700969965876589
 20
8.532921157536407
 30
0.0
 10
4.692151969380423
 20
8.511778203283383
 30
0.0
 10
4.683336784282043
 20
8.490638211295225
 30
0.0
 10
4.663068300914574
 20
8.448341557841786
 30
0.0
 10
4.670111412406994
 20
8.424565462660313
 30
0.0
 10
4.677180898956522
 20
8.400776396341282
 30
0.0
 10
4.689516234224457
 20
8.387566589831307
 30
0.0
 10
4.689516234224457
 20
8.387566589831307
 30
0.0
  0
SPLINE
  5
F0
330
D1
100
AcDbEntity
  8
Layer 1
 62
   250
420
  2301728
370
    20
100
AcDbSpline
210
0.0
220
0.0
230
1.0
 70
     8
 71
     3
 72
    17
 73
    13
 74
     0
 42
0.0000000001
 43
0.0000000001
 12
1.0
 22
0.0
 32
0.0
 13
1.0
 23
0.0
 33
0.0
 40
0.0
 40
0.0
 40
0.0
 40
0.0
 40
1.0
 40
1.0
 40
1.0
 40
2.0
 40
2.0
 40
2.0
 40
3.0
 40
3.0
 40
3.0
 40
4.0
 40
4.0
 40
4.0
 40
4.0
 10
4.752626006999106
 20
8.378445285886073
 30
0.0
 10
4.752854517501444
 20
8.381916362302098
 30
0.0
 10
4.752903589343279
 20
8.389302128039313
 30
0.0
 10
4.75001621411828
 20
8.391694371346627
 30
0.0
 10
4.747128838893306
 20
8.39407550666821
 30
0.0
 10
4.73590361643283
 20
8.40519955425557
 30
0.0
 10
4.731825490778166
 20
8.409290651047842
 30
0.0
 10
4.727721422848314
 20
8.4133821139258
 30
0.0
 10
4.714192526353902
 20
8.428000219891121
 30
0.0
 10
4.718906237749934
 20
8.440426569691365
 30
0.0
 10
4.723617572660815
 20
8.452840315436536
 30
0.0
 10
4.748571229392054
 20
8.523548213522151
 30
0.0
 10
4.752244655554301
 20
8.55203542587214
 30
0.0
  0
SPLINE
  5
F1
330
D1
100
AcDbEntity
  8
Layer 1
 62
   250
420
  2301728
370
    20
100
AcDbSpline
210
0.0
220
0.0
230
1.0
 70
    11
 71
     3
 72
    23
 73
    19
 74
     0
 42
0.0000000001
 43
0.0000000001
 12
1.0
 22
0.0
 32
0.0
 13
1.0
 23
0.0
 33
0.0
 40
0.0
 40
0.0
 40
0.0
 40
0.0
 40
1.0
 40
1.0
 40
1.0
 40
2.0
 40
2.0
 40
2.0
 40
3.0
 40
3.0
 40
3.0
 40
4.0
 40
4.0
 40
4.0
 40
5.0
 40
5.0
 40
5.0
 40
6.0
 40
6.0
 40
6.0
 40
6.0
 10
4.689516234224457
 20
8.388111377609599
 30
0.0
 10
4.689516234224457
 20
8.388111377609599
 30
0.0
 10
4.689516234224457
 20
8.343508823932046
 30
0.0
 10
4.689516234224457
 20
8.343508823932046
 30
0.0
 10
4.689516234224457
 20
8.343508823932046
 30
0.0
 10
4.706238624790735
 20
8.310904572514623
 30
0.0
 10
4.715915093424327
 20
8.310904572514623
 30
0.0
 10
4.725617504333059
 20
8.310904572514623
 30
0.0
 10
4.752345830427379
 20
8.343586650757516
 30
0.0
 10
4.752345830427379
 20
8.343586650757516
 30
0.0
 10
4.752345830427379
 20
8.343586650757516
 30
0.0
 10
4.752524832125977
 20
8.378484199298807
 30
0.0
 10
4.752524832125977
 20
8.378484199298807
 30
0.0
 10
4.750750380505224
 20
8.37321272898689
 30
0.0
 10
4.746799371998829
 20
8.362029014166675
 30
0.0
 10
4.737071018814908
 20
8.365549380905488
 30
0.0
 10
4.727391955953812
 20
8.369059370734249
 30
0.0
 10
4.689516234224457
 20
8.388111377609599
 30
0.0
 10
4.689516234224457
 20
8.388111377609599
 30
0.0
  0
SPLINE
  5
F2
330
D1
100
AcDbEntity
  8
Layer 1
 62
   250
420
  2301728
370
    20
100
AcDbSpline
210
0.0
220
0.0
230
1.0
 70
     8
 71
     3
 72
    17
 73
    13
 74
     0
 42
0.0000000001
 43
0.0000000001
 12
1.0
 22
0.0
 32
0.0
 13
1.0
 23
0.0
 33
0.0
 40
0.0
 40
0.0
 40
0.0
 40
0.0
 40
1.0
 40
1.0
 40
1.0
 40
2.0
 40
2.0
 40
2.0
 40
3.0
 40
3.0
 40
3.0
 40
4.0
 40
4.0
 40
4.0
 40
4.0
 10
4.752626006999106
 20
8.378445285886073
 30
0.0
 10
4.752854517501444
 20
8.381916362302098
 30
0.0
 10
4.752903589343279
 20
8.389302128039313
 30
0.0
 10
4.75001621411828
 20
8.391694371346627
 30
0.0
 10
4.747128838893306
 20
8.39407550666821
 30
0.0
 10
4.73590361643283
 20
8.40519955425557
 30
0.0
 10
4.731825490778166
 20
8.409290651047842
 30
0.0
 10
4.727721422848314
 20
8.4133821139258
 30
0.0
 10
4.714192526353902
 20
8.428000219891121
 30
0.0
 10
4.718906237749934
 20
8.440426569691365
 30
0.0
 10
4.723617572660815
 20
8.452840315436536
 30
0.0
 10
4.748571229392054
 20
8.523548213522151
 30
0.0
 10
4.752244655554301
 20
8.55203542587214
 30
0.0
  0
SPLINE
  5
F3
330
D1
100
AcDbEntity
  8
Layer 1
 62
   250
420
  2301728
370
    13
100
AcDbSpline
210
0.0
220
0.0
230
1.0
 70
     8
 71
     3
 72
    17
 73
    13
 74
     0
 42
0.0000000001
 43
0.0000000001
 12
1.0
 22
0.0
 32
0.0
 13
1.0
 23
0.0
 33
0.0
 40
0.0
 40
0.0
 40
0.0
 40
0.0
 40
1.0
 40
1.0
 40
1.0
 40
2.0
 40
2.0
 40
2.0
 40
3.0
 40
3.0
 40
3.0
 40
4.0
 40
4.0
 40
4.0
 40
4.0
 10
4.746900546871908
 20
8.370491384322918
 30
0.0
 10
4.746900546871908
 20
8.370491384322918
 30
0.0
 10
4.734764750553444
 20
8.38474184142889
 30
0.0
 10
4.731877375328446
 20
8.387122976926118
 30
0.0
 10
4.728987623753988
 20
8.389517448923117
 30
0.0
 10
4.71776477764302
 20
8.40065187342053
 30
0.0
 10
4.713686651988306
 20
8.404729999075231
 30
0.0
 10
4.709582801446307
 20
8.40883406700507
 30
0.0
 10
4.694634645112981
 20
8.428277802235305
 30
0.0
 10
4.699348356509012
 20
8.440691180897968
 30
0.0
 10
4.704212750353134
 20
8.453511853280588
 30
0.0
 10
4.736030733581098
 20
8.54190237319579
 30
0.0
 10
4.739628927145405
 20
8.569730651756787
 30
0.0
  0
SPLINE
  5
F4
330
D1
100
AcDbEntity
  8
Layer 1
 62
   250
420
  2301728
370
    20
100
AcDbSpline
210
0.0
220
0.0
230
1.0
 70
    11
 71
     3
 72
    11
 73
     7
 74
     0
 42
0.0000000001
 43
0.0000000001
 12
1.0
 22
0.0
 32
0.0
 13
1.0
 23
0.0
 33
0.0
 40
0.0
 40
0.0
 40
0.0
 40
0.0
 40
1.0
 40
1.0
 40
1.0
 40
2.0
 40
2.0
 40
2.0
 40
2.0
 10
4.843753436943365
 20
8.53644152427522
 30
0.0
 10
4.843753436943365
 20
8.503876186270544
 30
0.0
 10
4.80164653013589
 20
8.511526563214362
 30
0.0
 10
4.80164653013589
 20
8.538356064181825
 30
0.0
 10
4.80164653013589
 20
8.565182970921745
 30
0.0
 10
4.843753436943365
 20
8.569009826524608
 30
0.0
 10
4.843753436943365
 20
8.53644152427522
 30
0.0
  0
SPLINE
  5
F5
330
D1
100
AcDbEntity
  8
Layer 1
 62
   250
420
  2301728
370
    20
100
AcDbSpline
210
0.0
220
0.0
230
1.0
 70
    11
 71
     3
 72
    11
 73
     7
 74
     0
 42
0.0000000001
 43
0.0000000001
 12
1.0
 22
0.0
 32
0.0
 13
1.0
 23
0.0
 33
0.0
 40
0.0
 40
0.0
 40
0.0
 40
0.0
 40
1.0
 40
1.0
 40
1.0
 40
2.0
 40
2.0
 40
2.0
 40
2.0
 10
4.843753436943365
 20
7.682297303183506
 30
0.0
 10
4.843753436943365
 20
7.649755313226478
 30
0.0
 10
4.80164653013589
 20
7.6574082843978
 30
0.0
 10
4.80164653013589
 20
7.684211843090098
 30
0.0
 10
4.80164653013589
 20
7.711038749830031
 30
0.0
 10
4.843753436943365
 20
7.714865235415699
 30
0.0
 10
4.843753436943365
 20
7.682297303183506
 30
0.0
  0
SPLINE
  5
F6
330
D1
100
AcDbEntity
  8
Layer 1
 62
   250
420
  2301728
370
    20
100
AcDbSpline
210
0.0
220
0.0
230
1.0
 70
    11
 71
     3
 72
    11
 73
     7
 74
     0
 42
0.0000000001
 43
0.0000000001
 12
1.0
 22
0.0
 32
0.0
 13
1.0
 23
0.0
 33
0.0
 40
0.0
 40
0.0
 40
0.0
 40
0.0
 40
1.0
 40
1.0
 40
1.0
 40
2.0
 40
2.0
 40
2.0
 40
2.0
 10
4.843753436943365
 20
6.790926242340396
 30
0.0
 10
4.843753436943365
 20
6.758370956146778
 30
0.0
 10
4.80164653013589
 20
6.766021657560473
 30
0.0
 10
4.80164653013589
 20
6.792850834058021
 30
0.0
 10
4.80164653013589
 20
6.819654392750344
 30
0.0
 10
4.843753436943365
 20
6.823491255246065
 30
0.0
 10
4.843753436943365
 20
6.790926242340396
 30
0.0
  0
POLYLINE
  5
F7
330
D1
100
AcDbEntity
  8
Layer 1
 62
   250
420
  2301728
370
    13
100
AcDb2dPolyline
 66
     1
 10
0.0
 20
0.0
 30
0.0
  0
VERTEX
  5
F8
330
F7
100
AcDbEntity
  8
Layer 1
 62
   250
420
  2301728
370
    13
100
AcDbVertex
100
AcDb2dVertex
 10
4.514660111210762
 20
8.638654088394105
 30
0.0
  0
VERTEX
  5
F9
330
F7
100
AcDbEntity
  8
Layer 1
 62
   250
420
  2301728
370
    13
100
AcDbVertex
100
AcDb2dVertex
 10
4.535637034902771
 20
8.633130978013153
 30
0.0
  0
SEQEND
  5
FA
330
F7
100
AcDbEntity
  8
Layer 1
 62
   250
420
  2301728
370
    13
  0
POLYLINE
  5
FB
330
D1
100
AcDbEntity
  8
Layer 1
 62
   250
420
  2301728
370
    13
100
AcDb2dPolyline
 66
     1
 10
0.0
 20
0.0
 30
0.0
  0
VERTEX
  5
FC
330
FB
100
AcDbEntity
  8
Layer 1
 62
   250
420
  2301728
370
    13
100
AcDbVertex
100
AcDb2dVertex
 10
4.909268058625027
 20
8.65523379644699
 30
0.0
  0
VERTEX
  5
FD
330
FB
100
AcDbEntity
  8
Layer 1
 62
   250
420
  2301728
370
    13
100
AcDbVertex
100
AcDb2dVertex
 10
4.892545668058801
 20
8.645290122379278
 30
0.0
  0
SEQEND
  5
FE
330
FB
100
AcDbEntity
  8
Layer 1
 62
   250
420
  2301728
370
    13
  0
ENDBLK
  5
D4
330
D1
100
AcDbEntity
  8
0
100
AcDbBlockEnd
  0
BLOCK
  5
101
330
FF
100
AcDbEntity
  8
0
100
AcDbBlockBegin
  2
block 4
 70
     0
 10
0.0
 20
0.0
 30
0.0
  3
block 4
  1

  0
SPLINE
  5
103
330
FF
100
AcDbEntity
  8
Layer 1
 62
   250
420
  2301728
370
    20
100
AcDbSpline
210
0.0
220
0.0
230
1.0
 70
    11
 71
     3
 72
    11
 73
     7
 74
     0
 42
0.0000000001
 43
0.0000000001
 12
1.0
 22
0.0
 32
0.0
 13
1.0
 23
0.0
 33
0.0
 40
0.0
 40
0.0
 40
0.0
 40
0.0
 40
1.0
 40
1.0
 40
1.0
 40
2.0
 40
2.0
 40
2.0
 40
2.0
 10
4.848186971767695
 20
7.681638369394514
 30
0.0
 10
4.848186971767695
 20
7.646388005911085
 30
0.0
 10
4.808082808602371
 20
7.651275877383959
 30
0.0
 10
4.808082808602371
 20
7.687454627484726
 30
0.0
 10
4.808082808602371
 20
7.723644101328849
 30
0.0
 10
4.848186971767695
 20
7.711609479883489
 30
0.0
 10
4.848186971767695
 20
7.681638369394514
 30
0.0
  0
HATCH
  5
104
330
FF
100
AcDbEntity
  8
Layer 1
 62
   250
420
  2301728
100
AcDbHatch
 10
0.0
 20
0.0
 30
0.0
210
0.0
220
0.0
230
1.0
  2
SOLID
 70
     1
 71
     0
 91
        1
 92
        1
 93
        1
 72
     4
 94
        3
 73
     0
 74
     1
 95
       11
 96
        7
 40
0.0
 40
0.0
 40
0.0
 40
0.0
 40
1.0
 40
1.0
 40
1.0
 40
2.0
 40
2.0
 40
2.0
 40
2.0
 10
4.848186971767695
 20
7.681638369394514
 10
4.848186971767695
 20
7.646388005911085
 10
4.808082808602371
 20
7.651275877383959
 10
4.808082808602371
 20
7.687454627484726
 10
4.808082808602371
 20
7.723644101328849
 10
4.848186971767695
 20
7.711609479883489
 10
4.848186971767695
 20
7.681638369394514
 97
        0
 97
        0
 75
     2
 76
     1
 98
        0
  0
SPLINE
  5
105
330
FF
100
AcDbEntity
  8
Layer 1
 62
   250
420
  2301728
370
    20
100
AcDbSpline
210
0.0
220
0.0
230
1.0
 70
    11
 71
     3
 72
    11
 73
     7
 74
     0
 42
0.0000000001
 43
0.0000000001
 12
1.0
 22
0.0
 32
0.0
 13
1.0
 23
0.0
 33
0.0
 40
0.0
 40
0.0
 40
0.0
 40
0.0
 40
1.0
 40
1.0
 40
1.0
 40
2.0
 40
2.0
 40
2.0
 40
2.0
 10
4.83675939956101
 20
7.678395584999874
 30
0.0
 10
4.83675939956101
 20
7.643119279241293
 30
0.0
 10
4.796655236395686
 20
7.648009398108393
 30
0.0
 10
4.796655236395686
 20
7.684198871952516
 30
0.0
 10
4.796655236395686
 20
7.720375374659056
 30
0.0
 10
4.83675939956101
 20
7.708340753213696
 30
0.0
 10
4.83675939956101
 20
7.678395584999874
 30
0.0
  0
HATCH
  5
106
330
FF
100
AcDbEntity
  8
Layer 1
 62
     9
420
 12307926
100
AcDbHatch
 10
0.0
 20
0.0
 30
0.0
210
0.0
220
0.0
230
1.0
  2
SOLID
 70
     1
 71
     0
 91
        1
 92
        1
 93
        1
 72
     4
 94
        3
 73
     0
 74
     1
 95
       11
 96
        7
 40
0.0
 40
0.0
 40
0.0
 40
0.0
 40
1.0
 40
1.0
 40
1.0
 40
2.0
 40
2.0
 40
2.0
 40
2.0
 10
4.83675939956101
 20
7.678395584999874
 10
4.83675939956101
 20
7.643119279241293
 10
4.796655236395686
 20
7.648009398108393
 10
4.796655236395686
 20
7.684198871952516
 10
4.796655236395686
 20
7.720375374659056
 10
4.83675939956101
 20
7.708340753213696
 10
4.83675939956101
 20
7.678395584999874
 97
        0
 97
        0
 75
     2
 76
     1
 98
        0
  0
ENDBLK
  5
102
330
FF
100
AcDbEntity
  8
0
100
AcDbBlockEnd
  0
BLOCK
  5
109
330
107
100
AcDbEntity
  8
0
100
AcDbBlockBegin
  2
block 5
 70
     0
 10
0.0
 20
0.0
 30
0.0
  3
block 5
  1

  0
SPLINE
  5
10B
330
107
100
AcDbEntity
  8
Layer 1
 62
   250
420
  2301728
370
    20
100
AcDbSpline
210
0.0
220
0.0
230
1.0
 70
    11
 71
     3
 72
    11
 73
     7
 74
     0
 42
0.0000000001
 43
0.0000000001
 12
1.0
 22
0.0
 32
0.0
 13
1.0
 23
0.0
 33
0.0
 40
0.0
 40
0.0
 40
0.0
 40
0.0
 40
1.0
 40
1.0
 40
1.0
 40
2.0
 40
2.0
 40
2.0
 40
2.0
 10
4.848288146640824
 20
6.789722195674092
 30
0.0
 10
4.848288146640824
 20
6.754469237963171
 30
0.0
 10
4.8081839834755
 20
6.759359356830259
 30
0.0
 10
4.8081839834755
 20
6.795535859536799
 30
0.0
 10
4.8081839834755
 20
6.831725333380922
 30
0.0
 10
4.848288146640824
 20
6.819693306163079
 30
0.0
 10
4.848288146640824
 20
6.789722195674092
 30
0.0
  0
HATCH
  5
10C
330
107
100
AcDbEntity
  8
Layer 1
 62
   250
420
  2301728
100
AcDbHatch
 10
0.0
 20
0.0
 30
0.0
210
0.0
220
0.0
230
1.0
  2
SOLID
 70
     1
 71
     0
 91
        1
 92
        1
 93
        1
 72
     4
 94
        3
 73
     0
 74
     1
 95
       11
 96
        7
 40
0.0
 40
0.0
 40
0.0
 40
0.0
 40
1.0
 40
1.0
 40
1.0
 40
2.0
 40
2.0
 40
2.0
 40
2.0
 10
4.848288146640824
 20
6.789722195674092
 10
4.848288146640824
 20
6.754469237963171
 10
4.8081839834755
 20
6.759359356830259
 10
4.8081839834755
 20
6.795535859536799
 10
4.8081839834755
 20
6.831725333380922
 10
4.848288146640824
 20
6.819693306163079
 10
4.848288146640824
 20
6.789722195674092
 97
        0
 97
        0
 75
     2
 76
     1
 98
        0
  0
SPLINE
  5
10D
330
107
100
AcDbEntity
  8
Layer 1
 62
   250
420
  2301728
370
    20
100
AcDbSpline
210
0.0
220
0.0
230
1.0
 70
    11
 71
     3
 72
    11
 73
     7
 74
     0
 42
0.0000000001
 43
0.0000000001
 12
1.0
 22
0.0
 32
0.0
 13
1.0
 23
0.0
 33
0.0
 40
0.0
 40
0.0
 40
0.0
 40
0.0
 40
1.0
 40
1.0
 40
1.0
 40
2.0
 40
2.0
 40
2.0
 40
2.0
 10
4.836860574434139
 20
6.786479411279465
 30
0.0
 10
4.836860574434139
 20
6.751200511293367
 30
0.0
 10
4.796756411268815
 20
6.756090630160454
 30
0.0
 10
4.796756411268815
 20
6.792280104004576
 30
0.0
 10
4.796756411268815
 20
6.828456606711129
 30
0.0
 10
4.836860574434139
 20
6.816424579493273
 30
0.0
 10
4.836860574434139
 20
6.786479411279465
 30
0.0
  0
HATCH
  5
10E
330
107
100
AcDbEntity
  8
Layer 1
 62
     9
420
 12307926
100
AcDbHatch
 10
0.0
 20
0.0
 30
0.0
210
0.0
220
0.0
230
1.0
  2
SOLID
 70
     1
 71
     0
 91
        1
 92
        1
 93
        1
 72
     4
 94
        3
 73
     0
 74
     1
 95
       11
 96
        7
 40
0.0
 40
0.0
 40
0.0
 40
0.0
 40
1.0
 40
1.0
 40
1.0
 40
2.0
 40
2.0
 40
2.0
 40
2.0
 10
4.836860574434139
 20
6.786479411279465
 10
4.836860574434139
 20
6.751200511293367
 10
4.796756411268815
 20
6.756090630160454
 10
4.796756411268815
 20
6.792280104004576
 10
4.796756411268815
 20
6.828456606711129
 10
4.836860574434139
 20
6.816424579493273
 10
4.836860574434139
 20
6.786479411279465
 97
        0
 97
        0
 75
     2
 76
     1
 98
        0
  0
ENDBLK
  5
10A
330
107
100
AcDbEntity
  8
0
100
AcDbBlockEnd
  0
BLOCK
  5
111
330
10F
100
AcDbEntity
  8
0
100
AcDbBlockBegin
  2
block 6
 70
     0
 10
0.0
 20
0.0
 30
0.0
  3
block 6
  1

  0
SPLINE
  5
113
330
10F
100
AcDbEntity
  8
Layer 1
 62
   250
420
  2301728
370
    20
100
AcDbSpline
210
0.0
220
0.0
230
1.0
 70
    11
 71
     3
 72
    11
 73
     7
 74
     0
 42
0.0000000001
 43
0.0000000001
 12
1.0
 22
0.0
 32
0.0
 13
1.0
 23
0.0
 33
0.0
 40
0.0
 40
0.0
 40
0.0
 40
0.0
 40
1.0
 40
1.0
 40
1.0
 40
2.0
 40
2.0
 40
2.0
 40
2.0
 10
4.848288146640824
 20
8.539204376579454
 30
0.0
 10
4.848288146640824
 20
8.503951418868496
 30
0.0
 10
4.8081839834755
 20
8.50884153773561
 30
0.0
 10
4.8081839834755
 20
8.545018040442148
 30
0.0
 10
4.8081839834755
 20
8.581207514286284
 30
0.0
 10
4.848288146640824
 20
8.569175487068415
 30
0.0
 10
4.848288146640824
 20
8.539204376579454
 30
0.0
  0
HATCH
  5
114
330
10F
100
AcDbEntity
  8
Layer 1
 62
   250
420
  2301728
100
AcDbHatch
 10
0.0
 20
0.0
 30
0.0
210
0.0
220
0.0
230
1.0
  2
SOLID
 70
     1
 71
     0
 91
        1
 92
        1
 93
        1
 72
     4
 94
        3
 73
     0
 74
     1
 95
       11
 96
        7
 40
0.0
 40
0.0
 40
0.0
 40
0.0
 40
1.0
 40
1.0
 40
1.0
 40
2.0
 40
2.0
 40
2.0
 40
2.0
 10
4.848288146640824
 20
8.539204376579454
 10
4.848288146640824
 20
8.503951418868496
 10
4.8081839834755
 20
8.50884153773561
 10
4.8081839834755
 20
8.545018040442148
 10
4.8081839834755
 20
8.581207514286284
 10
4.848288146640824
 20
8.569175487068415
 10
4.848288146640824
 20
8.539204376579454
 97
        0
 97
        0
 75
     2
 76
     1
 98
        0
  0
SPLINE
  5
115
330
10F
100
AcDbEntity
  8
Layer 1
 62
   250
420
  2301728
370
    20
100
AcDbSpline
210
0.0
220
0.0
230
1.0
 70
    11
 71
     3
 72
    11
 73
     7
 74
     0
 42
0.0000000001
 43
0.0000000001
 12
1.0
 22
0.0
 32
0.0
 13
1.0
 23
0.0
 33
0.0
 40
0.0
 40
0.0
 40
0.0
 40
0.0
 40
1.0
 40
1.0
 40
1.0
 40
2.0
 40
2.0
 40
2.0
 40
2.0
 10
4.836860574434139
 20
8.535961592184814
 30
0.0
 10
4.836860574434139
 20
8.500682692198703
 30
0.0
 10
4.796756411268815
 20
8.505572811065816
 30
0.0
 10
4.796756411268815
 20
8.54176228490994
 30
0.0
 10
4.796756411268815
 20
8.577938787616478
 30
0.0
 10
4.836860574434139
 20
8.565906760398622
 30
0.0
 10
4.836860574434139
 20
8.535961592184814
 30
0.0
  0
HATCH
  5
116
330
10F
100
AcDbEntity
  8
Layer 1
 62
     9
420
 12307926
100
AcDbHatch
 10
0.0
 20
0.0
 30
0.0
210
0.0
220
0.0
230
1.0
  2
SOLID
 70
     1
 71
     0
 91
        1
 92
        1
 93
        1
 72
     4
 94
        3
 73
     0
 74
     1
 95
       11
 96
        7
 40
0.0
 40
0.0
 40
0.0
 40
0.0
 40
1.0
 40
1.0
 40
1.0
 40
2.0
 40
2.0
 40
2.0
 40
2.0
 10
4.836860574434139
 20
8.535961592184814
 10
4.836860574434139
 20
8.500682692198703
 10
4.796756411268815
 20
8.505572811065816
 10
4.796756411268815
 20
8.54176228490994
 10
4.796756411268815
 20
8.577938787616478
 10
4.836860574434139
 20
8.565906760398622
 10
4.836860574434139
 20
8.535961592184814
 97
        0
 97
        0
 75
     2
 76
     1
 98
        0
  0
ENDBLK
  5
112
330
10F
100
AcDbEntity
  8
0
100
AcDbBlockEnd
  0
BLOCK
  5
125
330
123
100
AcDbEntity
  8
0
100
AcDbBlockBegin
  2
block 7
 70
     0
 10
0.0
 20
0.0
 30
0.0
  3
block 7
  1

  0
SPLINE
  5
127
330
123
100
AcDbEntity
  8
Layer 1
 62
   250
420
  2301728
370
    13
100
AcDbSpline
210
0.0
220
0.0
230
1.0
 70
    11
 71
     3
 72
    17
 73
    13
 74
     0
 42
0.0000000001
 43
0.0000000001
 12
1.0
 22
0.0
 32
0.0
 13
1.0
 23
0.0
 33
0.0
 40
0.0
 40
0.0
 40
0.0
 40
0.0
 40
1.0
 40
1.0
 40
1.0
 40
2.0
 40
2.0
 40
2.0
 40
3.0
 40
3.0
 40
3.0
 40
4.0
 40
4.0
 40
4.0
 40
4.0
 10
4.584880210237618
 20
7.5565747702757
 30
0.0
 10
4.588450337131968
 20
7.5282140382862
 30
0.0
 10
4.609468942618832
 20
7.506411785177382
 30
0.0
 10
4.634927158264165
 20
7.506411785177382
 30
0.0
 10
4.661765102379755
 20
7.506411785177382
 30
0.0
 10
4.683669086620057
 20
7.530642869049554
 30
0.0
 10
4.685392157658953
 20
7.561254402322371
 30
0.0
 10
4.681806257523627
 20
7.589607186567226
 30
0.0
 10
4.660803425277764
 20
7.611401491931423
 30
0.0
 10
4.635361105121748
 20
7.611401491931423
 30
0.0
 10
4.608507265516866
 20
7.611401491931423
 30
0.0
 10
4.586588975336225
 20
7.587178355803858
 30
0.0
 10
4.584880210237618
 20
7.5565747702757
 30
0.0
  0
HATCH
  5
128
330
123
100
AcDbEntity
  8
Layer 1
 62
    43
420
 15444572
100
AcDbHatch
 10
0.0
 20
0.0
 30
0.0
210
0.0
220
0.0
230
1.0
  2
SOLID
 70
     1
 71
     0
 91
        1
 92
        1
 93
        1
 72
     4
 94
        3
 73
     0
 74
     1
 95
       17
 96
       13
 40
0.0
 40
0.0
 40
0.0
 40
0.0
 40
1.0
 40
1.0
 40
1.0
 40
2.0
 40
2.0
 40
2.0
 40
3.0
 40
3.0
 40
3.0
 40
4.0
 40
4.0
 40
4.0
 40
4.0
 10
4.584880210237618
 20
7.5565747702757
 10
4.588450337131968
 20
7.5282140382862
 10
4.609468942618832
 20
7.506411785177382
 10
4.634927158264165
 20
7.506411785177382
 10
4.661765102379755
 20
7.506411785177382
 10
4.683669086620057
 20
7.530642869049554
 10
4.685392157658953
 20
7.561254402322371
 10
4.681806257523627
 20
7.589607186567226
 10
4.660803425277764
 20
7.611401491931423
 10
4.635361105121748
 20
7.611401491931423
 10
4.608507265516866
 20
7.611401491931423
 10
4.586588975336225
 20
7.587178355803858
 10
4.584880210237618
 20
7.5565747702757
 97
        0
 97
        0
 75
     2
 76
     1
 98
        0
  0
INSERT
  5
12A
330
123
100
AcDbEntity
  8
Layer 1
100
AcDbBlockReference
  2
block 8
 10
0.0
 20
0.0
 30
0.0
  0
ENDBLK
  5
126
330
123
100
AcDbEntity
  8
0
100
AcDbBlockEnd
  0
BLOCK
  5
12B
330
129
100
AcDbEntity
  8
0
100
AcDbBlockBegin
  2
block 8
 70
     0
 10
0.0
 20
0.0
 30
0.0
  3
block 8
  1

  0
SPLINE
  5
12D
330
129
100
AcDbEntity
  8
Layer 1
 62
     7
420
 16777215
370
    13
100
AcDbSpline
210
0.0
220
0.0
230
1.0
 70
    11
 71
     3
 72
    17
 73
    13
 74
     0
 42
0.0000000001
 43
0.0000000001
 12
1.0
 22
0.0
 32
0.0
 13
1.0
 23
0.0
 33
0.0
 40
0.0
 40
0.0
 40
0.0
 40
0.0
 40
1.0
 40
1.0
 40
1.0
 40
2.0
 40
2.0
 40
2.0
 40
3.0
 40
3.0
 40
3.0
 40
4.0
 40
4.0
 40
4.0
 40
4.0
 10
4.635361105121748
 20
7.494024597161405
 30
0.0
 10
4.663318091683323
 20
7.494024597161405
 30
0.0
 10
4.685997775800868
 20
7.520304442815965
 30
0.0
 10
4.685997775800868
 20
7.552716935025248
 30
0.0
 10
4.685997775800868
 20
7.585127837685579
 30
0.0
 10
4.663318091683323
 20
7.611401491931423
 30
0.0
 10
4.635361105121748
 20
7.611401491931423
 30
0.0
 10
4.607388223070883
 20
7.611401491931423
 30
0.0
 10
4.584710128502238
 20
7.585127837685579
 30
0.0
 10
4.584710128502238
 20
7.552716935025248
 30
0.0
 10
4.584710128502238
 20
7.520304442815965
 30
0.0
 10
4.607388223070883
 20
7.494024597161405
 30
0.0
 10
4.635361105121748
 20
7.494024597161405
 30
0.0
  0
SPLINE
  5
12E
330
129
100
AcDbEntity
  8
Layer 1
 62
     7
420
 16777215
370
    13
100
AcDbSpline
210
0.0
220
0.0
230
1.0
 70
    11
 71
     3
 72
    17
 73
    13
 74
     0
 42
0.0000000001
 43
0.0000000001
 12
1.0
 22
0.0
 32
0.0
 13
1.0
 23
0.0
 33
0.0
 40
0.0
 40
0.0
 40
0.0
 40
0.0
 40
1.0
 40
1.0
 40
1.0
 40
2.0
 40
2.0
 40
2.0
 40
3.0
 40
3.0
 40
3.0
 40
4.0
 40
4.0
 40
4.0
 40
4.0
 10
4.584880210237618
 20
7.5565747702757
 30
0.0
 10
4.588450337131968
 20
7.5282140382862
 30
0.0
 10
4.609468942618832
 20
7.506411785177382
 30
0.0
 10
4.634927158264165
 20
7.506411785177382
 30
0.0
 10
4.661765102379755
 20
7.506411785177382
 30
0.0
 10
4.683669086620057
 20
7.530642869049554
 30
0.0
 10
4.685392157658953
 20
7.561254402322371
 30
0.0
 10
4.681806257523627
 20
7.589607186567226
 30
0.0
 10
4.660803425277764
 20
7.611401491931423
 30
0.0
 10
4.635361105121748
 20
7.611401491931423
 30
0.0
 10
4.608507265516866
 20
7.611401491931423
 30
0.0
 10
4.586588975336225
 20
7.587178355803858
 30
0.0
 10
4.584880210237618
 20
7.5565747702757
 30
0.0
  0
ENDBLK
  5
12C
330
129
100
AcDbEntity
  8
0
100
AcDbBlockEnd
  0
ENDSEC
  0
SECTION
  2
ENTITIES
  0
INSERT
  5
42
330
1F
100
AcDbEntity
  8
Layer 1
100
AcDbBlockReference
  2
block 2
 10
0.0
 20
0.0
 30
0.0
  0
INSERT
  5
124
330
1F
100
AcDbEntity
  8
Layer 1
100
AcDbBlockReference
  2
block 7
 10
0.0
 20
0.0
 30
0.0
  0
MTEXT
  5
130
330
1F
100
AcDbEntity
  8
callout
 62
   250
420
  2301728
100
AcDbMText
 10
3.745191256205241
 20
5.446829054090712
 30
0.0
 40
0.118
 41
0.0
 46
0.0
 71
     7
 72
     1
  1
\fHelvetica Neue LT Std 55 Roman|b0|i0|c0|p34;\W1;SIMPSON Strong-Tie\H0.068794;®\H0.118; ^C
 73
     1
 44
1.0
  0
MTEXT
  5
131
330
1F
100
AcDbEntity
  8
callout
 62
   250
420
  2301728
100
AcDbMText
 10
3.993977334764268
 20
5.246837192111545
 30
0.0
 40
0.118
 41
0.0
 46
0.0
 71
     7
 72
     1
  1
\fHelvetica Neue LT Std 55 Roman|b0|i0|c0|p34;\W1;LUS Installation 
 73
     1
 44
1.0
  0
MTEXT
  5
132
330
1F
100
AcDbEntity
  8
callout
 62
   250
420
  2236191
100
AcDbMText
 10
4.219971338907877
 20
5.867468092176649
 30
0.0
 40
0.118
 41
0.0
 46
0.0
 71
     7
 72
     1
  1
\fHelvetica Neue LT Std 57 Condensed|b0|i0|c0|p34;\W1;LUS46 / LUS36
 73
     1
 44
1.0
  0
POLYLINE
  5
133
330
1F
100
AcDbEntity
  8
callout
 62
   250
420
  2236191
370
    18
100
AcDb2dPolyline
 66
     1
 10
0.0
 20
0.0
 30
0.0
  0
VERTEX
  5
134
330
133
100
AcDbEntity
  8
callout
 62
   250
420
  2236191
370
    18
100
AcDbVertex
100
AcDb2dVertex
 10
4.664310719681857
 20
6.105496453900741
 30
0.0
  0
VERTEX
  5
135
330
133
100
AcDbEntity
  8
callout
 62
   250
420
  2236191
370
    18
100
AcDbVertex
100
AcDb2dVertex
 10
4.618839279900991
 20
6.575805394186558
 30
0.0
  0
SEQEND
  5
136
330
133
100
AcDbEntity
  8
callout
 62
   250
420
  2236191
370
    18
  0
MTEXT
  5
137
330
1F
100
AcDbEntity
  8
callout
 62
   250
420
  2236191
100
AcDbMText
 10
2.738096184200711
 20
6.379669507344564
 30
0.0
 40
0.118
 41
0.0
 46
0.0
 71
     7
 72
     1
  1
\fHelvetica Neue LT Std 57 Condensed|b0|i0|c0|p34;\W1;Joist
 73
     1
 44
1.0
  0
MTEXT
  5
138
330
1F
100
AcDbEntity
  8
callout
 62
   250
420
  2236191
100
AcDbMText
 10
5.455197016398111
 20
5.867464754316542
 30
0.0
 40
0.118
 41
0.0
 46
0.0
 71
     7
 72
     1
  1
\fHelvetica Neue LT Std 57 Condensed|b0|i0|c0|p34;\W1;Beam
 73
     1
 44
1.0
  0
POLYLINE
  5
139
330
1F
100
AcDbEntity
  8
callout
 62
   250
420
  2236191
370
    18
100
AcDb2dPolyline
 66
     1
 10
0.0
 20
0.0
 30
0.0
  0
VERTEX
  5
13A
330
139
100
AcDbEntity
  8
callout
 62
   250
420
  2236191
370
    18
100
AcDbVertex
100
AcDb2dVertex
 10
2.916371158392432
 20
6.554669030732864
 30
0.0
  0
VERTEX
  5
13B
330
139
100
AcDbEntity
  8
callout
 62
   250
420
  2236191
370
    18
100
AcDbVertex
100
AcDb2dVertex
 10
3.481754770473268
 20
6.802864439685638
 30
0.0
  0
SEQEND
  5
13C
330
139
100
AcDbEntity
  8
callout
 62
   250
420
  2236191
370
    18
  0
POLYLINE
  5
13D
330
1F
100
AcDbEntity
  8
callout
 62
   250
420
  2236191
370
    18
100
AcDb2dPolyline
 66
     1
 10
0.0
 20
0.0
 30
0.0
  0
VERTEX
  5
13E
330
13D
100
AcDbEntity
  8
callout
 62
   250
420
  2236191
370
    18
100
AcDbVertex
100
AcDb2dVertex
 10
5.597222222222222
 20
6.058215130023667
 30
0.0
  0
VERTEX
  5
13F
330
13D
100
AcDbEntity
  8
callout
 62
   250
420
  2236191
370
    18
100
AcDbVertex
100
AcDb2dVertex
 10
5.519814394636342
 20
6.368383687182156
 30
0.0
  0
SEQEND
  5
140
330
13D
100
AcDbEntity
  8
callout
 62
   250
420
  2236191
370
    18
  0
ENDSEC
  0
SECTION
  2
OBJECTS
  0
DICTIONARY
  5
C
330
0
100
AcDbDictionary
281
     1
  3
ACAD_GROUP
350
D
  3
ACAD_LAYOUT
350
1A
  3
ACAD_MATERIAL
350
3B
  3
ACAD_MLEADERSTYLE
350
145
  3
ACAD_MLINESTYLE
350
17
  3
ACAD_PLOTSETTINGS
350
19
  3
ACAD_PLOTSTYLENAME
350
E
  3
ACAD_TABLESTYLE
350
144
  3
ACAD_VISUALSTYLE
350
2A
  0
SUN
  5
3F
330
29
100
AcDbSun
 90
        1
290
     0
 63
     7
421
 16777215
 40
1.0
291
     1
 91
  2455826
 92
 54000000
292
     0
 70
     2
 71
   256
280
     1
  0
DICTIONARY
  5
D
102
{ACAD_REACTORS
330
C
102
}
330
C
100
AcDbDictionary
281
     1
  0
DICTIONARY
  5
1A
102
{ACAD_REACTORS
330
C
102
}
330
C
100
AcDbDictionary
281
     1
  3
Layout1
350
1E
  3
Layout2
350
26
  3
Model
350
22
  0
DICTIONARY
  5
3B
102
{ACAD_REACTORS
330
C
102
}
330
C
100
AcDbDictionary
281
     1
  3
ByBlock
350
3D
  3
ByLayer
350
3C
  3
Global
350
3E
  0
DICTIONARY
  5
145
102
{ACAD_REACTORS
330
C
102
}
330
C
100
AcDbDictionary
281
     1
  0
DICTIONARY
  5
17
102
{ACAD_REACTORS
330
C
102
}
330
C
100
AcDbDictionary
281
     1
  3
Standard
350
18
  0
DICTIONARY
  5
19
102
{ACAD_REACTORS
330
C
102
}
330
C
100
AcDbDictionary
281
     1
  0
ACDBDICTIONARYWDFLT
  5
E
102
{ACAD_REACTORS
330
C
102
}
330
C
100
AcDbDictionary
281
     1
  3
Normal
350
F
100
AcDbDictionaryWithDefault
340
F
  0
DICTIONARY
  5
144
102
{ACAD_REACTORS
330
C
102
}
330
C
100
AcDbDictionary
281
     1
  0
DICTIONARY
  5
2A
102
{ACAD_REACTORS
330
C
102
}
330
C
100
AcDbDictionary
281
     1
  3
2dWireframe
350
2F
  3
3D Hidden
350
31
  3
3dWireframe
350
30
  3
Basic
350
32
  3
Brighten
350
36
  3
ColorChange
350
3A
  3
Conceptual
350
34
  3
Dim
350
35
  3
Facepattern
350
39
  3
Flat
350
2B
  3
FlatWithEdges
350
2C
  3
Gouraud
350
2D
  3
GouraudWithEdges
350
2E
  3
Linepattern
350
38
  3
Realistic
350
33
  3
Thicken
350
37
  0
LAYOUT
  5
1E
102
{ACAD_REACTORS
330
1A
102
}
330
1A
100
AcDbPlotSettings
  1

  2
none_device
  4

  6

 40
0.0
 41
0.0
 42
0.0
 43
0.0
 44
0.0
 45
0.0
 46
0.0
 47
0.0
 48
0.0
 49
0.0
140
0.0
141
0.0
142
1.0
143
1.0
 70
   688
 72
     0
 73
     0
 74
     5
  7

 75
    16
 76
     0
 77
     2
 78
   300
147
1.0
148
0.0
149
0.0
100
AcDbLayout
  1
Layout1
 70
     1
 71
     1
 10
0.0
 20
0.0
 11
12.0
 21
9.0
 12
0.0
 22
0.0
 32
0.0
 14
1.000000000000000E+20
 24
1.000000000000000E+20
 34
1.000000000000000E+20
 15
-1.000000000000000E+20
 25
-1.000000000000000E+20
 35
-1.000000000000000E+20
146
0.0
 13
0.0
 23
0.0
 33
0.0
 16
1.0
 26
0.0
 36
0.0
 17
0.0
 27
1.0
 37
0.0
 76
     0
330
1B
  0
LAYOUT
  5
26
102
{ACAD_REACTORS
330
1A
102
}
330
1A
100
AcDbPlotSettings
  1

  2
none_device
  4

  6

 40
0.0
 41
0.0
 42
0.0
 43
0.0
 44
0.0
 45
0.0
 46
0.0
 47
0.0
 48
0.0
 49
0.0
140
0.0
141
0.0
142
1.0
143
1.0
 70
   688
 72
     0
 73
     0
 74
     5
  7

 75
    16
 76
     0
 77
     2
 78
   300
147
1.0
148
0.0
149
0.0
100
AcDbLayout
  1
Layout2
 70
     1
 71
     2
 10
0.0
 20
0.0
 11
0.0
 21
0.0
 12
0.0
 22
0.0
 32
0.0
 14
0.0
 24
0.0
 34
0.0
 15
0.0
 25
0.0
 35
0.0
146
0.0
 13
0.0
 23
0.0
 33
0.0
 16
1.0
 26
0.0
 36
0.0
 17
0.0
 27
1.0
 37
0.0
 76
     0
330
23
  0
LAYOUT
  5
22
102
{ACAD_REACTORS
330
1A
102
}
330
1A
100
AcDbPlotSettings
  1

  2
none_device
  4

  6

 40
0.0
 41
0.0
 42
0.0
 43
0.0
 44
0.0
 45
0.0
 46
0.0
 47
0.0
 48
0.0
 49
0.0
140
0.0
141
0.0
142
1.0
143
1.0
 70
  1712
 72
     0
 73
     0
 74
     0
  7

 75
     0
 76
     0
 77
     2
 78
   300
147
1.0
148
0.0
149
0.0
100
AcDbLayout
  1
Model
 70
     1
 71
     0
 10
0.0
 20
0.0
 11
12.0
 21
9.0
 12
0.0
 22
0.0
 32
0.0
 14
1.000000000000000E+20
 24
1.000000000000000E+20
 34
1.000000000000000E+20
 15
-1.000000000000000E+20
 25
-1.000000000000000E+20
 35
-1.000000000000000E+20
146
0.0
 13
0.0
 23
0.0
 33
0.0
 16
1.0
 26
0.0
 36
0.0
 17
0.0
 27
1.0
 37
0.0
 76
     0
330
1F
331
29
  0
MATERIAL
  5
3D
102
{ACAD_REACTORS
330
3B
102
}
330
3B
100
AcDbMaterial
  1
ByBlock
 72
     1
 94
      127
  0
MATERIAL
  5
3C
102
{ACAD_REACTORS
330
3B
102
}
330
3B
100
AcDbMaterial
  1
ByLayer
 72
     1
 94
      127
  0
MATERIAL
  5
3E
102
{ACAD_REACTORS
330
3B
102
}
330
3B
100
AcDbMaterial
  1
Global
 72
     1
 94
      127
  0
MLINESTYLE
  5
18
102
{ACAD_REACTORS
330
17
102
}
330
17
100
AcDbMlineStyle
  2
Standard
 70
     0
  3

 62
   256
 51
90.0
 52
90.0
 71
     2
 49
0.5
 62
   256
  6
BYLAYER
 49
-0.5
 62
   256
  6
BYLAYER
  0
ACDBPLACEHOLDER
  5
F
102
{ACAD_REACTORS
330
E
102
}
330
E
  0
VISUALSTYLE
  5
2F
102
{ACAD_REACTORS
330
2A
102
}
330
2A
100
AcDbVisualStyle
  2
2dWireframe
 70
     4
177
     2
291
     0
 71
     0
176
     1
 72
     2
176
     1
 73
     0
176
     1
 90
        0
176
     1
 40
-0.6
176
     1
 41
-30.0
176
     1
 62
     5
 63
     7
421
 16777215
176
     1
 74
     1
176
     1
 91
        4
176
     1
 64
     7
176
     1
 65
   257
176
     1
 75
     1
176
     1
175
     1
176
     1
 42
1.0
176
     1
 92
        0
176
     1
 66
   257
176
     1
 43
1.0
176
     1
 76
     1
176
     1
 77
     6
176
     1
 78
     2
176
     1
 67
     7
176
     1
 79
     5
176
     1
170
     0
176
     1
171
     0
176
     1
290
     0
176
     1
 93
        1
176
     1
 44
0.0
176
     1
173
     0
176
     1
  0
VISUALSTYLE
  5
31
102
{ACAD_REACTORS
330
2A
102
}
330
2A
100
AcDbVisualStyle
  2
3D Hidden
 70
     6
177
     2
291
     0
 71
     1
176
     1
 72
     2
176
     1
 73
     2
176
     1
 90
        0
176
     1
 40
-0.6
176
     1
 41
-30.0
176
     1
 62
     5
 63
     7
421
 16777215
176
     1
 74
     2
176
     1
 91
        2
176
     1
 64
     7
176
     1
 65
   257
176
     1
 75
     2
176
     1
175
     1
176
     1
 42
40.0
176
     1
 92
        0
176
     1
 66
   257
176
     1
 43
1.0
176
     1
 76
     1
176
     1
 77
     6
176
     1
 78
     2
176
     1
 67
     7
176
     1
 79
     3
176
     1
170
     0
176
     1
171
     0
176
     1
290
     0
176
     1
 93
        1
176
     1
 44
0.0
176
     1
173
     0
176
     1
  0
VISUALSTYLE
  5
30
102
{ACAD_REACTORS
330
2A
102
}
330
2A
100
AcDbVisualStyle
  2
3dWireframe
 70
     5
177
     2
291
     0
 71
     0
176
     1
 72
     2
176
     1
 73
     0
176
     1
 90
        0
176
     1
 40
-0.6
176
     1
 41
-30.0
176
     1
 62
     5
 63
     7
421
 16777215
176
     1
 74
     1
176
     1
 91
        4
176
     1
 64
     7
176
     1
 65
   257
176
     1
 75
     1
176
     1
175
     1
176
     1
 42
1.0
176
     1
 92
        0
176
     1
 66
   257
176
     1
 43
1.0
176
     1
 76
     1
176
     1
 77
     6
176
     1
 78
     2
176
     1
 67
     7
176
     1
 79
     5
176
     1
170
     0
176
     1
171
     0
176
     1
290
     0
176
     1
 93
        1
176
     1
 44
0.0
176
     1
173
     0
176
     1
  0
VISUALSTYLE
  5
32
102
{ACAD_REACTORS
330
2A
102
}
330
2A
100
AcDbVisualStyle
  2
Basic
 70
     7
177
     2
291
     1
 71
     1
176
     1
 72
     0
176
     1
 73
     1
176
     1
 90
        0
176
     1
 40
-0.6
176
     1
 41
-30.0
176
     1
 62
     5
 63
     7
421
 16777215
176
     1
 74
     0
176
     1
 91
        4
176
     1
 64
     7
176
     1
 65
   257
176
     1
 75
     1
176
     1
175
     1
176
     1
 42
1.0
176
     1
 92
        8
176
     1
 66
     7
176
     1
 43
1.0
176
     1
 76
     1
176
     1
 77
     6
176
     1
 78
     2
176
     1
 67
     7
176
     1
 79
     5
176
     1
170
     0
176
     1
171
     0
176
     1
290
     0
176
     1
 93
        1
176
     1
 44
0.0
176
     1
173
     0
176
     1
  0
VISUALSTYLE
  5
36
102
{ACAD_REACTORS
330
2A
102
}
330
2A
100
AcDbVisualStyle
  2
Brighten
 70
    12
177
     2
291
     1
 71
     2
176
     1
 72
     2
176
     1
 73
     0
176
     1
 90
        0
176
     1
 40
-0.6
176
     1
 41
-30.0
176
     1
 62
     5
 63
     7
421
 16777215
176
     1
 74
     1
176
     1
 91
        4
176
     1
 64
     7
176
     1
 65
   257
176
     1
 75
     1
176
     1
175
     1
176
     1
 42
1.0
176
     1
 92
        8
176
     1
 66
     7
176
     1
 43
1.0
176
     1
 76
     1
176
     1
 77
     6
176
     1
 78
     2
176
     1
 67
     7
176
     1
 79
     5
176
     1
170
     0
176
     1
171
     0
176
     1
290
     0
176
     1
 93
        1
176
     1
 44
50.0
176
     1
173
     0
176
     1
  0
VISUALSTYLE
  5
3A
102
{ACAD_REACTORS
330
2A
102
}
330
2A
100
AcDbVisualStyle
  2
ColorChange
 70
    16
177
     2
291
     1
 71
     2
176
     1
 72
     2
176
     1
 73
     3
176
     1
 90
        0
176
     1
 40
-0.6
176
     1
 41
-30.0
176
     1
 62
     5
 63
     8
421
  8421504
176
     1
 74
     1
176
     1
 91
        4
176
     1
 64
     7
176
     1
 65
   257
176
     1
 75
     1
176
     1
175
     1
176
     1
 42
1.0
176
     1
 92
        8
176
     1
 66
     8
424
  8421504
176
     1
 43
1.0
176
     1
 76
     1
176
     1
 77
     6
176
     1
 78
     2
176
     1
 67
     7
176
     1
 79
     5
176
     1
170
     0
176
     1
171
     0
176
     1
290
     0
176
     1
 93
        1
176
     1
 44
0.0
176
     1
173
     0
176
     1
  0
VISUALSTYLE
  5
34
102
{ACAD_REACTORS
330
2A
102
}
330
2A
100
AcDbVisualStyle
  2
Conceptual
 70
     9
177
     2
291
     0
 71
     3
176
     1
 72
     2
176
     1
 73
     0
176
     1
 90
        0
176
     1
 40
-0.6
176
     1
 41
-30.0
176
     1
 62
     5
 63
     7
421
 16777215
176
     1
 74
     2
176
     1
 91
        2
176
     1
 64
     7
176
     1
 65
   257
176
     1
 75
     1
176
     1
175
     1
176
     1
 42
40.0
176
     1
 92
        8
176
     1
 66
     7
176
     1
 43
1.0
176
     1
 76
     1
176
     1
 77
     6
176
     1
 78
     2
176
     1
 67
     7
176
     1
 79
     3
176
     1
170
     0
176
     1
171
     0
176
     1
290
     0
176
     1
 93
        1
176
     1
 44
0.0
176
     1
173
     0
176
     1
  0
VISUALSTYLE
  5
35
102
{ACAD_REACTORS
330
2A
102
}
330
2A
100
AcDbVisualStyle
  2
Dim
 70
    11
177
     2
291
     1
 71
     2
176
     1
 72
     2
176
     1
 73
     0
176
     1
 90
        0
176
     1
 40
-0.6
176
     1
 41
-30.0
176
     1
 62
     5
 63
     7
421
 16777215
176
     1
 74
     1
176
     1
 91
        4
176
     1
 64
     7
176
     1
 65
   257
176
     1
 75
     1
176
     1
175
     1
176
     1
 42
1.0
176
     1
 92
        8
176
     1
 66
     7
176
     1
 43
1.0
176
     1
 76
     1
176
     1
 77
     6
176
     1
 78
     2
176
     1
 67
     7
176
     1
 79
     5
176
     1
170
     0
176
     1
171
     0
176
     1
290
     0
176
     1
 93
        1
176
     1
 44
-50.0
176
     1
173
     0
176
     1
  0
VISUALSTYLE
  5
39
102
{ACAD_REACTORS
330
2A
102
}
330
2A
100
AcDbVisualStyle
  2
Facepattern
 70
    15
177
     2
291
     1
 71
     2
176
     1
 72
     2
176
     1
 73
     0
176
     1
 90
        0
176
     1
 40
-0.6
176
     1
 41
-30.0
176
     1
 62
     5
 63
     7
421
 16777215
176
     1
 74
     1
176
     1
 91
        4
176
     1
 64
     7
176
     1
 65
   257
176
     1
 75
     1
176
     1
175
     1
176
     1
 42
1.0
176
     1
 92
        8
176
     1
 66
     7
176
     1
 43
1.0
176
     1
 76
     1
176
     1
 77
     6
176
     1
 78
     2
176
     1
 67
     7
176
     1
 79
     5
176
     1
170
     0
176
     1
171
     0
176
     1
290
     0
176
     1
 93
        1
176
     1
 44
0.0
176
     1
173
     0
176
     1
  0
VISUALSTYLE
  5
2B
102
{ACAD_REACTORS
330
2A
102
}
330
2A
100
AcDbVisualStyle
  2
Flat
 70
     0
177
     2
291
     1
 71
     2
176
     1
 72
     1
176
     1
 73
     1
176
     1
 90
        2
176
     1
 40
-0.6
176
     1
 41
30.0
176
     1
 62
     5
 63
     7
421
 16777215
176
     1
 74
     0
176
     1
 91
        4
176
     1
 64
     7
176
     1
 65
   257
176
     1
 75
     1
176
     1
175
     1
176
     1
 42
1.0
176
     1
 92
        8
176
     1
 66
     7
176
     1
 43
1.0
176
     1
 76
     1
176
     1
 77
     6
176
     1
 78
     2
176
     1
 67
     7
176
     1
 79
     5
176
     1
170
     0
176
     1
171
     0
176
     1
290
     0
176
     1
 93
       13
176
     1
 44
0.0
176
     1
173
     0
176
     1
  0
VISUALSTYLE
  5
2C
102
{ACAD_REACTORS
330
2A
102
}
330
2A
100
AcDbVisualStyle
  2
FlatWithEdges
 70
     1
177
     2
291
     1
 71
     2
176
     1
 72
     1
176
     1
 73
     1
176
     1
 90
        2
176
     1
 40
-0.6
176
     1
 41
30.0
176
     1
 62
     5
 63
     7
421
 16777215
176
     1
 74
     1
176
     1
 91
        4
176
     1
 64
     7
176
     1
 65
   257
176
     1
 75
     1
176
     1
175
     1
176
     1
 42
1.0
176
     1
 92
        0
176
     1
 66
   257
176
     1
 43
1.0
176
     1
 76
     1
176
     1
 77
     6
176
     1
 78
     2
176
     1
 67
     7
176
     1
 79
     5
176
     1
170
     0
176
     1
171
     0
176
     1
290
     0
176
     1
 93
       13
176
     1
 44
0.0
176
     1
173
     0
176
     1
  0
VISUALSTYLE
  5
2D
102
{ACAD_REACTORS
330
2A
102
}
330
2A
100
AcDbVisualStyle
  2
Gouraud
 70
     2
177
     2
291
     1
 71
     2
176
     1
 72
     2
176
     1
 73
     1
176
     1
 90
        2
176
     1
 40
-0.6
176
     1
 41
30.0
176
     1
 62
     5
 63
     7
421
 16777215
176
     1
 74
     0
176
     1
 91
        4
176
     1
 64
     7
176
     1
 65
   257
176
     1
 75
     1
176
     1
175
     1
176
     1
 42
1.0
176
     1
 92
        0
176
     1
 66
     7
176
     1
 43
1.0
176
     1
 76
     1
176
     1
 77
     6
176
     1
 78
     2
176
     1
 67
     7
176
     1
 79
     5
176
     1
170
     0
176
     1
171
     0
176
     1
290
     0
176
     1
 93
       13
176
     1
 44
0.0
176
     1
173
     0
176
     1
  0
VISUALSTYLE
  5
2E
102
{ACAD_REACTORS
330
2A
102
}
330
2A
100
AcDbVisualStyle
  2
GouraudWithEdges
 70
     3
177
     2
291
     1
 71
     2
176
     1
 72
     2
176
     1
 73
     1
176
     1
 90
        2
176
     1
 40
-0.6
176
     1
 41
30.0
176
     1
 62
     5
 63
     7
421
 16777215
176
     1
 74
     1
176
     1
 91
        4
176
     1
 64
     7
176
     1
 65
   257
176
     1
 75
     1
176
     1
175
     1
176
     1
 42
1.0
176
     1
 92
        0
176
     1
 66
   257
176
     1
 43
1.0
176
     1
 76
     1
176
     1
 77
     6
176
     1
 78
     2
176
     1
 67
     7
176
     1
 79
     5
176
     1
170
     0
176
     1
171
     0
176
     1
290
     0
176
     1
 93
       13
176
     1
 44
0.0
176
     1
173
     0
176
     1
  0
VISUALSTYLE
  5
38
102
{ACAD_REACTORS
330
2A
102
}
330
2A
100
AcDbVisualStyle
  2
Linepattern
 70
    14
177
     2
291
     1
 71
     2
176
     1
 72
     2
176
     1
 73
     0
176
     1
 90
        0
176
     1
 40
-0.6
176
     1
 41
-30.0
176
     1
 62
     5
 63
     7
421
 16777215
176
     1
 74
     1
176
     1
 91
        4
176
     1
 64
     7
176
     1
 65
   257
176
     1
 75
     7
176
     1
175
     7
176
     1
 42
1.0
176
     1
 92
        8
176
     1
 66
     7
176
     1
 43
1.0
176
     1
 76
     1
176
     1
 77
     6
176
     1
 78
     2
176
     1
 67
     7
176
     1
 79
     5
176
     1
170
     0
176
     1
171
     0
176
     1
290
     0
176
     1
 93
        1
176
     1
 44
0.0
176
     1
173
     0
176
     1
  0
VISUALSTYLE
  5
33
102
{ACAD_REACTORS
330
2A
102
}
330
2A
100
AcDbVisualStyle
  2
Realistic
 70
     8
177
     2
291
     0
 71
     2
176
     1
 72
     2
176
     1
 73
     0
176
     1
 90
        0
176
     1
 40
-0.6
176
     1
 41
-30.0
176
     1
 62
     5
 63
     7
421
 16777215
176
     1
 74
     1
176
     1
 91
        0
176
     1
 64
     7
176
     1
 65
   257
176
     1
 75
     1
176
     1
175
     1
176
     1
 42
1.0
176
     1
 92
        8
176
     1
 66
     8
424
  7895160
176
     1
 43
1.0
176
     1
 76
     1
176
     1
 77
     6
176
     1
 78
     2
176
     1
 67
     7
176
     1
 79
     5
176
     1
170
     0
176
     1
171
     0
176
     1
290
     0
176
     1
 93
       13
176
     1
 44
0.0
176
     1
173
     0
176
     1
  0
VISUALSTYLE
  5
37
102
{ACAD_REACTORS
330
2A
102
}
330
2A
100
AcDbVisualStyle
  2
Thicken
 70
    13
177
     2
291
     1
 71
     2
176
     1
 72
     2
176
     1
 73
     0
176
     1
 90
        0
176
     1
 40
-0.6
176
     1
 41
-30.0
176
     1
 62
     5
 63
     7
421
 16777215
176
     1
 74
     1
176
     1
 91
        4
176
     1
 64
     7
176
     1
 65
   257
176
     1
 75
     1
176
     1
175
     1
176
     1
 42
1.0
176
     1
 92
       12
176
     1
 66
     7
176
     1
 43
1.0
176
     1
 76
     1
176
     1
 77
     6
176
     1
 78
     2
176
     1
 67
     7
176
     1
 79
     5
176
     1
170
     0
176
     1
171
     0
176
     1
290
     0
176
     1
 93
        1
176
     1
 44
0.0
176
     1
173
     0
176
     1
  0
ENDSEC
  0
EOF
