  0
SECTION
  2
HEADER
  9
$ACADVER
  1
AC1024
  9
$ACADMAINTVER
 70
     6
  9
$DWGCODEPAGE
  3
ANSI_1252
  9
$INSBASE
 10
0.0
 20
0.0
 30
0.0
  9
$EXTMIN
 10
1.000000000000000E+20
 20
1.000000000000000E+20
 30
1.000000000000000E+20
  9
$EXTMAX
 10
-1.000000000000000E+20
 20
-1.000000000000000E+20
 30
-1.000000000000000E+20
  9
$LIMMIN
 10
0.0
 20
0.0
  9
$LIMMAX
 10
12.0
 20
9.0
  9
$ORTHOMODE
 70
     0
  9
$REGENMODE
 70
     1
  9
$FILLMODE
 70
     1
  9
$QTEXTMODE
 70
     0
  9
$MIRRTEXT
 70
     1
  9
$LTSCALE
 40
1.0
  9
$ATTMODE
 70
     1
  9
$TEXTSIZE
 40
0.2
  9
$TRACEWID
 40
0.05
  9
$TEXTSTYLE
  7
Standard
  9
$CLAYER
  8
0
  9
$CELTYPE
  6
ByLayer
  9
$CECOLOR
 62
   256
  9
$CELTSCALE
 40
1.0
  9
$DISPSILH
 70
     0
  9
$DIMSCALE
 40
1.0
  9
$DIMASZ
 40
0.18
  9
$DIMEXO
 40
0.0625
  9
$DIMDLI
 40
0.38
  9
$DIMRND
 40
0.0
  9
$DIMDLE
 40
0.0
  9
$DIMEXE
 40
0.18
  9
$DIMTP
 40
0.0
  9
$DIMTM
 40
0.0
  9
$DIMTXT
 40
0.18
  9
$DIMCEN
 40
0.09
  9
$DIMTSZ
 40
0.0
  9
$DIMTOL
 70
     0
  9
$DIMLIM
 70
     0
  9
$DIMTIH
 70
     1
  9
$DIMTOH
 70
     1
  9
$DIMSE1
 70
     0
  9
$DIMSE2
 70
     0
  9
$DIMTAD
 70
     0
  9
$DIMZIN
 70
     0
  9
$DIMBLK
  1

  9
$DIMASO
 70
     1
  9
$DIMSHO
 70
     1
  9
$DIMPOST
  1

  9
$DIMAPOST
  1

  9
$DIMALT
 70
     0
  9
$DIMALTD
 70
     2
  9
$DIMALTF
 40
25.4
  9
$DIMLFAC
 40
1.0
  9
$DIMTOFL
 70
     0
  9
$DIMTVP
 40
0.0
  9
$DIMTIX
 70
     0
  9
$DIMSOXD
 70
     0
  9
$DIMSAH
 70
     0
  9
$DIMBLK1
  1

  9
$DIMBLK2
  1

  9
$DIMSTYLE
  2
Standard
  9
$DIMCLRD
 70
     0
  9
$DIMCLRE
 70
     0
  9
$DIMCLRT
 70
     0
  9
$DIMTFAC
 40
1.0
  9
$DIMGAP
 40
0.09
  9
$DIMJUST
 70
     0
  9
$DIMSD1
 70
     0
  9
$DIMSD2
 70
     0
  9
$DIMTOLJ
 70
     1
  9
$DIMTZIN
 70
     0
  9
$DIMALTZ
 70
     0
  9
$DIMALTTZ
 70
     0
  9
$DIMUPT
 70
     0
  9
$DIMDEC
 70
     4
  9
$DIMTDEC
 70
     4
  9
$DIMALTU
 70
     2
  9
$DIMALTTD
 70
     2
  9
$DIMTXSTY
  7
Standard
  9
$DIMAUNIT
 70
     0
  9
$DIMADEC
 70
     0
  9
$DIMALTRND
 40
0.0
  9
$DIMAZIN
 70
     0
  9
$DIMDSEP
 70
    46
  9
$DIMATFIT
 70
     3
  9
$DIMFRAC
 70
     0
  9
$DIMLDRBLK
  1

  9
$DIMLUNIT
 70
     2
  9
$DIMLWD
 70
    -2
  9
$DIMLWE
 70
    -2
  9
$DIMTMOVE
 70
     0
  9
$DIMFXL
 40
1.0
  9
$DIMFXLON
 70
     0
  9
$DIMJOGANG
 40
0.7853981633974483
  9
$DIMTFILL
 70
     0
  9
$DIMTFILLCLR
 70
     0
  9
$DIMARCSYM
 70
     0
  9
$DIMLTYPE
  6

  9
$DIMLTEX1
  6

  9
$DIMLTEX2
  6

  9
$DIMTXTDIRECTION
 70
     0
  9
$LUNITS
 70
     2
  9
$LUPREC
 70
     4
  9
$SKETCHINC
 40
0.1
  9
$FILLETRAD
 40
0.5
  9
$AUNITS
 70
     0
  9
$AUPREC
 70
     0
  9
$MENU
  1
.
  9
$ELEVATION
 40
0.0
  9
$PELEVATION
 40
0.0
  9
$THICKNESS
 40
0.0
  9
$LIMCHECK
 70
     0
  9
$CHAMFERA
 40
0.5
  9
$CHAMFERB
 40
0.5
  9
$CHAMFERC
 40
1.0
  9
$CHAMFERD
 40
0.0
  9
$SKPOLY
 70
     0
  9
$TDCREATE
 40
2459044.412297454
  9
$TDUCREATE
 40
2459043.912297454
  9
$TDUPDATE
 40
2459044.412297581
  9
$TDUUPDATE
 40
2459043.912297581
  9
$TDINDWG
 40
0.0000000116
  9
$TDUSRTIMER
 40
0.0000000116
  9
$USRTIMER
 70
     1
  9
$ANGBASE
 50
0.0
  9
$ANGDIR
 70
     0
  9
$PDMODE
 70
     0
  9
$PDSIZE
 40
0.0
  9
$PLINEWID
 40
0.0
  9
$SPLFRAME
 70
     0
  9
$SPLINETYPE
 70
     6
  9
$SPLINESEGS
 70
     8
  9
$HANDSEED
  5
127
  9
$SURFTAB1
 70
     6
  9
$SURFTAB2
 70
     6
  9
$SURFTYPE
 70
     6
  9
$SURFU
 70
     6
  9
$SURFV
 70
     6
  9
$UCSBASE
  2

  9
$UCSNAME
  2

  9
$UCSORG
 10
0.0
 20
0.0
 30
0.0
  9
$UCSXDIR
 10
1.0
 20
0.0
 30
0.0
  9
$UCSYDIR
 10
0.0
 20
1.0
 30
0.0
  9
$UCSORTHOREF
  2

  9
$UCSORTHOVIEW
 70
     0
  9
$UCSORGTOP
 10
0.0
 20
0.0
 30
0.0
  9
$UCSORGBOTTOM
 10
0.0
 20
0.0
 30
0.0
  9
$UCSORGLEFT
 10
0.0
 20
0.0
 30
0.0
  9
$UCSORGRIGHT
 10
0.0
 20
0.0
 30
0.0
  9
$UCSORGFRONT
 10
0.0
 20
0.0
 30
0.0
  9
$UCSORGBACK
 10
0.0
 20
0.0
 30
0.0
  9
$PUCSBASE
  2

  9
$PUCSNAME
  2

  9
$PUCSORG
 10
0.0
 20
0.0
 30
0.0
  9
$PUCSXDIR
 10
1.0
 20
0.0
 30
0.0
  9
$PUCSYDIR
 10
0.0
 20
1.0
 30
0.0
  9
$PUCSORTHOREF
  2

  9
$PUCSORTHOVIEW
 70
     0
  9
$PUCSORGTOP
 10
0.0
 20
0.0
 30
0.0
  9
$PUCSORGBOTTOM
 10
0.0
 20
0.0
 30
0.0
  9
$PUCSORGLEFT
 10
0.0
 20
0.0
 30
0.0
  9
$PUCSORGRIGHT
 10
0.0
 20
0.0
 30
0.0
  9
$PUCSORGFRONT
 10
0.0
 20
0.0
 30
0.0
  9
$PUCSORGBACK
 10
0.0
 20
0.0
 30
0.0
  9
$USERI1
 70
     0
  9
$USERI2
 70
     0
  9
$USERI3
 70
     0
  9
$USERI4
 70
     0
  9
$USERI5
 70
     0
  9
$USERR1
 40
0.0
  9
$USERR2
 40
0.0
  9
$USERR3
 40
0.0
  9
$USERR4
 40
0.0
  9
$USERR5
 40
0.0
  9
$WORLDVIEW
 70
     1
  9
$SHADEDGE
 70
     3
  9
$SHADEDIF
 70
    70
  9
$TILEMODE
 70
     1
  9
$MAXACTVP
 70
    64
  9
$PINSBASE
 10
0.0
 20
0.0
 30
0.0
  9
$PLIMCHECK
 70
     0
  9
$PEXTMIN
 10
1.000000000000000E+20
 20
1.000000000000000E+20
 30
1.000000000000000E+20
  9
$PEXTMAX
 10
-1.000000000000000E+20
 20
-1.000000000000000E+20
 30
-1.000000000000000E+20
  9
$PLIMMIN
 10
0.0
 20
0.0
  9
$PLIMMAX
 10
12.0
 20
9.0
  9
$UNITMODE
 70
     0
  9
$VISRETAIN
 70
     1
  9
$PLINEGEN
 70
     0
  9
$PSLTSCALE
 70
     1
  9
$TREEDEPTH
 70
  3020
  9
$CMLSTYLE
  2
Standard
  9
$CMLJUST
 70
     0
  9
$CMLSCALE
 40
1.0
  9
$PROXYGRAPHICS
 70
     1
  9
$MEASUREMENT
 70
     0
  9
$CELWEIGHT
370
    -1
  9
$ENDCAPS
280
     0
  9
$JOINSTYLE
280
     0
  9
$LWDISPLAY
290
     1
  9
$INSUNITS
 70
     0
  9
$HYPERLINKBASE
  1

  9
$STYLESHEET
  1

  9
$XEDIT
290
     1
  9
$CEPSNTYPE
380
     0
  9
$PSTYLEMODE
290
     1
  9
$FINGERPRINTGUID
  2
{55963E76-46C9-4743-93BC-7341F923085C}
  9
$VERSIONGUID
  2
{FAEB1C32-E019-11D5-929B-00C0DF256EC4}
  9
$EXTNAMES
290
     1
  9
$PSVPSCALE
 40
0.0
  9
$OLESTARTUP
290
     0
  9
$SORTENTS
280
   127
  9
$INDEXCTL
280
     0
  9
$HIDETEXT
280
     1
  9
$XCLIPFRAME
280
     2
  9
$HALOGAP
280
     0
  9
$OBSCOLOR
 70
   257
  9
$OBSLTYPE
280
     0
  9
$INTERSECTIONDISPLAY
280
     0
  9
$INTERSECTIONCOLOR
 70
   257
  9
$DIMASSOC
280
     2
  9
$PROJECTNAME
  1

  9
$CAMERADISPLAY
290
     0
  9
$LENSLENGTH
 40
50.0
  9
$CAMERAHEIGHT
 40
0.0
  9
$STEPSPERSEC
 40
2.0
  9
$STEPSIZE
 40
6.0
  9
$3DDWFPREC
 40
2.0
  9
$PSOLWIDTH
 40
0.25
  9
$PSOLHEIGHT
 40
4.0
  9
$LOFTANG1
 40
1.570796326794897
  9
$LOFTANG2
 40
1.570796326794897
  9
$LOFTMAG1
 40
0.0
  9
$LOFTMAG2
 40
0.0
  9
$LOFTPARAM
 70
     7
  9
$LOFTNORMALS
280
     1
  9
$LATITUDE
 40
37.795
  9
$LONGITUDE
 40
-122.394
  9
$NORTHDIRECTION
 40
0.0
  9
$TIMEZONE
 70
 -8000
  9
$LIGHTGLYPHDISPLAY
280
     1
  9
$TILEMODELIGHTSYNCH
280
     1
  9
$CMATERIAL
347
3C
  9
$SOLIDHIST
280
     1
  9
$SHOWHIST
280
     1
  9
$DWFFRAME
280
     2
  9
$DGNFRAME
280
     2
  9
$REALWORLDSCALE
290
     1
  9
$INTERFERECOLOR
 62
   256
  9
$CSHADOW
280
     0
  9
$SHADOWPLANELOCATION
 40
0.0
  0
ENDSEC
  0
SECTION
  2
CLASSES
  0
CLASS
  1
ACDBDICTIONARYWDFLT
  2
AcDbDictionaryWithDefault
  3
ObjectDBX Classes
 90
        0
 91
        4
280
     0
281
     0
  0
CLASS
  1
VISUALSTYLE
  2
AcDbVisualStyle
  3
ObjectDBX Classes
 90
     4095
 91
        4
280
     0
281
     0
  0
CLASS
  1
MATERIAL
  2
AcDbMaterial
  3
ObjectDBX Classes
 90
     1153
 91
        4
280
     0
281
     0
  0
CLASS
  1
SUN
  2
AcDbSun
  3
SCENEOE
 90
     1024
 91
        4
280
     0
281
     0
  0
ENDSEC
  0
SECTION
  2
TABLES
  0
TABLE
  2
VPORT
  5
8
330
0
100
AcDbSymbolTable
 70
     1
  0
VPORT
  5
29
330
8
100
AcDbSymbolTableRecord
100
AcDbViewportTableRecord
  2
*Active
 70
     0
 10
0.0
 20
0.0
 11
1.0
 21
1.0
 12
0.0
 22
0.0
 13
0.0
 23
0.0
 14
0.5
 24
0.5
 15
0.5
 25
0.5
 16
0.0
 26
0.0
 36
1.0
 17
276.4533659049412
 27
672.7259422199604
 37
0.0
 40
800.0
 41
1.0
 42
50.0
 43
0.0
 44
0.0
 50
0.0
 51
0.0
 71
     0
 72
   100
 73
     1
 74
     3
 75
     0
 76
     0
 77
     0
 78
     0
281
     0
 65
     1
110
0.0
120
0.0
130
0.0
111
1.0
121
0.0
131
0.0
112
0.0
122
1.0
132
0.0
 79
     0
146
0.0
 60
     3
 61
     5
292
     1
282
     1
141
0.0
142
0.0
 63
   250
361
3F
  0
ENDTAB
  0
TABLE
  2
LTYPE
  5
5
330
0
100
AcDbSymbolTable
 70
     2
  0
LTYPE
  5
14
330
5
100
AcDbSymbolTableRecord
100
AcDbLinetypeTableRecord
  2
ByBlock
 70
     0
  3

 72
    65
 73
     0
 40
0.0
  0
LTYPE
  5
15
330
5
100
AcDbSymbolTableRecord
100
AcDbLinetypeTableRecord
  2
ByLayer
 70
     0
  3

 72
    65
 73
     0
 40
0.0
  0
LTYPE
  5
16
330
5
100
AcDbSymbolTableRecord
100
AcDbLinetypeTableRecord
  2
Continuous
 70
     0
  3
Solid line
 72
    65
 73
     0
 40
0.0
  0
LTYPE
  5
85
330
5
100
AcDbSymbolTableRecord
100
AcDbLinetypeTableRecord
  2
AI-Linetype-1
 70
     0
  3
Adobe Illustrator Linetype No. 1
 72
    65
 73
     2
 40
6.0
 49
4.0
 74
     0
 49
-2.0
 74
     0
  0
ENDTAB
  0
TABLE
  2
LAYER
  5
2
330
0
100
AcDbSymbolTable
 70
     4
  0
LAYER
  5
10
330
2
100
AcDbSymbolTableRecord
100
AcDbLayerTableRecord
  2
0
 70
     0
 62
     7
  6
Continuous
370
    -3
390
F
347
3E
  0
LAYER
  5
40
330
2
100
AcDbSymbolTableRecord
100
AcDbLayerTableRecord
  2
Layer 2
 70
     0
 62
     7
  6
Continuous
370
    -3
390
F
347
3E
  0
LAYER
  5
90
330
2
100
AcDbSymbolTableRecord
100
AcDbLayerTableRecord
  2
LSSR
 70
     0
 62
     7
  6
Continuous
370
    -3
390
F
347
3E
  0
LAYER
  5
10E
330
2
100
AcDbSymbolTableRecord
100
AcDbLayerTableRecord
  2
Callouts
 70
     0
 62
     7
  6
Continuous
370
    -3
390
F
347
3E
  0
ENDTAB
  0
TABLE
  2
STYLE
  5
3
330
0
100
AcDbSymbolTable
 70
     1
  0
STYLE
  5
11
330
3
100
AcDbSymbolTableRecord
100
AcDbTextStyleTableRecord
  2
Standard
 70
     0
 40
0.0
 41
1.0
 50
0.0
 71
     0
 42
0.2
  3
txt
  4

  0
ENDTAB
  0
TABLE
  2
VIEW
  5
6
330
0
100
AcDbSymbolTable
 70
     0
  0
ENDTAB
  0
TABLE
  2
UCS
  5
7
330
0
100
AcDbSymbolTable
 70
     0
  0
ENDTAB
  0
TABLE
  2
APPID
  5
9
330
0
100
AcDbSymbolTable
 70
     1
  0
APPID
  5
12
330
9
100
AcDbSymbolTableRecord
100
AcDbRegAppTableRecord
  2
ACAD
 70
     0
  0
ENDTAB
  0
TABLE
  2
DIMSTYLE
  5
A
330
0
100
AcDbSymbolTable
 70
     1
100
AcDbDimStyleTable
  0
DIMSTYLE
105
27
330
A
100
AcDbSymbolTableRecord
100
AcDbDimStyleTableRecord
  2
Standard
 70
     0
178
     0
340
11
  0
ENDTAB
  0
TABLE
  2
BLOCK_RECORD
  5
1
330
0
100
AcDbSymbolTable
 70
    13
  0
BLOCK_RECORD
  5
1F
330
1
100
AcDbSymbolTableRecord
100
AcDbBlockTableRecord
  2
*Model_Space
340
22
 70
     0
280
     1
281
     0
  0
BLOCK_RECORD
  5
1B
330
1
100
AcDbSymbolTableRecord
100
AcDbBlockTableRecord
  2
*Paper_Space
340
1E
 70
     0
280
     1
281
     0
  0
BLOCK_RECORD
  5
23
330
1
100
AcDbSymbolTableRecord
100
AcDbBlockTableRecord
  2
*Paper_Space0
340
26
 70
     0
280
     1
281
     0
  0
BLOCK_RECORD
  5
41
330
1
100
AcDbSymbolTableRecord
100
AcDbBlockTableRecord
  2
block 2
340
0
102
{BLKREFS
331
42
102
}
 70
     0
280
     1
281
     0
  0
BLOCK_RECORD
  5
67
330
1
100
AcDbSymbolTableRecord
100
AcDbBlockTableRecord
  2
block 3
340
0
102
{BLKREFS
331
68
102
}
 70
     0
280
     1
281
     0
  0
BLOCK_RECORD
  5
91
330
1
100
AcDbSymbolTableRecord
100
AcDbBlockTableRecord
  2
block 4
340
0
102
{BLKREFS
331
92
102
}
 70
     0
280
     1
281
     0
  0
BLOCK_RECORD
  5
97
330
1
100
AcDbSymbolTableRecord
100
AcDbBlockTableRecord
  2
block 5
340
0
102
{BLKREFS
331
98
102
}
 70
     0
280
     1
281
     0
  0
BLOCK_RECORD
  5
A1
330
1
100
AcDbSymbolTableRecord
100
AcDbBlockTableRecord
  2
block 6
340
0
102
{BLKREFS
331
A2
102
}
 70
     0
280
     1
281
     0
  0
BLOCK_RECORD
  5
A5
330
1
100
AcDbSymbolTableRecord
100
AcDbBlockTableRecord
  2
block 7
340
0
102
{BLKREFS
331
A6
102
}
 70
     0
280
     1
281
     0
  0
BLOCK_RECORD
  5
B3
330
1
100
AcDbSymbolTableRecord
100
AcDbBlockTableRecord
  2
block 8
340
0
102
{BLKREFS
331
B4
102
}
 70
     0
280
     1
281
     0
  0
BLOCK_RECORD
  5
CF
330
1
100
AcDbSymbolTableRecord
100
AcDbBlockTableRecord
  2
block 9
340
0
102
{BLKREFS
331
D0
102
}
 70
     0
280
     1
281
     0
  0
BLOCK_RECORD
  5
D3
330
1
100
AcDbSymbolTableRecord
100
AcDbBlockTableRecord
  2
block 10
340
0
102
{BLKREFS
331
D4
102
}
 70
     0
280
     1
281
     0
  0
BLOCK_RECORD
  5
E0
330
1
100
AcDbSymbolTableRecord
100
AcDbBlockTableRecord
  2
block 11
340
0
102
{BLKREFS
331
E1
102
}
 70
     0
280
     1
281
     0
  0
BLOCK_RECORD
  5
E4
330
1
100
AcDbSymbolTableRecord
100
AcDbBlockTableRecord
  2
block 12
340
0
102
{BLKREFS
331
E5
102
}
 70
     0
280
     1
281
     0
  0
BLOCK_RECORD
  5
F2
330
1
100
AcDbSymbolTableRecord
100
AcDbBlockTableRecord
  2
block 13
340
0
102
{BLKREFS
331
F3
102
}
 70
     0
280
     1
281
     0
  0
ENDTAB
  0
ENDSEC
  0
SECTION
  2
BLOCKS
  0
BLOCK
  5
20
330
1F
100
AcDbEntity
  8
0
100
AcDbBlockBegin
  2
*Model_Space
 70
     0
 10
0.0
 20
0.0
 30
0.0
  3
*Model_Space
  1

  0
ENDBLK
  5
21
330
1F
100
AcDbEntity
  8
0
100
AcDbBlockEnd
  0
BLOCK
  5
1C
330
1B
100
AcDbEntity
 67
     1
  8
0
100
AcDbBlockBegin
  2
*Paper_Space
 70
     0
 10
0.0
 20
0.0
 30
0.0
  3
*Paper_Space
  1

  0
ENDBLK
  5
1D
330
1B
100
AcDbEntity
 67
     1
  8
0
100
AcDbBlockEnd
  0
BLOCK
  5
24
330
23
100
AcDbEntity
  8
0
100
AcDbBlockBegin
  2
*Paper_Space0
 70
     0
 10
0.0
 20
0.0
 30
0.0
  3
*Paper_Space0
  1

  0
ENDBLK
  5
25
330
23
100
AcDbEntity
  8
0
100
AcDbBlockEnd
  0
BLOCK
  5
43
330
41
100
AcDbEntity
  8
0
100
AcDbBlockBegin
  2
block 2
 70
     0
 10
0.0
 20
0.0
 30
0.0
  3
block 2
  1

  0
POLYLINE
  5
45
330
41
100
AcDbEntity
  8
Layer 2
 62
   250
420
  2301728
370
    25
100
AcDb2dPolyline
 66
     1
 10
0.0
 20
0.0
 30
0.0
  0
VERTEX
  5
46
330
45
100
AcDbEntity
  8
Layer 2
 62
   250
420
  2301728
370
    25
100
AcDbVertex
100
AcDb2dVertex
 10
48.96568156778721
 20
822.5884650657854
 30
0.0
  0
VERTEX
  5
47
330
45
100
AcDbEntity
  8
Layer 2
 62
   250
420
  2301728
370
    25
100
AcDbVertex
100
AcDb2dVertex
 10
48.96568156778721
 20
785.9036900043211
 30
0.0
  0
VERTEX
  5
48
330
45
100
AcDbEntity
  8
Layer 2
 62
   250
420
  2301728
370
    25
100
AcDbVertex
100
AcDb2dVertex
 10
39.46808510638402
 20
780.9380047128461
 30
0.0
  0
VERTEX
  5
49
330
45
100
AcDbEntity
  8
Layer 2
 62
   250
420
  2301728
370
    25
100
AcDbVertex
100
AcDb2dVertex
 10
58.05395174548357
 20
771.2708419436376
 30
0.0
  0
VERTEX
  5
4A
330
45
100
AcDbEntity
  8
Layer 2
 62
   250
420
  2301728
370
    25
100
AcDbVertex
100
AcDb2dVertex
 10
48.96568156778721
 20
766.0731720906651
 30
0.0
  0
VERTEX
  5
4B
330
45
100
AcDbEntity
  8
Layer 2
 62
   250
420
  2301728
370
    25
100
AcDbVertex
100
AcDb2dVertex
 10
48.96568156778721
 20
729.1501158203782
 30
0.0
  0
VERTEX
  5
4C
330
45
100
AcDbEntity
  8
Layer 2
 62
   250
420
  2301728
370
    25
100
AcDbVertex
100
AcDb2dVertex
 10
48.76101842593471
 20
729.1501158203782
 30
0.0
  0
VERTEX
  5
4D
330
45
100
AcDbEntity
  8
Layer 2
 62
   250
420
  2301728
370
    25
100
AcDbVertex
100
AcDb2dVertex
 10
491.3219072838638
 20
729.1501158203782
 30
0.0
  0
VERTEX
  5
4E
330
45
100
AcDbEntity
  8
Layer 2
 62
   250
420
  2301728
370
    25
100
AcDbVertex
100
AcDb2dVertex
 10
491.3219072838638
 20
766.0731720906651
 30
0.0
  0
VERTEX
  5
4F
330
45
100
AcDbEntity
  8
Layer 2
 62
   250
420
  2301728
370
    25
100
AcDbVertex
100
AcDb2dVertex
 10
500.4101774615629
 20
771.2708419436376
 30
0.0
  0
VERTEX
  5
50
330
45
100
AcDbEntity
  8
Layer 2
 62
   250
420
  2301728
370
    25
100
AcDbVertex
100
AcDb2dVertex
 10
481.8243108224597
 20
780.9380047128461
 30
0.0
  0
VERTEX
  5
51
330
45
100
AcDbEntity
  8
Layer 2
 62
   250
420
  2301728
370
    25
100
AcDbVertex
100
AcDb2dVertex
 10
491.3219072838638
 20
785.9036900043211
 30
0.0
  0
VERTEX
  5
52
330
45
100
AcDbEntity
  8
Layer 2
 62
   250
420
  2301728
370
    25
100
AcDbVertex
100
AcDb2dVertex
 10
491.3219072838638
 20
822.5884650657854
 30
0.0
  0
VERTEX
  5
53
330
45
100
AcDbEntity
  8
Layer 2
 62
   250
420
  2301728
370
    25
100
AcDbVertex
100
AcDb2dVertex
 10
48.76101842593471
 20
822.5884650657854
 30
0.0
  0
VERTEX
  5
54
330
45
100
AcDbEntity
  8
Layer 2
 62
   250
420
  2301728
370
    25
100
AcDbVertex
100
AcDb2dVertex
 10
48.96568156778721
 20
822.5884650657854
 30
0.0
  0
SEQEND
  5
56
330
45
100
AcDbEntity
  8
Layer 2
 62
   250
420
  2301728
370
    25
  0
HATCH
  5
55
330
41
100
AcDbEntity
  8
Layer 2
 62
    43
420
 15510364
100
AcDbHatch
 10
0.0
 20
0.0
 30
0.0
210
0.0
220
0.0
230
1.0
  2
SOLID
 70
     1
 71
     0
 91
        1
 92
        1
 93
       14
 72
     1
 10
48.96568156778721
 20
822.5884650657854
 11
48.96568156778721
 21
785.9036900043211
 72
     1
 10
48.96568156778721
 20
785.9036900043211
 11
39.46808510638402
 21
780.9380047128461
 72
     1
 10
39.46808510638402
 20
780.9380047128461
 11
58.05395174548357
 21
771.2708419436376
 72
     1
 10
58.05395174548357
 20
771.2708419436376
 11
48.96568156778721
 21
766.0731720906651
 72
     1
 10
48.96568156778721
 20
766.0731720906651
 11
48.96568156778721
 21
729.1501158203782
 72
     1
 10
48.96568156778721
 20
729.1501158203782
 11
48.76101842593471
 21
729.1501158203782
 72
     1
 10
48.76101842593471
 20
729.1501158203782
 11
491.3219072838638
 21
729.1501158203782
 72
     1
 10
491.3219072838638
 20
729.1501158203782
 11
491.3219072838638
 21
766.0731720906651
 72
     1
 10
491.3219072838638
 20
766.0731720906651
 11
500.4101774615629
 21
771.2708419436376
 72
     1
 10
500.4101774615629
 20
771.2708419436376
 11
481.8243108224597
 21
780.9380047128461
 72
     1
 10
481.8243108224597
 20
780.9380047128461
 11
491.3219072838638
 21
785.9036900043211
 72
     1
 10
491.3219072838638
 20
785.9036900043211
 11
491.3219072838638
 21
822.5884650657854
 72
     1
 10
491.3219072838638
 20
822.5884650657854
 11
48.76101842593471
 21
822.5884650657854
 72
     1
 10
48.76101842593471
 20
822.5884650657854
 11
48.96568156778721
 21
822.5884650657854
 97
        0
 75
     2
 76
     1
 98
        0
  0
ENDBLK
  5
44
330
41
100
AcDbEntity
  8
0
100
AcDbBlockEnd
  0
BLOCK
  5
69
330
67
100
AcDbEntity
  8
0
100
AcDbBlockBegin
  2
block 3
 70
     0
 10
0.0
 20
0.0
 30
0.0
  3
block 3
  1

  0
POLYLINE
  5
6B
330
67
100
AcDbEntity
  8
Layer 2
 62
   250
420
  2301728
370
    25
100
AcDb2dPolyline
 66
     1
 10
0.0
 20
0.0
 30
0.0
  0
VERTEX
  5
6C
330
6B
100
AcDbEntity
  8
Layer 2
 62
   250
420
  2301728
370
    25
100
AcDbVertex
100
AcDb2dVertex
 10
160.6650770924316
 20
729.1501158203782
 30
0.0
  0
VERTEX
  5
6D
330
6B
100
AcDbEntity
  8
Layer 2
 62
   250
420
  2301728
370
    25
100
AcDbVertex
100
AcDb2dVertex
 10
363.2992294032319
 20
526.5159635095733
 30
0.0
  0
VERTEX
  5
6E
330
6B
100
AcDbEntity
  8
Layer 2
 62
   250
420
  2301728
370
    25
100
AcDbVertex
100
AcDb2dVertex
 10
389.024517581468
 20
552.2414709260865
 30
0.0
  0
VERTEX
  5
6F
330
6B
100
AcDbEntity
  8
Layer 2
 62
   250
420
  2301728
370
    25
100
AcDbVertex
100
AcDb2dVertex
 10
399.3104648622739
 20
549.6408773717067
 30
0.0
  0
VERTEX
  5
70
330
6B
100
AcDbEntity
  8
Layer 2
 62
   250
420
  2301728
370
    25
100
AcDbVertex
100
AcDb2dVertex
 10
393.2672192947666
 20
569.5363056824426
 30
0.0
  0
VERTEX
  5
71
330
6B
100
AcDbEntity
  8
Layer 2
 62
   250
420
  2301728
370
    25
100
AcDbVertex
100
AcDb2dVertex
 10
403.4255653749142
 20
566.6426414468024
 30
0.0
  0
VERTEX
  5
72
330
6B
100
AcDbEntity
  8
Layer 2
 62
   250
420
  2301728
370
    25
100
AcDbVertex
100
AcDb2dVertex
 10
429.3517676700194
 20
592.5690646890544
 30
0.0
  0
VERTEX
  5
73
330
6B
100
AcDbEntity
  8
Layer 2
 62
   250
420
  2301728
370
    25
100
AcDbVertex
100
AcDb2dVertex
 10
292.6722454332321
 20
729.1501158203782
 30
0.0
  0
VERTEX
  5
74
330
6B
100
AcDbEntity
  8
Layer 2
 62
   250
420
  2301728
370
    25
100
AcDbVertex
100
AcDb2dVertex
 10
160.6650770924316
 20
729.1501158203782
 30
0.0
  0
SEQEND
  5
76
330
6B
100
AcDbEntity
  8
Layer 2
 62
   250
420
  2301728
370
    25
  0
HATCH
  5
75
330
67
100
AcDbEntity
  8
Layer 2
 62
    43
420
 15510364
100
AcDbHatch
 10
0.0
 20
0.0
 30
0.0
210
0.0
220
0.0
230
1.0
  2
SOLID
 70
     1
 71
     0
 91
        1
 92
        1
 93
        8
 72
     1
 10
160.6650770924316
 20
729.1501158203782
 11
363.2992294032319
 21
526.5159635095733
 72
     1
 10
363.2992294032319
 20
526.5159635095733
 11
389.024517581468
 21
552.2414709260865
 72
     1
 10
389.024517581468
 20
552.2414709260865
 11
399.3104648622739
 21
549.6408773717067
 72
     1
 10
399.3104648622739
 20
549.6408773717067
 11
393.2672192947666
 21
569.5363056824426
 72
     1
 10
393.2672192947666
 20
569.5363056824426
 11
403.4255653749142
 21
566.6426414468024
 72
     1
 10
403.4255653749142
 20
566.6426414468024
 11
429.3517676700194
 21
592.5690646890544
 72
     1
 10
429.3517676700194
 20
592.5690646890544
 11
292.6722454332321
 21
729.1501158203782
 72
     1
 10
292.6722454332321
 20
729.1501158203782
 11
160.6650770924316
 21
729.1501158203782
 97
        0
 75
     2
 76
     1
 98
        0
  0
POLYLINE
  5
77
330
67
100
AcDbEntity
  8
Layer 2
 62
   250
420
  2301728
370
    25
100
AcDb2dPolyline
 66
     1
 10
0.0
 20
0.0
 30
0.0
  0
VERTEX
  5
78
330
77
100
AcDbEntity
  8
Layer 2
 62
   250
420
  2301728
370
    25
100
AcDbVertex
100
AcDb2dVertex
 10
357.5705487543046
 20
520.7872340425511
 30
0.0
  0
VERTEX
  5
79
330
77
100
AcDbEntity
  8
Layer 2
 62
   250
420
  2301728
370
    25
100
AcDbVertex
100
AcDb2dVertex
 10
363.2516188318878
 20
526.4683525358432
 30
0.0
  0
SEQEND
  5
7A
330
77
100
AcDbEntity
  8
Layer 2
 62
   250
420
  2301728
370
    25
  0
POLYLINE
  5
7B
330
67
100
AcDbEntity
  8
Layer 2
 62
   250
420
  2301728
370
    25
100
AcDb2dPolyline
 66
     1
 10
0.0
 20
0.0
 30
0.0
  0
VERTEX
  5
7C
330
7B
100
AcDbEntity
  8
Layer 2
 62
   250
420
  2301728
370
    25
100
AcDbVertex
100
AcDb2dVertex
 10
429.2812218119452
 20
592.498548988835
 30
0.0
  0
VERTEX
  5
7D
330
7B
100
AcDbEntity
  8
Layer 2
 62
   250
420
  2301728
370
    25
100
AcDbVertex
100
AcDb2dVertex
 10
434.9622918895275
 20
598.1796674821244
 30
0.0
  0
SEQEND
  5
7E
330
7B
100
AcDbEntity
  8
Layer 2
 62
   250
420
  2301728
370
    25
  0
POLYLINE
  5
7F
330
67
100
AcDbEntity
  8
Layer 2
  6
AI-Linetype-1
 62
   250
420
  2301728
370
    18
100
AcDb2dPolyline
 66
     1
 10
0.0
 20
0.0
 30
0.0
  0
VERTEX
  5
80
330
7F
100
AcDbEntity
  8
Layer 2
  6
AI-Linetype-1
 62
   250
420
  2301728
370
    18
100
AcDbVertex
100
AcDb2dVertex
 10
235.9854247546045
 20
653.9063251766765
 30
0.0
  0
VERTEX
  5
81
330
7F
100
AcDbEntity
  8
Layer 2
  6
AI-Linetype-1
 62
   250
420
  2301728
370
    18
100
AcDbVertex
100
AcDb2dVertex
 10
301.9537884159636
 20
719.8746888381838
 30
0.0
  0
VERTEX
  5
82
330
7F
100
AcDbEntity
  8
Layer 2
  6
AI-Linetype-1
 62
   250
420
  2301728
370
    18
100
AcDbVertex
100
AcDb2dVertex
 10
343.279721693998
 20
678.548769874269
 30
0.0
  0
VERTEX
  5
83
330
7F
100
AcDbEntity
  8
Layer 2
  6
AI-Linetype-1
 62
   250
420
  2301728
370
    18
100
AcDbVertex
100
AcDb2dVertex
 10
277.2699411662752
 20
612.5389893463889
 30
0.0
  0
VERTEX
  5
84
330
7F
100
AcDbEntity
  8
Layer 2
  6
AI-Linetype-1
 62
   250
420
  2301728
370
    18
100
AcDbVertex
100
AcDb2dVertex
 10
235.9854247546045
 20
653.9063251766765
 30
0.0
  0
SEQEND
  5
87
330
7F
100
AcDbEntity
  8
Layer 2
  6
AI-Linetype-1
 62
   250
420
  2301728
370
    18
  0
HATCH
  5
86
330
67
100
AcDbEntity
  8
Layer 2
 62
     7
420
 15988216
100
AcDbHatch
 10
0.0
 20
0.0
 30
0.0
210
0.0
220
0.0
230
1.0
  2
SOLID
 70
     1
 71
     0
 91
        1
 92
        1
 93
        4
 72
     1
 10
235.9854247546045
 20
653.9063251766765
 11
301.9537884159636
 21
719.8746888381838
 72
     1
 10
301.9537884159636
 20
719.8746888381838
 11
343.279721693998
 21
678.548769874269
 72
     1
 10
343.279721693998
 20
678.548769874269
 11
277.2699411662752
 21
612.5389893463889
 72
     1
 10
277.2699411662752
 20
612.5389893463889
 11
235.9854247546045
 21
653.9063251766765
 97
        0
 75
     2
 76
     1
 98
        0
  0
POLYLINE
  5
88
330
67
100
AcDbEntity
  8
Layer 2
 62
   250
420
  2301728
370
    25
100
AcDb2dPolyline
 66
     1
 10
0.0
 20
0.0
 30
0.0
  0
VERTEX
  5
89
330
88
100
AcDbEntity
  8
Layer 2
 62
   250
420
  2301728
370
    25
100
AcDbVertex
100
AcDb2dVertex
 10
296.1961462722011
 20
725.6287537846292
 30
0.0
  0
VERTEX
  5
8A
330
88
100
AcDbEntity
  8
Layer 2
 62
   250
420
  2301728
370
    25
100
AcDbVertex
100
AcDb2dVertex
 10
368.4970527344558
 20
653.3799366922285
 30
0.0
  0
SEQEND
  5
8B
330
88
100
AcDbEntity
  8
Layer 2
 62
   250
420
  2301728
370
    25
  0
POLYLINE
  5
8C
330
67
100
AcDbEntity
  8
Layer 2
 62
   250
420
  2301728
370
    25
100
AcDb2dPolyline
 66
     1
 10
0.0
 20
0.0
 30
0.0
  0
VERTEX
  5
8D
330
8C
100
AcDbEntity
  8
Layer 2
 62
   250
420
  2301728
370
    25
100
AcDbVertex
100
AcDb2dVertex
 10
223.1184346683667
 20
666.6967582444413
 30
0.0
  0
VERTEX
  5
8E
330
8C
100
AcDbEntity
  8
Layer 2
 62
   250
420
  2301728
370
    25
100
AcDbVertex
100
AcDb2dVertex
 10
285.1384941901651
 20
604.676698722642
 30
0.0
  0
SEQEND
  5
8F
330
8C
100
AcDbEntity
  8
Layer 2
 62
   250
420
  2301728
370
    25
  0
ENDBLK
  5
6A
330
67
100
AcDbEntity
  8
0
100
AcDbBlockEnd
  0
BLOCK
  5
93
330
91
100
AcDbEntity
  8
0
100
AcDbBlockBegin
  2
block 4
 70
     0
 10
0.0
 20
0.0
 30
0.0
  3
block 4
  1

  0
SPLINE
  5
95
330
91
100
AcDbEntity
  8
LSSR
 62
   250
420
  2301728
370
     9
100
AcDbSpline
210
0.0
220
0.0
230
1.0
 70
    11
 71
     3
 72
    59
 73
    55
 74
     0
 42
0.0000000001
 43
0.0000000001
 12
1.0
 22
0.0
 32
0.0
 13
1.0
 23
0.0
 33
0.0
 40
0.0
 40
0.0
 40
0.0
 40
0.0
 40
1.0
 40
1.0
 40
1.0
 40
2.0
 40
2.0
 40
2.0
 40
3.0
 40
3.0
 40
3.0
 40
4.0
 40
4.0
 40
4.0
 40
5.0
 40
5.0
 40
5.0
 40
6.0
 40
6.0
 40
6.0
 40
7.0
 40
7.0
 40
7.0
 40
8.0
 40
8.0
 40
8.0
 40
9.0
 40
9.0
 40
9.0
 40
10.0
 40
10.0
 40
10.0
 40
11.0
 40
11.0
 40
11.0
 40
12.0
 40
12.0
 40
12.0
 40
13.0
 40
13.0
 40
13.0
 40
14.0
 40
14.0
 40
14.0
 40
15.0
 40
15.0
 40
15.0
 40
16.0
 40
16.0
 40
16.0
 40
17.0
 40
17.0
 40
17.0
 40
18.0
 40
18.0
 40
18.0
 40
18.0
 10
438.0913562436999
 20
725.6507862250382
 30
0.0
 10
438.0913562436999
 20
725.6507862250382
 30
0.0
 10
389.441392638204
 20
725.6322086769724
 30
0.0
 10
389.441392638204
 20
725.6322086769724
 30
0.0
 10
389.2446004527192
 20
725.6333972827897
 30
0.0
 10
388.9787574973652
 20
725.4899452634054
 30
0.0
 10
388.8836549708885
 20
725.3161803185458
 30
0.0
 10
388.574571759832
 20
724.7514442477604
 30
0.0
 10
387.9824803125512
 20
723.989131940998
 30
0.0
 10
387.3429057097419
 20
723.9929949099123
 30
0.0
 10
387.3429057097419
 20
723.9929949099123
 30
0.0
 10
319.2931537504091
 20
723.9929949044026
 30
0.0
 10
319.2931537504091
 20
723.9929949044026
 30
0.0
 10
318.6535791476081
 20
723.9968578733196
 30
0.0
 10
317.4538724260674
 20
724.8011715505309
 30
0.0
 10
317.1610030697811
 20
725.3695433567709
 30
0.0
 10
317.0708894216914
 20
725.544426989457
 30
0.0
 10
316.8857462067499
 20
725.6275651788146
 30
0.0
 10
316.6889540212705
 20
725.6287537846292
 30
0.0
 10
316.6889540212705
 20
725.6287537846292
 30
0.0
 10
306.3767953109782
 20
725.6370836507613
 30
0.0
 10
306.3767953109782
 20
725.6370836507613
 30
0.0
 10
304.3242076178867
 20
725.6370836507613
 30
0.0
 10
303.7531455172921
 20
725.3776617985677
 30
0.0
 10
305.4498275605274
 20
723.5986460412478
 30
0.0
 10
305.4498275605274
 20
723.5986460412478
 30
0.0
 10
304.9949791997751
 20
723.9389448293678
 30
0.0
 10
304.9949791997751
 20
723.9389448293678
 30
0.0
 10
305.6100266972098
 20
724.1290975094216
 30
0.0
 10
307.4254878429447
 20
724.2875867698313
 30
0.0
 10
308.1031618745965
 20
723.6099127381822
 30
0.0
 10
308.1031618745965
 20
723.6099127381822
 30
0.0
 10
347.2536220803395
 20
684.4594525418788
 30
0.0
 10
347.2536220803395
 20
684.4594525418788
 30
0.0
 10
348.172313333017
 20
683.5407612892013
 30
0.0
 10
347.8964747843074
 20
682.0013410617939
 30
0.0
 10
347.5461062844324
 20
681.3878177547485
 30
0.0
 10
347.5461062844324
 20
681.3878177547485
 30
0.0
 10
350.953646294286
 20
677.9802777456453
 30
0.0
 10
350.953646294286
 20
677.9802777456453
 30
0.0
 10
350.953646294286
 20
677.9802777456453
 30
0.0
 10
349.0128094971669
 20
676.0504533603398
 30
0.0
 10
349.0128094971669
 20
676.0504533603398
 30
0.0
 10
349.0128094971669
 20
676.0504533603398
 30
0.0
 10
301.0058093016978
 20
723.8747958703334
 30
0.0
 10
301.0058093016978
 20
723.8747958703334
 30
0.0
 10
299.6526568870759
 20
725.3011487660951
 30
0.0
 10
299.7939653330768
 20
727.8899019673245
 30
0.0
 10
302.2355854739099
 20
728.4540117257402
 30
0.0
 10
302.2355854739099
 20
728.4540117257402
 30
0.0
 10
438.0913562436999
 20
728.4565301563325
 30
0.0
 10
438.0913562436999
 20
728.4565301563325
 30
0.0
 10
438.0913562436999
 20
728.4565301563325
 30
0.0
 10
438.0913562436999
 20
725.6507862250382
 30
0.0
 10
438.0913562436999
 20
725.6507862250382
 30
0.0
  0
HATCH
  5
96
330
91
100
AcDbEntity
  8
LSSR
 62
   254
420
 13358815
100
AcDbHatch
 10
0.0
 20
0.0
 30
0.0
210
0.0
220
0.0
230
1.0
  2
SOLID
 70
     1
 71
     0
 91
        1
 92
        1
 93
        1
 72
     4
 94
        3
 73
     0
 74
     1
 95
       59
 96
       55
 40
0.0
 40
0.0
 40
0.0
 40
0.0
 40
1.0
 40
1.0
 40
1.0
 40
2.0
 40
2.0
 40
2.0
 40
3.0
 40
3.0
 40
3.0
 40
4.0
 40
4.0
 40
4.0
 40
5.0
 40
5.0
 40
5.0
 40
6.0
 40
6.0
 40
6.0
 40
7.0
 40
7.0
 40
7.0
 40
8.0
 40
8.0
 40
8.0
 40
9.0
 40
9.0
 40
9.0
 40
10.0
 40
10.0
 40
10.0
 40
11.0
 40
11.0
 40
11.0
 40
12.0
 40
12.0
 40
12.0
 40
13.0
 40
13.0
 40
13.0
 40
14.0
 40
14.0
 40
14.0
 40
15.0
 40
15.0
 40
15.0
 40
16.0
 40
16.0
 40
16.0
 40
17.0
 40
17.0
 40
17.0
 40
18.0
 40
18.0
 40
18.0
 40
18.0
 10
438.0913562436999
 20
725.6507862250382
 10
438.0913562436999
 20
725.6507862250382
 10
389.441392638204
 20
725.6322086769724
 10
389.441392638204
 20
725.6322086769724
 10
389.2446004527192
 20
725.6333972827897
 10
388.9787574973652
 20
725.4899452634054
 10
388.8836549708885
 20
725.3161803185458
 10
388.574571759832
 20
724.7514442477604
 10
387.9824803125512
 20
723.989131940998
 10
387.3429057097419
 20
723.9929949099123
 10
387.3429057097419
 20
723.9929949099123
 10
319.2931537504091
 20
723.9929949044026
 10
319.2931537504091
 20
723.9929949044026
 10
318.6535791476081
 20
723.9968578733196
 10
317.4538724260674
 20
724.8011715505309
 10
317.1610030697811
 20
725.3695433567709
 10
317.0708894216914
 20
725.544426989457
 10
316.8857462067499
 20
725.6275651788146
 10
316.6889540212705
 20
725.6287537846292
 10
316.6889540212705
 20
725.6287537846292
 10
306.3767953109782
 20
725.6370836507613
 10
306.3767953109782
 20
725.6370836507613
 10
304.3242076178867
 20
725.6370836507613
 10
303.7531455172921
 20
725.3776617985677
 10
305.4498275605274
 20
723.5986460412478
 10
305.4498275605274
 20
723.5986460412478
 10
304.9949791997751
 20
723.9389448293678
 10
304.9949791997751
 20
723.9389448293678
 10
305.6100266972098
 20
724.1290975094216
 10
307.4254878429447
 20
724.2875867698313
 10
308.1031618745965
 20
723.6099127381822
 10
308.1031618745965
 20
723.6099127381822
 10
347.2536220803395
 20
684.4594525418788
 10
347.2536220803395
 20
684.4594525418788
 10
348.172313333017
 20
683.5407612892013
 10
347.8964747843074
 20
682.0013410617939
 10
347.5461062844324
 20
681.3878177547485
 10
347.5461062844324
 20
681.3878177547485
 10
350.953646294286
 20
677.9802777456453
 10
350.953646294286
 20
677.9802777456453
 10
350.953646294286
 20
677.9802777456453
 10
349.0128094971669
 20
676.0504533603398
 10
349.0128094971669
 20
676.0504533603398
 10
349.0128094971669
 20
676.0504533603398
 10
301.0058093016978
 20
723.8747958703334
 10
301.0058093016978
 20
723.8747958703334
 10
299.6526568870759
 20
725.3011487660951
 10
299.7939653330768
 20
727.8899019673245
 10
302.2355854739099
 20
728.4540117257402
 10
302.2355854739099
 20
728.4540117257402
 10
438.0913562436999
 20
728.4565301563325
 10
438.0913562436999
 20
728.4565301563325
 10
438.0913562436999
 20
728.4565301563325
 10
438.0913562436999
 20
725.6507862250382
 10
438.0913562436999
 20
725.6507862250382
 97
        0
 97
        0
 75
     2
 76
     1
 98
        0
  0
INSERT
  5
98
330
91
100
AcDbEntity
  8
LSSR
100
AcDbBlockReference
  2
block 5
 10
0.0
 20
0.0
 30
0.0
  0
POLYLINE
  5
9E
330
91
100
AcDbEntity
  8
LSSR
 62
   250
420
  2301728
370
     9
100
AcDb2dPolyline
 66
     1
 10
0.0
 20
0.0
 30
0.0
  0
VERTEX
  5
9F
330
9E
100
AcDbEntity
  8
LSSR
 62
   250
420
  2301728
370
     9
100
AcDbVertex
100
AcDb2dVertex
 10
304.8259573852374
 20
723.83662546082
 30
0.0
  0
VERTEX
  5
122
330
9E
100
AcDbEntity
  8
0
100
AcDbVertex
100
AcDb2dVertex
 10
304.8259573852374
 20
723.83662546082
 30
0.0
  0
SEQEND
  5
A0
330
9E
100
AcDbEntity
  8
LSSR
 62
   250
420
  2301728
370
     9
  0
INSERT
  5
A2
330
91
100
AcDbEntity
  8
LSSR
100
AcDbBlockReference
  2
block 6
 10
0.0
 20
0.0
 30
0.0
  0
POLYLINE
  5
BB
330
91
100
AcDbEntity
  8
LSSR
 62
   250
420
  2301728
370
     9
100
AcDb2dPolyline
 66
     1
 10
0.0
 20
0.0
 30
0.0
  0
VERTEX
  5
BC
330
BB
100
AcDbEntity
  8
LSSR
 62
   250
420
  2301728
370
     9
100
AcDbVertex
100
AcDb2dVertex
 10
304.9949791997751
 20
723.9389448293678
 30
0.0
  0
VERTEX
  5
BD
330
BB
100
AcDbEntity
  8
LSSR
 62
   250
420
  2301728
370
     9
100
AcDbVertex
100
AcDb2dVertex
 10
347.5461062844324
 20
681.3878177547485
 30
0.0
  0
SEQEND
  5
BE
330
BB
100
AcDbEntity
  8
LSSR
 62
   250
420
  2301728
370
     9
  0
POLYLINE
  5
BF
330
91
100
AcDbEntity
  8
LSSR
 62
   250
420
  2301728
370
     9
100
AcDb2dPolyline
 66
     1
 10
0.0
 20
0.0
 30
0.0
  0
VERTEX
  5
C0
330
BF
100
AcDbEntity
  8
LSSR
 62
   250
420
  2301728
370
     9
100
AcDbVertex
100
AcDb2dVertex
 10
303.5239802435981
 20
721.4448806660757
 30
0.0
  0
VERTEX
  5
C1
330
BF
100
AcDbEntity
  8
LSSR
 62
   250
420
  2301728
370
     9
100
AcDbVertex
100
AcDb2dVertex
 10
302.4153475295852
 20
720.336247952313
 30
0.0
  0
VERTEX
  5
C2
330
BF
100
AcDbEntity
  8
LSSR
 62
   250
420
  2301728
370
     9
100
AcDbVertex
100
AcDb2dVertex
 10
343.7412664916756
 20
679.0103146727088
 30
0.0
  0
VERTEX
  5
C3
330
BF
100
AcDbEntity
  8
LSSR
 62
   250
420
  2301728
370
     9
100
AcDbVertex
100
AcDb2dVertex
 10
344.8913160720676
 20
680.1603642528407
 30
0.0
  0
VERTEX
  5
C4
330
BF
100
AcDbEntity
  8
LSSR
 62
   250
420
  2301728
370
     9
100
AcDbVertex
100
AcDb2dVertex
 10
303.5239802435981
 20
721.4448806660757
 30
0.0
  0
SEQEND
  5
C6
330
BF
100
AcDbEntity
  8
LSSR
 62
   250
420
  2301728
370
     9
  0
HATCH
  5
C5
330
91
100
AcDbEntity
  8
LSSR
 62
   254
420
 13358815
100
AcDbHatch
 10
0.0
 20
0.0
 30
0.0
210
0.0
220
0.0
230
1.0
  2
SOLID
 70
     1
 71
     0
 91
        1
 92
        1
 93
        4
 72
     1
 10
303.5239802435981
 20
721.4448806660757
 11
302.4153475295852
 21
720.336247952313
 72
     1
 10
302.4153475295852
 20
720.336247952313
 11
343.7412664916756
 21
679.0103146727088
 72
     1
 10
343.7412664916756
 20
679.0103146727088
 11
344.8913160720676
 21
680.1603642528407
 72
     1
 10
344.8913160720676
 20
680.1603642528407
 11
303.5239802435981
 21
721.4448806660757
 97
        0
 75
     2
 76
     1
 98
        0
  0
POLYLINE
  5
C7
330
91
100
AcDbEntity
  8
LSSR
 62
   250
420
  2301728
370
     9
100
AcDb2dPolyline
 66
     1
 10
0.0
 20
0.0
 30
0.0
  0
VERTEX
  5
C8
330
C7
100
AcDbEntity
  8
LSSR
 62
   250
420
  2301728
370
     9
100
AcDbVertex
100
AcDb2dVertex
 10
302.2355854739099
 20
728.5503988195887
 30
0.0
  0
VERTEX
  5
C9
330
C7
100
AcDbEntity
  8
LSSR
 62
   250
420
  2301728
370
     9
100
AcDbVertex
100
AcDb2dVertex
 10
438.0913562436999
 20
728.552917250181
 30
0.0
  0
SEQEND
  5
CA
330
C7
100
AcDbEntity
  8
LSSR
 62
   250
420
  2301728
370
     9
  0
POLYLINE
  5
CB
330
91
100
AcDbEntity
  8
LSSR
 62
   250
420
  2301728
370
     9
100
AcDb2dPolyline
 66
     1
 10
0.0
 20
0.0
 30
0.0
  0
VERTEX
  5
CC
330
CB
100
AcDbEntity
  8
LSSR
 62
   250
420
  2301728
370
     9
100
AcDbVertex
100
AcDb2dVertex
 10
389.4216667164874
 20
725.6322086769696
 30
0.0
  0
VERTEX
  5
CD
330
CB
100
AcDbEntity
  8
LSSR
 62
   250
420
  2301728
370
     9
100
AcDbVertex
100
AcDb2dVertex
 10
316.6889540212705
 20
725.6287537846292
 30
0.0
  0
SEQEND
  5
CE
330
CB
100
AcDbEntity
  8
LSSR
 62
   250
420
  2301728
370
     9
  0
ENDBLK
  5
94
330
91
100
AcDbEntity
  8
0
100
AcDbBlockEnd
  0
BLOCK
  5
99
330
97
100
AcDbEntity
  8
0
100
AcDbBlockBegin
  2
block 5
 70
     0
 10
0.0
 20
0.0
 30
0.0
  3
block 5
  1

  0
POLYLINE
  5
9B
330
97
100
AcDbEntity
  8
LSSR
 62
   250
420
  2301728
370
     9
100
AcDb2dPolyline
 66
     1
 10
0.0
 20
0.0
 30
0.0
  0
VERTEX
  5
9C
330
9B
100
AcDbEntity
  8
LSSR
 62
   250
420
  2301728
370
     9
100
AcDbVertex
100
AcDb2dVertex
 10
301.3151337197978
 20
723.5986460412478
 30
0.0
  0
VERTEX
  5
123
330
9B
100
AcDbEntity
  8
0
100
AcDbVertex
100
AcDb2dVertex
 10
301.3151337197978
 20
723.5986460412478
 30
0.0
  0
SEQEND
  5
9D
330
9B
100
AcDbEntity
  8
LSSR
 62
   250
420
  2301728
370
     9
  0
ENDBLK
  5
9A
330
97
100
AcDbEntity
  8
0
100
AcDbBlockEnd
  0
BLOCK
  5
A3
330
A1
100
AcDbEntity
  8
0
100
AcDbBlockBegin
  2
block 6
 70
     0
 10
0.0
 20
0.0
 30
0.0
  3
block 6
  1

  0
INSERT
  5
A6
330
A1
100
AcDbEntity
  8
LSSR
100
AcDbBlockReference
  2
block 7
 10
0.0
 20
0.0
 30
0.0
  0
INSERT
  5
B4
330
A1
100
AcDbEntity
  8
LSSR
100
AcDbBlockReference
  2
block 8
 10
0.0
 20
0.0
 30
0.0
  0
ENDBLK
  5
A4
330
A1
100
AcDbEntity
  8
0
100
AcDbBlockEnd
  0
BLOCK
  5
A7
330
A5
100
AcDbEntity
  8
0
100
AcDbBlockBegin
  2
block 7
 70
     0
 10
0.0
 20
0.0
 30
0.0
  3
block 7
  1

  0
POLYLINE
  5
A9
330
A5
100
AcDbEntity
  8
LSSR
 62
   250
420
  2301728
370
    13
100
AcDb2dPolyline
 66
     1
 10
0.0
 20
0.0
 30
0.0
  0
VERTEX
  5
AA
330
A9
100
AcDbEntity
  8
LSSR
 62
   250
420
  2301728
370
    13
100
AcDbVertex
100
AcDb2dVertex
 10
340.1105740951607
 20
691.7931653697378
 30
0.0
  0
VERTEX
  5
AB
330
A9
100
AcDbEntity
  8
LSSR
 62
   250
420
  2301728
370
    13
100
AcDbVertex
100
AcDb2dVertex
 10
341.8973090459767
 20
691.70940291441
 30
0.0
  0
VERTEX
  5
AC
330
A9
100
AcDbEntity
  8
LSSR
 62
   250
420
  2301728
370
    13
100
AcDbVertex
100
AcDb2dVertex
 10
342.2178105117364
 20
692.8709319399295
 30
0.0
  0
VERTEX
  5
AD
330
A9
100
AcDbEntity
  8
LSSR
 62
   250
420
  2301728
370
    13
100
AcDbVertex
100
AcDb2dVertex
 10
317.3595451096953
 20
717.7475685633954
 30
0.0
  0
VERTEX
  5
AE
330
A9
100
AcDbEntity
  8
LSSR
 62
   250
420
  2301728
370
    13
100
AcDbVertex
100
AcDb2dVertex
 10
316.1958189016623
 20
717.4298874559054
 30
0.0
  0
VERTEX
  5
AF
330
A9
100
AcDbEntity
  8
LSSR
 62
   250
420
  2301728
370
    13
100
AcDbVertex
100
AcDb2dVertex
 10
316.3415625559201
 20
715.651058750931
 30
0.0
  0
VERTEX
  5
B0
330
A9
100
AcDbEntity
  8
LSSR
 62
   250
420
  2301728
370
    13
100
AcDbVertex
100
AcDb2dVertex
 10
340.1105740951607
 20
691.7931653697378
 30
0.0
  0
SEQEND
  5
B2
330
A9
100
AcDbEntity
  8
LSSR
 62
   250
420
  2301728
370
    13
  0
HATCH
  5
B1
330
A5
100
AcDbEntity
  8
LSSR
 62
   254
420
 13358815
100
AcDbHatch
 10
0.0
 20
0.0
 30
0.0
210
0.0
220
0.0
230
1.0
  2
SOLID
 70
     1
 71
     0
 91
        1
 92
        1
 93
        6
 72
     1
 10
340.1105740951607
 20
691.7931653697378
 11
341.8973090459767
 21
691.70940291441
 72
     1
 10
341.8973090459767
 20
691.70940291441
 11
342.2178105117364
 21
692.8709319399295
 72
     1
 10
342.2178105117364
 20
692.8709319399295
 11
317.3595451096953
 21
717.7475685633954
 72
     1
 10
317.3595451096953
 20
717.7475685633954
 11
316.1958189016623
 21
717.4298874559054
 72
     1
 10
316.1958189016623
 20
717.4298874559054
 11
316.3415625559201
 21
715.651058750931
 72
     1
 10
316.3415625559201
 20
715.651058750931
 11
340.1105740951607
 21
691.7931653697378
 97
        0
 75
     2
 76
     1
 98
        0
  0
ENDBLK
  5
A8
330
A5
100
AcDbEntity
  8
0
100
AcDbBlockEnd
  0
BLOCK
  5
B5
330
B3
100
AcDbEntity
  8
0
100
AcDbBlockBegin
  2
block 8
 70
     0
 10
0.0
 20
0.0
 30
0.0
  3
block 8
  1

  0
POLYLINE
  5
B7
330
B3
100
AcDbEntity
  8
LSSR
 62
   250
420
  2301728
370
     5
100
AcDb2dPolyline
 66
     1
 10
0.0
 20
0.0
 30
0.0
  0
VERTEX
  5
B8
330
B7
100
AcDbEntity
  8
LSSR
 62
   250
420
  2301728
370
     5
100
AcDbVertex
100
AcDb2dVertex
 10
317.0414543249781
 20
716.5842520325896
 30
0.0
  0
VERTEX
  5
B9
330
B7
100
AcDbEntity
  8
LSSR
 62
   250
420
  2301728
370
     5
100
AcDbVertex
100
AcDb2dVertex
 10
340.9261845457504
 20
692.6805274146363
 30
0.0
  0
SEQEND
  5
BA
330
B7
100
AcDbEntity
  8
LSSR
 62
   250
420
  2301728
370
     5
  0
ENDBLK
  5
B6
330
B3
100
AcDbEntity
  8
0
100
AcDbBlockEnd
  0
BLOCK
  5
D1
330
CF
100
AcDbEntity
  8
0
100
AcDbBlockBegin
  2
block 9
 70
     0
 10
0.0
 20
0.0
 30
0.0
  3
block 9
  1

  0
INSERT
  5
D4
330
CF
100
AcDbEntity
  8
LSSR
100
AcDbBlockReference
  2
block 10
 10
0.0
 20
0.0
 30
0.0
  0
INSERT
  5
E1
330
CF
100
AcDbEntity
  8
LSSR
100
AcDbBlockReference
  2
block 11
 10
0.0
 20
0.0
 30
0.0
  0
POLYLINE
  5
FA
330
CF
100
AcDbEntity
  8
LSSR
 62
   250
420
  2301728
370
     9
100
AcDb2dPolyline
 66
     1
 10
0.0
 20
0.0
 30
0.0
  0
VERTEX
  5
FB
330
FA
100
AcDbEntity
  8
LSSR
 62
   250
420
  2301728
370
     9
100
AcDbVertex
100
AcDb2dVertex
 10
236.5289139821807
 20
645.7978520261104
 30
0.0
  0
VERTEX
  5
FC
330
FA
100
AcDbEntity
  8
LSSR
 62
   250
420
  2301728
370
     9
100
AcDbVertex
100
AcDb2dVertex
 10
275.212290855563
 20
607.1144751392158
 30
0.0
  0
SEQEND
  5
FD
330
FA
100
AcDbEntity
  8
LSSR
 62
   250
420
  2301728
370
     9
  0
POLYLINE
  5
FE
330
CF
100
AcDbEntity
  8
LSSR
 62
   250
420
  2301728
370
     9
100
AcDb2dPolyline
 66
     1
 10
0.0
 20
0.0
 30
0.0
  0
VERTEX
  5
FF
330
FE
100
AcDbEntity
  8
LSSR
 62
   250
420
  2301728
370
     9
100
AcDbVertex
100
AcDb2dVertex
 10
234.1067564558898
 20
652.0640519386761
 30
0.0
  0
VERTEX
  5
100
330
FE
100
AcDbEntity
  8
LSSR
 62
   250
420
  2301728
370
     9
100
AcDbVertex
100
AcDb2dVertex
 10
235.4226412092657
 20
653.3799366922285
 30
0.0
  0
VERTEX
  5
101
330
FE
100
AcDbEntity
  8
LSSR
 62
   250
420
  2301728
370
     9
100
AcDbVertex
100
AcDb2dVertex
 10
276.7171142376446
 20
612.0854779779702
 30
0.0
  0
VERTEX
  5
102
330
FE
100
AcDbEntity
  8
LSSR
 62
   250
420
  2301728
370
     9
100
AcDbVertex
100
AcDb2dVertex
 10
275.4000062391779
 20
610.7683699793661
 30
0.0
  0
VERTEX
  5
103
330
FE
100
AcDbEntity
  8
LSSR
 62
   250
420
  2301728
370
     9
100
AcDbVertex
100
AcDb2dVertex
 10
234.1067564558898
 20
652.0640519386761
 30
0.0
  0
SEQEND
  5
105
330
FE
100
AcDbEntity
  8
LSSR
 62
   250
420
  2301728
370
     9
  0
HATCH
  5
104
330
CF
100
AcDbEntity
  8
LSSR
 62
   254
420
 13358815
100
AcDbHatch
 10
0.0
 20
0.0
 30
0.0
210
0.0
220
0.0
230
1.0
  2
SOLID
 70
     1
 71
     0
 91
        1
 92
        1
 93
        4
 72
     1
 10
234.1067564558898
 20
652.0640519386761
 11
235.4226412092657
 21
653.3799366922285
 72
     1
 10
235.4226412092657
 20
653.3799366922285
 11
276.7171142376446
 21
612.0854779779702
 72
     1
 10
276.7171142376446
 20
612.0854779779702
 11
275.4000062391779
 21
610.7683699793661
 72
     1
 10
275.4000062391779
 20
610.7683699793661
 11
234.1067564558898
 21
652.0640519386761
 97
        0
 75
     2
 76
     1
 98
        0
  0
ENDBLK
  5
D2
330
CF
100
AcDbEntity
  8
0
100
AcDbBlockEnd
  0
BLOCK
  5
D5
330
D3
100
AcDbEntity
  8
0
100
AcDbBlockBegin
  2
block 10
 70
     0
 10
0.0
 20
0.0
 30
0.0
  3
block 10
  1

  0
SPLINE
  5
D7
330
D3
100
AcDbEntity
  8
LSSR
 62
   250
420
  2301728
370
    13
100
AcDbSpline
210
0.0
220
0.0
230
1.0
 70
    11
 71
     3
 72
    59
 73
    55
 74
     0
 42
0.0000000001
 43
0.0000000001
 12
1.0
 22
0.0
 32
0.0
 13
1.0
 23
0.0
 33
0.0
 40
0.0
 40
0.0
 40
0.0
 40
0.0
 40
1.0
 40
1.0
 40
1.0
 40
2.0
 40
2.0
 40
2.0
 40
3.0
 40
3.0
 40
3.0
 40
4.0
 40
4.0
 40
4.0
 40
5.0
 40
5.0
 40
5.0
 40
6.0
 40
6.0
 40
6.0
 40
7.0
 40
7.0
 40
7.0
 40
8.0
 40
8.0
 40
8.0
 40
9.0
 40
9.0
 40
9.0
 40
10.0
 40
10.0
 40
10.0
 40
11.0
 40
11.0
 40
11.0
 40
12.0
 40
12.0
 40
12.0
 40
13.0
 40
13.0
 40
13.0
 40
14.0
 40
14.0
 40
14.0
 40
15.0
 40
15.0
 40
15.0
 40
16.0
 40
16.0
 40
16.0
 40
17.0
 40
17.0
 40
17.0
 40
18.0
 40
18.0
 40
18.0
 40
18.0
 10
236.5289139821807
 20
645.7978520261104
 30
0.0
 10
236.3387613021005
 20
645.1828045286829
 30
0.0
 10
236.0375008809442
 20
643.2795319809438
 30
0.0
 10
236.6312333507349
 20
642.6216734984191
 30
0.0
 10
236.6312333507349
 20
642.6216734984191
 30
0.0
 10
271.8844245293367
 20
607.3684823075055
 30
0.0
 10
271.8844245293367
 20
607.3684823075055
 30
0.0
 10
272.6313899908864
 20
606.7060570232134
 30
0.0
 10
274.5987675485085
 20
606.764106639369
 30
0.0
 10
275.212290855563
 20
607.1144751392158
 30
0.0
 10
275.212290855563
 20
607.1144751392158
 30
0.0
 10
277.6500672712846
 20
604.676698722642
 30
0.0
 10
277.6500672712846
 20
604.676698722642
 30
0.0
 10
277.6500672712846
 20
604.676698722642
 30
0.0
 10
279.5707473299653
 20
606.59737878132
 30
0.0
 10
279.5707473299653
 20
606.59737878132
 30
0.0
 10
279.5707473299653
 20
606.59737878132
 30
0.0
 10
158.4462137489627
 20
727.7291558255793
 30
0.0
 10
158.4462137489627
 20
727.7291558255793
 30
0.0
 10
157.7250194734788
 20
728.3656177435296
 30
0.0
 10
156.9345357735674
 20
728.7168177662397
 30
0.0
 10
155.9924672182224
 20
728.7168177662397
 30
0.0
 10
155.9924672182224
 20
728.7168177662397
 30
0.0
 10
123.5188245307563
 20
728.7167854361687
 30
0.0
 10
123.5188245307563
 20
728.7167854361687
 30
0.0
 10
123.5188245307563
 20
728.7167854361687
 30
0.0
 10
123.5188245307563
 20
725.9110526915019
 30
0.0
 10
123.5188245307563
 20
725.9110526915019
 30
0.0
 10
123.5188245307563
 20
725.9110526915019
 30
0.0
 10
155.992483503278
 20
725.9110526915019
 30
0.0
 10
155.992483503278
 20
725.9110526915019
 30
0.0
 10
156.5128238694506
 20
725.9110526915019
 30
0.0
 10
157.0662184005414
 20
725.5340859657863
 30
0.0
 10
157.4397916199032
 20
725.1718153846323
 30
0.0
 10
157.4397916199032
 20
725.1718153846323
 30
0.0
 10
165.7503696038348
 20
716.5763963280078
 30
0.0
 10
165.7503773884737
 20
716.576388636835
 30
0.0
 10
165.8903709485357
 20
716.4380760192234
 30
0.0
 10
165.9769144093034
 20
716.1486607670795
 30
0.0
 10
165.921291679836
 20
715.9585427548591
 30
0.0
 10
165.7405178090621
 20
715.3406592151414
 30
0.0
 10
165.6076101028648
 20
713.6618359891208
 30
0.0
 10
166.2283611913954
 20
713.0245456746434
 30
0.0
 10
166.2283611913954
 20
713.0245456746434
 30
0.0
 10
213.0326713940722
 20
666.2202354619149
 30
0.0
 10
213.0326713940722
 20
666.2202354619149
 30
0.0
 10
214.1003395977123
 20
665.3512031869532
 30
0.0
 10
215.9891802361699
 20
665.1623218111454
 30
0.0
 10
216.5981697024417
 20
665.3571314617084
 30
0.0
 10
216.7855510766703
 20
665.4170728926538
 30
0.0
 10
216.9752546769159
 20
665.344944447339
 30
0.0
 10
217.1152482369789
 20
665.2066318297293
 30
0.0
 10
217.1152482369789
 20
665.2066318297293
 30
0.0
 10
236.5289139821807
 20
645.7978520261104
 30
0.0
 10
236.5289139821807
 20
645.7978520261104
 30
0.0
  0
HATCH
  5
D8
330
D3
100
AcDbEntity
  8
LSSR
 62
   254
420
 13358815
100
AcDbHatch
 10
0.0
 20
0.0
 30
0.0
210
0.0
220
0.0
230
1.0
  2
SOLID
 70
     1
 71
     0
 91
        1
 92
        1
 93
        1
 72
     4
 94
        3
 73
     0
 74
     1
 95
       59
 96
       55
 40
0.0
 40
0.0
 40
0.0
 40
0.0
 40
1.0
 40
1.0
 40
1.0
 40
2.0
 40
2.0
 40
2.0
 40
3.0
 40
3.0
 40
3.0
 40
4.0
 40
4.0
 40
4.0
 40
5.0
 40
5.0
 40
5.0
 40
6.0
 40
6.0
 40
6.0
 40
7.0
 40
7.0
 40
7.0
 40
8.0
 40
8.0
 40
8.0
 40
9.0
 40
9.0
 40
9.0
 40
10.0
 40
10.0
 40
10.0
 40
11.0
 40
11.0
 40
11.0
 40
12.0
 40
12.0
 40
12.0
 40
13.0
 40
13.0
 40
13.0
 40
14.0
 40
14.0
 40
14.0
 40
15.0
 40
15.0
 40
15.0
 40
16.0
 40
16.0
 40
16.0
 40
17.0
 40
17.0
 40
17.0
 40
18.0
 40
18.0
 40
18.0
 40
18.0
 10
236.5289139821807
 20
645.7978520261104
 10
236.3387613021005
 20
645.1828045286829
 10
236.0375008809442
 20
643.2795319809438
 10
236.6312333507349
 20
642.6216734984191
 10
236.6312333507349
 20
642.6216734984191
 10
271.8844245293367
 20
607.3684823075055
 10
271.8844245293367
 20
607.3684823075055
 10
272.6313899908864
 20
606.7060570232134
 10
274.5987675485085
 20
606.764106639369
 10
275.212290855563
 20
607.1144751392158
 10
275.212290855563
 20
607.1144751392158
 10
277.6500672712846
 20
604.676698722642
 10
277.6500672712846
 20
604.676698722642
 10
277.6500672712846
 20
604.676698722642
 10
279.5707473299653
 20
606.59737878132
 10
279.5707473299653
 20
606.59737878132
 10
279.5707473299653
 20
606.59737878132
 10
158.4462137489627
 20
727.7291558255793
 10
158.4462137489627
 20
727.7291558255793
 10
157.7250194734788
 20
728.3656177435296
 10
156.9345357735674
 20
728.7168177662397
 10
155.9924672182224
 20
728.7168177662397
 10
155.9924672182224
 20
728.7168177662397
 10
123.5188245307563
 20
728.7167854361687
 10
123.5188245307563
 20
728.7167854361687
 10
123.5188245307563
 20
728.7167854361687
 10
123.5188245307563
 20
725.9110526915019
 10
123.5188245307563
 20
725.9110526915019
 10
123.5188245307563
 20
725.9110526915019
 10
155.992483503278
 20
725.9110526915019
 10
155.992483503278
 20
725.9110526915019
 10
156.5128238694506
 20
725.9110526915019
 10
157.0662184005414
 20
725.5340859657863
 10
157.4397916199032
 20
725.1718153846323
 10
157.4397916199032
 20
725.1718153846323
 10
165.7503696038348
 20
716.5763963280078
 10
165.7503773884737
 20
716.576388636835
 10
165.8903709485357
 20
716.4380760192234
 10
165.9769144093034
 20
716.1486607670795
 10
165.921291679836
 20
715.9585427548591
 10
165.7405178090621
 20
715.3406592151414
 10
165.6076101028648
 20
713.6618359891208
 10
166.2283611913954
 20
713.0245456746434
 10
166.2283611913954
 20
713.0245456746434
 10
213.0326713940722
 20
666.2202354619149
 10
213.0326713940722
 20
666.2202354619149
 10
214.1003395977123
 20
665.3512031869532
 10
215.9891802361699
 20
665.1623218111454
 10
216.5981697024417
 20
665.3571314617084
 10
216.7855510766703
 20
665.4170728926538
 10
216.9752546769159
 20
665.344944447339
 10
217.1152482369789
 20
665.2066318297293
 10
217.1152482369789
 20
665.2066318297293
 10
236.5289139821807
 20
645.7978520261104
 10
236.5289139821807
 20
645.7978520261104
 97
        0
 97
        0
 75
     2
 76
     1
 98
        0
  0
POLYLINE
  5
D9
330
D3
100
AcDbEntity
  8
LSSR
 62
   250
420
  2301728
370
     9
100
AcDb2dPolyline
 66
     1
 10
0.0
 20
0.0
 30
0.0
  0
VERTEX
  5
DA
330
D9
100
AcDbEntity
  8
LSSR
 62
   250
420
  2301728
370
     9
100
AcDbVertex
100
AcDb2dVertex
 10
165.7643257214831
 20
716.562440303821
 30
0.0
  0
VERTEX
  5
DB
330
D9
100
AcDbEntity
  8
LSSR
 62
   250
420
  2301728
370
     9
100
AcDbVertex
100
AcDb2dVertex
 10
217.1152482369789
 20
665.2066318297293
 30
0.0
  0
SEQEND
  5
DC
330
D9
100
AcDbEntity
  8
LSSR
 62
   250
420
  2301728
370
     9
  0
POLYLINE
  5
DD
330
D3
100
AcDbEntity
  8
LSSR
 62
   250
420
  2301728
370
     9
100
AcDb2dPolyline
 66
     1
 10
0.0
 20
0.0
 30
0.0
  0
VERTEX
  5
DE
330
DD
100
AcDbEntity
  8
LSSR
 62
   250
420
  2301728
370
     9
100
AcDbVertex
100
AcDb2dVertex
 10
236.6312333507349
 20
645.9668738406463
 30
0.0
  0
VERTEX
  5
124
330
DD
100
AcDbEntity
  8
0
100
AcDbVertex
100
AcDb2dVertex
 10
236.6312333507349
 20
645.9668738406463
 30
0.0
  0
SEQEND
  5
DF
330
DD
100
AcDbEntity
  8
LSSR
 62
   250
420
  2301728
370
     9
  0
ENDBLK
  5
D6
330
D3
100
AcDbEntity
  8
0
100
AcDbBlockEnd
  0
BLOCK
  5
E2
330
E0
100
AcDbEntity
  8
0
100
AcDbBlockBegin
  2
block 11
 70
     0
 10
0.0
 20
0.0
 30
0.0
  3
block 11
  1

  0
INSERT
  5
E5
330
E0
100
AcDbEntity
  8
LSSR
100
AcDbBlockReference
  2
block 12
 10
0.0
 20
0.0
 30
0.0
  0
INSERT
  5
F3
330
E0
100
AcDbEntity
  8
LSSR
100
AcDbBlockReference
  2
block 13
 10
0.0
 20
0.0
 30
0.0
  0
ENDBLK
  5
E3
330
E0
100
AcDbEntity
  8
0
100
AcDbBlockEnd
  0
BLOCK
  5
E6
330
E4
100
AcDbEntity
  8
0
100
AcDbBlockBegin
  2
block 12
 70
     0
 10
0.0
 20
0.0
 30
0.0
  3
block 12
  1

  0
POLYLINE
  5
E8
330
E4
100
AcDbEntity
  8
LSSR
 62
   250
420
  2301728
370
     9
100
AcDb2dPolyline
 66
     1
 10
0.0
 20
0.0
 30
0.0
  0
VERTEX
  5
E9
330
E8
100
AcDbEntity
  8
LSSR
 62
   250
420
  2301728
370
     9
100
AcDbVertex
100
AcDb2dVertex
 10
266.0077680949671
 20
613.1359245484009
 30
0.0
  0
VERTEX
  5
EA
330
E8
100
AcDbEntity
  8
LSSR
 62
   250
420
  2301728
370
     9
100
AcDbVertex
100
AcDb2dVertex
 10
266.0915305502103
 20
611.3491895975812
 30
0.0
  0
VERTEX
  5
EB
330
E8
100
AcDbEntity
  8
LSSR
 62
   250
420
  2301728
370
     9
100
AcDbVertex
100
AcDb2dVertex
 10
264.9300015246799
 20
611.0286881318734
 30
0.0
  0
VERTEX
  5
EC
330
E8
100
AcDbEntity
  8
LSSR
 62
   250
420
  2301728
370
     9
100
AcDbVertex
100
AcDb2dVertex
 10
240.0533649023291
 20
635.8869535350314
 30
0.0
  0
VERTEX
  5
ED
330
E8
100
AcDbEntity
  8
LSSR
 62
   250
420
  2301728
370
     9
100
AcDbVertex
100
AcDb2dVertex
 10
240.3710460098746
 20
637.0506797430462
 30
0.0
  0
VERTEX
  5
EE
330
E8
100
AcDbEntity
  8
LSSR
 62
   250
420
  2301728
370
     9
100
AcDbVertex
100
AcDb2dVertex
 10
242.149874714838
 20
636.9049360887084
 30
0.0
  0
VERTEX
  5
EF
330
E8
100
AcDbEntity
  8
LSSR
 62
   250
420
  2301728
370
     9
100
AcDbVertex
100
AcDb2dVertex
 10
266.0077680949671
 20
613.1359245484009
 30
0.0
  0
SEQEND
  5
F1
330
E8
100
AcDbEntity
  8
LSSR
 62
   250
420
  2301728
370
     9
  0
HATCH
  5
F0
330
E4
100
AcDbEntity
  8
LSSR
 62
   254
420
 13358815
100
AcDbHatch
 10
0.0
 20
0.0
 30
0.0
210
0.0
220
0.0
230
1.0
  2
SOLID
 70
     1
 71
     0
 91
        1
 92
        1
 93
        6
 72
     1
 10
266.0077680949671
 20
613.1359245484009
 11
266.0915305502103
 21
611.3491895975812
 72
     1
 10
266.0915305502103
 20
611.3491895975812
 11
264.9300015246799
 21
611.0286881318734
 72
     1
 10
264.9300015246799
 20
611.0286881318734
 11
240.0533649023291
 21
635.8869535350314
 72
     1
 10
240.0533649023291
 20
635.8869535350314
 11
240.3710460098746
 21
637.0506797430462
 72
     1
 10
240.3710460098746
 20
637.0506797430462
 11
242.149874714838
 21
636.9049360887084
 72
     1
 10
242.149874714838
 20
636.9049360887084
 11
266.0077680949671
 21
613.1359245484009
 97
        0
 75
     2
 76
     1
 98
        0
  0
ENDBLK
  5
E7
330
E4
100
AcDbEntity
  8
0
100
AcDbBlockEnd
  0
BLOCK
  5
F4
330
F2
100
AcDbEntity
  8
0
100
AcDbBlockBegin
  2
block 13
 70
     0
 10
0.0
 20
0.0
 30
0.0
  3
block 13
  1

  0
POLYLINE
  5
F6
330
F2
100
AcDbEntity
  8
LSSR
 62
   250
420
  2301728
370
     5
100
AcDb2dPolyline
 66
     1
 10
0.0
 20
0.0
 30
0.0
  0
VERTEX
  5
F7
330
F6
100
AcDbEntity
  8
LSSR
 62
   250
420
  2301728
370
     5
100
AcDbVertex
100
AcDb2dVertex
 10
241.3803755685394
 20
636.0413501843814
 30
0.0
  0
VERTEX
  5
F8
330
F6
100
AcDbEntity
  8
LSSR
 62
   250
420
  2301728
370
     5
100
AcDbVertex
100
AcDb2dVertex
 10
264.4730258288382
 20
612.9676943189534
 30
0.0
  0
SEQEND
  5
F9
330
F6
100
AcDbEntity
  8
LSSR
 62
   250
420
  2301728
370
     5
  0
ENDBLK
  5
F5
330
F2
100
AcDbEntity
  8
0
100
AcDbBlockEnd
  0
ENDSEC
  0
SECTION
  2
ENTITIES
  0
INSERT
  5
42
330
1F
100
AcDbEntity
  8
Layer 2
100
AcDbBlockReference
  2
block 2
 10
0.0
 20
0.0
 30
0.0
  0
POLYLINE
  5
57
330
1F
100
AcDbEntity
  8
Layer 2
 62
   250
420
  2301728
370
    25
100
AcDb2dPolyline
 66
     1
 10
0.0
 20
0.0
 30
0.0
  0
VERTEX
  5
58
330
57
100
AcDbEntity
  8
Layer 2
 62
   250
420
  2301728
370
    25
100
AcDbVertex
100
AcDb2dVertex
 10
491.3219072838638
 20
729.1501158203782
 30
0.0
  0
VERTEX
  5
59
330
57
100
AcDbEntity
  8
Layer 2
 62
   250
420
  2301728
370
    25
100
AcDbVertex
100
AcDb2dVertex
 10
491.3219072838638
 20
718.2350442214374
 30
0.0
  0
SEQEND
  5
5A
330
57
100
AcDbEntity
  8
Layer 2
 62
   250
420
  2301728
370
    25
  0
POLYLINE
  5
5B
330
1F
100
AcDbEntity
  8
Layer 2
 62
   250
420
  2301728
370
    25
100
AcDb2dPolyline
 66
     1
 10
0.0
 20
0.0
 30
0.0
  0
VERTEX
  5
5C
330
5B
100
AcDbEntity
  8
Layer 2
 62
   250
420
  2301728
370
    25
100
AcDbVertex
100
AcDb2dVertex
 10
491.3219072838638
 20
833.503536664728
 30
0.0
  0
VERTEX
  5
5D
330
5B
100
AcDbEntity
  8
Layer 2
 62
   250
420
  2301728
370
    25
100
AcDbVertex
100
AcDb2dVertex
 10
491.3219072838638
 20
822.5884650657854
 30
0.0
  0
SEQEND
  5
5E
330
5B
100
AcDbEntity
  8
Layer 2
 62
   250
420
  2301728
370
    25
  0
POLYLINE
  5
5F
330
1F
100
AcDbEntity
  8
Layer 2
 62
   250
420
  2301728
370
    25
100
AcDb2dPolyline
 66
     1
 10
0.0
 20
0.0
 30
0.0
  0
VERTEX
  5
60
330
5F
100
AcDbEntity
  8
Layer 2
 62
   250
420
  2301728
370
    25
100
AcDbVertex
100
AcDb2dVertex
 10
48.96568156778721
 20
729.1501158203782
 30
0.0
  0
VERTEX
  5
61
330
5F
100
AcDbEntity
  8
Layer 2
 62
   250
420
  2301728
370
    25
100
AcDbVertex
100
AcDb2dVertex
 10
48.96568156778721
 20
718.2350442214374
 30
0.0
  0
SEQEND
  5
62
330
5F
100
AcDbEntity
  8
Layer 2
 62
   250
420
  2301728
370
    25
  0
POLYLINE
  5
63
330
1F
100
AcDbEntity
  8
Layer 2
 62
   250
420
  2301728
370
    25
100
AcDb2dPolyline
 66
     1
 10
0.0
 20
0.0
 30
0.0
  0
VERTEX
  5
64
330
63
100
AcDbEntity
  8
Layer 2
 62
   250
420
  2301728
370
    25
100
AcDbVertex
100
AcDb2dVertex
 10
48.96568156778721
 20
833.503536664728
 30
0.0
  0
VERTEX
  5
65
330
63
100
AcDbEntity
  8
Layer 2
 62
   250
420
  2301728
370
    25
100
AcDbVertex
100
AcDb2dVertex
 10
48.96568156778721
 20
822.5884650657854
 30
0.0
  0
SEQEND
  5
66
330
63
100
AcDbEntity
  8
Layer 2
 62
   250
420
  2301728
370
    25
  0
INSERT
  5
68
330
1F
100
AcDbEntity
  8
Layer 2
100
AcDbBlockReference
  2
block 3
 10
0.0
 20
0.0
 30
0.0
  0
INSERT
  5
92
330
1F
100
AcDbEntity
  8
LSSR
100
AcDbBlockReference
  2
block 4
 10
0.0
 20
0.0
 30
0.0
  0
INSERT
  5
D0
330
1F
100
AcDbEntity
  8
LSSR
100
AcDbBlockReference
  2
block 9
 10
0.0
 20
0.0
 30
0.0
  0
POLYLINE
  5
106
330
1F
100
AcDbEntity
  8
LSSR
 62
   250
420
  2301728
370
    25
100
AcDb2dPolyline
 66
     1
 10
0.0
 20
0.0
 30
0.0
  0
VERTEX
  5
107
330
106
100
AcDbEntity
  8
LSSR
 62
   250
420
  2301728
370
    25
100
AcDbVertex
100
AcDb2dVertex
 10
229.7494233667658
 20
660.065769546045
 30
0.0
  0
VERTEX
  5
108
330
106
100
AcDbEntity
  8
LSSR
 62
   250
420
  2301728
370
    25
100
AcDbVertex
100
AcDb2dVertex
 10
283.7784008215949
 20
606.0367920912167
 30
0.0
  0
SEQEND
  5
109
330
106
100
AcDbEntity
  8
LSSR
 62
   250
420
  2301728
370
    25
  0
POLYLINE
  5
10A
330
1F
100
AcDbEntity
  8
LSSR
 62
   250
420
  2301728
370
    25
100
AcDb2dPolyline
 66
     1
 10
0.0
 20
0.0
 30
0.0
  0
VERTEX
  5
10B
330
10A
100
AcDbEntity
  8
LSSR
 62
   250
420
  2301728
370
    25
100
AcDbVertex
100
AcDb2dVertex
 10
297.9918547058405
 20
723.83662546082
 30
0.0
  0
VERTEX
  5
10C
330
10A
100
AcDbEntity
  8
LSSR
 62
   250
420
  2301728
370
    25
100
AcDbVertex
100
AcDb2dVertex
 10
354.4198832007714
 20
667.408596965889
 30
0.0
  0
SEQEND
  5
10D
330
10A
100
AcDbEntity
  8
LSSR
 62
   250
420
  2301728
370
    25
  0
MTEXT
  5
10F
330
1F
100
AcDbEntity
  8
Callouts
 62
   250
420
  2301728
100
AcDbMText
 10
229.6069793701172
 20
477.6926956176758
 30
0.0
 40
8.495999999999999
 41
0.0
 46
0.0
 71
     7
 72
     1
  1
\fHelvetica Neue LT Std 55 Roman|b0|i0|c0|p34;\W1;SIMPSON Strong-Tie\H4.95317;®\H8.496; ^C
 73
     1
 44
1.0
  0
MTEXT
  5
110
330
1F
100
AcDbEntity
  8
Callouts
 62
   250
420
  2301728
100
AcDbMText
 10
153.2788543701172
 20
463.2932815551758
 30
0.0
 40
8.495999999999999
 41
0.0
 46
0.0
 71
     7
 72
     1
  1
\fHelvetica Neue LT Std 55 Roman|b0|i0|c0|p34;\W1;LSSR Installation (compound miter cut)) - Top View
 73
     1
 44
1.0
  0
MTEXT
  5
111
330
1F
100
AcDbEntity
  8
Callouts
 62
   250
420
  2236191
100
AcDbMText
 10
148.9989547729492
 20
634.1721229553223
 30
0.0
 40
8.495999999999999
 41
0.0
 46
0.0
 71
     7
 72
     1
  1
\fHelvetica Neue LT Std 57 Condensed|b0|i0|c0|p34;\W1;LSSR
 73
     1
 44
1.0
  0
POLYLINE
  5
112
330
1F
100
AcDbEntity
  8
Callouts
 62
   250
420
  2236191
370
    18
100
AcDb2dPolyline
 66
     1
 10
0.0
 20
0.0
 30
0.0
  0
VERTEX
  5
113
330
112
100
AcDbEntity
  8
Callouts
 62
   250
420
  2236191
370
    18
100
AcDbVertex
100
AcDb2dVertex
 10
455.5958791459143
 20
706.3163333827442
 30
0.0
  0
VERTEX
  5
114
330
112
100
AcDbEntity
  8
Callouts
 62
   250
420
  2236191
370
    18
100
AcDbVertex
100
AcDb2dVertex
 10
461.5035636826906
 20
728.6226112133536
 30
0.0
  0
SEQEND
  5
115
330
112
100
AcDbEntity
  8
Callouts
 62
   250
420
  2236191
370
    18
  0
POLYLINE
  5
116
330
1F
100
AcDbEntity
  8
Callouts
 62
   250
420
  2236191
370
    18
100
AcDb2dPolyline
 66
     1
 10
0.0
 20
0.0
 30
0.0
  0
VERTEX
  5
117
330
116
100
AcDbEntity
  8
Callouts
 62
   250
420
  2236191
370
    18
100
AcDbVertex
100
AcDb2dVertex
 10
167.3851796539639
 20
649.3447556635856
 30
0.0
  0
VERTEX
  5
118
330
116
100
AcDbEntity
  8
Callouts
 62
   250
420
  2236191
370
    18
100
AcDbVertex
100
AcDb2dVertex
 10
197.2953940690477
 20
681.120796449567
 30
0.0
  0
SEQEND
  5
119
330
116
100
AcDbEntity
  8
Callouts
 62
   250
420
  2236191
370
    18
  0
MTEXT
  5
11A
330
1F
100
AcDbEntity
  8
Callouts
 62
   250
420
  2301728
100
AcDbMText
 10
412.9902305603027
 20
658.5104675292969
 30
0.0
 40
8.495999999999999
 41
0.0
 46
0.0
 71
     7
 72
     1
  1
\fHelvetica Neue LT Std 57 Condensed|b0|i0|c0|p34;\W1;Rafter
 73
     1
 44
1.0
  0
MTEXT
  5
11B
330
1F
100
AcDbEntity
  8
Callouts
 62
   250
420
  2301728
100
AcDbMText
 10
443.978141784668
 20
691.4536933898926
 30
0.0
 40
8.495999999999999
 41
0.0
 46
0.0
 71
     7
 72
     1
  1
\fHelvetica Neue LT Std 57 Condensed|b0|i0|c0|p34;\W1;Ridge Board
 73
     1
 44
1.0
  0
MTEXT
  5
11C
330
1F
100
AcDbEntity
  8
Callouts
 62
   250
420
  2301728
100
AcDbMText
 10
73.87387084960938
 20
581.2109107971191
 30
0.0
 40
8.495999999999999
 41
0.0
 46
0.0
 71
     7
 72
     1
  1
\fHelvetica Neue LT Std 57 Condensed|b0|i0|c0|p34;\W1;* Hanger installed after Rafter is ^I
 73
     1
 44
1.0
  0
MTEXT
  5
11D
330
1F
100
AcDbEntity
  8
Callouts
 62
   250
420
  2301728
100
AcDbMText
 10
73.87387084960938
 20
567.2109107971191
 30
0.0
 40
8.495999999999999
 41
0.0
 46
0.0
 71
     7
 72
     1
  1
\fHelvetica Neue LT Std 57 Condensed|b0|i0|c0|p34;\W1;^Itacked in place
 73
     1
 44
1.0
  0
POLYLINE
  5
11E
330
1F
100
AcDbEntity
  8
Callouts
 62
   250
420
  2236191
370
    18
100
AcDb2dPolyline
 66
     1
 10
0.0
 20
0.0
 30
0.0
  0
VERTEX
  5
11F
330
11E
100
AcDbEntity
  8
Callouts
 62
   250
420
  2236191
370
    18
100
AcDbVertex
100
AcDb2dVertex
 10
408.5107727629347
 20
660.2470319794247
 30
0.0
  0
VERTEX
  5
120
330
11E
100
AcDbEntity
  8
Callouts
 62
   250
420
  2236191
370
    18
100
AcDbVertex
100
AcDb2dVertex
 10
380.8433320356598
 20
643.1913164590933
 30
0.0
  0
SEQEND
  5
121
330
11E
100
AcDbEntity
  8
Callouts
 62
   250
420
  2236191
370
    18
  0
ENDSEC
  0
SECTION
  2
OBJECTS
  0
DICTIONARY
  5
C
330
0
100
AcDbDictionary
281
     1
  3
ACAD_GROUP
350
D
  3
ACAD_LAYOUT
350
1A
  3
ACAD_MATERIAL
350
3B
  3
ACAD_MLEADERSTYLE
350
126
  3
ACAD_MLINESTYLE
350
17
  3
ACAD_PLOTSETTINGS
350
19
  3
ACAD_PLOTSTYLENAME
350
E
  3
ACAD_TABLESTYLE
350
125
  3
ACAD_VISUALSTYLE
350
2A
  0
SUN
  5
3F
330
29
100
AcDbSun
 90
        1
290
     0
 63
     7
421
 16777215
 40
1.0
291
     1
 91
  2455826
 92
 54000000
292
     0
 70
     2
 71
   256
280
     1
  0
DICTIONARY
  5
D
102
{ACAD_REACTORS
330
C
102
}
330
C
100
AcDbDictionary
281
     1
  0
DICTIONARY
  5
1A
102
{ACAD_REACTORS
330
C
102
}
330
C
100
AcDbDictionary
281
     1
  3
Layout1
350
1E
  3
Layout2
350
26
  3
Model
350
22
  0
DICTIONARY
  5
3B
102
{ACAD_REACTORS
330
C
102
}
330
C
100
AcDbDictionary
281
     1
  3
ByBlock
350
3D
  3
ByLayer
350
3C
  3
Global
350
3E
  0
DICTIONARY
  5
126
102
{ACAD_REACTORS
330
C
102
}
330
C
100
AcDbDictionary
281
     1
  0
DICTIONARY
  5
17
102
{ACAD_REACTORS
330
C
102
}
330
C
100
AcDbDictionary
281
     1
  3
Standard
350
18
  0
DICTIONARY
  5
19
102
{ACAD_REACTORS
330
C
102
}
330
C
100
AcDbDictionary
281
     1
  0
ACDBDICTIONARYWDFLT
  5
E
102
{ACAD_REACTORS
330
C
102
}
330
C
100
AcDbDictionary
281
     1
  3
Normal
350
F
100
AcDbDictionaryWithDefault
340
F
  0
DICTIONARY
  5
125
102
{ACAD_REACTORS
330
C
102
}
330
C
100
AcDbDictionary
281
     1
  0
DICTIONARY
  5
2A
102
{ACAD_REACTORS
330
C
102
}
330
C
100
AcDbDictionary
281
     1
  3
2dWireframe
350
2F
  3
3D Hidden
350
31
  3
3dWireframe
350
30
  3
Basic
350
32
  3
Brighten
350
36
  3
ColorChange
350
3A
  3
Conceptual
350
34
  3
Dim
350
35
  3
Facepattern
350
39
  3
Flat
350
2B
  3
FlatWithEdges
350
2C
  3
Gouraud
350
2D
  3
GouraudWithEdges
350
2E
  3
Linepattern
350
38
  3
Realistic
350
33
  3
Thicken
350
37
  0
LAYOUT
  5
1E
102
{ACAD_REACTORS
330
1A
102
}
330
1A
100
AcDbPlotSettings
  1

  2
none_device
  4

  6

 40
0.0
 41
0.0
 42
0.0
 43
0.0
 44
0.0
 45
0.0
 46
0.0
 47
0.0
 48
0.0
 49
0.0
140
0.0
141
0.0
142
1.0
143
1.0
 70
   688
 72
     0
 73
     0
 74
     5
  7

 75
    16
 76
     0
 77
     2
 78
   300
147
1.0
148
0.0
149
0.0
100
AcDbLayout
  1
Layout1
 70
     1
 71
     1
 10
0.0
 20
0.0
 11
12.0
 21
9.0
 12
0.0
 22
0.0
 32
0.0
 14
1.000000000000000E+20
 24
1.000000000000000E+20
 34
1.000000000000000E+20
 15
-1.000000000000000E+20
 25
-1.000000000000000E+20
 35
-1.000000000000000E+20
146
0.0
 13
0.0
 23
0.0
 33
0.0
 16
1.0
 26
0.0
 36
0.0
 17
0.0
 27
1.0
 37
0.0
 76
     0
330
1B
  0
LAYOUT
  5
26
102
{ACAD_REACTORS
330
1A
102
}
330
1A
100
AcDbPlotSettings
  1

  2
none_device
  4

  6

 40
0.0
 41
0.0
 42
0.0
 43
0.0
 44
0.0
 45
0.0
 46
0.0
 47
0.0
 48
0.0
 49
0.0
140
0.0
141
0.0
142
1.0
143
1.0
 70
   688
 72
     0
 73
     0
 74
     5
  7

 75
    16
 76
     0
 77
     2
 78
   300
147
1.0
148
0.0
149
0.0
100
AcDbLayout
  1
Layout2
 70
     1
 71
     2
 10
0.0
 20
0.0
 11
0.0
 21
0.0
 12
0.0
 22
0.0
 32
0.0
 14
0.0
 24
0.0
 34
0.0
 15
0.0
 25
0.0
 35
0.0
146
0.0
 13
0.0
 23
0.0
 33
0.0
 16
1.0
 26
0.0
 36
0.0
 17
0.0
 27
1.0
 37
0.0
 76
     0
330
23
  0
LAYOUT
  5
22
102
{ACAD_REACTORS
330
1A
102
}
330
1A
100
AcDbPlotSettings
  1

  2
none_device
  4

  6

 40
0.0
 41
0.0
 42
0.0
 43
0.0
 44
0.0
 45
0.0
 46
0.0
 47
0.0
 48
0.0
 49
0.0
140
0.0
141
0.0
142
1.0
143
1.0
 70
  1712
 72
     0
 73
     0
 74
     0
  7

 75
     0
 76
     0
 77
     2
 78
   300
147
1.0
148
0.0
149
0.0
100
AcDbLayout
  1
Model
 70
     1
 71
     0
 10
0.0
 20
0.0
 11
12.0
 21
9.0
 12
0.0
 22
0.0
 32
0.0
 14
1.000000000000000E+20
 24
1.000000000000000E+20
 34
1.000000000000000E+20
 15
-1.000000000000000E+20
 25
-1.000000000000000E+20
 35
-1.000000000000000E+20
146
0.0
 13
0.0
 23
0.0
 33
0.0
 16
1.0
 26
0.0
 36
0.0
 17
0.0
 27
1.0
 37
0.0
 76
     0
330
1F
331
29
  0
MATERIAL
  5
3D
102
{ACAD_REACTORS
330
3B
102
}
330
3B
100
AcDbMaterial
  1
ByBlock
 72
     1
 94
      127
  0
MATERIAL
  5
3C
102
{ACAD_REACTORS
330
3B
102
}
330
3B
100
AcDbMaterial
  1
ByLayer
 72
     1
 94
      127
  0
MATERIAL
  5
3E
102
{ACAD_REACTORS
330
3B
102
}
330
3B
100
AcDbMaterial
  1
Global
 72
     1
 94
      127
  0
MLINESTYLE
  5
18
102
{ACAD_REACTORS
330
17
102
}
330
17
100
AcDbMlineStyle
  2
Standard
 70
     0
  3

 62
   256
 51
90.0
 52
90.0
 71
     2
 49
0.5
 62
   256
  6
BYLAYER
 49
-0.5
 62
   256
  6
BYLAYER
  0
ACDBPLACEHOLDER
  5
F
102
{ACAD_REACTORS
330
E
102
}
330
E
  0
VISUALSTYLE
  5
2F
102
{ACAD_REACTORS
330
2A
102
}
330
2A
100
AcDbVisualStyle
  2
2dWireframe
 70
     4
177
     2
291
     0
 71
     0
176
     1
 72
     2
176
     1
 73
     0
176
     1
 90
        0
176
     1
 40
-0.6
176
     1
 41
-30.0
176
     1
 62
     5
 63
     7
421
 16777215
176
     1
 74
     1
176
     1
 91
        4
176
     1
 64
     7
176
     1
 65
   257
176
     1
 75
     1
176
     1
175
     1
176
     1
 42
1.0
176
     1
 92
        0
176
     1
 66
   257
176
     1
 43
1.0
176
     1
 76
     1
176
     1
 77
     6
176
     1
 78
     2
176
     1
 67
     7
176
     1
 79
     5
176
     1
170
     0
176
     1
171
     0
176
     1
290
     0
176
     1
 93
        1
176
     1
 44
0.0
176
     1
173
     0
176
     1
  0
VISUALSTYLE
  5
31
102
{ACAD_REACTORS
330
2A
102
}
330
2A
100
AcDbVisualStyle
  2
3D Hidden
 70
     6
177
     2
291
     0
 71
     1
176
     1
 72
     2
176
     1
 73
     2
176
     1
 90
        0
176
     1
 40
-0.6
176
     1
 41
-30.0
176
     1
 62
     5
 63
     7
421
 16777215
176
     1
 74
     2
176
     1
 91
        2
176
     1
 64
     7
176
     1
 65
   257
176
     1
 75
     2
176
     1
175
     1
176
     1
 42
40.0
176
     1
 92
        0
176
     1
 66
   257
176
     1
 43
1.0
176
     1
 76
     1
176
     1
 77
     6
176
     1
 78
     2
176
     1
 67
     7
176
     1
 79
     3
176
     1
170
     0
176
     1
171
     0
176
     1
290
     0
176
     1
 93
        1
176
     1
 44
0.0
176
     1
173
     0
176
     1
  0
VISUALSTYLE
  5
30
102
{ACAD_REACTORS
330
2A
102
}
330
2A
100
AcDbVisualStyle
  2
3dWireframe
 70
     5
177
     2
291
     0
 71
     0
176
     1
 72
     2
176
     1
 73
     0
176
     1
 90
        0
176
     1
 40
-0.6
176
     1
 41
-30.0
176
     1
 62
     5
 63
     7
421
 16777215
176
     1
 74
     1
176
     1
 91
        4
176
     1
 64
     7
176
     1
 65
   257
176
     1
 75
     1
176
     1
175
     1
176
     1
 42
1.0
176
     1
 92
        0
176
     1
 66
   257
176
     1
 43
1.0
176
     1
 76
     1
176
     1
 77
     6
176
     1
 78
     2
176
     1
 67
     7
176
     1
 79
     5
176
     1
170
     0
176
     1
171
     0
176
     1
290
     0
176
     1
 93
        1
176
     1
 44
0.0
176
     1
173
     0
176
     1
  0
VISUALSTYLE
  5
32
102
{ACAD_REACTORS
330
2A
102
}
330
2A
100
AcDbVisualStyle
  2
Basic
 70
     7
177
     2
291
     1
 71
     1
176
     1
 72
     0
176
     1
 73
     1
176
     1
 90
        0
176
     1
 40
-0.6
176
     1
 41
-30.0
176
     1
 62
     5
 63
     7
421
 16777215
176
     1
 74
     0
176
     1
 91
        4
176
     1
 64
     7
176
     1
 65
   257
176
     1
 75
     1
176
     1
175
     1
176
     1
 42
1.0
176
     1
 92
        8
176
     1
 66
     7
176
     1
 43
1.0
176
     1
 76
     1
176
     1
 77
     6
176
     1
 78
     2
176
     1
 67
     7
176
     1
 79
     5
176
     1
170
     0
176
     1
171
     0
176
     1
290
     0
176
     1
 93
        1
176
     1
 44
0.0
176
     1
173
     0
176
     1
  0
VISUALSTYLE
  5
36
102
{ACAD_REACTORS
330
2A
102
}
330
2A
100
AcDbVisualStyle
  2
Brighten
 70
    12
177
     2
291
     1
 71
     2
176
     1
 72
     2
176
     1
 73
     0
176
     1
 90
        0
176
     1
 40
-0.6
176
     1
 41
-30.0
176
     1
 62
     5
 63
     7
421
 16777215
176
     1
 74
     1
176
     1
 91
        4
176
     1
 64
     7
176
     1
 65
   257
176
     1
 75
     1
176
     1
175
     1
176
     1
 42
1.0
176
     1
 92
        8
176
     1
 66
     7
176
     1
 43
1.0
176
     1
 76
     1
176
     1
 77
     6
176
     1
 78
     2
176
     1
 67
     7
176
     1
 79
     5
176
     1
170
     0
176
     1
171
     0
176
     1
290
     0
176
     1
 93
        1
176
     1
 44
50.0
176
     1
173
     0
176
     1
  0
VISUALSTYLE
  5
3A
102
{ACAD_REACTORS
330
2A
102
}
330
2A
100
AcDbVisualStyle
  2
ColorChange
 70
    16
177
     2
291
     1
 71
     2
176
     1
 72
     2
176
     1
 73
     3
176
     1
 90
        0
176
     1
 40
-0.6
176
     1
 41
-30.0
176
     1
 62
     5
 63
     8
421
  8421504
176
     1
 74
     1
176
     1
 91
        4
176
     1
 64
     7
176
     1
 65
   257
176
     1
 75
     1
176
     1
175
     1
176
     1
 42
1.0
176
     1
 92
        8
176
     1
 66
     8
424
  8421504
176
     1
 43
1.0
176
     1
 76
     1
176
     1
 77
     6
176
     1
 78
     2
176
     1
 67
     7
176
     1
 79
     5
176
     1
170
     0
176
     1
171
     0
176
     1
290
     0
176
     1
 93
        1
176
     1
 44
0.0
176
     1
173
     0
176
     1
  0
VISUALSTYLE
  5
34
102
{ACAD_REACTORS
330
2A
102
}
330
2A
100
AcDbVisualStyle
  2
Conceptual
 70
     9
177
     2
291
     0
 71
     3
176
     1
 72
     2
176
     1
 73
     0
176
     1
 90
        0
176
     1
 40
-0.6
176
     1
 41
-30.0
176
     1
 62
     5
 63
     7
421
 16777215
176
     1
 74
     2
176
     1
 91
        2
176
     1
 64
     7
176
     1
 65
   257
176
     1
 75
     1
176
     1
175
     1
176
     1
 42
40.0
176
     1
 92
        8
176
     1
 66
     7
176
     1
 43
1.0
176
     1
 76
     1
176
     1
 77
     6
176
     1
 78
     2
176
     1
 67
     7
176
     1
 79
     3
176
     1
170
     0
176
     1
171
     0
176
     1
290
     0
176
     1
 93
        1
176
     1
 44
0.0
176
     1
173
     0
176
     1
  0
VISUALSTYLE
  5
35
102
{ACAD_REACTORS
330
2A
102
}
330
2A
100
AcDbVisualStyle
  2
Dim
 70
    11
177
     2
291
     1
 71
     2
176
     1
 72
     2
176
     1
 73
     0
176
     1
 90
        0
176
     1
 40
-0.6
176
     1
 41
-30.0
176
     1
 62
     5
 63
     7
421
 16777215
176
     1
 74
     1
176
     1
 91
        4
176
     1
 64
     7
176
     1
 65
   257
176
     1
 75
     1
176
     1
175
     1
176
     1
 42
1.0
176
     1
 92
        8
176
     1
 66
     7
176
     1
 43
1.0
176
     1
 76
     1
176
     1
 77
     6
176
     1
 78
     2
176
     1
 67
     7
176
     1
 79
     5
176
     1
170
     0
176
     1
171
     0
176
     1
290
     0
176
     1
 93
        1
176
     1
 44
-50.0
176
     1
173
     0
176
     1
  0
VISUALSTYLE
  5
39
102
{ACAD_REACTORS
330
2A
102
}
330
2A
100
AcDbVisualStyle
  2
Facepattern
 70
    15
177
     2
291
     1
 71
     2
176
     1
 72
     2
176
     1
 73
     0
176
     1
 90
        0
176
     1
 40
-0.6
176
     1
 41
-30.0
176
     1
 62
     5
 63
     7
421
 16777215
176
     1
 74
     1
176
     1
 91
        4
176
     1
 64
     7
176
     1
 65
   257
176
     1
 75
     1
176
     1
175
     1
176
     1
 42
1.0
176
     1
 92
        8
176
     1
 66
     7
176
     1
 43
1.0
176
     1
 76
     1
176
     1
 77
     6
176
     1
 78
     2
176
     1
 67
     7
176
     1
 79
     5
176
     1
170
     0
176
     1
171
     0
176
     1
290
     0
176
     1
 93
        1
176
     1
 44
0.0
176
     1
173
     0
176
     1
  0
VISUALSTYLE
  5
2B
102
{ACAD_REACTORS
330
2A
102
}
330
2A
100
AcDbVisualStyle
  2
Flat
 70
     0
177
     2
291
     1
 71
     2
176
     1
 72
     1
176
     1
 73
     1
176
     1
 90
        2
176
     1
 40
-0.6
176
     1
 41
30.0
176
     1
 62
     5
 63
     7
421
 16777215
176
     1
 74
     0
176
     1
 91
        4
176
     1
 64
     7
176
     1
 65
   257
176
     1
 75
     1
176
     1
175
     1
176
     1
 42
1.0
176
     1
 92
        8
176
     1
 66
     7
176
     1
 43
1.0
176
     1
 76
     1
176
     1
 77
     6
176
     1
 78
     2
176
     1
 67
     7
176
     1
 79
     5
176
     1
170
     0
176
     1
171
     0
176
     1
290
     0
176
     1
 93
       13
176
     1
 44
0.0
176
     1
173
     0
176
     1
  0
VISUALSTYLE
  5
2C
102
{ACAD_REACTORS
330
2A
102
}
330
2A
100
AcDbVisualStyle
  2
FlatWithEdges
 70
     1
177
     2
291
     1
 71
     2
176
     1
 72
     1
176
     1
 73
     1
176
     1
 90
        2
176
     1
 40
-0.6
176
     1
 41
30.0
176
     1
 62
     5
 63
     7
421
 16777215
176
     1
 74
     1
176
     1
 91
        4
176
     1
 64
     7
176
     1
 65
   257
176
     1
 75
     1
176
     1
175
     1
176
     1
 42
1.0
176
     1
 92
        0
176
     1
 66
   257
176
     1
 43
1.0
176
     1
 76
     1
176
     1
 77
     6
176
     1
 78
     2
176
     1
 67
     7
176
     1
 79
     5
176
     1
170
     0
176
     1
171
     0
176
     1
290
     0
176
     1
 93
       13
176
     1
 44
0.0
176
     1
173
     0
176
     1
  0
VISUALSTYLE
  5
2D
102
{ACAD_REACTORS
330
2A
102
}
330
2A
100
AcDbVisualStyle
  2
Gouraud
 70
     2
177
     2
291
     1
 71
     2
176
     1
 72
     2
176
     1
 73
     1
176
     1
 90
        2
176
     1
 40
-0.6
176
     1
 41
30.0
176
     1
 62
     5
 63
     7
421
 16777215
176
     1
 74
     0
176
     1
 91
        4
176
     1
 64
     7
176
     1
 65
   257
176
     1
 75
     1
176
     1
175
     1
176
     1
 42
1.0
176
     1
 92
        0
176
     1
 66
     7
176
     1
 43
1.0
176
     1
 76
     1
176
     1
 77
     6
176
     1
 78
     2
176
     1
 67
     7
176
     1
 79
     5
176
     1
170
     0
176
     1
171
     0
176
     1
290
     0
176
     1
 93
       13
176
     1
 44
0.0
176
     1
173
     0
176
     1
  0
VISUALSTYLE
  5
2E
102
{ACAD_REACTORS
330
2A
102
}
330
2A
100
AcDbVisualStyle
  2
GouraudWithEdges
 70
     3
177
     2
291
     1
 71
     2
176
     1
 72
     2
176
     1
 73
     1
176
     1
 90
        2
176
     1
 40
-0.6
176
     1
 41
30.0
176
     1
 62
     5
 63
     7
421
 16777215
176
     1
 74
     1
176
     1
 91
        4
176
     1
 64
     7
176
     1
 65
   257
176
     1
 75
     1
176
     1
175
     1
176
     1
 42
1.0
176
     1
 92
        0
176
     1
 66
   257
176
     1
 43
1.0
176
     1
 76
     1
176
     1
 77
     6
176
     1
 78
     2
176
     1
 67
     7
176
     1
 79
     5
176
     1
170
     0
176
     1
171
     0
176
     1
290
     0
176
     1
 93
       13
176
     1
 44
0.0
176
     1
173
     0
176
     1
  0
VISUALSTYLE
  5
38
102
{ACAD_REACTORS
330
2A
102
}
330
2A
100
AcDbVisualStyle
  2
Linepattern
 70
    14
177
     2
291
     1
 71
     2
176
     1
 72
     2
176
     1
 73
     0
176
     1
 90
        0
176
     1
 40
-0.6
176
     1
 41
-30.0
176
     1
 62
     5
 63
     7
421
 16777215
176
     1
 74
     1
176
     1
 91
        4
176
     1
 64
     7
176
     1
 65
   257
176
     1
 75
     7
176
     1
175
     7
176
     1
 42
1.0
176
     1
 92
        8
176
     1
 66
     7
176
     1
 43
1.0
176
     1
 76
     1
176
     1
 77
     6
176
     1
 78
     2
176
     1
 67
     7
176
     1
 79
     5
176
     1
170
     0
176
     1
171
     0
176
     1
290
     0
176
     1
 93
        1
176
     1
 44
0.0
176
     1
173
     0
176
     1
  0
VISUALSTYLE
  5
33
102
{ACAD_REACTORS
330
2A
102
}
330
2A
100
AcDbVisualStyle
  2
Realistic
 70
     8
177
     2
291
     0
 71
     2
176
     1
 72
     2
176
     1
 73
     0
176
     1
 90
        0
176
     1
 40
-0.6
176
     1
 41
-30.0
176
     1
 62
     5
 63
     7
421
 16777215
176
     1
 74
     1
176
     1
 91
        0
176
     1
 64
     7
176
     1
 65
   257
176
     1
 75
     1
176
     1
175
     1
176
     1
 42
1.0
176
     1
 92
        8
176
     1
 66
     8
424
  7895160
176
     1
 43
1.0
176
     1
 76
     1
176
     1
 77
     6
176
     1
 78
     2
176
     1
 67
     7
176
     1
 79
     5
176
     1
170
     0
176
     1
171
     0
176
     1
290
     0
176
     1
 93
       13
176
     1
 44
0.0
176
     1
173
     0
176
     1
  0
VISUALSTYLE
  5
37
102
{ACAD_REACTORS
330
2A
102
}
330
2A
100
AcDbVisualStyle
  2
Thicken
 70
    13
177
     2
291
     1
 71
     2
176
     1
 72
     2
176
     1
 73
     0
176
     1
 90
        0
176
     1
 40
-0.6
176
     1
 41
-30.0
176
     1
 62
     5
 63
     7
421
 16777215
176
     1
 74
     1
176
     1
 91
        4
176
     1
 64
     7
176
     1
 65
   257
176
     1
 75
     1
176
     1
175
     1
176
     1
 42
1.0
176
     1
 92
       12
176
     1
 66
     7
176
     1
 43
1.0
176
     1
 76
     1
176
     1
 77
     6
176
     1
 78
     2
176
     1
 67
     7
176
     1
 79
     5
176
     1
170
     0
176
     1
171
     0
176
     1
290
     0
176
     1
 93
        1
176
     1
 44
0.0
176
     1
173
     0
176
     1
  0
ENDSEC
  0
EOF
