  0
SECTION
  2
HEADER
  9
$ACADVER
  1
AC1024
  9
$ACADMAINTVER
 70
     6
  9
$DWGCODEPAGE
  3
ANSI_1252
  9
$INSBASE
 10
0.0
 20
0.0
 30
0.0
  9
$EXTMIN
 10
1.000000000000000E+20
 20
1.000000000000000E+20
 30
1.000000000000000E+20
  9
$EXTMAX
 10
-1.000000000000000E+20
 20
-1.000000000000000E+20
 30
-1.000000000000000E+20
  9
$LIMMIN
 10
0.0
 20
0.0
  9
$LIMMAX
 10
12.0
 20
9.0
  9
$ORTHOMODE
 70
     0
  9
$REGENMODE
 70
     1
  9
$FILLMODE
 70
     1
  9
$QTEXTMODE
 70
     0
  9
$MIRRTEXT
 70
     1
  9
$LTSCALE
 40
1.0
  9
$ATTMODE
 70
     1
  9
$TEXTSIZE
 40
0.2
  9
$TRACEWID
 40
0.05
  9
$TEXTSTYLE
  7
Standard
  9
$CLAYER
  8
0
  9
$CELTYPE
  6
ByLayer
  9
$CECOLOR
 62
   256
  9
$CELTSCALE
 40
1.0
  9
$DISPSILH
 70
     0
  9
$DIMSCALE
 40
1.0
  9
$DIMASZ
 40
0.18
  9
$DIMEXO
 40
0.0625
  9
$DIMDLI
 40
0.38
  9
$DIMRND
 40
0.0
  9
$DIMDLE
 40
0.0
  9
$DIMEXE
 40
0.18
  9
$DIMTP
 40
0.0
  9
$DIMTM
 40
0.0
  9
$DIMTXT
 40
0.18
  9
$DIMCEN
 40
0.09
  9
$DIMTSZ
 40
0.0
  9
$DIMTOL
 70
     0
  9
$DIMLIM
 70
     0
  9
$DIMTIH
 70
     1
  9
$DIMTOH
 70
     1
  9
$DIMSE1
 70
     0
  9
$DIMSE2
 70
     0
  9
$DIMTAD
 70
     0
  9
$DIMZIN
 70
     0
  9
$DIMBLK
  1

  9
$DIMASO
 70
     1
  9
$DIMSHO
 70
     1
  9
$DIMPOST
  1

  9
$DIMAPOST
  1

  9
$DIMALT
 70
     0
  9
$DIMALTD
 70
     2
  9
$DIMALTF
 40
25.4
  9
$DIMLFAC
 40
1.0
  9
$DIMTOFL
 70
     0
  9
$DIMTVP
 40
0.0
  9
$DIMTIX
 70
     0
  9
$DIMSOXD
 70
     0
  9
$DIMSAH
 70
     0
  9
$DIMBLK1
  1

  9
$DIMBLK2
  1

  9
$DIMSTYLE
  2
Standard
  9
$DIMCLRD
 70
     0
  9
$DIMCLRE
 70
     0
  9
$DIMCLRT
 70
     0
  9
$DIMTFAC
 40
1.0
  9
$DIMGAP
 40
0.09
  9
$DIMJUST
 70
     0
  9
$DIMSD1
 70
     0
  9
$DIMSD2
 70
     0
  9
$DIMTOLJ
 70
     1
  9
$DIMTZIN
 70
     0
  9
$DIMALTZ
 70
     0
  9
$DIMALTTZ
 70
     0
  9
$DIMUPT
 70
     0
  9
$DIMDEC
 70
     4
  9
$DIMTDEC
 70
     4
  9
$DIMALTU
 70
     2
  9
$DIMALTTD
 70
     2
  9
$DIMTXSTY
  7
Standard
  9
$DIMAUNIT
 70
     0
  9
$DIMADEC
 70
     0
  9
$DIMALTRND
 40
0.0
  9
$DIMAZIN
 70
     0
  9
$DIMDSEP
 70
    46
  9
$DIMATFIT
 70
     3
  9
$DIMFRAC
 70
     0
  9
$DIMLDRBLK
  1

  9
$DIMLUNIT
 70
     2
  9
$DIMLWD
 70
    -2
  9
$DIMLWE
 70
    -2
  9
$DIMTMOVE
 70
     0
  9
$DIMFXL
 40
1.0
  9
$DIMFXLON
 70
     0
  9
$DIMJOGANG
 40
0.7853981633974483
  9
$DIMTFILL
 70
     0
  9
$DIMTFILLCLR
 70
     0
  9
$DIMARCSYM
 70
     0
  9
$DIMLTYPE
  6

  9
$DIMLTEX1
  6

  9
$DIMLTEX2
  6

  9
$DIMTXTDIRECTION
 70
     0
  9
$LUNITS
 70
     2
  9
$LUPREC
 70
     4
  9
$SKETCHINC
 40
0.1
  9
$FILLETRAD
 40
0.5
  9
$AUNITS
 70
     0
  9
$AUPREC
 70
     0
  9
$MENU
  1
.
  9
$ELEVATION
 40
0.0
  9
$PELEVATION
 40
0.0
  9
$THICKNESS
 40
0.0
  9
$LIMCHECK
 70
     0
  9
$CHAMFERA
 40
0.5
  9
$CHAMFERB
 40
0.5
  9
$CHAMFERC
 40
1.0
  9
$CHAMFERD
 40
0.0
  9
$SKPOLY
 70
     0
  9
$TDCREATE
 40
2458781.659252014
  9
$TDUCREATE
 40
2458781.117585347
  9
$TDUPDATE
 40
2458781.659252199
  9
$TDUUPDATE
 40
2458781.117585532
  9
$TDINDWG
 40
0.0000000116
  9
$TDUSRTIMER
 40
0.0000000116
  9
$USRTIMER
 70
     1
  9
$ANGBASE
 50
0.0
  9
$ANGDIR
 70
     0
  9
$PDMODE
 70
     0
  9
$PDSIZE
 40
0.0
  9
$PLINEWID
 40
0.0
  9
$SPLFRAME
 70
     0
  9
$SPLINETYPE
 70
     6
  9
$SPLINESEGS
 70
     8
  9
$HANDSEED
  5
190
  9
$SURFTAB1
 70
     6
  9
$SURFTAB2
 70
     6
  9
$SURFTYPE
 70
     6
  9
$SURFU
 70
     6
  9
$SURFV
 70
     6
  9
$UCSBASE
  2

  9
$UCSNAME
  2

  9
$UCSORG
 10
0.0
 20
0.0
 30
0.0
  9
$UCSXDIR
 10
1.0
 20
0.0
 30
0.0
  9
$UCSYDIR
 10
0.0
 20
1.0
 30
0.0
  9
$UCSORTHOREF
  2

  9
$UCSORTHOVIEW
 70
     0
  9
$UCSORGTOP
 10
0.0
 20
0.0
 30
0.0
  9
$UCSORGBOTTOM
 10
0.0
 20
0.0
 30
0.0
  9
$UCSORGLEFT
 10
0.0
 20
0.0
 30
0.0
  9
$UCSORGRIGHT
 10
0.0
 20
0.0
 30
0.0
  9
$UCSORGFRONT
 10
0.0
 20
0.0
 30
0.0
  9
$UCSORGBACK
 10
0.0
 20
0.0
 30
0.0
  9
$PUCSBASE
  2

  9
$PUCSNAME
  2

  9
$PUCSORG
 10
0.0
 20
0.0
 30
0.0
  9
$PUCSXDIR
 10
1.0
 20
0.0
 30
0.0
  9
$PUCSYDIR
 10
0.0
 20
1.0
 30
0.0
  9
$PUCSORTHOREF
  2

  9
$PUCSORTHOVIEW
 70
     0
  9
$PUCSORGTOP
 10
0.0
 20
0.0
 30
0.0
  9
$PUCSORGBOTTOM
 10
0.0
 20
0.0
 30
0.0
  9
$PUCSORGLEFT
 10
0.0
 20
0.0
 30
0.0
  9
$PUCSORGRIGHT
 10
0.0
 20
0.0
 30
0.0
  9
$PUCSORGFRONT
 10
0.0
 20
0.0
 30
0.0
  9
$PUCSORGBACK
 10
0.0
 20
0.0
 30
0.0
  9
$USERI1
 70
     0
  9
$USERI2
 70
     0
  9
$USERI3
 70
     0
  9
$USERI4
 70
     0
  9
$USERI5
 70
     0
  9
$USERR1
 40
0.0
  9
$USERR2
 40
0.0
  9
$USERR3
 40
0.0
  9
$USERR4
 40
0.0
  9
$USERR5
 40
0.0
  9
$WORLDVIEW
 70
     1
  9
$SHADEDGE
 70
     3
  9
$SHADEDIF
 70
    70
  9
$TILEMODE
 70
     1
  9
$MAXACTVP
 70
    64
  9
$PINSBASE
 10
0.0
 20
0.0
 30
0.0
  9
$PLIMCHECK
 70
     0
  9
$PEXTMIN
 10
1.000000000000000E+20
 20
1.000000000000000E+20
 30
1.000000000000000E+20
  9
$PEXTMAX
 10
-1.000000000000000E+20
 20
-1.000000000000000E+20
 30
-1.000000000000000E+20
  9
$PLIMMIN
 10
0.0
 20
0.0
  9
$PLIMMAX
 10
12.0
 20
9.0
  9
$UNITMODE
 70
     0
  9
$VISRETAIN
 70
     1
  9
$PLINEGEN
 70
     0
  9
$PSLTSCALE
 70
     1
  9
$TREEDEPTH
 70
  3020
  9
$CMLSTYLE
  2
Standard
  9
$CMLJUST
 70
     0
  9
$CMLSCALE
 40
1.0
  9
$PROXYGRAPHICS
 70
     1
  9
$MEASUREMENT
 70
     0
  9
$CELWEIGHT
370
    -1
  9
$ENDCAPS
280
     0
  9
$JOINSTYLE
280
     0
  9
$LWDISPLAY
290
     1
  9
$INSUNITS
 70
     1
  9
$HYPERLINKBASE
  1

  9
$STYLESHEET
  1

  9
$XEDIT
290
     1
  9
$CEPSNTYPE
380
     0
  9
$PSTYLEMODE
290
     1
  9
$FINGERPRINTGUID
  2
{A80E1B1A-BF66-4824-A635-C9C39755E4AF}
  9
$VERSIONGUID
  2
{FAEB1C32-E019-11D5-929B-00C0DF256EC4}
  9
$EXTNAMES
290
     1
  9
$PSVPSCALE
 40
0.0
  9
$OLESTARTUP
290
     0
  9
$SORTENTS
280
   127
  9
$INDEXCTL
280
     0
  9
$HIDETEXT
280
     1
  9
$XCLIPFRAME
280
     2
  9
$HALOGAP
280
     0
  9
$OBSCOLOR
 70
   257
  9
$OBSLTYPE
280
     0
  9
$INTERSECTIONDISPLAY
280
     0
  9
$INTERSECTIONCOLOR
 70
   257
  9
$DIMASSOC
280
     2
  9
$PROJECTNAME
  1

  9
$CAMERADISPLAY
290
     0
  9
$LENSLENGTH
 40
50.0
  9
$CAMERAHEIGHT
 40
0.0
  9
$STEPSPERSEC
 40
2.0
  9
$STEPSIZE
 40
6.0
  9
$3DDWFPREC
 40
2.0
  9
$PSOLWIDTH
 40
0.25
  9
$PSOLHEIGHT
 40
4.0
  9
$LOFTANG1
 40
1.570796326794897
  9
$LOFTANG2
 40
1.570796326794897
  9
$LOFTMAG1
 40
0.0
  9
$LOFTMAG2
 40
0.0
  9
$LOFTPARAM
 70
     7
  9
$LOFTNORMALS
280
     1
  9
$LATITUDE
 40
37.795
  9
$LONGITUDE
 40
-122.394
  9
$NORTHDIRECTION
 40
0.0
  9
$TIMEZONE
 70
 -8000
  9
$LIGHTGLYPHDISPLAY
280
     1
  9
$TILEMODELIGHTSYNCH
280
     1
  9
$CMATERIAL
347
3C
  9
$SOLIDHIST
280
     1
  9
$SHOWHIST
280
     1
  9
$DWFFRAME
280
     2
  9
$DGNFRAME
280
     2
  9
$REALWORLDSCALE
290
     1
  9
$INTERFERECOLOR
 62
   256
  9
$CSHADOW
280
     0
  9
$SHADOWPLANELOCATION
 40
0.0
  0
ENDSEC
  0
SECTION
  2
CLASSES
  0
CLASS
  1
ACDBDICTIONARYWDFLT
  2
AcDbDictionaryWithDefault
  3
ObjectDBX Classes
 90
        0
 91
        4
280
     0
281
     0
  0
CLASS
  1
VISUALSTYLE
  2
AcDbVisualStyle
  3
ObjectDBX Classes
 90
     4095
 91
        4
280
     0
281
     0
  0
CLASS
  1
MATERIAL
  2
AcDbMaterial
  3
ObjectDBX Classes
 90
     1153
 91
        4
280
     0
281
     0
  0
CLASS
  1
SUN
  2
AcDbSun
  3
SCENEOE
 90
     1024
 91
        4
280
     0
281
     0
  0
ENDSEC
  0
SECTION
  2
TABLES
  0
TABLE
  2
VPORT
  5
8
330
0
100
AcDbSymbolTable
 70
     1
  0
VPORT
  5
29
330
8
100
AcDbSymbolTableRecord
100
AcDbViewportTableRecord
  2
*Active
 70
     0
 10
0.0
 20
0.0
 11
1.0
 21
1.0
 12
0.0
 22
0.0
 13
0.0
 23
0.0
 14
0.5
 24
0.5
 15
0.5
 25
0.5
 16
0.0
 26
0.0
 36
1.0
 17
1.492946527777778
 27
-0.2095298988723284
 37
0.0
 40
11.69291338582678
 41
0.7070707070707057
 42
50.0
 43
0.0
 44
0.0
 50
0.0
 51
0.0
 71
     0
 72
   100
 73
     1
 74
     3
 75
     0
 76
     0
 77
     0
 78
     0
281
     0
 65
     1
110
0.0
120
0.0
130
0.0
111
1.0
121
0.0
131
0.0
112
0.0
122
1.0
132
0.0
 79
     0
146
0.0
 60
     3
 61
     5
292
     1
282
     1
141
0.0
142
0.0
 63
   250
361
3F
  0
ENDTAB
  0
TABLE
  2
LTYPE
  5
5
330
0
100
AcDbSymbolTable
 70
    30
  0
LTYPE
  5
14
330
5
100
AcDbSymbolTableRecord
100
AcDbLinetypeTableRecord
  2
ByBlock
 70
     0
  3

 72
    65
 73
     0
 40
0.0
  0
LTYPE
  5
15
330
5
100
AcDbSymbolTableRecord
100
AcDbLinetypeTableRecord
  2
ByLayer
 70
     0
  3

 72
    65
 73
     0
 40
0.0
  0
LTYPE
  5
16
330
5
100
AcDbSymbolTableRecord
100
AcDbLinetypeTableRecord
  2
Continuous
 70
     0
  3
Solid line
 72
    65
 73
     0
 40
0.0
  0
LTYPE
  5
E5
330
5
100
AcDbSymbolTableRecord
100
AcDbLinetypeTableRecord
  2
AI-Linetype-1
 70
     0
  3
Adobe Illustrator Linetype No. 1
 72
    65
 73
     2
 40
0.0638802349567413
 49
0.0383281409740448
 74
     0
 49
-0.0255520939826965
 74
     0
  0
LTYPE
  5
E7
330
5
100
AcDbSymbolTableRecord
100
AcDbLinetypeTableRecord
  2
AI-Linetype-2
 70
     0
  3
Adobe Illustrator Linetype No. 2
 72
    65
 73
     2
 40
0.0638802349567413
 49
0.0383281409740448
 74
     0
 49
-0.0255520939826965
 74
     0
  0
LTYPE
  5
E9
330
5
100
AcDbSymbolTableRecord
100
AcDbLinetypeTableRecord
  2
AI-Linetype-3
 70
     0
  3
Adobe Illustrator Linetype No. 3
 72
    65
 73
     2
 40
0.0596215526262919
 49
0.0383281409740448
 74
     0
 49
-0.0212934116522471
 74
     0
  0
LTYPE
  5
EB
330
5
100
AcDbSymbolTableRecord
100
AcDbLinetypeTableRecord
  2
AI-Linetype-4
 70
     0
  3
Adobe Illustrator Linetype No. 4
 72
    65
 73
     2
 40
0.0596215526262919
 49
0.0383281409740448
 74
     0
 49
-0.0212934116522471
 74
     0
  0
LTYPE
  5
F1
330
5
100
AcDbSymbolTableRecord
100
AcDbLinetypeTableRecord
  2
AI-Linetype-5
 70
     0
  3
Adobe Illustrator Linetype No. 5
 72
    65
 73
     2
 40
0.0596215526262919
 49
0.0383281409740448
 74
     0
 49
-0.0212934116522471
 74
     0
  0
LTYPE
  5
F6
330
5
100
AcDbSymbolTableRecord
100
AcDbLinetypeTableRecord
  2
AI-Linetype-6
 70
     0
  3
Adobe Illustrator Linetype No. 6
 72
    65
 73
     2
 40
0.0596215526262919
 49
0.0383281409740448
 74
     0
 49
-0.0212934116522471
 74
     0
  0
LTYPE
  5
F9
330
5
100
AcDbSymbolTableRecord
100
AcDbLinetypeTableRecord
  2
AI-Linetype-7
 70
     0
  3
Adobe Illustrator Linetype No. 7
 72
    65
 73
     2
 40
0.0638802349567413
 49
0.0383281409740448
 74
     0
 49
-0.0255520939826965
 74
     0
  0
LTYPE
  5
FB
330
5
100
AcDbSymbolTableRecord
100
AcDbLinetypeTableRecord
  2
AI-Linetype-8
 70
     0
  3
Adobe Illustrator Linetype No. 8
 72
    65
 73
     2
 40
0.0638802349567413
 49
0.0383281409740448
 74
     0
 49
-0.0255520939826965
 74
     0
  0
LTYPE
  5
FD
330
5
100
AcDbSymbolTableRecord
100
AcDbLinetypeTableRecord
  2
AI-Linetype-9
 70
     0
  3
Adobe Illustrator Linetype No. 9
 72
    65
 73
     2
 40
0.0255520939826965
 49
0.0127760469913483
 74
     0
 49
-0.0127760469913483
 74
     0
  0
LTYPE
  5
FF
330
5
100
AcDbSymbolTableRecord
100
AcDbLinetypeTableRecord
  2
AI-Linetype-10
 70
     0
  3
Adobe Illustrator Linetype No. 10
 72
    65
 73
     2
 40
0.0255520939826965
 49
0.0127760469913483
 74
     0
 49
-0.0127760469913483
 74
     0
  0
LTYPE
  5
101
330
5
100
AcDbSymbolTableRecord
100
AcDbLinetypeTableRecord
  2
AI-Linetype-11
 70
     0
  3
Adobe Illustrator Linetype No. 11
 72
    65
 73
     2
 40
0.0255520939826965
 49
0.0127760469913483
 74
     0
 49
-0.0127760469913483
 74
     0
  0
LTYPE
  5
103
330
5
100
AcDbSymbolTableRecord
100
AcDbLinetypeTableRecord
  2
AI-Linetype-12
 70
     0
  3
Adobe Illustrator Linetype No. 12
 72
    65
 73
     2
 40
0.0255520939826965
 49
0.0127760469913483
 74
     0
 49
-0.0127760469913483
 74
     0
  0
LTYPE
  5
105
330
5
100
AcDbSymbolTableRecord
100
AcDbLinetypeTableRecord
  2
AI-Linetype-13
 70
     0
  3
Adobe Illustrator Linetype No. 13
 72
    65
 73
     2
 40
0.0255520939826965
 49
0.0127760469913483
 74
     0
 49
-0.0127760469913483
 74
     0
  0
LTYPE
  5
107
330
5
100
AcDbSymbolTableRecord
100
AcDbLinetypeTableRecord
  2
AI-Linetype-14
 70
     0
  3
Adobe Illustrator Linetype No. 14
 72
    65
 73
     2
 40
0.0255520939826965
 49
0.0127760469913483
 74
     0
 49
-0.0127760469913483
 74
     0
  0
LTYPE
  5
109
330
5
100
AcDbSymbolTableRecord
100
AcDbLinetypeTableRecord
  2
AI-Linetype-15
 70
     0
  3
Adobe Illustrator Linetype No. 15
 72
    65
 73
     2
 40
0.0255520939826965
 49
0.0127760469913483
 74
     0
 49
-0.0127760469913483
 74
     0
  0
LTYPE
  5
10B
330
5
100
AcDbSymbolTableRecord
100
AcDbLinetypeTableRecord
  2
AI-Linetype-16
 70
     0
  3
Adobe Illustrator Linetype No. 16
 72
    65
 73
     2
 40
0.0255520939826965
 49
0.0127760469913483
 74
     0
 49
-0.0127760469913483
 74
     0
  0
LTYPE
  5
10D
330
5
100
AcDbSymbolTableRecord
100
AcDbLinetypeTableRecord
  2
AI-Linetype-17
 70
     0
  3
Adobe Illustrator Linetype No. 17
 72
    65
 73
     2
 40
0.0255520939826965
 49
0.0127760469913483
 74
     0
 49
-0.0127760469913483
 74
     0
  0
LTYPE
  5
10F
330
5
100
AcDbSymbolTableRecord
100
AcDbLinetypeTableRecord
  2
AI-Linetype-18
 70
     0
  3
Adobe Illustrator Linetype No. 18
 72
    65
 73
     2
 40
0.0255520939826965
 49
0.0127760469913483
 74
     0
 49
-0.0127760469913483
 74
     0
  0
LTYPE
  5
111
330
5
100
AcDbSymbolTableRecord
100
AcDbLinetypeTableRecord
  2
AI-Linetype-19
 70
     0
  3
Adobe Illustrator Linetype No. 19
 72
    65
 73
     2
 40
0.0255520939826965
 49
0.0127760469913483
 74
     0
 49
-0.0127760469913483
 74
     0
  0
LTYPE
  5
113
330
5
100
AcDbSymbolTableRecord
100
AcDbLinetypeTableRecord
  2
AI-Linetype-20
 70
     0
  3
Adobe Illustrator Linetype No. 20
 72
    65
 73
     2
 40
0.0255520939826965
 49
0.0127760469913483
 74
     0
 49
-0.0127760469913483
 74
     0
  0
LTYPE
  5
115
330
5
100
AcDbSymbolTableRecord
100
AcDbLinetypeTableRecord
  2
AI-Linetype-21
 70
     0
  3
Adobe Illustrator Linetype No. 21
 72
    65
 73
     2
 40
0.0255520939826965
 49
0.0127760469913483
 74
     0
 49
-0.0127760469913483
 74
     0
  0
LTYPE
  5
117
330
5
100
AcDbSymbolTableRecord
100
AcDbLinetypeTableRecord
  2
AI-Linetype-22
 70
     0
  3
Adobe Illustrator Linetype No. 22
 72
    65
 73
     2
 40
0.0255520939826965
 49
0.0127760469913483
 74
     0
 49
-0.0127760469913483
 74
     0
  0
LTYPE
  5
119
330
5
100
AcDbSymbolTableRecord
100
AcDbLinetypeTableRecord
  2
AI-Linetype-23
 70
     0
  3
Adobe Illustrator Linetype No. 23
 72
    65
 73
     2
 40
0.0255520939826965
 49
0.0127760469913483
 74
     0
 49
-0.0127760469913483
 74
     0
  0
LTYPE
  5
11B
330
5
100
AcDbSymbolTableRecord
100
AcDbLinetypeTableRecord
  2
AI-Linetype-24
 70
     0
  3
Adobe Illustrator Linetype No. 24
 72
    65
 73
     2
 40
0.0255520939826965
 49
0.0127760469913483
 74
     0
 49
-0.0127760469913483
 74
     0
  0
LTYPE
  5
11D
330
5
100
AcDbSymbolTableRecord
100
AcDbLinetypeTableRecord
  2
AI-Linetype-25
 70
     0
  3
Adobe Illustrator Linetype No. 25
 72
    65
 73
     2
 40
0.0255520939826965
 49
0.0127760469913483
 74
     0
 49
-0.0127760469913483
 74
     0
  0
LTYPE
  5
11F
330
5
100
AcDbSymbolTableRecord
100
AcDbLinetypeTableRecord
  2
AI-Linetype-26
 70
     0
  3
Adobe Illustrator Linetype No. 26
 72
    65
 73
     2
 40
0.0255520939826965
 49
0.0127760469913483
 74
     0
 49
-0.0127760469913483
 74
     0
  0
LTYPE
  5
121
330
5
100
AcDbSymbolTableRecord
100
AcDbLinetypeTableRecord
  2
AI-Linetype-27
 70
     0
  3
Adobe Illustrator Linetype No. 27
 72
    65
 73
     2
 40
0.0255520939826965
 49
0.0127760469913483
 74
     0
 49
-0.0127760469913483
 74
     0
  0
LTYPE
  5
123
330
5
100
AcDbSymbolTableRecord
100
AcDbLinetypeTableRecord
  2
AI-Linetype-28
 70
     0
  3
Adobe Illustrator Linetype No. 28
 72
    65
 73
     2
 40
0.0255520939826965
 49
0.0127760469913483
 74
     0
 49
-0.0127760469913483
 74
     0
  0
LTYPE
  5
125
330
5
100
AcDbSymbolTableRecord
100
AcDbLinetypeTableRecord
  2
AI-Linetype-29
 70
     0
  3
Adobe Illustrator Linetype No. 29
 72
    65
 73
     2
 40
0.0606862240367466
 49
0.03513413005405
 74
     0
 49
-0.0255520939826965
 74
     0
  0
ENDTAB
  0
TABLE
  2
LAYER
  5
2
330
0
100
AcDbSymbolTable
 70
     7
  0
LAYER
  5
10
330
2
100
AcDbSymbolTableRecord
100
AcDbLayerTableRecord
  2
0
 70
     0
 62
     7
  6
Continuous
370
    -3
390
F
347
3E
  0
LAYER
  5
40
330
2
100
AcDbSymbolTableRecord
100
AcDbLayerTableRecord
  2
Wood-Back
 70
     0
 62
     7
  6
Continuous
370
    -3
390
F
347
3E
  0
LAYER
  5
6D
330
2
100
AcDbSymbolTableRecord
100
AcDbLayerTableRecord
  2
Wood
 70
     0
 62
     7
  6
Continuous
370
    -3
390
F
347
3E
  0
LAYER
  5
E3
330
2
100
AcDbSymbolTableRecord
100
AcDbLayerTableRecord
  2
Ghosted
 70
     0
 62
     7
  6
Continuous
370
    -3
390
F
347
3E
  0
LAYER
  5
127
330
2
100
AcDbSymbolTableRecord
100
AcDbLayerTableRecord
  2
LSCZ-Color
 70
     0
 62
     7
  6
Continuous
370
    -3
390
F
347
3E
  0
LAYER
  5
136
330
2
100
AcDbSymbolTableRecord
100
AcDbLayerTableRecord
  2
LSCZ-Line Art
 70
     0
 62
     7
  6
Continuous
370
    -3
390
F
347
3E
  0
LAYER
  5
17C
330
2
100
AcDbSymbolTableRecord
100
AcDbLayerTableRecord
  2
callout
 70
     0
 62
     7
  6
Continuous
370
    -3
390
F
347
3E
  0
ENDTAB
  0
TABLE
  2
STYLE
  5
3
330
0
100
AcDbSymbolTable
 70
     1
  0
STYLE
  5
11
330
3
100
AcDbSymbolTableRecord
100
AcDbTextStyleTableRecord
  2
Standard
 70
     0
 40
0.0
 41
1.0
 50
0.0
 71
     0
 42
0.2
  3
txt
  4

  0
ENDTAB
  0
TABLE
  2
VIEW
  5
6
330
0
100
AcDbSymbolTable
 70
     0
  0
ENDTAB
  0
TABLE
  2
UCS
  5
7
330
0
100
AcDbSymbolTable
 70
     0
  0
ENDTAB
  0
TABLE
  2
APPID
  5
9
330
0
100
AcDbSymbolTable
 70
     1
  0
APPID
  5
12
330
9
100
AcDbSymbolTableRecord
100
AcDbRegAppTableRecord
  2
ACAD
 70
     0
  0
ENDTAB
  0
TABLE
  2
DIMSTYLE
  5
A
330
0
100
AcDbSymbolTable
 70
     1
100
AcDbDimStyleTable
  0
DIMSTYLE
105
27
330
A
100
AcDbSymbolTableRecord
100
AcDbDimStyleTableRecord
  2
Standard
 70
     0
178
     0
340
11
  0
ENDTAB
  0
TABLE
  2
BLOCK_RECORD
  5
1
330
0
100
AcDbSymbolTable
 70
     1
  0
BLOCK_RECORD
  5
1F
330
1
100
AcDbSymbolTableRecord
100
AcDbBlockTableRecord
  2
*Model_Space
340
22
 70
     0
280
     1
281
     0
  0
BLOCK_RECORD
  5
1B
330
1
100
AcDbSymbolTableRecord
100
AcDbBlockTableRecord
  2
*Paper_Space
340
1E
 70
     0
280
     1
281
     0
  0
BLOCK_RECORD
  5
23
330
1
100
AcDbSymbolTableRecord
100
AcDbBlockTableRecord
  2
*Paper_Space0
340
26
 70
     0
280
     1
281
     0
  0
ENDTAB
  0
ENDSEC
  0
SECTION
  2
BLOCKS
  0
BLOCK
  5
20
330
1F
100
AcDbEntity
  8
0
100
AcDbBlockBegin
  2
*Model_Space
 70
     0
 10
0.0
 20
0.0
 30
0.0
  3
*Model_Space
  1

  0
ENDBLK
  5
21
330
1F
100
AcDbEntity
  8
0
100
AcDbBlockEnd
  0
BLOCK
  5
1C
330
1B
100
AcDbEntity
 67
     1
  8
0
100
AcDbBlockBegin
  2
*Paper_Space
 70
     0
 10
0.0
 20
0.0
 30
0.0
  3
*Paper_Space
  1

  0
ENDBLK
  5
1D
330
1B
100
AcDbEntity
 67
     1
  8
0
100
AcDbBlockEnd
  0
BLOCK
  5
24
330
23
100
AcDbEntity
  8
0
100
AcDbBlockBegin
  2
*Paper_Space0
 70
     0
 10
0.0
 20
0.0
 30
0.0
  3
*Paper_Space0
  1

  0
ENDBLK
  5
25
330
23
100
AcDbEntity
  8
0
100
AcDbBlockEnd
  0
ENDSEC
  0
SECTION
  2
ENTITIES
  0
POLYLINE
  5
41
330
1F
100
AcDbEntity
  8
Wood-Back
 62
     7
420
 16777215
370
    20
100
AcDb2dPolyline
 66
     1
 10
0.0
 20
0.0
 30
0.0
  0
VERTEX
  5
42
330
41
100
AcDbEntity
  8
Wood-Back
 62
     7
420
 16777215
370
    20
100
AcDbVertex
100
AcDb2dVertex
 10
2.891679051516449
 20
-0.5358212116675405
 30
0.0
  0
VERTEX
  5
43
330
41
100
AcDbEntity
  8
Wood-Back
 62
     7
420
 16777215
370
    20
100
AcDbVertex
100
AcDb2dVertex
 10
2.891679051516449
 20
0.1321499398723315
 30
0.0
  0
VERTEX
  5
44
330
41
100
AcDbEntity
  8
Wood-Back
 62
     7
420
 16777215
370
    20
100
AcDbVertex
100
AcDb2dVertex
 10
2.947990543735235
 20
0.2006572354395454
 30
0.0
  0
VERTEX
  5
45
330
41
100
AcDbEntity
  8
Wood-Back
 62
     7
420
 16777215
370
    20
100
AcDbVertex
100
AcDb2dVertex
 10
2.840493948192438
 20
0.3054144361985764
 30
0.0
  0
VERTEX
  5
46
330
41
100
AcDbEntity
  8
Wood-Back
 62
     7
420
 16777215
370
    20
100
AcDbVertex
100
AcDb2dVertex
 10
2.891679051516449
 20
0.3726004755292125
 30
0.0
  0
VERTEX
  5
47
330
41
100
AcDbEntity
  8
Wood-Back
 62
     7
420
 16777215
370
    20
100
AcDbVertex
100
AcDb2dVertex
 10
2.891679051516449
 20
1.116555039713856
 30
0.0
  0
VERTEX
  5
48
330
41
100
AcDbEntity
  8
Wood-Back
 62
     7
420
 16777215
370
    20
100
AcDbVertex
100
AcDb2dVertex
 10
2.889069543898358
 20
1.163419673655464
 30
0.0
  0
VERTEX
  5
49
330
41
100
AcDbEntity
  8
Wood-Back
 62
     7
420
 16777215
370
    20
100
AcDbVertex
100
AcDb2dVertex
 10
-0.1487870131316211
 20
1.973968299831123
 30
0.0
  0
VERTEX
  5
4A
330
41
100
AcDbEntity
  8
Wood-Back
 62
     7
420
 16777215
370
    20
100
AcDbVertex
100
AcDb2dVertex
 10
-0.4809663751986035
 20
1.902992034894446
 30
0.0
  0
VERTEX
  5
4B
330
41
100
AcDbEntity
  8
Wood-Back
 62
     7
420
 16777215
370
    20
100
AcDbVertex
100
AcDb2dVertex
 10
-0.4809663751986035
 20
1.20806024685775
 30
0.0
  0
VERTEX
  5
4C
330
41
100
AcDbEntity
  8
Wood-Back
 62
     7
420
 16777215
370
    20
100
AcDbVertex
100
AcDb2dVertex
 10
-0.5292300236406693
 20
1.145599254165012
 30
0.0
  0
VERTEX
  5
4D
330
41
100
AcDbEntity
  8
Wood-Back
 62
     7
420
 16777215
370
    20
100
AcDbVertex
100
AcDb2dVertex
 10
-0.4365451230158643
 20
1.049331736911603
 30
0.0
  0
VERTEX
  5
4E
330
41
100
AcDbEntity
  8
Wood-Back
 62
     7
420
 16777215
370
    20
100
AcDbVertex
100
AcDb2dVertex
 10
-0.4809663751986035
 20
0.9951314520477201
 30
0.0
  0
VERTEX
  5
4F
330
41
100
AcDbEntity
  8
Wood-Back
 62
     7
420
 16777215
370
    20
100
AcDbVertex
100
AcDb2dVertex
 10
-0.4809663751986035
 20
0.3783816369833756
 30
0.0
  0
VERTEX
  5
50
330
41
100
AcDbEntity
  8
Wood-Back
 62
     7
420
 16777215
370
    20
100
AcDbVertex
100
AcDb2dVertex
 10
2.602315425650633
 20
-0.7610969970102006
 30
0.0
  0
VERTEX
  5
51
330
41
100
AcDbEntity
  8
Wood-Back
 62
     7
420
 16777215
370
    20
100
AcDbVertex
100
AcDb2dVertex
 10
2.889069543898358
 20
-0.5832533523571707
 30
0.0
  0
VERTEX
  5
52
330
41
100
AcDbEntity
  8
Wood-Back
 62
     7
420
 16777215
370
    20
100
AcDbVertex
100
AcDb2dVertex
 10
2.891679051516449
 20
-0.5358212116675405
 30
0.0
  0
SEQEND
  5
54
330
41
100
AcDbEntity
  8
Wood-Back
 62
     7
420
 16777215
370
    20
  0
HATCH
  5
53
330
1F
100
AcDbEntity
  8
Wood-Back
 62
    43
420
 15510365
100
AcDbHatch
 10
0.0
 20
0.0
 30
0.0
210
0.0
220
0.0
230
1.0
  2
SOLID
 70
     1
 71
     0
 91
        1
 92
        1
 93
       16
 72
     1
 10
2.891679051516449
 20
-0.5358212116675405
 11
2.891679051516449
 21
0.1321499398723316
 72
     1
 10
2.891679051516449
 20
0.1321499398723315
 11
2.947990543735235
 21
0.2006572354395454
 72
     1
 10
2.947990543735235
 20
0.2006572354395454
 11
2.840493948192438
 21
0.3054144361985764
 72
     1
 10
2.840493948192438
 20
0.3054144361985764
 11
2.891679051516449
 21
0.3726004755292125
 72
     1
 10
2.891679051516449
 20
0.3726004755292125
 11
2.891679051516449
 21
1.116555039713856
 72
     1
 10
2.891679051516449
 20
1.116555039713856
 11
2.889069543898358
 21
1.163419673655464
 72
     1
 10
2.889069543898358
 20
1.163419673655464
 11
-0.1487870131316211
 21
1.973968299831123
 72
     1
 10
-0.1487870131316211
 20
1.973968299831123
 11
-0.4809663751986035
 21
1.902992034894446
 72
     1
 10
-0.4809663751986035
 20
1.902992034894446
 11
-0.4809663751986035
 21
1.20806024685775
 72
     1
 10
-0.4809663751986035
 20
1.20806024685775
 11
-0.5292300236406693
 21
1.145599254165012
 72
     1
 10
-0.5292300236406693
 20
1.145599254165012
 11
-0.4365451230158643
 21
1.049331736911603
 72
     1
 10
-0.4365451230158643
 20
1.049331736911603
 11
-0.4809663751986035
 21
0.9951314520477201
 72
     1
 10
-0.4809663751986035
 20
0.9951314520477201
 11
-0.4809663751986035
 21
0.3783816369833757
 72
     1
 10
-0.4809663751986035
 20
0.3783816369833756
 11
2.602315425650633
 21
-0.7610969970102006
 72
     1
 10
2.602315425650633
 20
-0.7610969970102006
 11
2.889069543898358
 21
-0.5832533523571707
 72
     1
 10
2.889069543898358
 20
-0.5832533523571707
 11
2.891679051516449
 21
-0.5358212116675405
 97
        0
 75
     2
 76
     1
 98
        0
  0
POLYLINE
  5
55
330
1F
100
AcDbEntity
  8
Wood-Back
 62
     7
420
 16777215
370
    20
100
AcDb2dPolyline
 66
     1
 10
0.0
 20
0.0
 30
0.0
  0
VERTEX
  5
56
330
55
100
AcDbEntity
  8
Wood-Back
 62
     7
420
 16777215
370
    20
100
AcDbVertex
100
AcDb2dVertex
 10
-0.4809663751986035
 20
1.902992034894446
 30
0.0
  0
VERTEX
  5
57
330
55
100
AcDbEntity
  8
Wood-Back
 62
     7
420
 16777215
370
    20
100
AcDbVertex
100
AcDb2dVertex
 10
2.602315425650633
 20
1.042740326857193
 30
0.0
  0
SEQEND
  5
58
330
55
100
AcDbEntity
  8
Wood-Back
 62
     7
420
 16777215
370
    20
  0
POLYLINE
  5
59
330
1F
100
AcDbEntity
  8
Wood-Back
 62
     7
420
 16777215
370
    20
100
AcDb2dPolyline
 66
     1
 10
0.0
 20
0.0
 30
0.0
  0
VERTEX
  5
5A
330
59
100
AcDbEntity
  8
Wood-Back
 62
     7
420
 16777215
370
    20
100
AcDbVertex
100
AcDb2dVertex
 10
2.889069543898358
 20
1.163419673655464
 30
0.0
  0
VERTEX
  5
5B
330
59
100
AcDbEntity
  8
Wood-Back
 62
     7
420
 16777215
370
    20
100
AcDbVertex
100
AcDb2dVertex
 10
2.602315425650633
 20
1.042740326857193
 30
0.0
  0
SEQEND
  5
5C
330
59
100
AcDbEntity
  8
Wood-Back
 62
     7
420
 16777215
370
    20
  0
POLYLINE
  5
5D
330
1F
100
AcDbEntity
  8
Wood-Back
 62
     7
420
 16777215
370
    20
100
AcDb2dPolyline
 66
     1
 10
0.0
 20
0.0
 30
0.0
  0
VERTEX
  5
5E
330
5D
100
AcDbEntity
  8
Wood-Back
 62
     7
420
 16777215
370
    20
100
AcDbVertex
100
AcDb2dVertex
 10
2.537021307657142
 20
0.1524819546587474
 30
0.0
  0
VERTEX
  5
5F
330
5D
100
AcDbEntity
  8
Wood-Back
 62
     7
420
 16777215
370
    20
100
AcDbVertex
100
AcDb2dVertex
 10
2.840493948192438
 20
0.3054144361985764
 30
0.0
  0
SEQEND
  5
60
330
5D
100
AcDbEntity
  8
Wood-Back
 62
     7
420
 16777215
370
    20
  0
POLYLINE
  5
61
330
1F
100
AcDbEntity
  8
Wood-Back
 62
     7
420
 16777215
370
    20
100
AcDb2dPolyline
 66
     1
 10
0.0
 20
0.0
 30
0.0
  0
VERTEX
  5
62
330
61
100
AcDbEntity
  8
Wood-Back
 62
     7
420
 16777215
370
    20
100
AcDbVertex
100
AcDb2dVertex
 10
2.660529484215203
 20
0.0502725106878946
 30
0.0
  0
VERTEX
  5
63
330
61
100
AcDbEntity
  8
Wood-Back
 62
     7
420
 16777215
370
    20
100
AcDbVertex
100
AcDb2dVertex
 10
2.944912581057199
 20
0.2006572354395454
 30
0.0
  0
SEQEND
  5
64
330
61
100
AcDbEntity
  8
Wood-Back
 62
     7
420
 16777215
370
    20
  0
POLYLINE
  5
65
330
1F
100
AcDbEntity
  8
Wood-Back
 62
     7
420
 16777215
370
    20
100
AcDb2dPolyline
 66
     1
 10
0.0
 20
0.0
 30
0.0
  0
VERTEX
  5
66
330
65
100
AcDbEntity
  8
Wood-Back
 62
     7
420
 16777215
370
    20
100
AcDbVertex
100
AcDb2dVertex
 10
2.605164484151651
 20
-0.01999681475162
 30
0.0
  0
VERTEX
  5
67
330
65
100
AcDbEntity
  8
Wood-Back
 62
     7
420
 16777215
370
    20
100
AcDbVertex
100
AcDb2dVertex
 10
2.889547580993622
 20
0.1303879100000181
 30
0.0
  0
SEQEND
  5
68
330
65
100
AcDbEntity
  8
Wood-Back
 62
     7
420
 16777215
370
    20
  0
POLYLINE
  5
69
330
1F
100
AcDbEntity
  8
Wood-Back
 62
     7
420
 16777215
370
    20
100
AcDb2dPolyline
 66
     1
 10
0.0
 20
0.0
 30
0.0
  0
VERTEX
  5
6A
330
69
100
AcDbEntity
  8
Wood-Back
 62
     7
420
 16777215
370
    20
100
AcDbVertex
100
AcDb2dVertex
 10
2.603042595664167
 20
0.2291403684751635
 30
0.0
  0
VERTEX
  5
6B
330
69
100
AcDbEntity
  8
Wood-Back
 62
     7
420
 16777215
370
    20
100
AcDbVertex
100
AcDb2dVertex
 10
2.891679051516449
 20
0.3726004755292125
 30
0.0
  0
SEQEND
  5
6C
330
69
100
AcDbEntity
  8
Wood-Back
 62
     7
420
 16777215
370
    20
  0
POLYLINE
  5
6E
330
1F
100
AcDbEntity
  8
Wood
370
     0
100
AcDb2dPolyline
 66
     1
 10
0.0
 20
0.0
 30
0.0
  0
VERTEX
  5
6F
330
6E
100
AcDbEntity
  8
Wood
370
     0
100
AcDbVertex
100
AcDb2dVertex
 10
0.0263896316240309
 20
-1.174612935587801
 30
0.0
  0
VERTEX
  5
70
330
6E
100
AcDbEntity
  8
Wood
370
     0
100
AcDbVertex
100
AcDb2dVertex
 10
0.0263896316240309
 20
-0.1113668471635694
 30
0.0
  0
VERTEX
  5
71
330
6E
100
AcDbEntity
  8
Wood
370
     0
100
AcDbVertex
100
AcDb2dVertex
 10
0.0365529773406984
 20
-0.107483993420778
 30
0.0
  0
VERTEX
  5
72
330
6E
100
AcDbEntity
  8
Wood
370
     0
100
AcDbVertex
100
AcDb2dVertex
 10
1.078235227073846
 20
0.3840584607170159
 30
0.0
  0
VERTEX
  5
73
330
6E
100
AcDbEntity
  8
Wood
370
     0
100
AcDbVertex
100
AcDb2dVertex
 10
1.286906409462669
 20
0.3187643410740545
 30
0.0
  0
VERTEX
  5
74
330
6E
100
AcDbEntity
  8
Wood
370
     0
100
AcDbVertex
100
AcDb2dVertex
 10
1.286906409462669
 20
0.3101234743407101
 30
0.0
  0
VERTEX
  5
75
330
6E
100
AcDbEntity
  8
Wood
370
     0
100
AcDbVertex
100
AcDb2dVertex
 10
1.286906409462669
 20
-0.6456622146261376
 30
0.0
  0
VERTEX
  5
76
330
6E
100
AcDbEntity
  8
Wood
370
     0
100
AcDbVertex
100
AcDb2dVertex
 10
-0.1908021097183337
 20
-2.922097277919925
 30
0.0
  0
VERTEX
  5
77
330
6E
100
AcDbEntity
  8
Wood
370
     0
100
AcDbVertex
100
AcDb2dVertex
 10
-0.1983506243979036
 20
-2.916483269752765
 30
0.0
  0
VERTEX
  5
78
330
6E
100
AcDbEntity
  8
Wood
370
     0
100
AcDbVertex
100
AcDb2dVertex
 10
-0.4292925867680171
 20
-2.784688758656961
 30
0.0
  0
VERTEX
  5
79
330
6E
100
AcDbEntity
  8
Wood
370
     0
100
AcDbVertex
100
AcDb2dVertex
 10
-0.4292925867680171
 20
-2.224093897595695
 30
0.0
  0
VERTEX
  5
7A
330
6E
100
AcDbEntity
  8
Wood
370
     0
100
AcDbVertex
100
AcDb2dVertex
 10
-0.4761370292766666
 20
-2.176017631182327
 30
0.0
  0
VERTEX
  5
7B
330
6E
100
AcDbEntity
  8
Wood
370
     0
100
AcDbVertex
100
AcDb2dVertex
 10
-0.3867057620595789
 20
-2.094483025936825
 30
0.0
  0
VERTEX
  5
7C
330
6E
100
AcDbEntity
  8
Wood
370
     0
100
AcDbVertex
100
AcDb2dVertex
 10
-0.4292925867680171
 20
-2.042205569265964
 30
0.0
  0
VERTEX
  5
7D
330
6E
100
AcDbEntity
  8
Wood
370
     0
100
AcDbVertex
100
AcDb2dVertex
 10
-0.4292925867680171
 20
-1.430133883838405
 30
0.0
  0
VERTEX
  5
7E
330
6E
100
AcDbEntity
  8
Wood
370
     0
100
AcDbVertex
100
AcDb2dVertex
 10
-0.4223679690704153
 20
-1.426609824093753
 30
0.0
  0
VERTEX
  5
7F
330
6E
100
AcDbEntity
  8
Wood
370
     0
100
AcDbVertex
100
AcDb2dVertex
 10
0.0249757490437206
 20
-1.176224846903021
 30
0.0
  0
SEQEND
  5
81
330
6E
100
AcDbEntity
  8
Wood
370
     0
  0
HATCH
  5
80
330
1F
100
AcDbEntity
  8
Wood
 62
    43
420
 15510365
100
AcDbHatch
 10
0.0
 20
0.0
 30
0.0
210
0.0
220
0.0
230
1.0
  2
SOLID
 70
     1
 71
     0
 91
        1
 92
        1
 93
       17
 72
     1
 10
0.0263896316240309
 20
-1.174612935587801
 11
0.0263896316240309
 21
-0.1113668471635696
 72
     1
 10
0.0263896316240309
 20
-0.1113668471635694
 11
0.0365529773406984
 21
-0.107483993420778
 72
     1
 10
0.0365529773406984
 20
-0.107483993420778
 11
1.078235227073846
 21
0.3840584607170159
 72
     1
 10
1.078235227073846
 20
0.3840584607170159
 11
1.286906409462669
 21
0.3187643410740545
 72
     1
 10
1.286906409462669
 20
0.3187643410740545
 11
1.286906409462669
 21
0.3101234743407101
 72
     1
 10
1.286906409462669
 20
0.3101234743407101
 11
1.286906409462669
 21
-0.6456622146261375
 72
     1
 10
1.286906409462669
 20
-0.6456622146261376
 11
-0.1908021097183337
 21
-2.922097277919925
 72
     1
 10
-0.1908021097183337
 20
-2.922097277919925
 11
-0.1983506243979036
 21
-2.916483269752765
 72
     1
 10
-0.1983506243979036
 20
-2.916483269752765
 11
-0.4292925867680171
 21
-2.784688758656961
 72
     1
 10
-0.4292925867680171
 20
-2.784688758656961
 11
-0.4292925867680171
 21
-2.224093897595695
 72
     1
 10
-0.4292925867680171
 20
-2.224093897595695
 11
-0.4761370292766666
 21
-2.176017631182326
 72
     1
 10
-0.4761370292766666
 20
-2.176017631182327
 11
-0.3867057620595789
 21
-2.094483025936825
 72
     1
 10
-0.3867057620595789
 20
-2.094483025936825
 11
-0.4292925867680171
 21
-2.042205569265965
 72
     1
 10
-0.4292925867680171
 20
-2.042205569265964
 11
-0.4292925867680171
 21
-1.430133883838405
 72
     1
 10
-0.4292925867680171
 20
-1.430133883838405
 11
-0.4223679690704152
 21
-1.426609824093753
 72
     1
 10
-0.4223679690704153
 20
-1.426609824093753
 11
0.0249757490437206
 21
-1.176224846903021
 72
     1
 10
0.0249757490437206
 20
-1.176224846903021
 11
0.0263896316240309
 21
-1.174612935587801
 97
        0
 75
     2
 76
     1
 98
        0
  0
POLYLINE
  5
82
330
1F
100
AcDbEntity
  8
Wood
 62
     7
420
 16777215
370
    20
100
AcDb2dPolyline
 66
     1
 10
0.0
 20
0.0
 30
0.0
  0
VERTEX
  5
83
330
82
100
AcDbEntity
  8
Wood
 62
     7
420
 16777215
370
    20
100
AcDbVertex
100
AcDb2dVertex
 10
1.286386850201224
 20
0.3187643410740545
 30
0.0
  0
VERTEX
  5
84
330
82
100
AcDbEntity
  8
Wood
 62
     7
420
 16777215
370
    20
100
AcDbVertex
100
AcDb2dVertex
 10
1.0777156678124
 20
0.3840584607170159
 30
0.0
  0
VERTEX
  5
85
330
82
100
AcDbEntity
  8
Wood
 62
     7
420
 16777215
370
    20
100
AcDbVertex
100
AcDb2dVertex
 10
0.0258179035023305
 20
-0.1113668471635694
 30
0.0
  0
VERTEX
  5
86
330
82
100
AcDbEntity
  8
Wood
 62
     7
420
 16777215
370
    20
100
AcDbVertex
100
AcDb2dVertex
 10
0.2472725859980124
 20
-0.1965404965804206
 30
0.0
  0
SEQEND
  5
87
330
82
100
AcDbEntity
  8
Wood
 62
     7
420
 16777215
370
    20
  0
POLYLINE
  5
88
330
1F
100
AcDbEntity
  8
Wood
 62
     7
420
 16777215
370
    20
100
AcDb2dPolyline
 66
     1
 10
0.0
 20
0.0
 30
0.0
  0
VERTEX
  5
89
330
88
100
AcDbEntity
  8
Wood
 62
     7
420
 16777215
370
    20
100
AcDbVertex
100
AcDb2dVertex
 10
0.0258179035023305
 20
-1.174612935587801
 30
0.0
  0
VERTEX
  5
8A
330
88
100
AcDbEntity
  8
Wood
 62
     7
420
 16777215
370
    20
100
AcDbVertex
100
AcDb2dVertex
 10
0.0258179035023305
 20
-0.1113668471635694
 30
0.0
  0
SEQEND
  5
8B
330
88
100
AcDbEntity
  8
Wood
 62
     7
420
 16777215
370
    20
  0
POLYLINE
  5
8C
330
1F
100
AcDbEntity
  8
Wood
 62
     7
420
 16777215
370
    20
100
AcDb2dPolyline
 66
     1
 10
0.0
 20
0.0
 30
0.0
  0
VERTEX
  5
8D
330
8C
100
AcDbEntity
  8
Wood
 62
     7
420
 16777215
370
    20
100
AcDbVertex
100
AcDb2dVertex
 10
-0.1913685144869532
 20
-1.540874533468948
 30
0.0
  0
VERTEX
  5
8E
330
8C
100
AcDbEntity
  8
Wood
 62
     7
420
 16777215
370
    20
100
AcDbVertex
100
AcDb2dVertex
 10
-0.429858991536624
 20
-1.430133883838405
 30
0.0
  0
VERTEX
  5
8F
330
8C
100
AcDbEntity
  8
Wood
 62
     7
420
 16777215
370
    20
100
AcDbVertex
100
AcDb2dVertex
 10
0.0243986975689141
 20
-1.176224846903021
 30
0.0
  0
VERTEX
  5
90
330
8C
100
AcDbEntity
  8
Wood
 62
     7
420
 16777215
370
    20
100
AcDbVertex
100
AcDb2dVertex
 10
0.2486917919314161
 20
-1.282504526645375
 30
0.0
  0
VERTEX
  5
91
330
8C
100
AcDbEntity
  8
Wood
 62
     7
420
 16777215
370
    20
100
AcDbVertex
100
AcDb2dVertex
 10
-0.1913685144869532
 20
-1.540874533468948
 30
0.0
  0
SEQEND
  5
92
330
8C
100
AcDbEntity
  8
Wood
 62
     7
420
 16777215
370
    20
  0
POLYLINE
  5
93
330
1F
100
AcDbEntity
  8
Wood
 62
     7
420
 16777215
370
    20
100
AcDb2dPolyline
 66
     1
 10
0.0
 20
0.0
 30
0.0
  0
VERTEX
  5
94
330
93
100
AcDbEntity
  8
Wood
 62
     7
420
 16777215
370
    20
100
AcDbVertex
100
AcDb2dVertex
 10
-0.1913738378400467
 20
-1.54109279094559
 30
0.0
  0
VERTEX
  5
95
330
93
100
AcDbEntity
  8
Wood
 62
     7
420
 16777215
370
    20
100
AcDbVertex
100
AcDb2dVertex
 10
-0.1913738378400467
 20
-2.154109903881716
 30
0.0
  0
VERTEX
  5
96
330
93
100
AcDbEntity
  8
Wood
 62
     7
420
 16777215
370
    20
100
AcDbVertex
100
AcDb2dVertex
 10
-0.1348078879210688
 20
-2.21349936027885
 30
0.0
  0
VERTEX
  5
97
330
93
100
AcDbEntity
  8
Wood
 62
     7
420
 16777215
370
    20
100
AcDbVertex
100
AcDb2dVertex
 10
-0.236404081616115
 20
-2.293609436237855
 30
0.0
  0
VERTEX
  5
98
330
93
100
AcDbEntity
  8
Wood
 62
     7
420
 16777215
370
    20
100
AcDbVertex
100
AcDb2dVertex
 10
-0.1913738378400467
 20
-2.347175144356141
 30
0.0
  0
VERTEX
  5
99
330
93
100
AcDbEntity
  8
Wood
 62
     7
420
 16777215
370
    20
100
AcDbVertex
100
AcDb2dVertex
 10
-0.1913738378400467
 20
-2.921099681551115
 30
0.0
  0
VERTEX
  5
9A
330
93
100
AcDbEntity
  8
Wood
 62
     7
420
 16777215
370
    20
100
AcDbVertex
100
AcDb2dVertex
 10
-0.429858991536624
 20
-2.784688758656961
 30
0.0
  0
VERTEX
  5
9B
330
93
100
AcDbEntity
  8
Wood
 62
     7
420
 16777215
370
    20
100
AcDbVertex
100
AcDb2dVertex
 10
-0.429858991536624
 20
-2.224093897595695
 30
0.0
  0
VERTEX
  5
9C
330
93
100
AcDbEntity
  8
Wood
 62
     7
420
 16777215
370
    20
100
AcDbVertex
100
AcDb2dVertex
 10
-0.4767034340452861
 20
-2.176017631182327
 30
0.0
  0
VERTEX
  5
9D
330
93
100
AcDbEntity
  8
Wood
 62
     7
420
 16777215
370
    20
100
AcDbVertex
100
AcDb2dVertex
 10
-0.3872721668281984
 20
-2.094483025936825
 30
0.0
  0
VERTEX
  5
9E
330
93
100
AcDbEntity
  8
Wood
 62
     7
420
 16777215
370
    20
100
AcDbVertex
100
AcDb2dVertex
 10
-0.429858991536624
 20
-2.042205569265964
 30
0.0
  0
VERTEX
  5
9F
330
93
100
AcDbEntity
  8
Wood
 62
     7
420
 16777215
370
    20
100
AcDbVertex
100
AcDb2dVertex
 10
-0.429858991536624
 20
-1.430133883838405
 30
0.0
  0
SEQEND
  5
A0
330
93
100
AcDbEntity
  8
Wood
 62
     7
420
 16777215
370
    20
  0
POLYLINE
  5
A1
330
1F
100
AcDbEntity
  8
Wood
 62
     7
420
 16777215
370
    20
100
AcDb2dPolyline
 66
     1
 10
0.0
 20
0.0
 30
0.0
  0
VERTEX
  5
A2
330
A1
100
AcDbEntity
  8
Wood
 62
     7
420
 16777215
370
    20
100
AcDbVertex
100
AcDb2dVertex
 10
-0.3872721668281984
 20
-2.094483025936825
 30
0.0
  0
VERTEX
  5
A3
330
A1
100
AcDbEntity
  8
Wood
 62
     7
420
 16777215
370
    20
100
AcDbVertex
100
AcDb2dVertex
 10
-0.1348078879210688
 20
-2.21349936027885
 30
0.0
  0
SEQEND
  5
A4
330
A1
100
AcDbEntity
  8
Wood
 62
     7
420
 16777215
370
    20
  0
POLYLINE
  5
A5
330
1F
100
AcDbEntity
  8
Wood
 62
     7
420
 16777215
370
    20
100
AcDb2dPolyline
 66
     1
 10
0.0
 20
0.0
 30
0.0
  0
VERTEX
  5
A6
330
A5
100
AcDbEntity
  8
Wood
 62
     7
420
 16777215
370
    20
100
AcDbVertex
100
AcDb2dVertex
 10
-0.4752895514649632
 20
-2.173168572609332
 30
0.0
  0
VERTEX
  5
A7
330
A5
100
AcDbEntity
  8
Wood
 62
     7
420
 16777215
370
    20
100
AcDbVertex
100
AcDb2dVertex
 10
-0.236404081616115
 20
-2.293609436237855
 30
0.0
  0
SEQEND
  5
A8
330
A5
100
AcDbEntity
  8
Wood
 62
     7
420
 16777215
370
    20
  0
POLYLINE
  5
A9
330
1F
100
AcDbEntity
  8
Wood
 62
     7
420
 16777215
370
    20
100
AcDb2dPolyline
 66
     1
 10
0.0
 20
0.0
 30
0.0
  0
VERTEX
  5
AA
330
A9
100
AcDbEntity
  8
Wood
 62
     7
420
 16777215
370
    20
100
AcDbVertex
100
AcDb2dVertex
 10
-0.42702590302291
 20
-2.225736684358809
 30
0.0
  0
VERTEX
  5
AB
330
A9
100
AcDbEntity
  8
Wood
 62
     7
420
 16777215
370
    20
100
AcDbVertex
100
AcDb2dVertex
 10
-0.1919881527864694
 20
-2.346551247374161
 30
0.0
  0
SEQEND
  5
AC
330
A9
100
AcDbEntity
  8
Wood
 62
     7
420
 16777215
370
    20
  0
SPLINE
  5
AD
330
1F
100
AcDbEntity
  8
Wood
370
     0
100
AcDbSpline
210
0.0
220
0.0
230
1.0
 70
    11
 71
     3
 72
   104
 73
   100
 74
     0
 42
0.0000000001
 43
0.0000000001
 12
1.0
 22
0.0
 32
0.0
 13
1.0
 23
0.0
 33
0.0
 40
0.0
 40
0.0
 40
0.0
 40
0.0
 40
1.0
 40
1.0
 40
1.0
 40
2.0
 40
2.0
 40
2.0
 40
3.0
 40
3.0
 40
3.0
 40
4.0
 40
4.0
 40
4.0
 40
5.0
 40
5.0
 40
5.0
 40
6.0
 40
6.0
 40
6.0
 40
7.0
 40
7.0
 40
7.0
 40
8.0
 40
8.0
 40
8.0
 40
9.0
 40
9.0
 40
9.0
 40
10.0
 40
10.0
 40
10.0
 40
11.0
 40
11.0
 40
11.0
 40
12.0
 40
12.0
 40
12.0
 40
13.0
 40
13.0
 40
13.0
 40
14.0
 40
14.0
 40
14.0
 40
15.0
 40
15.0
 40
15.0
 40
16.0
 40
16.0
 40
16.0
 40
17.0
 40
17.0
 40
17.0
 40
18.0
 40
18.0
 40
18.0
 40
19.0
 40
19.0
 40
19.0
 40
20.0
 40
20.0
 40
20.0
 40
21.0
 40
21.0
 40
21.0
 40
22.0
 40
22.0
 40
22.0
 40
23.0
 40
23.0
 40
23.0
 40
24.0
 40
24.0
 40
24.0
 40
25.0
 40
25.0
 40
25.0
 40
26.0
 40
26.0
 40
26.0
 40
27.0
 40
27.0
 40
27.0
 40
28.0
 40
28.0
 40
28.0
 40
29.0
 40
29.0
 40
29.0
 40
30.0
 40
30.0
 40
30.0
 40
31.0
 40
31.0
 40
31.0
 40
32.0
 40
32.0
 40
32.0
 40
33.0
 40
33.0
 40
33.0
 40
33.0
 10
1.094932456371377
 20
0.3690029535119568
 30
0.0
 10
1.094932456371377
 20
0.3690029535119568
 30
0.0
 10
1.282269768922561
 20
0.3121516718674431
 30
0.0
 10
1.282269768922561
 20
0.3121516718674431
 30
0.0
 10
1.282269768922561
 20
0.3121516718674431
 30
0.0
 10
1.284972967620913
 20
-0.3310386322428308
 30
0.0
 10
1.284972967620913
 20
-0.3310386322428308
 30
0.0
 10
1.284972967620913
 20
-0.3310386322428308
 30
0.0
 10
1.270770261580638
 20
-0.3395539743103452
 30
0.0
 10
1.270770261580638
 20
-0.3509128386636399
 30
0.0
 10
1.270770261580638
 20
-0.3622665925979618
 30
0.0
 10
1.28140632105159
 20
-0.3689207839586541
 30
0.0
 10
1.28140632105159
 20
-0.3689207839586541
 30
0.0
 10
1.28140632105159
 20
-0.3689207839586541
 30
0.0
 10
1.28140632105159
 20
-0.6288031553946843
 30
0.0
 10
1.28140632105159
 20
-0.6288031553946843
 30
0.0
 10
1.28140632105159
 20
-0.6288031553946843
 30
0.0
 10
1.274835173999084
 20
-0.6305758319731846
 30
0.0
 10
1.271289820842109
 20
-0.6421115381160689
 30
0.0
 10
1.267744467685108
 20
-0.6536472442589658
 30
0.0
 10
1.278391173862221
 20
-0.658081597381738
 30
0.0
 10
1.278391173862221
 20
-0.658081597381738
 30
0.0
 10
1.278391173862221
 20
-0.658081597381738
 30
0.0
 10
0.8939556485367777
 20
-1.252717172103075
 30
0.0
 10
0.8939556485367777
 20
-1.252717172103075
 30
0.0
 10
0.8939556485367777
 20
-1.252717172103075
 30
0.0
 10
0.8591047205366319
 20
-1.259807878417026
 30
0.0
 10
0.8591047205366319
 20
-1.259807878417026
 30
0.0
 10
0.8591047205366319
 20
-1.259807878417026
 30
0.0
 10
0.725646129265341
 20
-1.196780442519159
 30
0.0
 10
0.725646129265341
 20
-1.196780442519159
 30
0.0
 10
0.725646129265341
 20
-1.196780442519159
 30
0.0
 10
0.7199640886456614
 20
-1.179749971318264
 30
0.0
 10
0.7199640886456614
 20
-1.179749971318264
 30
0.0
 10
0.7199640886456614
 20
-1.179749971318264
 30
0.0
 10
0.7185448827122702
 20
-1.155836404573872
 30
0.0
 10
0.7185448827122702
 20
-1.155836404573872
 30
0.0
 10
0.7185448827122702
 20
-1.155836404573872
 30
0.0
 10
0.8378113081824065
 20
-0.9736361277531512
 30
0.0
 10
0.8378113081824065
 20
-0.9736361277531512
 30
0.0
 10
0.8378113081824065
 20
-0.9736361277531512
 30
0.0
 10
0.8576801912501094
 20
-0.9679593040195362
 30
0.0
 10
0.8576801912501094
 20
-0.9679593040195362
 30
0.0
 10
0.8576801912501094
 20
-0.9679593040195362
 30
0.0
 10
0.8676199561370797
 20
-0.9722009517604925
 30
0.0
 10
0.8676199561370797
 20
-0.9722009517604925
 30
0.0
 10
0.8676199561370797
 20
-0.9722009517604925
 30
0.0
 10
0.8818120154711424
 20
-0.9793129514867915
 30
0.0
 10
0.8960093981583365
 20
-0.960847304293212
 30
0.0
 10
0.91020678084548
 20
-0.9424029505119809
 30
0.0
 10
1.041637174590025
 20
-0.7314544376719014
 30
0.0
 10
1.041637174590025
 20
-0.7314544376719014
 30
0.0
 10
1.041637174590025
 20
-0.7314544376719014
 30
0.0
 10
1.016901682128769
 20
-0.720423385401773
 30
0.0
 10
1.016901682128769
 20
-0.720423385401773
 30
0.0
 10
1.016901682128769
 20
-0.720423385401773
 30
0.0
 10
1.016901682128769
 20
-0.6934584726670133
 30
0.0
 10
1.016901682128769
 20
-0.6934584726670133
 30
0.0
 10
1.016901682128769
 20
-0.6934584726670133
 30
0.0
 10
1.082976205334489
 20
-0.5944249411488095
 30
0.0
 10
1.082976205334489
 20
-0.5944249411488095
 30
0.0
 10
1.082976205334489
 20
-0.5944249411488095
 30
0.0
 10
1.103853331477189
 20
-0.59669694824701
 30
0.0
 10
1.106515008021486
 20
-0.5789488890497725
 30
0.0
 10
1.109021242655571
 20
-0.5622559184346806
 30
0.0
 10
1.095619168919812
 20
-0.5612061532056157
 30
0.0
 10
1.095619168919812
 20
-0.5612061532056157
 30
0.0
 10
1.095619168919812
 20
-0.5612061532056157
 30
0.0
 10
1.094746139013296
 20
-0.5338664764134238
 30
0.0
 10
1.094746139013296
 20
-0.5338664764134238
 30
0.0
 10
1.094746139013296
 20
-0.5338664764134238
 30
0.0
 10
1.094746139013296
 20
-0.3423923861771653
 30
0.0
 10
1.094746139013296
 20
-0.3423923861771653
 30
0.0
 10
1.094746139013296
 20
-0.3423923861771653
 30
0.0
 10
1.10894884505357
 20
-0.3381295514909147
 30
0.0
 10
1.10894884505357
 20
-0.3225181904030529
 30
0.0
 10
1.10894884505357
 20
-0.3069068293152162
 30
0.0
 10
1.094746139013296
 20
-0.2983863555353233
 30
0.0
 10
1.094746139013296
 20
-0.2983863555353233
 30
0.0
 10
1.094746139013296
 20
-0.2983863555353233
 30
0.0
 10
1.094746139013296
 20
-0.2231523645383504
 30
0.0
 10
1.094746139013296
 20
-0.2231523645383504
 30
0.0
 10
1.094746139013296
 20
-0.2231523645383504
 30
0.0
 10
1.106099786480551
 20
-0.2160511179852796
 30
0.0
 10
1.106099786480551
 20
-0.2160511179852796
 30
0.0
 10
1.106099786480551
 20
-0.2160511179852796
 30
0.0
 10
1.12762210301758
 20
-0.2259907764051705
 30
0.0
 10
1.134733038073288
 20
-0.2231523645383504
 30
0.0
 10
1.134733038073288
 20
-0.2231523645383504
 30
0.0
 10
1.134733038073288
 20
0.0919916288428971
 30
0.0
 10
1.134733038073288
 20
0.0919916288428971
 30
0.0
 10
1.134733038073288
 20
0.0919916288428971
 30
0.0
 10
1.133090251310149
 20
0.1132797178440291
 30
0.0
 10
1.117464080654018
 20
0.1232194827309614
 30
0.0
 10
1.101836845327246
 20
0.133159247617919
 30
0.0
 10
1.093934860002618
 20
0.1345784535513354
 30
0.0
 10
1.093934860002618
 20
0.1345784535513354
 30
0.0
 10
1.093934860002618
 20
0.1345784535513354
 30
0.0
 10
1.094932456371377
 20
0.3690029535119568
 30
0.0
 10
1.094932456371377
 20
0.3690029535119568
 30
0.0
  0
HATCH
  5
AE
330
1F
100
AcDbEntity
  8
Wood
 62
    43
420
 15510365
100
AcDbHatch
 10
0.0
 20
0.0
 30
0.0
210
0.0
220
0.0
230
1.0
  2
SOLID
 70
     1
 71
     0
 91
        1
 92
        1
 93
        1
 72
     4
 94
        3
 73
     0
 74
     1
 95
      104
 96
      100
 40
0.0
 40
0.0
 40
0.0
 40
0.0
 40
1.0
 40
1.0
 40
1.0
 40
2.0
 40
2.0
 40
2.0
 40
3.0
 40
3.0
 40
3.0
 40
4.0
 40
4.0
 40
4.0
 40
5.0
 40
5.0
 40
5.0
 40
6.0
 40
6.0
 40
6.0
 40
7.0
 40
7.0
 40
7.0
 40
8.0
 40
8.0
 40
8.0
 40
9.0
 40
9.0
 40
9.0
 40
10.0
 40
10.0
 40
10.0
 40
11.0
 40
11.0
 40
11.0
 40
12.0
 40
12.0
 40
12.0
 40
13.0
 40
13.0
 40
13.0
 40
14.0
 40
14.0
 40
14.0
 40
15.0
 40
15.0
 40
15.0
 40
16.0
 40
16.0
 40
16.0
 40
17.0
 40
17.0
 40
17.0
 40
18.0
 40
18.0
 40
18.0
 40
19.0
 40
19.0
 40
19.0
 40
20.0
 40
20.0
 40
20.0
 40
21.0
 40
21.0
 40
21.0
 40
22.0
 40
22.0
 40
22.0
 40
23.0
 40
23.0
 40
23.0
 40
24.0
 40
24.0
 40
24.0
 40
25.0
 40
25.0
 40
25.0
 40
26.0
 40
26.0
 40
26.0
 40
27.0
 40
27.0
 40
27.0
 40
28.0
 40
28.0
 40
28.0
 40
29.0
 40
29.0
 40
29.0
 40
30.0
 40
30.0
 40
30.0
 40
31.0
 40
31.0
 40
31.0
 40
32.0
 40
32.0
 40
32.0
 40
33.0
 40
33.0
 40
33.0
 40
33.0
 10
1.094932456371377
 20
0.3690029535119568
 10
1.094932456371377
 20
0.3690029535119568
 10
1.282269768922561
 20
0.3121516718674431
 10
1.282269768922561
 20
0.3121516718674431
 10
1.282269768922561
 20
0.3121516718674431
 10
1.284972967620913
 20
-0.3310386322428308
 10
1.284972967620913
 20
-0.3310386322428308
 10
1.284972967620913
 20
-0.3310386322428308
 10
1.270770261580638
 20
-0.3395539743103452
 10
1.270770261580638
 20
-0.3509128386636399
 10
1.270770261580638
 20
-0.3622665925979618
 10
1.28140632105159
 20
-0.3689207839586541
 10
1.28140632105159
 20
-0.3689207839586541
 10
1.28140632105159
 20
-0.3689207839586541
 10
1.28140632105159
 20
-0.6288031553946843
 10
1.28140632105159
 20
-0.6288031553946843
 10
1.28140632105159
 20
-0.6288031553946843
 10
1.274835173999084
 20
-0.6305758319731846
 10
1.271289820842109
 20
-0.6421115381160689
 10
1.267744467685108
 20
-0.6536472442589658
 10
1.278391173862221
 20
-0.658081597381738
 10
1.278391173862221
 20
-0.658081597381738
 10
1.278391173862221
 20
-0.658081597381738
 10
0.8939556485367777
 20
-1.252717172103075
 10
0.8939556485367777
 20
-1.252717172103075
 10
0.8939556485367777
 20
-1.252717172103075
 10
0.8591047205366319
 20
-1.259807878417026
 10
0.8591047205366319
 20
-1.259807878417026
 10
0.8591047205366319
 20
-1.259807878417026
 10
0.725646129265341
 20
-1.196780442519159
 10
0.725646129265341
 20
-1.196780442519159
 10
0.725646129265341
 20
-1.196780442519159
 10
0.7199640886456614
 20
-1.179749971318264
 10
0.7199640886456614
 20
-1.179749971318264
 10
0.7199640886456614
 20
-1.179749971318264
 10
0.7185448827122702
 20
-1.155836404573872
 10
0.7185448827122702
 20
-1.155836404573872
 10
0.7185448827122702
 20
-1.155836404573872
 10
0.8378113081824065
 20
-0.9736361277531512
 10
0.8378113081824065
 20
-0.9736361277531512
 10
0.8378113081824065
 20
-0.9736361277531512
 10
0.8576801912501094
 20
-0.9679593040195362
 10
0.8576801912501094
 20
-0.9679593040195362
 10
0.8576801912501094
 20
-0.9679593040195362
 10
0.8676199561370797
 20
-0.9722009517604925
 10
0.8676199561370797
 20
-0.9722009517604925
 10
0.8676199561370797
 20
-0.9722009517604925
 10
0.8818120154711424
 20
-0.9793129514867915
 10
0.8960093981583365
 20
-0.960847304293212
 10
0.91020678084548
 20
-0.9424029505119809
 10
1.041637174590025
 20
-0.7314544376719014
 10
1.041637174590025
 20
-0.7314544376719014
 10
1.041637174590025
 20
-0.7314544376719014
 10
1.016901682128769
 20
-0.720423385401773
 10
1.016901682128769
 20
-0.720423385401773
 10
1.016901682128769
 20
-0.720423385401773
 10
1.016901682128769
 20
-0.6934584726670133
 10
1.016901682128769
 20
-0.6934584726670133
 10
1.016901682128769
 20
-0.6934584726670133
 10
1.082976205334489
 20
-0.5944249411488095
 10
1.082976205334489
 20
-0.5944249411488095
 10
1.082976205334489
 20
-0.5944249411488095
 10
1.103853331477189
 20
-0.59669694824701
 10
1.106515008021486
 20
-0.5789488890497725
 10
1.109021242655571
 20
-0.5622559184346806
 10
1.095619168919812
 20
-0.5612061532056157
 10
1.095619168919812
 20
-0.5612061532056157
 10
1.095619168919812
 20
-0.5612061532056157
 10
1.094746139013296
 20
-0.5338664764134238
 10
1.094746139013296
 20
-0.5338664764134238
 10
1.094746139013296
 20
-0.5338664764134238
 10
1.094746139013296
 20
-0.3423923861771653
 10
1.094746139013296
 20
-0.3423923861771653
 10
1.094746139013296
 20
-0.3423923861771653
 10
1.10894884505357
 20
-0.3381295514909147
 10
1.10894884505357
 20
-0.3225181904030529
 10
1.10894884505357
 20
-0.3069068293152162
 10
1.094746139013296
 20
-0.2983863555353233
 10
1.094746139013296
 20
-0.2983863555353233
 10
1.094746139013296
 20
-0.2983863555353233
 10
1.094746139013296
 20
-0.2231523645383504
 10
1.094746139013296
 20
-0.2231523645383504
 10
1.094746139013296
 20
-0.2231523645383504
 10
1.106099786480551
 20
-0.2160511179852796
 10
1.106099786480551
 20
-0.2160511179852796
 10
1.106099786480551
 20
-0.2160511179852796
 10
1.12762210301758
 20
-0.2259907764051705
 10
1.134733038073288
 20
-0.2231523645383504
 10
1.134733038073288
 20
-0.2231523645383504
 10
1.134733038073288
 20
0.0919916288428971
 10
1.134733038073288
 20
0.0919916288428971
 10
1.134733038073288
 20
0.0919916288428971
 10
1.133090251310149
 20
0.1132797178440291
 10
1.117464080654018
 20
0.1232194827309614
 10
1.101836845327246
 20
0.133159247617919
 10
1.093934860002618
 20
0.1345784535513354
 10
1.093934860002618
 20
0.1345784535513354
 10
1.093934860002618
 20
0.1345784535513354
 10
1.094932456371377
 20
0.3690029535119568
 10
1.094932456371377
 20
0.3690029535119568
 97
        0
 97
        0
 75
     2
 76
     1
 98
        0
  0
POLYLINE
  5
AF
330
1F
100
AcDbEntity
  8
Wood
 62
     7
420
 16777215
370
    20
100
AcDb2dPolyline
 66
     1
 10
0.0
 20
0.0
 30
0.0
  0
VERTEX
  5
B0
330
AF
100
AcDbEntity
  8
Wood
 62
     7
420
 16777215
370
    20
100
AcDbVertex
100
AcDb2dVertex
 10
0.2472725859980124
 20
-1.282504526645375
 30
0.0
  0
VERTEX
  5
B1
330
AF
100
AcDbEntity
  8
Wood
 62
     7
420
 16777215
370
    20
100
AcDbVertex
100
AcDb2dVertex
 10
0.2472725859980124
 20
-0.1965404965804206
 30
0.0
  0
VERTEX
  5
B2
330
AF
100
AcDbEntity
  8
Wood
 62
     7
420
 16777215
370
    20
100
AcDbVertex
100
AcDb2dVertex
 10
1.286386850201224
 20
0.3187643410740545
 30
0.0
  0
VERTEX
  5
B3
330
AF
100
AcDbEntity
  8
Wood
 62
     7
420
 16777215
370
    20
100
AcDbVertex
100
AcDb2dVertex
 10
1.286386850201224
 20
-0.6456622146261376
 30
0.0
  0
VERTEX
  5
B4
330
AF
100
AcDbEntity
  8
Wood
 62
     7
420
 16777215
370
    20
100
AcDbVertex
100
AcDb2dVertex
 10
-0.1913738378400467
 20
-2.922097277919925
 30
0.0
  0
SEQEND
  5
B5
330
AF
100
AcDbEntity
  8
Wood
 62
     7
420
 16777215
370
    20
  0
SPLINE
  5
B6
330
1F
100
AcDbEntity
  8
Wood
 62
   250
420
  2301728
370
     9
100
AcDbSpline
210
0.0
220
0.0
230
1.0
 70
     8
 71
     3
 72
    20
 73
    16
 74
     0
 42
0.0000000001
 43
0.0000000001
 12
1.0
 22
0.0
 32
0.0
 13
1.0
 23
0.0
 33
0.0
 40
0.0
 40
0.0
 40
0.0
 40
0.0
 40
1.0
 40
1.0
 40
1.0
 40
2.0
 40
2.0
 40
2.0
 40
3.0
 40
3.0
 40
3.0
 40
4.0
 40
4.0
 40
4.0
 40
5.0
 40
5.0
 40
5.0
 40
5.0
 10
0.0272371094357343
 20
-0.1553675544523053
 30
0.0
 10
0.0272371094357343
 20
-0.1553675544523053
 30
0.0
 10
0.0641524337636257
 20
-0.320038466067356
 30
0.0
 10
0.0584702866769046
 20
-0.3626252801290724
 30
0.0
 10
0.0527881395901709
 20
-0.405212104837498
 30
0.0
 10
0.0598681991979472
 20
-0.5783973896697918
 30
0.0
 10
0.0683834347984076
 20
-0.6181458025114099
 30
0.0
 10
0.0769039937519362
 20
-0.6578995387061088
 30
0.0
 10
0.0655450229315875
 20
-0.7742957186579689
 30
0.0
 10
0.0598681991979472
 20
-0.8168825433663692
 30
0.0
 10
0.0541913754643196
 20
-0.8594651093923554
 30
0.0
 10
0.0499497277233634
 20
-1.044014049595717
 30
0.0
 10
0.0527881395901709
 20
-1.078085638703669
 30
0.0
 10
0.0556318748100845
 20
-1.112157227811672
 30
0.0
 10
0.0414344921229157
 20
-1.183128171188249
 30
0.0
 10
0.0414344921229157
 20
-1.183128171188249
 30
0.0
  0
SPLINE
  5
B7
330
1F
100
AcDbEntity
  8
Wood
 62
   250
420
  2301728
370
     9
100
AcDbSpline
210
0.0
220
0.0
230
1.0
 70
     8
 71
     3
 72
    20
 73
    16
 74
     0
 42
0.0000000001
 43
0.0000000001
 12
1.0
 22
0.0
 32
0.0
 13
1.0
 23
0.0
 33
0.0
 40
0.0
 40
0.0
 40
0.0
 40
0.0
 40
1.0
 40
1.0
 40
1.0
 40
2.0
 40
2.0
 40
2.0
 40
3.0
 40
3.0
 40
3.0
 40
4.0
 40
4.0
 40
4.0
 40
5.0
 40
5.0
 40
5.0
 40
5.0
 10
0.0641417870574388
 20
-0.1326602595177822
 30
0.0
 10
0.0641417870574388
 20
-0.1326602595177822
 30
0.0
 10
0.1010571113853302
 20
-0.2973310540190444
 30
0.0
 10
0.0953749642986092
 20
-0.33991787872747
 30
0.0
 10
0.0896928172118881
 20
-0.3825047034359083
 30
0.0
 10
0.1010517880322368
 20
-0.5556847713821753
 30
0.0
 10
0.109572346985778
 20
-0.5954385075768616
 30
0.0
 10
0.1180875825862257
 20
-0.6351815970653862
 30
0.0
 10
0.106728611765877
 20
-0.751583100370327
 30
0.0
 10
0.1010517880322368
 20
-0.7941699250787526
 30
0.0
 10
0.0953749642986092
 20
-0.8367567497871783
 30
0.0
 10
0.086854405345068
 20
-1.021306754661156
 30
0.0
 10
0.0896928172118881
 20
-1.055378343769159
 30
0.0
 10
0.0925365524317891
 20
-1.089449932877111
 30
0.0
 10
0.0755060812308809
 20
-1.200159707059786
 30
0.0
 10
0.0755060812308809
 20
-1.200159707059786
 30
0.0
  0
SPLINE
  5
B8
330
1F
100
AcDbEntity
  8
Wood
 62
   250
420
  2301728
370
     9
100
AcDbSpline
210
0.0
220
0.0
230
1.0
 70
     8
 71
     3
 72
    20
 73
    16
 74
     0
 42
0.0000000001
 43
0.0000000001
 12
1.0
 22
0.0
 32
0.0
 13
1.0
 23
0.0
 33
0.0
 40
0.0
 40
0.0
 40
0.0
 40
0.0
 40
1.0
 40
1.0
 40
1.0
 40
2.0
 40
2.0
 40
2.0
 40
3.0
 40
3.0
 40
3.0
 40
4.0
 40
4.0
 40
4.0
 40
5.0
 40
5.0
 40
5.0
 40
5.0
 10
0.0953749642986092
 20
-0.1411861418244042
 30
0.0
 10
0.0953749642986092
 20
-0.1411861418244042
 30
0.0
 10
0.132290288626488
 20
-0.3058567127448492
 30
0.0
 10
0.1266081415397669
 20
-0.348443548099984
 30
0.0
 10
0.1209259944530459
 20
-0.3910303728084096
 30
0.0
 10
0.1379617890070348
 20
-0.5386489768281737
 30
0.0
 10
0.1408055242269484
 20
-0.6039643898834962
 30
0.0
 10
0.1425728774523425
 20
-0.6445762505960727
 30
0.0
 10
0.1379617890070348
 20
-0.7601089826769364
 30
0.0
 10
0.1322849652734072
 20
-0.8026958073853873
 30
0.0
 10
0.1266081415397669
 20
-0.8452826320938381
 30
0.0
 10
0.1180875825862257
 20
-1.02983263696779
 30
0.0
 10
0.1209259944530459
 20
-1.063904226075768
 30
0.0
 10
0.1237697296729594
 20
-1.097975815183771
 30
0.0
 10
0.1067392584720513
 20
-1.208684524695804
 30
0.0
 10
0.1067392584720513
 20
-1.208684524695804
 30
0.0
  0
SPLINE
  5
B9
330
1F
100
AcDbEntity
  8
Wood
 62
   250
420
  2301728
370
     9
100
AcDbSpline
210
0.0
220
0.0
230
1.0
 70
     8
 71
     3
 72
    20
 73
    16
 74
     0
 42
0.0000000001
 43
0.0000000001
 12
1.0
 22
0.0
 32
0.0
 13
1.0
 23
0.0
 33
0.0
 40
0.0
 40
0.0
 40
0.0
 40
0.0
 40
1.0
 40
1.0
 40
1.0
 40
2.0
 40
2.0
 40
2.0
 40
3.0
 40
3.0
 40
3.0
 40
4.0
 40
4.0
 40
4.0
 40
5.0
 40
5.0
 40
5.0
 40
5.0
 10
0.1322849652734072
 20
-0.1525397892916721
 30
0.0
 10
0.1322849652734072
 20
-0.1525397892916721
 30
0.0
 10
0.1705151578141668
 20
-0.3169089093734227
 30
0.0
 10
0.1651705113132493
 20
-0.3595425263554893
 30
0.0
 10
0.1598322528360414
 20
-0.4021760901040478
 30
0.0
 10
0.1780423790813757
 20
-0.5496491536503577
 30
0.0
 10
0.1814003502096284
 20
-0.6149390146108544
 30
0.0
 10
0.1834956219852807
 20
-0.6555295819110825
 30
0.0
 10
0.1798044089536764
 20
-0.7711038361460648
 30
0.0
 10
0.1744714738295746
 20
-0.8137321830085713
 30
0.0
 10
0.1691321506817505
 20
-0.8563658532241839
 30
0.0
 10
0.1620829665218935
 20
-1.040978673664616
 30
0.0
 10
0.1651971280786913
 20
-1.075019387324675
 30
0.0
 10
0.1683059662824083
 20
-1.109080329726466
 30
0.0
 10
0.1493207598273961
 20
-1.237079290070142
 30
0.0
 10
0.1493207598273961
 20
-1.237079290070142
 30
0.0
  0
SPLINE
  5
BA
330
1F
100
AcDbEntity
  8
Wood
 62
   250
420
  2301728
370
     9
100
AcDbSpline
210
0.0
220
0.0
230
1.0
 70
     8
 71
     3
 72
    20
 73
    16
 74
     0
 42
0.0000000001
 43
0.0000000001
 12
1.0
 22
0.0
 32
0.0
 13
1.0
 23
0.0
 33
0.0
 40
0.0
 40
0.0
 40
0.0
 40
0.0
 40
1.0
 40
1.0
 40
1.0
 40
2.0
 40
2.0
 40
2.0
 40
3.0
 40
3.0
 40
3.0
 40
4.0
 40
4.0
 40
4.0
 40
5.0
 40
5.0
 40
5.0
 40
5.0
 10
0.1635128191614841
 20
-0.1695702604925676
 30
0.0
 10
0.1635128191614841
 20
-0.1695702604925676
 30
0.0
 10
0.2029279900997507
 20
-0.2944405797590232
 30
0.0
 10
0.1975844082694493
 20
-0.3370742499746358
 30
0.0
 10
0.1922450851216379
 20
-0.3797078137231816
 30
0.0
 10
0.2092702329694399
 20
-0.5666849482043592
 30
0.0
 10
0.2126292687683341
 20
-0.6319748091648433
 30
0.0
 10
0.2147234758733576
 20
-0.6725653764650713
 30
0.0
 10
0.2110333275123821
 20
-0.7881396307000411
 30
0.0
 10
0.2056993277176389
 20
-0.8307679775625729
 30
0.0
 10
0.2003600045698274
 20
-0.8733973890957207
 30
0.0
 10
0.2029908056661927
 20
-1.061076460915148
 30
0.0
 10
0.2060996438699097
 20
-1.095126756610777
 30
0.0
 10
0.2092138054267075
 20
-1.129167470270835
 30
0.0
 10
0.1805486137154604
 20
-1.254120407977199
 30
0.0
 10
0.1805486137154604
 20
-1.254120407977199
 30
0.0
  0
SPLINE
  5
BB
330
1F
100
AcDbEntity
  8
Wood
 62
   250
420
  2301728
370
     9
100
AcDbSpline
210
0.0
220
0.0
230
1.0
 70
     8
 71
     3
 72
     8
 73
     4
 74
     0
 42
0.0000000001
 43
0.0000000001
 12
1.0
 22
0.0
 32
0.0
 13
1.0
 23
0.0
 33
0.0
 40
0.0
 40
0.0
 40
0.0
 40
0.0
 40
1.0
 40
1.0
 40
1.0
 40
1.0
 10
0.2458533800646086
 20
-1.106480404078032
 30
0.0
 10
0.2489622182683257
 20
-1.140521117738091
 30
0.0
 10
0.2203023499101719
 20
-1.265474055444479
 30
0.0
 10
0.2203023499101719
 20
-1.265474055444479
 30
0.0
  0
SPLINE
  5
BC
330
1F
100
AcDbEntity
  8
Wood
 62
   250
420
  2301728
370
     9
100
AcDbSpline
210
0.0
220
0.0
230
1.0
 70
     8
 71
     3
 72
     8
 73
     4
 74
     0
 42
0.0000000001
 43
0.0000000001
 12
1.0
 22
0.0
 32
0.0
 13
1.0
 23
0.0
 33
0.0
 40
0.0
 40
0.0
 40
0.0
 40
0.0
 40
1.0
 40
1.0
 40
1.0
 40
1.0
 10
0.2032665553561704
 20
-0.1809239079598481
 30
0.0
 10
0.2032665553561704
 20
-0.1809239079598481
 30
0.0
 10
0.2486864685783353
 20
-0.3143616103936008
 30
0.0
 10
0.2458533800646086
 20
-0.4563190626312235
 30
0.0
  0
SPLINE
  5
BD
330
1F
100
AcDbEntity
  8
Wood
 62
   250
420
  2301728
370
     9
100
AcDbSpline
210
0.0
220
0.0
230
1.0
 70
     8
 71
     3
 72
    11
 73
     7
 74
     0
 42
0.0000000001
 43
0.0000000001
 12
1.0
 22
0.0
 32
0.0
 13
1.0
 23
0.0
 33
0.0
 40
0.0
 40
0.0
 40
0.0
 40
0.0
 40
1.0
 40
1.0
 40
1.0
 40
2.0
 40
2.0
 40
2.0
 40
2.0
 10
-0.4071463732490075
 20
-1.441498178011847
 30
0.0
 10
-0.4071463732490075
 20
-1.441498178011847
 30
0.0
 10
-0.4156616088494552
 20
-1.560754063242863
 30
0.0
 10
-0.4099847851158276
 20
-1.600491829378269
 30
0.0
 10
-0.4043079613822
 20
-1.640229595513726
 30
0.0
 10
-0.429858991536624
 20
-1.867366425096154
 30
0.0
 10
-0.429858991536624
 20
-1.867366425096154
 30
0.0
  0
POLYLINE
  5
BE
330
1F
100
AcDbEntity
  8
Wood
 62
     7
420
 16777215
370
    20
100
AcDb2dPolyline
 66
     1
 10
0.0
 20
0.0
 30
0.0
  0
VERTEX
  5
BF
330
BE
100
AcDbEntity
  8
Wood
 62
     7
420
 16777215
370
    20
100
AcDbVertex
100
AcDb2dVertex
 10
-0.429858991536624
 20
-2.042205569265964
 30
0.0
  0
VERTEX
  5
C0
330
BE
100
AcDbEntity
  8
Wood
 62
     7
420
 16777215
370
    20
100
AcDbVertex
100
AcDb2dVertex
 10
-0.1942122497068668
 20
-2.154109903881716
 30
0.0
  0
SEQEND
  5
C1
330
BE
100
AcDbEntity
  8
Wood
 62
     7
420
 16777215
370
    20
  0
SPLINE
  5
C2
330
1F
100
AcDbEntity
  8
Wood
 62
     7
420
 16777215
370
     9
100
AcDbSpline
210
0.0
220
0.0
230
1.0
 70
     8
 71
     3
 72
    14
 73
    10
 74
     0
 42
0.0000000001
 43
0.0000000001
 12
1.0
 22
0.0
 32
0.0
 13
1.0
 23
0.0
 33
0.0
 40
0.0
 40
0.0
 40
0.0
 40
0.0
 40
1.0
 40
1.0
 40
1.0
 40
2.0
 40
2.0
 40
2.0
 40
3.0
 40
3.0
 40
3.0
 40
3.0
 10
-0.3759131960078497
 20
-1.458528649212743
 30
0.0
 10
-0.3759131960078497
 20
-1.458528649212743
 30
0.0
 10
-0.3759131960078497
 20
-1.577773887737572
 30
0.0
 10
-0.3730747841410296
 20
-1.640229595513726
 30
0.0
 10
-0.3702363722742095
 20
-1.702695949996066
 30
0.0
 10
-0.3901105786950312
 20
-1.816275011493417
 30
0.0
 10
-0.3986258142954789
 20
-1.847486895322213
 30
0.0
 10
-0.3986258142954789
 20
-1.847486895322213
 30
0.0
 10
-0.4256013737364128
 20
-1.974540428157373
 30
0.0
 10
-0.429858991536624
 20
-2.017127252865774
 30
0.0
  0
SPLINE
  5
C3
330
1F
100
AcDbEntity
  8
Wood
 62
     7
420
 16777215
370
     9
100
AcDbSpline
210
0.0
220
0.0
230
1.0
 70
     8
 71
     3
 72
    26
 73
    22
 74
     0
 42
0.0000000001
 43
0.0000000001
 12
1.0
 22
0.0
 32
0.0
 13
1.0
 23
0.0
 33
0.0
 40
0.0
 40
0.0
 40
0.0
 40
0.0
 40
1.0
 40
1.0
 40
1.0
 40
2.0
 40
2.0
 40
2.0
 40
3.0
 40
3.0
 40
3.0
 40
4.0
 40
4.0
 40
4.0
 40
5.0
 40
5.0
 40
5.0
 40
6.0
 40
6.0
 40
6.0
 40
7.0
 40
7.0
 40
7.0
 40
7.0
 10
-0.347523753986593
 20
-1.472731355252967
 30
0.0
 10
-0.347523753986593
 20
-1.472731355252967
 30
0.0
 10
-0.3418469302529527
 20
-1.61752230057919
 30
0.0
 10
-0.3418469302529527
 20
-1.660109125287615
 30
0.0
 10
-0.3418469302529527
 20
-1.702695949996066
 30
0.0
 10
-0.347523753986593
 20
-1.776515951945637
 30
0.0
 10
-0.3645595485405819
 20
-1.847486895322213
 30
0.0
 10
-0.3815900197414774
 20
-1.918468485405002
 30
0.0
 10
-0.3986258142954789
 20
-2.017834194155967
 30
0.0
 10
-0.3986258142954789
 20
-2.057582606997534
 30
0.0
 10
-0.3986258142954789
 20
-2.057582606997534
 30
0.0
 10
-0.367397960407402
 20
-2.10442279082377
 30
0.0
 10
-0.367397960407402
 20
-2.10442279082377
 30
0.0
 10
-0.367397960407402
 20
-2.10442279082377
 30
0.0
 10
-0.3915297846284349
 20
-2.132827138233652
 30
0.0
 10
-0.4057271673156038
 20
-2.144180785700933
 30
0.0
 10
-0.4199192266496917
 20
-2.155534433168214
 30
0.0
 10
-0.4539908157576696
 20
-2.182504669256054
 30
0.0
 10
-0.4539908157576696
 20
-2.182504669256054
 30
0.0
 10
-0.4539908157576696
 20
-2.182504669256054
 30
0.0
 10
-0.4156616088494552
 20
-2.23076831769812
 30
0.0
 10
-0.4156616088494552
 20
-2.23076831769812
 30
0.0
  0
SPLINE
  5
C4
330
1F
100
AcDbEntity
  8
Wood
 62
     7
420
 16777215
370
     9
100
AcDbSpline
210
0.0
220
0.0
230
1.0
 70
     8
 71
     3
 72
    32
 73
    28
 74
     0
 42
0.0000000001
 43
0.0000000001
 12
1.0
 22
0.0
 32
0.0
 13
1.0
 23
0.0
 33
0.0
 40
0.0
 40
0.0
 40
0.0
 40
0.0
 40
1.0
 40
1.0
 40
1.0
 40
2.0
 40
2.0
 40
2.0
 40
3.0
 40
3.0
 40
3.0
 40
4.0
 40
4.0
 40
4.0
 40
5.0
 40
5.0
 40
5.0
 40
6.0
 40
6.0
 40
6.0
 40
7.0
 40
7.0
 40
7.0
 40
8.0
 40
8.0
 40
8.0
 40
9.0
 40
9.0
 40
9.0
 40
9.0
 10
-0.3134521648786151
 20
-1.484085002720273
 30
0.0
 10
-0.3134521648786151
 20
-1.484085002720273
 30
0.0
 10
-0.3077753411449874
 20
-1.628886594752632
 30
0.0
 10
-0.3077753411449874
 20
-1.671473419461058
 30
0.0
 10
-0.3077753411449874
 20
-1.714060244169509
 30
0.0
 10
-0.3134521648786151
 20
-1.787880246119079
 30
0.0
 10
-0.330487959432604
 20
-1.858861836201868
 30
0.0
 10
-0.347523753986593
 20
-1.929832779578444
 30
0.0
 10
-0.3645595485405819
 20
-2.029187841623196
 30
0.0
 10
-0.3645595485405819
 20
-2.068946901170976
 30
0.0
 10
-0.3645595485405819
 20
-2.068946901170976
 30
0.0
 10
-0.3404277243195489
 20
-2.115776438290999
 30
0.0
 10
-0.3404277243195489
 20
-2.115776438290999
 30
0.0
 10
-0.3404277243195489
 20
-2.115776438290999
 30
0.0
 10
-0.3546197836536369
 20
-2.134241020813988
 30
0.0
 10
-0.3716555782076259
 20
-2.152696021301381
 30
0.0
 10
-0.3886913727616148
 20
-2.171151021788774
 30
0.0
 10
-0.4185000207162753
 20
-2.198121257876614
 30
0.0
 10
-0.4185000207162753
 20
-2.198121257876614
 30
0.0
 10
-0.4185000207162753
 20
-2.198121257876614
 30
0.0
 10
-0.3911145630875252
 20
-2.243536912416301
 30
0.0
 10
-0.3911145630875252
 20
-2.243536912416301
 30
0.0
 10
-0.3911145630875252
 20
-2.243536912416301
 30
0.0
 10
-0.3906620780749866
 20
-2.3238439524396
 30
0.0
 10
-0.398933504103992
 20
-2.368260945939861
 30
0.0
 10
-0.4072038654623687
 20
-2.4126566460278
 30
0.0
 10
-0.4263136383796614
 20
-2.478565080617197
 30
0.0
 10
-0.4295214909508205
 20
-2.504006449698004
 30
0.0
  0
SPLINE
  5
C5
330
1F
100
AcDbEntity
  8
Wood
 62
     7
420
 16777215
370
     9
100
AcDbSpline
210
0.0
220
0.0
230
1.0
 70
     8
 71
     3
 72
    38
 73
    34
 74
     0
 42
0.0000000001
 43
0.0000000001
 12
1.0
 22
0.0
 32
0.0
 13
1.0
 23
0.0
 33
0.0
 40
0.0
 40
0.0
 40
0.0
 40
0.0
 40
1.0
 40
1.0
 40
1.0
 40
2.0
 40
2.0
 40
2.0
 40
3.0
 40
3.0
 40
3.0
 40
4.0
 40
4.0
 40
4.0
 40
5.0
 40
5.0
 40
5.0
 40
6.0
 40
6.0
 40
6.0
 40
7.0
 40
7.0
 40
7.0
 40
8.0
 40
8.0
 40
8.0
 40
9.0
 40
9.0
 40
9.0
 40
10.0
 40
10.0
 40
10.0
 40
11.0
 40
11.0
 40
11.0
 40
11.0
 10
-0.2765474872569105
 20
-1.506792297654808
 30
0.0
 10
-0.2765474872569105
 20
-1.506792297654808
 30
0.0
 10
-0.2623554279228225
 20
-1.699847956093688
 30
0.0
 10
-0.2765474872569105
 20
-1.742434780802089
 30
0.0
 10
-0.2907395465909859
 20
-1.785021605510539
 30
0.0
 10
-0.2999723701877757
 20
-1.900013484917609
 30
0.0
 10
-0.2999723701877757
 20
-1.900013484917609
 30
0.0
 10
-0.2999723701877757
 20
-1.900013484917609
 30
0.0
 10
-0.3084876057882234
 20
-1.934075491990016
 30
0.0
 10
-0.3170028413886712
 20
-1.968156663133565
 30
0.0
 10
-0.3255234003422123
 20
-2.002217605535356
 30
0.0
 10
-0.330487959432604
 20
-2.088815784238705
 30
0.0
 10
-0.330487959432604
 20
-2.088815784238705
 30
0.0
 10
-0.330487959432604
 20
-2.088815784238705
 30
0.0
 10
-0.3063561352115711
 20
-2.132816491527491
 30
0.0
 10
-0.3063561352115711
 20
-2.132816491527491
 30
0.0
 10
-0.3063561352115711
 20
-2.132816491527491
 30
0.0
 10
-0.330487959432604
 20
-2.161211256901828
 30
0.0
 10
-0.3461045480531892
 20
-2.178241728102724
 30
0.0
 10
-0.3617211366737618
 20
-2.195282846009781
 30
0.0
 10
-0.3872721668281984
 20
-2.216576258364007
 30
0.0
 10
-0.3872721668281984
 20
-2.216576258364007
 30
0.0
 10
-0.3872721668281984
 20
-2.216576258364007
 30
0.0
 10
-0.3574635188735379
 20
-2.260576965652793
 30
0.0
 10
-0.3574635188735379
 20
-2.260576965652793
 30
0.0
 10
-0.3574635188735379
 20
-2.260576965652793
 30
0.0
 10
-0.353205901073314
 20
-2.334396967602363
 30
0.0
 10
-0.3638526072504267
 20
-2.372731497863646
 30
0.0
 10
-0.3744993134275268
 20
-2.411055381418767
 30
0.0
 10
-0.3938539605868906
 20
-2.477919890222842
 30
0.0
 10
-0.4002430489637794
 20
-2.511991479330845
 30
0.0
 10
-0.4066321373406557
 20
-2.546052421732636
 30
0.0
 10
-0.4055664020523232
 20
-2.586518422570609
 30
0.0
 10
-0.4268598144065486
 20
-2.67169207198746
 30
0.0
  0
SPLINE
  5
C6
330
1F
100
AcDbEntity
  8
Wood
 62
     7
420
 16777215
370
     9
100
AcDbSpline
210
0.0
220
0.0
230
1.0
 70
     8
 71
     3
 72
    38
 73
    34
 74
     0
 42
0.0000000001
 43
0.0000000001
 12
1.0
 22
0.0
 32
0.0
 13
1.0
 23
0.0
 33
0.0
 40
0.0
 40
0.0
 40
0.0
 40
0.0
 40
1.0
 40
1.0
 40
1.0
 40
2.0
 40
2.0
 40
2.0
 40
3.0
 40
3.0
 40
3.0
 40
4.0
 40
4.0
 40
4.0
 40
5.0
 40
5.0
 40
5.0
 40
6.0
 40
6.0
 40
6.0
 40
7.0
 40
7.0
 40
7.0
 40
8.0
 40
8.0
 40
8.0
 40
9.0
 40
9.0
 40
9.0
 40
10.0
 40
10.0
 40
10.0
 40
11.0
 40
11.0
 40
11.0
 40
11.0
 10
-0.250107457136677
 20
-1.517439003831896
 30
0.0
 10
-0.250107457136677
 20
-1.517439003831896
 30
0.0
 10
-0.2359153978026016
 20
-1.710494662270776
 30
0.0
 10
-0.250107457136677
 20
-1.753081486979227
 30
0.0
 10
-0.2643048398238458
 20
-1.795668311687627
 30
0.0
 10
-0.2735323400675548
 20
-1.910660191094697
 30
0.0
 10
-0.2735323400675548
 20
-1.910660191094697
 30
0.0
 10
-0.2735323400675548
 20
-1.910660191094697
 30
0.0
 10
-0.2820475756680025
 20
-1.944722198167154
 30
0.0
 10
-0.2905681346215437
 20
-1.978803369310703
 30
0.0
 10
-0.2990833702219914
 20
-2.012864311712494
 30
0.0
 10
-0.3040479293123705
 20
-2.099462490415843
 30
0.0
 10
-0.3040479293123705
 20
-2.099462490415843
 30
0.0
 10
-0.3040479293123705
 20
-2.099462490415843
 30
0.0
 10
-0.272289869456674
 20
-2.14700961553217
 30
0.0
 10
-0.272289869456674
 20
-2.14700961553217
 30
0.0
 10
-0.272289869456674
 20
-2.14700961553217
 30
0.0
 10
-0.2808051050571218
 20
-2.172564904369109
 30
0.0
 10
-0.2992601055445271
 20
-2.188181492989669
 30
0.0
 10
-0.3177097826788389
 20
-2.203798081610279
 30
0.0
 10
-0.353205901073314
 20
-2.235031258851399
 30
0.0
 10
-0.353205901073314
 20
-2.235031258851399
 30
0.0
 10
-0.353205901073314
 20
-2.235031258851399
 30
0.0
 10
-0.3262303416323801
 20
-2.27761808355985
 30
0.0
 10
-0.3262303416323801
 20
-2.27761808355985
 30
0.0
 10
-0.3262303416323801
 20
-2.27761808355985
 30
0.0
 10
-0.3297810181424489
 20
-2.359943739074323
 30
0.0
 10
-0.3382962537428966
 20
-2.394024910217872
 30
0.0
 10
-0.3468168126964252
 20
-2.428085852619663
 30
0.0
 10
-0.3638526072504267
 20
-2.519644331730938
 30
0.0
 10
-0.3681102250506506
 20
-2.557977797321604
 30
0.0
 10
-0.3723678428508745
 20
-2.596312327582937
 30
0.0
 10
-0.4000503435819635
 20
-2.739970463371871
 30
0.0
 10
-0.429858991536624
 20
-2.784688758656961
 30
0.0
  0
SPLINE
  5
C7
330
1F
100
AcDbEntity
  8
Wood
 62
     7
420
 16777215
370
     9
100
AcDbSpline
210
0.0
220
0.0
230
1.0
 70
     8
 71
     3
 72
    41
 73
    37
 74
     0
 42
0.0000000001
 43
0.0000000001
 12
1.0
 22
0.0
 32
0.0
 13
1.0
 23
0.0
 33
0.0
 40
0.0
 40
0.0
 40
0.0
 40
0.0
 40
1.0
 40
1.0
 40
1.0
 40
2.0
 40
2.0
 40
2.0
 40
3.0
 40
3.0
 40
3.0
 40
4.0
 40
4.0
 40
4.0
 40
5.0
 40
5.0
 40
5.0
 40
6.0
 40
6.0
 40
6.0
 40
7.0
 40
7.0
 40
7.0
 40
8.0
 40
8.0
 40
8.0
 40
9.0
 40
9.0
 40
9.0
 40
10.0
 40
10.0
 40
10.0
 40
11.0
 40
11.0
 40
11.0
 40
12.0
 40
12.0
 40
12.0
 40
12.0
 10
-0.2160411913817799
 20
-1.530227827291835
 30
0.0
 10
-0.2160411913817799
 20
-1.530227827291835
 30
0.0
 10
-0.2018438086946111
 20
-1.723282421060099
 30
0.0
 10
-0.2160411913817799
 20
-1.76586924576855
 30
0.0
 10
-0.2302332507158679
 20
-1.80845607047695
 30
0.0
 10
-0.2394607509595643
 20
-1.923428785812929
 30
0.0
 10
-0.2394607509595643
 20
-1.923428785812929
 30
0.0
 10
-0.2394607509595643
 20
-1.923428785812929
 30
0.0
 10
-0.2479813099131055
 20
-1.957509956956478
 30
0.0
 10
-0.2564965455135532
 20
-1.991570899358269
 30
0.0
 10
-0.2650171044670944
 20
-2.025642488466221
 30
0.0
 10
-0.2699816635574734
 20
-2.11224066716962
 30
0.0
 10
-0.2699816635574734
 20
-2.11224066716962
 30
0.0
 10
-0.2699816635574734
 20
-2.11224066716962
 30
0.0
 10
-0.2438951040823364
 20
-2.164049668768611
 30
0.0
 10
-0.2438951040823364
 20
-2.164049668768611
 30
0.0
 10
-0.2438951040823364
 20
-2.164049668768611
 30
0.0
 10
-0.2602239573461702
 20
-2.193858316723284
 30
0.0
 10
-0.2701583988800217
 20
-2.206636493477061
 30
0.0
 10
-0.2800928404138858
 20
-2.219414670230839
 30
0.0
 10
-0.316295900098516
 20
-2.25064784747201
 30
0.0
 10
-0.316295900098516
 20
-2.25064784747201
 30
0.0
 10
-0.316295900098516
 20
-2.25064784747201
 30
0.0
 10
-0.2962034362010778
 20
-2.29192512732061
 30
0.0
 10
-0.2962034362010778
 20
-2.29192512732061
 30
0.0
 10
-0.2962034362010778
 20
-2.29192512732061
 30
0.0
 10
-0.3011733186445629
 20
-2.352977599222666
 30
0.0
 10
-0.3096885542450107
 20
-2.393422306648265
 30
0.0
 10
-0.3182091131985392
 20
-2.433888307486187
 30
0.0
 10
-0.3331134371758758
 20
-2.521182780773516
 30
0.0
 10
-0.3373710549760997
 20
-2.551002075434351
 30
0.0
 10
-0.3416286727763236
 20
-2.580810723389024
 30
0.0
 10
-0.3501492317298647
 20
-2.680883373430131
 30
0.0
 10
-0.3607959379069774
 20
-2.710702668090966
 30
0.0
 10
-0.3714426440840776
 20
-2.740511316045639
 30
0.0
 10
-0.3948622036618619
 20
-2.802260082531625
 30
0.0
 10
-0.3948622036618619
 20
-2.802260082531625
 30
0.0
  0
SPLINE
  5
C8
330
1F
100
AcDbEntity
  8
Wood
 62
     7
420
 16777215
370
     9
100
AcDbSpline
210
0.0
220
0.0
230
1.0
 70
     8
 71
     3
 72
    35
 73
    31
 74
     0
 42
0.0000000001
 43
0.0000000001
 12
1.0
 22
0.0
 32
0.0
 13
1.0
 23
0.0
 33
0.0
 40
0.0
 40
0.0
 40
0.0
 40
0.0
 40
1.0
 40
1.0
 40
1.0
 40
2.0
 40
2.0
 40
2.0
 40
3.0
 40
3.0
 40
3.0
 40
4.0
 40
4.0
 40
4.0
 40
5.0
 40
5.0
 40
5.0
 40
6.0
 40
6.0
 40
6.0
 40
7.0
 40
7.0
 40
7.0
 40
8.0
 40
8.0
 40
8.0
 40
9.0
 40
9.0
 40
9.0
 40
10.0
 40
10.0
 40
10.0
 40
10.0
 10
-0.1935053084167117
 20
-1.825486541677845
 30
0.0
 10
-0.1935053084167117
 20
-1.825486541677845
 30
0.0
 10
-0.2041520145938117
 20
-1.89788201434097
 30
0.0
 10
-0.2105357796176071
 20
-1.931953603448922
 30
0.0
 10
-0.2169248679944834
 20
-1.96601561052138
 30
0.0
 10
-0.2297030447482484
 20
-1.995833840511599
 30
0.0
 10
-0.2339606625484723
 20
-2.034157724066669
 30
0.0
 10
-0.2382182803486962
 20
-2.072482672292456
 30
0.0
 10
-0.2403497509253611
 20
-2.129978079660658
 30
0.0
 10
-0.2403497509253611
 20
-2.129978079660658
 30
0.0
 10
-0.2403497509253611
 20
-2.129978079660658
 30
0.0
 10
-0.2126672501942595
 20
-2.178949734063483
 30
0.0
 10
-0.2126672501942595
 20
-2.178949734063483
 30
0.0
 10
-0.2126672501942595
 20
-2.178949734063483
 30
0.0
 10
-0.2325361332619751
 20
-2.209474905343894
 30
0.0
 10
-0.2481527218825603
 20
-2.229354435117784
 30
0.0
 10
-0.2637693105031454
 20
-2.249223318185512
 30
0.0
 10
-0.2808051050571218
 20
-2.26909220125319
 30
0.0
 10
-0.2808051050571218
 20
-2.26909220125319
 30
0.0
 10
-0.2808051050571218
 20
-2.26909220125319
 30
0.0
 10
-0.2680322516564628
 20
-2.307417149478978
 30
0.0
 10
-0.2680322516564628
 20
-2.307417149478978
 30
0.0
 10
-0.2680322516564628
 20
-2.307417149478978
 30
0.0
 10
-0.2744160166802456
 20
-2.366337086133676
 30
0.0
 10
-0.2893256640106756
 20
-2.44086402937344
 30
0.0
 10
-0.3042299879879996
 20
-2.515390972613154
 30
0.0
 10
-0.3084876057882234
 20
-2.643151446738456
 30
0.0
 10
-0.3127452235884473
 20
-2.660192564645563
 30
0.0
 10
-0.3170028413886712
 20
-2.677223035846459
 30
0.0
 10
-0.3361701065193251
 20
-2.770911920863758
 30
0.0
 10
-0.3595896660971094
 20
-2.824145451749296
 30
0.0
  0
SPLINE
  5
C9
330
1F
100
AcDbEntity
  8
Wood
 62
     7
420
 16777215
370
     9
100
AcDbSpline
210
0.0
220
0.0
230
1.0
 70
     8
 71
     3
 72
    32
 73
    28
 74
     0
 42
0.0000000001
 43
0.0000000001
 12
1.0
 22
0.0
 32
0.0
 13
1.0
 23
0.0
 33
0.0
 40
0.0
 40
0.0
 40
0.0
 40
0.0
 40
1.0
 40
1.0
 40
1.0
 40
2.0
 40
2.0
 40
2.0
 40
3.0
 40
3.0
 40
3.0
 40
4.0
 40
4.0
 40
4.0
 40
5.0
 40
5.0
 40
5.0
 40
6.0
 40
6.0
 40
6.0
 40
7.0
 40
7.0
 40
7.0
 40
8.0
 40
8.0
 40
8.0
 40
9.0
 40
9.0
 40
9.0
 40
9.0
 10
-0.1935053084167117
 20
-2.023511017889581
 30
0.0
 10
-0.1935053084167117
 20
-2.023511017889581
 30
0.0
 10
-0.2147987207709245
 20
-2.095917137258867
 30
0.0
 10
-0.2147987207709245
 20
-2.144887726991076
 30
0.0
 10
-0.2147987207709245
 20
-2.144887726991076
 30
0.0
 10
-0.1700804254858339
 20
-2.198121257876614
 30
0.0
 10
-0.1700804254858339
 20
-2.198121257876614
 30
0.0
 10
-0.1700804254858339
 20
-2.198121257876614
 30
0.0
 10
-0.1956271969577933
 20
-2.213737846497224
 30
0.0
 10
-0.2112427209077623
 20
-2.235031258851399
 30
0.0
 10
-0.2268593095283475
 20
-2.256324671205625
 30
0.0
 10
-0.2573855454793501
 20
-2.283294907293465
 30
0.0
 10
-0.2573855454793501
 20
-2.283294907293465
 30
0.0
 10
-0.2573855454793501
 20
-2.283294907293465
 30
0.0
 10
-0.2367990744152924
 20
-2.323043320135083
 30
0.0
 10
-0.2367990744152924
 20
-2.323043320135083
 30
0.0
 10
-0.2367990744152924
 20
-2.323043320135083
 30
0.0
 10
-0.2505546187961222
 20
-2.360099180984485
 30
0.0
 10
-0.2521974055592359
 20
-2.400596057270377
 30
0.0
 10
-0.2538455156754556
 20
-2.441072704814511
 30
0.0
 10
-0.273912427478068
 20
-2.543536605063006
 30
0.0
 10
-0.2734546191124612
 20
-2.581860488618127
 30
0.0
 10
-0.2729968107468418
 20
-2.620184372173197
 30
0.0
 10
-0.2701019713372766
 20
-2.684023087081793
 30
0.0
 10
-0.2866224653122976
 20
-2.726817522560648
 30
0.0
 10
-0.3031493473110282
 20
-2.76961302271017
 30
0.0
 10
-0.3149597384732866
 20
-2.850658944142146
 30
0.0
 10
-0.3149597384732866
 20
-2.850658944142146
 30
0.0
  0
SPLINE
  5
CA
330
1F
100
AcDbEntity
  8
Wood
 62
     7
420
 16777215
370
     9
100
AcDbSpline
210
0.0
220
0.0
230
1.0
 70
     8
 71
     3
 72
     8
 73
     4
 74
     0
 42
0.0000000001
 43
0.0000000001
 12
1.0
 22
0.0
 32
0.0
 13
1.0
 23
0.0
 33
0.0
 40
0.0
 40
0.0
 40
0.0
 40
0.0
 40
1.0
 40
1.0
 40
1.0
 40
1.0
 10
-0.4149546675593001
 20
-2.236445141431735
 30
0.0
 10
-0.4149546675593001
 20
-2.236445141431735
 30
0.0
 10
-0.4128231969826477
 20
-2.300325378494361
 30
0.0
 10
-0.429858991536624
 20
-2.366337086133676
 30
0.0
  0
SPLINE
  5
CB
330
1F
100
AcDbEntity
  8
Wood
 62
     7
420
 16777215
370
     9
100
AcDbSpline
210
0.0
220
0.0
230
1.0
 70
     8
 71
     3
 72
    17
 73
    13
 74
     0
 42
0.0000000001
 43
0.0000000001
 12
1.0
 22
0.0
 32
0.0
 13
1.0
 23
0.0
 33
0.0
 40
0.0
 40
0.0
 40
0.0
 40
0.0
 40
1.0
 40
1.0
 40
1.0
 40
2.0
 40
2.0
 40
2.0
 40
3.0
 40
3.0
 40
3.0
 40
4.0
 40
4.0
 40
4.0
 40
4.0
 10
-0.2055296983731346
 20
-2.34148873858693
 30
0.0
 10
-0.2055296983731346
 20
-2.34148873858693
 30
0.0
 10
-0.2181833086646192
 20
-2.375601849849014
 30
0.0
 10
-0.2222695144953882
 20
-2.424582021616768
 30
0.0
 10
-0.2263503969730891
 20
-2.473584551467512
 30
0.0
 10
-0.2303897572966712
 20
-2.53534396465971
 30
0.0
 10
-0.2388113018827703
 20
-2.560920546908973
 30
0.0
 10
-0.2472328464688568
 20
-2.586507775864397
 30
0.0
 10
-0.2363785295213019
 20
-2.646094196325824
 30
0.0
 10
-0.2405424563071645
 20
-2.671661196539541
 30
0.0
 10
-0.2447063830930271
 20
-2.697237778788804
 30
0.0
 10
-0.2803068392080503
 20
-2.865568591472563
 30
0.0
 10
-0.2803068392080503
 20
-2.865568591472563
 30
0.0
  0
SPLINE
  5
CC
330
1F
100
AcDbEntity
  8
Wood
 62
     7
420
 16777215
370
     9
100
AcDbSpline
210
0.0
220
0.0
230
1.0
 70
     8
 71
     3
 72
    14
 73
    10
 74
     0
 42
0.0000000001
 43
0.0000000001
 12
1.0
 22
0.0
 32
0.0
 13
1.0
 23
0.0
 33
0.0
 40
0.0
 40
0.0
 40
0.0
 40
0.0
 40
1.0
 40
1.0
 40
1.0
 40
2.0
 40
2.0
 40
2.0
 40
3.0
 40
3.0
 40
3.0
 40
3.0
 10
-0.189970601965898
 20
-2.496021420065163
 30
0.0
 10
-0.189970601965898
 20
-2.525819421313675
 30
0.0
 10
-0.2105357796176071
 20
-2.602696092606695
 30
0.0
 10
-0.2105357796176071
 20
-2.634636211138008
 30
0.0
 10
-0.2105357796176071
 20
-2.666576329669371
 30
0.0
 10
-0.2126672501942595
 20
-2.696384977623994
 30
0.0
 10
-0.2211824857947072
 20
-2.730456566731997
 30
0.0
 10
-0.2297030447482484
 20
-2.764518573804404
 30
0.0
 10
-0.2531226043260327
 20
-2.879510453211474
 30
0.0
 10
-0.2531226043260327
 20
-2.879510453211474
 30
0.0
  0
SPLINE
  5
CD
330
1F
100
AcDbEntity
  8
Wood
 62
     7
420
 16777215
370
     9
100
AcDbSpline
210
0.0
220
0.0
230
1.0
 70
     8
 71
     3
 72
     8
 73
     4
 74
     0
 42
0.0000000001
 43
0.0000000001
 12
1.0
 22
0.0
 32
0.0
 13
1.0
 23
0.0
 33
0.0
 40
0.0
 40
0.0
 40
0.0
 40
0.0
 40
1.0
 40
1.0
 40
1.0
 40
1.0
 10
-0.1927930437734504
 20
-2.776588744597423
 30
0.0
 10
-0.1991821321503393
 20
-2.806397392552046
 30
0.0
 10
-0.2159006548602444
 20
-2.901313842791599
 30
0.0
 10
-0.2159006548602444
 20
-2.901313842791599
 30
0.0
  0
POLYLINE
  5
CE
330
1F
100
AcDbEntity
  8
Wood
 62
     7
420
 16777215
370
    20
100
AcDb2dPolyline
 66
     1
 10
0.0
 20
0.0
 30
0.0
  0
VERTEX
  5
CF
330
CE
100
AcDbEntity
  8
Wood
 62
     7
420
 16777215
370
    20
100
AcDbVertex
100
AcDb2dVertex
 10
2.605018624280723
 20
1.042740326857193
 30
0.0
  0
VERTEX
  5
D0
330
CE
100
AcDbEntity
  8
Wood
 62
     7
420
 16777215
370
    20
100
AcDbVertex
100
AcDb2dVertex
 10
2.605018624280723
 20
0.2287975445362538
 30
0.0
  0
VERTEX
  5
D1
330
CE
100
AcDbEntity
  8
Wood
 62
     7
420
 16777215
370
    20
100
AcDbVertex
100
AcDb2dVertex
 10
2.537021307657142
 20
0.1524819546587474
 30
0.0
  0
VERTEX
  5
D2
330
CE
100
AcDbEntity
  8
Wood
 62
     7
420
 16777215
370
    20
100
AcDbVertex
100
AcDb2dVertex
 10
2.65915605915307
 20
0.0495495993384717
 30
0.0
  0
VERTEX
  5
D3
330
CE
100
AcDbEntity
  8
Wood
 62
     7
420
 16777215
370
    20
100
AcDbVertex
100
AcDb2dVertex
 10
2.605018624280723
 20
-0.0192792267552906
 30
0.0
  0
VERTEX
  5
D4
330
CE
100
AcDbEntity
  8
Wood
 62
     7
420
 16777215
370
    20
100
AcDbVertex
100
AcDb2dVertex
 10
2.605018624280723
 20
-0.7567456881956028
 30
0.0
  0
SEQEND
  5
D5
330
CE
100
AcDbEntity
  8
Wood
 62
     7
420
 16777215
370
    20
  0
SPLINE
  5
D6
330
1F
100
AcDbEntity
  8
Wood
 62
   250
420
  2301728
370
     9
100
AcDbSpline
210
0.0
220
0.0
230
1.0
 70
     8
 71
     3
 72
    11
 73
     7
 74
     0
 42
0.0000000001
 43
0.0000000001
 12
1.0
 22
0.0
 32
0.0
 13
1.0
 23
0.0
 33
0.0
 40
0.0
 40
0.0
 40
0.0
 40
0.0
 40
1.0
 40
1.0
 40
1.0
 40
2.0
 40
2.0
 40
2.0
 40
2.0
 10
2.864937720286939
 20
1.149207385938679
 30
0.0
 10
2.864937720286939
 20
1.149207385938679
 30
0.0
 10
2.874617705298634
 20
0.9912528570853788
 30
0.0
 10
2.867776132082049
 20
0.9401817051838937
 30
0.0
 10
2.860976081018533
 20
0.8891009079084647
 30
0.0
 10
2.891679051516449
 20
0.5972576872429727
 30
0.0
 10
2.891679051516449
 20
0.5972576872429727
 30
0.0
  0
SPLINE
  5
D7
330
1F
100
AcDbEntity
  8
Wood
 62
     7
420
 16777215
370
     9
100
AcDbSpline
210
0.0
220
0.0
230
1.0
 70
     8
 71
     3
 72
    14
 73
    10
 74
     0
 42
0.0000000001
 43
0.0000000001
 12
1.0
 22
0.0
 32
0.0
 13
1.0
 23
0.0
 33
0.0
 40
0.0
 40
0.0
 40
0.0
 40
0.0
 40
1.0
 40
1.0
 40
1.0
 40
2.0
 40
2.0
 40
2.0
 40
3.0
 40
3.0
 40
3.0
 40
3.0
 10
2.828038366950472
 20
1.135004680257212
 30
0.0
 10
2.828038366950472
 20
1.135004680257212
 30
0.0
 10
2.826832095171085
 20
0.9693568417146833
 30
0.0
 10
2.823421955268714
 20
0.8891009079084647
 30
0.0
 10
2.820021397401635
 20
0.8088662675140641
 30
0.0
 10
2.843904143556453
 20
0.6629159242371921
 30
0.0
 10
2.854134507801948
 20
0.6227927473381416
 30
0.0
 10
2.854134507801948
 20
0.6227927473381416
 30
0.0
 10
2.886552662621675
 20
0.4595414781714706
 30
0.0
 10
2.891679051516449
 20
0.4048163437505157
 30
0.0
  0
SPLINE
  5
D8
330
1F
100
AcDbEntity
  8
Wood
 62
     7
420
 16777215
370
     9
100
AcDbSpline
210
0.0
220
0.0
230
1.0
 70
     8
 71
     3
 72
    26
 73
    22
 74
     0
 42
0.0000000001
 43
0.0000000001
 12
1.0
 22
0.0
 32
0.0
 13
1.0
 23
0.0
 33
0.0
 40
0.0
 40
0.0
 40
0.0
 40
0.0
 40
1.0
 40
1.0
 40
1.0
 40
2.0
 40
2.0
 40
2.0
 40
3.0
 40
3.0
 40
3.0
 40
4.0
 40
4.0
 40
4.0
 40
5.0
 40
5.0
 40
5.0
 40
6.0
 40
6.0
 40
6.0
 40
7.0
 40
7.0
 40
7.0
 40
7.0
 10
2.792542249452708
 20
1.119393415384088
 30
0.0
 10
2.792542249452708
 20
1.119393415384088
 30
0.0
 10
2.785888058260121
 20
0.9182963048497943
 30
0.0
 10
2.785888058260121
 20
0.8635754304936729
 30
0.0
 10
2.785888058260121
 20
0.8088609441611095
 30
0.0
 10
2.792708338064888
 20
0.713996691133717
 30
0.0
 10
2.813190470890984
 20
0.6227927473381416
 30
0.0
 10
2.833663021681761
 20
0.5315888035425789
 30
0.0
 10
2.854134507801948
 20
0.4039113737254638
 30
0.0
 10
2.854134507801948
 20
0.3528455122175905
 30
0.0
 10
2.854134507801948
 20
0.3528455122175905
 30
0.0
 10
2.816600610793355
 20
0.2926511648334629
 30
0.0
 10
2.816600610793355
 20
0.2926511648334629
 30
0.0
 10
2.816600610793355
 20
0.2926511648334629
 30
0.0
 10
2.845608625710712
 20
0.256146803364004
 30
0.0
 10
2.862660389893183
 20
0.2415650745838447
 30
0.0
 10
2.879732382816908
 20
0.226967375744405
 30
0.0
 10
2.92069771313969
 20
0.1923134118085399
 30
0.0
 10
2.92069771313969
 20
0.1923134118085399
 30
0.0
 10
2.92069771313969
 20
0.1923134118085399
 30
0.0
 10
2.874825316063834
 20
0.1228606887327967
 30
0.0
 10
2.874825316063834
 20
0.1228606887327967
 30
0.0
  0
SPLINE
  5
D9
330
1F
100
AcDbEntity
  8
Wood
 62
     7
420
 16777215
370
     9
100
AcDbSpline
210
0.0
220
0.0
230
1.0
 70
     8
 71
     3
 72
    35
 73
    31
 74
     0
 42
0.0000000001
 43
0.0000000001
 12
1.0
 22
0.0
 32
0.0
 13
1.0
 23
0.0
 33
0.0
 40
0.0
 40
0.0
 40
0.0
 40
0.0
 40
1.0
 40
1.0
 40
1.0
 40
2.0
 40
2.0
 40
2.0
 40
3.0
 40
3.0
 40
3.0
 40
4.0
 40
4.0
 40
4.0
 40
5.0
 40
5.0
 40
5.0
 40
6.0
 40
6.0
 40
6.0
 40
7.0
 40
7.0
 40
7.0
 40
8.0
 40
8.0
 40
8.0
 40
9.0
 40
9.0
 40
9.0
 40
10.0
 40
10.0
 40
10.0
 40
10.0
 10
2.751576919129926
 20
1.104810622301696
 30
0.0
 10
2.751576919129926
 20
1.104810622301696
 30
0.0
 10
2.744922727937339
 20
0.9036879596732206
 30
0.0
 10
2.744922727937339
 20
0.84896814998769
 30
0.0
 10
2.744922727937339
 20
0.7942525989845358
 30
0.0
 10
2.751764301153925
 20
0.6993989922942899
 30
0.0
 10
2.772235787274111
 20
0.6081950484987146
 30
0.0
 10
2.792708338064888
 20
0.5169911047031392
 30
0.0
 10
2.813190470890984
 20
0.3893030281798625
 30
0.0
 10
2.813190470890984
 20
0.3382329079895119
 30
0.0
 10
2.813190470890984
 20
0.3382329079895119
 30
0.0
 10
2.784182455973627
 20
0.2780534659940233
 30
0.0
 10
2.784182455973627
 20
0.2780534659940233
 30
0.0
 10
2.784182455973627
 20
0.2780534659940233
 30
0.0
 10
2.801234220156124
 20
0.2543166345721551
 30
0.0
 10
2.821716407883362
 20
0.230611743268835
 30
0.0
 10
2.842198485808315
 20
0.2069057872948861
 30
0.0
 10
2.878027845201005
 20
0.1722465000059275
 30
0.0
 10
2.878027845201005
 20
0.1722465000059275
 30
0.0
 10
2.878027845201005
 20
0.1722465000059275
 30
0.0
 10
2.845110359874196
 20
0.1138876447667422
 30
0.0
 10
2.845110359874196
 20
0.1138876447667422
 30
0.0
 10
2.845110359874196
 20
0.1138876447667422
 30
0.0
 10
2.840493948192438
 20
0.0108200762780118
 30
0.0
 10
2.84816702914044
 20
-0.0466444556423085
 30
0.0
 10
2.85586039459334
 20
-0.1040940821739772
 30
0.0
 10
2.871206500725672
 20
-0.1560904658017408
 30
0.0
 10
2.873754257449491
 20
-0.1889089375926763
 30
0.0
 10
2.876322242914537
 20
-0.2217435923770002
 30
0.0
 10
2.889131351396802
 20
-0.331194606488326
 30
0.0
 10
2.889131351396802
 20
-0.331194606488326
 30
0.0
  0
SPLINE
  5
DA
330
1F
100
AcDbEntity
  8
Wood
 62
     7
420
 16777215
370
     9
100
AcDbSpline
210
0.0
220
0.0
230
1.0
 70
     8
 71
     3
 72
    41
 73
    37
 74
     0
 42
0.0000000001
 43
0.0000000001
 12
1.0
 22
0.0
 32
0.0
 13
1.0
 23
0.0
 33
0.0
 40
0.0
 40
0.0
 40
0.0
 40
0.0
 40
1.0
 40
1.0
 40
1.0
 40
2.0
 40
2.0
 40
2.0
 40
3.0
 40
3.0
 40
3.0
 40
4.0
 40
4.0
 40
4.0
 40
5.0
 40
5.0
 40
5.0
 40
6.0
 40
6.0
 40
6.0
 40
7.0
 40
7.0
 40
7.0
 40
8.0
 40
8.0
 40
8.0
 40
9.0
 40
9.0
 40
9.0
 40
10.0
 40
10.0
 40
10.0
 40
11.0
 40
11.0
 40
11.0
 40
12.0
 40
12.0
 40
12.0
 40
12.0
 10
2.707399477634655
 20
1.083902621239278
 30
0.0
 10
2.707399477634655
 20
1.083902621239278
 30
0.0
 10
2.69033813141684
 20
0.8125053115934658
 30
0.0
 10
2.707399477634655
 20
0.7577791138844027
 30
0.0
 10
2.724460823852471
 20
0.703059329877975
 30
0.0
 10
2.735554691408753
 20
0.5553000828696086
 30
0.0
 10
2.735554691408753
 20
0.5553000828696086
 30
0.0
 10
2.735554691408753
 20
0.5553000828696086
 30
0.0
 10
2.745775529080573
 20
0.511543185152315
 30
0.0
 10
2.75602724219953
 20
0.4677500886340213
 30
0.0
 10
2.76625771540681
 20
0.4239729621749954
 30
0.0
 10
2.772235787274111
 20
0.3126967832237142
 30
0.0
 10
2.772235787274111
 20
0.3126967832237142
 30
0.0
 10
2.772235787274111
 20
0.3126967832237142
 30
0.0
 10
2.743238419062664
 20
0.2561521267170974
 30
0.0
 10
2.743238419062664
 20
0.2561521267170974
 30
0.0
 10
2.743238419062664
 20
0.2561521267170974
 30
0.0
 10
2.772235787274111
 20
0.2196733173424769
 30
0.0
 10
2.791002735778395
 20
0.1977826247717252
 30
0.0
 10
2.809780330988588
 20
0.175885544177264
 30
0.0
 10
2.840493948192438
 20
0.1485416087026073
 30
0.0
 10
2.840493948192438
 20
0.1485416087026073
 30
0.0
 10
2.840493948192438
 20
0.1485416087026073
 30
0.0
 10
2.804644360058496
 20
0.0919863054898163
 30
0.0
 10
2.804644360058496
 20
0.0919863054898163
 30
0.0
 10
2.804644360058496
 20
0.0919863054898163
 30
0.0
 10
2.799528672210272
 20
-0.002862005830189
 30
0.0
 10
2.812337669747724
 20
-0.0521189919585746
 30
0.0
 10
2.825126492884616
 20
-0.101365331380786
 30
0.0
 10
2.835367559297664
 20
-0.1670288917280989
 30
0.0
 10
2.843051286951575
 20
-0.2108109156719643
 30
0.0
 10
2.850724367899577
 20
-0.2545778212930701
 30
0.0
 10
2.853292353364623
 20
-0.3065741197471855
 30
0.0
 10
2.858408095553487
 20
-0.3558255482949511
 30
0.0
 10
2.86353341977767
 20
-0.405066564364069
 30
0.0
 10
2.889131351396802
 20
-0.4652665545024648
 30
0.0
 10
2.889131351396802
 20
-0.4652665545024648
 30
0.0
  0
SPLINE
  5
DB
330
1F
100
AcDbEntity
  8
Wood
 62
     7
420
 16777215
370
     9
100
AcDbSpline
210
0.0
220
0.0
230
1.0
 70
     8
 71
     3
 72
    38
 73
    34
 74
     0
 42
0.0000000001
 43
0.0000000001
 12
1.0
 22
0.0
 32
0.0
 13
1.0
 23
0.0
 33
0.0
 40
0.0
 40
0.0
 40
0.0
 40
0.0
 40
1.0
 40
1.0
 40
1.0
 40
2.0
 40
2.0
 40
2.0
 40
3.0
 40
3.0
 40
3.0
 40
4.0
 40
4.0
 40
4.0
 40
5.0
 40
5.0
 40
5.0
 40
6.0
 40
6.0
 40
6.0
 40
7.0
 40
7.0
 40
7.0
 40
8.0
 40
8.0
 40
8.0
 40
9.0
 40
9.0
 40
9.0
 40
10.0
 40
10.0
 40
10.0
 40
11.0
 40
11.0
 40
11.0
 40
11.0
 10
2.67563609522828
 20
1.070230121512029
 30
0.0
 10
2.67563609522828
 20
1.070230121512029
 30
0.0
 10
2.658564102304556
 20
0.7988381352191709
 30
0.0
 10
2.67563609522828
 20
0.7441066408732063
 30
0.0
 10
2.692677212704868
 20
0.6893815064522388
 30
0.0
 10
2.703781726967059
 20
0.5416275827969659
 30
0.0
 10
2.703781726967059
 20
0.5416275827969659
 30
0.0
 10
2.703781726967059
 20
0.5416275827969659
 30
0.0
 10
2.714022793380107
 20
0.49785045633794
 30
0.0
 10
2.724253213087245
 20
0.4540680065258205
 30
0.0
 10
2.734483632794384
 20
0.4102898153961658
 30
0.0
 10
2.740452176126508
 20
0.2990093777624325
 30
0.0
 10
2.740452176126508
 20
0.2990093777624325
 30
0.0
 10
2.740452176126508
 20
0.2990093777624325
 30
0.0
 10
2.702274153410472
 20
0.2379207070594147
 30
0.0
 10
2.702274153410472
 20
0.2379207070594147
 30
0.0
 10
2.702274153410472
 20
0.2379207070594147
 30
0.0
 10
2.712524801858838
 20
0.2050915885623049
 30
0.0
 10
2.7346923082302
 20
0.185030000112786
 30
0.0
 10
2.75688004334279
 20
0.1649481829215221
 30
0.0
 10
2.799528672210272
 20
0.1248250060224715
 30
0.0
 10
2.799528672210272
 20
0.1248250060224715
 30
0.0
 10
2.799528672210272
 20
0.1248250060224715
 30
0.0
 10
2.767121109755837
 20
0.0701051949546228
 30
0.0
 10
2.767121109755837
 20
0.0701051949546228
 30
0.0
 10
2.767121109755837
 20
0.0701051949546228
 30
0.0
 10
2.771373404095534
 20
-0.0356911243272988
 30
0.0
 10
2.78162511721449
 20
-0.0794682507863248
 30
0.0
 10
2.791866183627538
 20
-0.1232613473046311
 30
0.0
 10
2.812337669747724
 20
-0.240905534154548
 30
0.0
 10
2.817453411936589
 20
-0.2901465502236786
 30
0.0
 10
2.822569154125479
 20
-0.3394135442558763
 30
0.0
 10
2.85586039459334
 20
-0.5240001737990951
 30
0.0
 10
2.891679051516449
 20
-0.5814753524255896
 30
0.0
  0
SPLINE
  5
DC
330
1F
100
AcDbEntity
  8
Wood
 62
     7
420
 16777215
370
     9
100
AcDbSpline
210
0.0
220
0.0
230
1.0
 70
     8
 71
     3
 72
    41
 73
    37
 74
     0
 42
0.0000000001
 43
0.0000000001
 12
1.0
 22
0.0
 32
0.0
 13
1.0
 23
0.0
 33
0.0
 40
0.0
 40
0.0
 40
0.0
 40
0.0
 40
1.0
 40
1.0
 40
1.0
 40
2.0
 40
2.0
 40
2.0
 40
3.0
 40
3.0
 40
3.0
 40
4.0
 40
4.0
 40
4.0
 40
5.0
 40
5.0
 40
5.0
 40
6.0
 40
6.0
 40
6.0
 40
7.0
 40
7.0
 40
7.0
 40
8.0
 40
8.0
 40
8.0
 40
9.0
 40
9.0
 40
9.0
 40
10.0
 40
10.0
 40
10.0
 40
11.0
 40
11.0
 40
11.0
 40
12.0
 40
12.0
 40
12.0
 40
12.0
 10
2.637811543148397
 20
1.054093974037642
 30
0.0
 10
2.637811543148397
 20
1.054093974037642
 30
0.0
 10
2.617598771981774
 20
0.7824102680029025
 30
0.0
 10
2.634670764905498
 20
0.7276947433011856
 30
0.0
 10
2.651743822499813
 20
0.6729642855271499
 30
0.0
 10
2.662827043350186
 20
0.5252156852249578
 30
0.0
 10
2.662827043350186
 20
0.5252156852249578
 30
0.0
 10
2.662827043350186
 20
0.5252156852249578
 30
0.0
 10
2.673057463057325
 20
0.4814332354128383
 30
0.0
 10
2.683287934168599
 20
0.4376561089537997
 30
0.0
 10
2.69353959588342
 20
0.3938725944710642
 30
0.0
 10
2.699497492509636
 20
0.2826134502496794
 30
0.0
 10
2.699497492509636
 20
0.2826134502496794
 30
0.0
 10
2.699497492509636
 20
0.2826134502496794
 30
0.0
 10
2.668139749598367
 20
0.2160289498180469
 30
0.0
 10
2.668139749598367
 20
0.2160289498180469
 30
0.0
 10
2.668139749598367
 20
0.2160289498180469
 30
0.0
 10
2.687779727987112
 20
0.1777157129691128
 30
0.0
 10
2.699715801799887
 20
0.1612984920440113
 30
0.0
 10
2.711651771974377
 20
0.1448972411781773
 30
0.0
 10
2.755153200864091
 20
0.1047644822435814
 30
0.0
 10
2.755153200864091
 20
0.1047644822435814
 30
0.0
 10
2.755153200864091
 20
0.1047644822435814
 30
0.0
 10
2.7346923082302
 20
0.053693297382602
 30
0.0
 10
2.7346923082302
 20
0.053693297382602
 30
0.0
 10
2.7346923082302
 20
0.053693297382602
 30
0.0
 10
2.739474808524139
 20
-0.0248155139673827
 30
0.0
 10
2.748936536064699
 20
-0.0769684041759496
 30
0.0
 10
2.758376970193467
 20
-0.1291000009721428
 30
0.0
 10
2.774585515268023
 20
-0.2415346480225556
 30
0.0
 10
2.779140229881123
 20
-0.2799209212758645
 30
0.0
 10
2.783673543431228
 20
-0.3182865399191996
 30
0.0
 10
2.791959874639537
 20
-0.4470244881386078
 30
0.0
 10
2.80418655170446
 20
-0.4855251070162643
 30
0.0
 10
2.816393054794819
 20
-0.5240257258939209
 30
0.0
 10
2.843352588728774
 20
-0.6037823312078797
 30
0.0
 10
2.843352588728774
 20
-0.6037823312078797
 30
0.0
  0
SPLINE
  5
DD
330
1F
100
AcDbEntity
  8
Wood
 62
     7
420
 16777215
370
     9
100
AcDbSpline
210
0.0
220
0.0
230
1.0
 70
     8
 71
     3
 72
    35
 73
    31
 74
     0
 42
0.0000000001
 43
0.0000000001
 12
1.0
 22
0.0
 32
0.0
 13
1.0
 23
0.0
 33
0.0
 40
0.0
 40
0.0
 40
0.0
 40
0.0
 40
1.0
 40
1.0
 40
1.0
 40
2.0
 40
2.0
 40
2.0
 40
3.0
 40
3.0
 40
3.0
 40
4.0
 40
4.0
 40
4.0
 40
5.0
 40
5.0
 40
5.0
 40
6.0
 40
6.0
 40
6.0
 40
7.0
 40
7.0
 40
7.0
 40
8.0
 40
8.0
 40
8.0
 40
9.0
 40
9.0
 40
9.0
 40
10.0
 40
10.0
 40
10.0
 40
10.0
 10
2.607575963039861
 20
0.6510735929563982
 30
0.0
 10
2.607575963039861
 20
0.6510735929563982
 30
0.0
 10
2.620385014917954
 20
0.5580448037220674
 30
0.0
 10
2.628058095865956
 20
0.5142719359455061
 30
0.0
 10
2.635732241484548
 20
0.4704948094864802
 30
0.0
 10
2.65108798541587
 20
0.4321922193437204
 30
0.0
 10
2.656214374310644
 20
0.382924586509148
 30
0.0
 10
2.661329051828918
 20
0.3336942171462043
 30
0.0
 10
2.663887455258646
 20
0.2598071409477016
 30
0.0
 10
2.663887455258646
 20
0.2598071409477016
 30
0.0
 10
2.663887455258646
 20
0.2598071409477016
 30
0.0
 10
2.630616499295684
 20
0.1968829780997667
 30
0.0
 10
2.630616499295684
 20
0.1968829780997667
 30
0.0
 10
2.630616499295684
 20
0.1968829780997667
 30
0.0
 10
2.654498125318241
 20
0.1576541245195813
 30
0.0
 10
2.67326507382255
 20
0.1321297111305866
 30
0.0
 10
2.692042669032743
 20
0.1065786809761499
 30
0.0
 10
2.712524801858838
 20
0.0810425562103647
 30
0.0
 10
2.712524801858838
 20
0.0810425562103647
 30
0.0
 10
2.712524801858838
 20
0.0810425562103647
 30
0.0
 10
2.697158411221608
 20
0.0318015401412342
 30
0.0
 10
2.697158411221608
 20
0.0318015401412342
 30
0.0
 10
2.697158411221608
 20
0.0318015401412342
 30
0.0
 10
2.704831492169609
 20
-0.0438997347898496
 30
0.0
 10
2.722756286236568
 20
-0.1396625981704649
 30
0.0
 10
2.740670433597618
 20
-0.2354262068205091
 30
0.0
 10
2.745775529080573
 20
-0.399597670802071
 30
0.0
 10
2.750911500010665
 20
-0.4214936867259035
 30
0.0
 10
2.75602724219953
 20
-0.4433854439672713
 30
0.0
 10
2.779057131749444
 20
-0.5637581686762713
 30
0.0
 10
2.807212345523542
 20
-0.632171773229124
 30
0.0
  0
SPLINE
  5
DE
330
1F
100
AcDbEntity
  8
Wood
 62
     7
420
 16777215
370
     9
100
AcDbSpline
210
0.0
220
0.0
230
1.0
 70
     8
 71
     3
 72
    32
 73
    28
 74
     0
 42
0.0000000001
 43
0.0000000001
 12
1.0
 22
0.0
 32
0.0
 13
1.0
 23
0.0
 33
0.0
 40
0.0
 40
0.0
 40
0.0
 40
0.0
 40
1.0
 40
1.0
 40
1.0
 40
2.0
 40
2.0
 40
2.0
 40
3.0
 40
3.0
 40
3.0
 40
4.0
 40
4.0
 40
4.0
 40
5.0
 40
5.0
 40
5.0
 40
6.0
 40
6.0
 40
6.0
 40
7.0
 40
7.0
 40
7.0
 40
8.0
 40
8.0
 40
8.0
 40
9.0
 40
9.0
 40
9.0
 40
9.0
 10
2.607575963039861
 20
0.3966183799941518
 30
0.0
 10
2.607575963039861
 20
0.3966183799941518
 30
0.0
 10
2.633173888192964
 20
0.3035842674067276
 30
0.0
 10
2.633173888192964
 20
0.2406494578526058
 30
0.0
 10
2.633173888192964
 20
0.2406494578526058
 30
0.0
 10
2.579420749265763
 20
0.1722465000059275
 30
0.0
 10
2.579420749265763
 20
0.1722465000059275
 30
0.0
 10
2.579420749265763
 20
0.1722465000059275
 30
0.0
 10
2.610134416025706
 20
0.1521806528739439
 30
0.0
 10
2.62891089700919
 20
0.1248250060224715
 30
0.0
 10
2.647677845513474
 20
0.0974501950998956
 30
0.0
 10
2.684369588084741
 20
0.0628015545171239
 30
0.0
 10
2.684369588084741
 20
0.0628015545171239
 30
0.0
 10
2.684369588084741
 20
0.0628015545171239
 30
0.0
 10
2.659624514213015
 20
0.0117197229499829
 30
0.0
 10
2.659624514213015
 20
0.0117197229499829
 30
0.0
 10
2.659624514213015
 20
0.0117197229499829
 30
0.0
 10
2.676676329632629
 20
-0.0356911243272988
 30
0.0
 10
2.679244263860558
 20
-0.087682184601969
 30
0.0
 10
2.681790955913786
 20
-0.1396625981704649
 30
0.0
 10
2.707399477634655
 20
-0.2710053695231586
 30
0.0
 10
2.707399477634655
 20
-0.3202567980709242
 30
0.0
 10
2.707399477634655
 20
-0.3695082692055141
 30
0.0
 10
2.704831492169609
 20
-0.4515834077236478
 30
0.0
 10
2.725324271701614
 20
-0.5063085421446026
 30
0.0
 10
2.745775529080573
 20
-0.5610400645892544
 30
0.0
 10
2.761141919717804
 20
-0.6649955683731529
 30
0.0
 10
2.761141919717804
 20
-0.6649955683731529
 30
0.0
  0
SPLINE
  5
DF
330
1F
100
AcDbEntity
  8
Wood
 62
     7
420
 16777215
370
     9
100
AcDbSpline
210
0.0
220
0.0
230
1.0
 70
     8
 71
     3
 72
     8
 73
     4
 74
     0
 42
0.0000000001
 43
0.0000000001
 12
1.0
 22
0.0
 32
0.0
 13
1.0
 23
0.0
 33
0.0
 40
0.0
 40
0.0
 40
0.0
 40
0.0
 40
1.0
 40
1.0
 40
1.0
 40
1.0
 10
2.873754257449491
 20
0.1230054839368096
 30
0.0
 10
2.873754257449491
 20
0.1230054839368096
 30
0.0
 10
2.871206500725672
 20
0.0409257673350238
 30
0.0
 10
2.891679051516449
 20
-0.0438997347898496
 30
0.0
  0
SPLINE
  5
E0
330
1F
100
AcDbEntity
  8
Wood
 62
     7
420
 16777215
370
     9
100
AcDbSpline
210
0.0
220
0.0
230
1.0
 70
     8
 71
     3
 72
    17
 73
    13
 74
     0
 42
0.0000000001
 43
0.0000000001
 12
1.0
 22
0.0
 32
0.0
 13
1.0
 23
0.0
 33
0.0
 40
0.0
 40
0.0
 40
0.0
 40
0.0
 40
1.0
 40
1.0
 40
1.0
 40
2.0
 40
2.0
 40
2.0
 40
3.0
 40
3.0
 40
3.0
 40
4.0
 40
4.0
 40
4.0
 40
4.0
 10
2.621903235180449
 20
-0.0141272856361891
 30
0.0
 10
2.621903235180449
 20
-0.0141272856361891
 30
0.0
 10
2.637249397076453
 20
-0.0579097354483085
 30
0.0
 10
2.642386432677136
 20
-0.12082857494315
 30
0.0
 10
2.64750111019541
 20
-0.183767643179749
 30
0.0
 10
2.652616852384274
 20
-0.2631243582096784
 30
0.0
 10
2.662847272091413
 20
-0.2959378260487205
 30
0.0
 10
2.673088389650957
 20
-0.3287720549647904
 30
0.0
 10
2.660289933332276
 20
-0.4053940570460731
 30
0.0
 10
2.665405675521141
 20
-0.4382228561419955
 30
0.0
 10
2.670520353039415
 20
-0.4710626213452795
 30
0.0
 10
2.714043022121334
 20
-0.68721417949415
 30
0.0
 10
2.714043022121334
 20
-0.68721417949415
 30
0.0
  0
SPLINE
  5
E1
330
1F
100
AcDbEntity
  8
Wood
 62
     7
420
 16777215
370
     9
100
AcDbSpline
210
0.0
220
0.0
230
1.0
 70
     8
 71
     3
 72
    14
 73
    10
 74
     0
 42
0.0000000001
 43
0.0000000001
 12
1.0
 22
0.0
 32
0.0
 13
1.0
 23
0.0
 33
0.0
 40
0.0
 40
0.0
 40
0.0
 40
0.0
 40
1.0
 40
1.0
 40
1.0
 40
2.0
 40
2.0
 40
2.0
 40
3.0
 40
3.0
 40
3.0
 40
3.0
 10
2.604187116549282
 20
-0.2282730043412913
 30
0.0
 10
2.604187116549282
 20
-0.2665813437053859
 30
0.0
 10
2.619564153892421
 20
-0.3043387266715298
 30
0.0
 10
2.619564153892421
 20
-0.345386772289468
 30
0.0
 10
2.619564153892421
 20
-0.3864348285541281
 30
0.0
 10
2.622111960474967
 20
-0.4786526581789429
 30
0.0
 10
2.632362559064606
 20
-0.5224297846379689
 30
0.0
 10
2.642594043442336
 20
-0.5661962643908333
 30
0.0
 10
2.670749257216433
 20
-0.7139512527167223
 30
0.0
 10
2.670749257216433
 20
-0.7139512527167223
 30
0.0
  0
SPLINE
  5
E2
330
1F
100
AcDbEntity
  8
Wood
 62
     7
420
 16777215
370
     9
100
AcDbSpline
210
0.0
220
0.0
230
1.0
 70
     8
 71
     3
 72
     8
 73
     4
 74
     0
 42
0.0000000001
 43
0.0000000001
 12
1.0
 22
0.0
 32
0.0
 13
1.0
 23
0.0
 33
0.0
 40
0.0
 40
0.0
 40
0.0
 40
0.0
 40
1.0
 40
1.0
 40
1.0
 40
1.0
 10
2.606764684049646
 20
-0.5806960135334344
 30
0.0
 10
2.614438829668238
 20
-0.6189986036761941
 30
0.0
 10
2.634546198446363
 20
-0.7409789810179366
 30
0.0
 10
2.634546198446363
 20
-0.7409789810179366
 30
0.0
  0
SPLINE
  5
E4
330
1F
100
AcDbEntity
  8
Ghosted
  6
AI-Linetype-1
 62
     7
420
 16777215
370
    20
100
AcDbSpline
210
0.0
220
0.0
230
1.0
 70
     8
 71
     3
 72
    41
 73
    37
 74
     0
 42
0.0000000001
 43
0.0000000001
 12
1.0
 22
0.0
 32
0.0
 13
1.0
 23
0.0
 33
0.0
 40
0.0
 40
0.0
 40
0.0
 40
0.0
 40
1.0
 40
1.0
 40
1.0
 40
2.0
 40
2.0
 40
2.0
 40
3.0
 40
3.0
 40
3.0
 40
4.0
 40
4.0
 40
4.0
 40
5.0
 40
5.0
 40
5.0
 40
6.0
 40
6.0
 40
6.0
 40
7.0
 40
7.0
 40
7.0
 40
8.0
 40
8.0
 40
8.0
 40
9.0
 40
9.0
 40
9.0
 40
10.0
 40
10.0
 40
10.0
 40
11.0
 40
11.0
 40
11.0
 40
12.0
 40
12.0
 40
12.0
 40
12.0
 10
1.094746139013296
 20
-0.5445185059436173
 30
0.0
 10
1.094746139013296
 20
-0.5445185059436173
 30
0.0
 10
1.094746139013296
 20
-0.3342410549938424
 30
0.0
 10
1.094746139013296
 20
-0.3342410549938424
 30
0.0
 10
1.094746139013296
 20
-0.3342410549938424
 30
0.0
 10
1.109135162411652
 20
-0.3384934559080395
 30
0.0
 10
1.109135162411652
 20
-0.3172000329071301
 30
0.0
 10
1.109135162411652
 20
-0.2959066311996139
 30
0.0
 10
1.094746139013296
 20
-0.2944874252662101
 30
0.0
 10
1.094746139013296
 20
-0.2944874252662101
 30
0.0
 10
1.094746139013296
 20
-0.2944874252662101
 30
0.0
 10
1.094746139013296
 20
-0.2172416326700007
 30
0.0
 10
1.094746139013296
 20
-0.2172416326700007
 30
0.0
 10
1.094746139013296
 20
-0.2172416326700007
 30
0.0
 10
1.107533897802619
 20
-0.2112007980521816
 30
0.0
 10
1.107533897802619
 20
-0.2112007980521816
 30
0.0
 10
1.107533897802619
 20
-0.2112007980521816
 30
0.0
 10
1.120302492520826
 20
-0.2192482173831978
 30
0.0
 10
1.120302492520826
 20
-0.2192482173831978
 30
0.0
 10
1.120302492520826
 20
-0.2192482173831978
 30
0.0
 10
1.135481501517511
 20
-0.2291879822701554
 30
0.0
 10
1.135481501517511
 20
-0.1979543791607436
 30
0.0
 10
1.135481501517511
 20
-0.1667265252726667
 30
0.0
 10
1.135481501517511
 20
0.068909569850929
 30
0.0
 10
1.135481501517511
 20
0.0944659233584591
 30
0.0
 10
1.135481501517511
 20
0.1200222768659766
 30
0.0
 10
1.118887545269899
 20
0.128537512466437
 30
0.0
 10
1.118887545269899
 20
0.128537512466437
 30
0.0
 10
1.118887545269899
 20
0.128537512466437
 30
0.0
 10
1.108698647458394
 20
0.1336319613721773
 30
0.0
 10
1.108698647458394
 20
0.1336319613721773
 30
0.0
 10
1.108698647458394
 20
0.1336319613721773
 30
0.0
 10
1.094746139013296
 20
0.1509019834620631
 30
0.0
 10
1.094746139013296
 20
0.1509019834620631
 30
0.0
 10
1.094746139013296
 20
0.1509019834620631
 30
0.0
 10
1.094746139013296
 20
0.3762554897598168
 30
0.0
 10
1.094746139013296
 20
0.3762554897598168
 30
0.0
  0
SPLINE
  5
E6
330
1F
100
AcDbEntity
  8
Ghosted
  6
AI-Linetype-2
 62
     7
420
 16777215
370
    20
100
AcDbSpline
210
0.0
220
0.0
230
1.0
 70
     8
 71
     3
 72
    47
 73
    43
 74
     0
 42
0.0000000001
 43
0.0000000001
 12
1.0
 22
0.0
 32
0.0
 13
1.0
 23
0.0
 33
0.0
 40
0.0
 40
0.0
 40
0.0
 40
0.0
 40
1.0
 40
1.0
 40
1.0
 40
2.0
 40
2.0
 40
2.0
 40
3.0
 40
3.0
 40
3.0
 40
4.0
 40
4.0
 40
4.0
 40
5.0
 40
5.0
 40
5.0
 40
6.0
 40
6.0
 40
6.0
 40
7.0
 40
7.0
 40
7.0
 40
8.0
 40
8.0
 40
8.0
 40
9.0
 40
9.0
 40
9.0
 40
10.0
 40
10.0
 40
10.0
 40
11.0
 40
11.0
 40
11.0
 40
12.0
 40
12.0
 40
12.0
 40
13.0
 40
13.0
 40
13.0
 40
14.0
 40
14.0
 40
14.0
 40
14.0
 10
1.095619168919812
 20
-0.5604885652092737
 30
0.0
 10
1.095619168919812
 20
-0.5604885652092737
 30
0.0
 10
1.109311897734187
 20
-0.5664198452205432
 30
0.0
 10
1.104737008089917
 20
-0.5809036243038892
 30
0.0
 10
1.100942522008356
 20
-0.5929226909072187
 30
0.0
 10
1.084972462742725
 20
-0.5897670071963274
 30
0.0
 10
1.084972462742725
 20
-0.5897670071963274
 30
0.0
 10
1.084972462742725
 20
-0.5897670071963274
 30
0.0
 10
1.017099710863653
 20
-0.690162252434599
 30
0.0
 10
1.017099710863653
 20
-0.690162252434599
 30
0.0
 10
1.017099710863653
 20
-0.690162252434599
 30
0.0
 10
1.016995373143118
 20
-0.7172889951032427
 30
0.0
 10
1.016995373143118
 20
-0.7172889951032427
 30
0.0
 10
1.016995373143118
 20
-0.7172889951032427
 30
0.0
 10
1.041637174590025
 20
-0.7314544376719014
 30
0.0
 10
1.041637174590025
 20
-0.7314544376719014
 30
0.0
 10
1.041637174590025
 20
-0.7314544376719014
 30
0.0
 10
0.913112266961232
 20
-0.934563780753807
 30
0.0
 10
0.897168824461005
 20
-0.9579567235661367
 30
0.0
 10
0.8812243172901617
 20
-0.9813507310490825
 30
0.0
 10
0.8647815442702469
 20
-0.9722222451728663
 30
0.0
 10
0.8647815442702469
 20
-0.9722222451728663
 30
0.0
 10
0.8647815442702469
 20
-0.9722222451728663
 30
0.0
 10
0.8576801912501094
 20
-0.9679593040195362
 30
0.0
 10
0.8576801912501094
 20
-0.9679593040195362
 30
0.0
 10
0.8576801912501094
 20
-0.9679593040195362
 30
0.0
 10
0.8378113081824065
 20
-0.9736361277531512
 30
0.0
 10
0.8378113081824065
 20
-0.9736361277531512
 30
0.0
 10
0.8378113081824065
 20
-0.9736361277531512
 30
0.0
 10
0.7191374783780904
 20
-1.155732066853337
 30
0.0
 10
0.7191374783780904
 20
-1.155732066853337
 30
0.0
 10
0.7191374783780904
 20
-1.155732066853337
 30
0.0
 10
0.7214092725421576
 20
-1.178668265970676
 30
0.0
 10
0.7214092725421576
 20
-1.178668265970676
 30
0.0
 10
0.7214092725421576
 20
-1.178668265970676
 30
0.0
 10
0.7269614233464381
 20
-1.195803074892107
 30
0.0
 10
0.7269614233464381
 20
-1.195803074892107
 30
0.0
 10
0.7269614233464381
 20
-1.195803074892107
 30
0.0
 10
0.8534225734498856
 20
-1.258955077252242
 30
0.0
 10
0.8534225734498856
 20
-1.258955077252242
 30
0.0
 10
0.8534225734498856
 20
-1.258955077252242
 30
0.0
 10
0.8967216628015597
 20
-1.251011569773507
 30
0.0
 10
0.8967216628015597
 20
-1.251011569773507
 30
0.0
  0
SPLINE
  5
E8
330
1F
100
AcDbEntity
  8
Ghosted
  6
AI-Linetype-3
 62
     7
420
 16777215
370
    15
100
AcDbSpline
210
0.0
220
0.0
230
1.0
 70
     8
 71
     3
 72
    17
 73
    13
 74
     0
 42
0.0000000001
 43
0.0000000001
 12
1.0
 22
0.0
 32
0.0
 13
1.0
 23
0.0
 33
0.0
 40
0.0
 40
0.0
 40
0.0
 40
0.0
 40
1.0
 40
1.0
 40
1.0
 40
2.0
 40
2.0
 40
2.0
 40
3.0
 40
3.0
 40
3.0
 40
4.0
 40
4.0
 40
4.0
 40
4.0
 10
1.274471056647801
 20
-0.5764586244749428
 30
0.0
 10
1.274471056647801
 20
-0.5764586244749428
 30
0.0
 10
1.274471056647801
 20
-0.3711406221965868
 30
0.0
 10
1.274471056647801
 20
-0.3711406221965868
 30
0.0
 10
1.274471056647801
 20
-0.3711406221965868
 30
0.0
 10
1.260082033249445
 20
-0.3654636919958926
 30
0.0
 10
1.260082033249445
 20
-0.3455947024611103
 30
0.0
 10
1.260082033249445
 20
-0.3257204960403012
 30
0.0
 10
1.274471056647801
 20
-0.3285589079071213
 30
0.0
 10
1.274471056647801
 20
-0.3285589079071213
 30
0.0
 10
1.274471056647801
 20
-0.3285589079071213
 30
0.0
 10
1.274471056647801
 20
0.3137944586305694
 30
0.0
 10
1.274471056647801
 20
0.3137944586305694
 30
0.0
  0
SPLINE
  5
EA
330
1F
100
AcDbEntity
  8
Ghosted
  6
AI-Linetype-4
 62
     7
420
 16777215
370
    15
100
AcDbSpline
210
0.0
220
0.0
230
1.0
 70
     8
 71
     3
 72
    26
 73
    22
 74
     0
 42
0.0000000001
 43
0.0000000001
 12
1.0
 22
0.0
 32
0.0
 13
1.0
 23
0.0
 33
0.0
 40
0.0
 40
0.0
 40
0.0
 40
0.0
 40
1.0
 40
1.0
 40
1.0
 40
2.0
 40
2.0
 40
2.0
 40
3.0
 40
3.0
 40
3.0
 40
4.0
 40
4.0
 40
4.0
 40
5.0
 40
5.0
 40
5.0
 40
6.0
 40
6.0
 40
6.0
 40
7.0
 40
7.0
 40
7.0
 40
7.0
 10
1.273940850680194
 20
-0.5906560071621116
 30
0.0
 10
1.273940850680194
 20
-0.5906560071621116
 30
0.0
 10
1.274835173999084
 20
-0.6183800300472941
 30
0.0
 10
1.274835173999084
 20
-0.6183800300472941
 30
0.0
 10
1.274835173999084
 20
-0.6183800300472941
 30
0.0
 10
1.260819849987532
 20
-0.6237033831358505
 30
0.0
 10
1.258646857256786
 20
-0.6343500893129632
 30
0.0
 10
1.255766923235872
 20
-0.6484537809857708
 30
0.0
 10
1.265571474954363
 20
-0.6536472442589658
 30
0.0
 10
1.265571474954363
 20
-0.6536472442589658
 30
0.0
 10
1.265571474954363
 20
-0.6536472442589658
 30
0.0
 10
0.8838913171875395
 20
-1.237994906801355
 30
0.0
 10
0.8838913171875395
 20
-1.237994906801355
 30
0.0
 10
0.8838913171875395
 20
-1.237994906801355
 30
0.0
 10
0.8555487206734698
 20
-1.243525870660354
 30
0.0
 10
0.8555487206734698
 20
-1.243525870660354
 30
0.0
 10
0.8555487206734698
 20
-1.243525870660354
 30
0.0
 10
0.7333296441792198
 20
-1.182972729278062
 30
0.0
 10
0.7333296441792198
 20
-1.182972729278062
 30
0.0
 10
0.7333296441792198
 20
-1.182972729278062
 30
0.0
 10
0.7226829380021323
 20
-1.151032610746723
 30
0.0
 10
0.7226829380021323
 20
-1.151032610746723
 30
0.0
  0
SPLINE
  5
EC
330
1F
100
AcDbEntity
  8
Ghosted
 62
     7
420
 16777215
370
    13
100
AcDbSpline
210
0.0
220
0.0
230
1.0
 70
     8
 71
     3
 72
    11
 73
     7
 74
     0
 42
0.0000000001
 43
0.0000000001
 12
1.0
 22
0.0
 32
0.0
 13
1.0
 23
0.0
 33
0.0
 40
0.0
 40
0.0
 40
0.0
 40
0.0
 40
1.0
 40
1.0
 40
1.0
 40
2.0
 40
2.0
 40
2.0
 40
2.0
 10
1.096170668299793
 20
-0.2220918461360447
 30
0.0
 10
1.096170668299793
 20
-0.2220918461360447
 30
0.0
 10
1.113210721536234
 20
-0.2306071882035591
 30
0.0
 10
1.113210721536234
 20
-0.2306071882035591
 30
0.0
 10
1.113210721536234
 20
-0.2306071882035591
 30
0.0
 10
1.135919081141411
 20
-0.2362840119371994
 30
0.0
 10
1.135919081141411
 20
-0.2064749381142721
 30
0.0
  0
SPLINE
  5
ED
330
1F
100
AcDbEntity
  8
Ghosted
 62
     7
420
 16777215
370
    13
100
AcDbSpline
210
0.0
220
0.0
230
1.0
 70
     8
 71
     3
 72
     8
 73
     4
 74
     0
 42
0.0000000001
 43
0.0000000001
 12
1.0
 22
0.0
 32
0.0
 13
1.0
 23
0.0
 33
0.0
 40
0.0
 40
0.0
 40
0.0
 40
0.0
 40
1.0
 40
1.0
 40
1.0
 40
1.0
 10
1.016673842616557
 20
-0.7010272160883283
 30
0.0
 10
1.016673842616557
 20
-0.7010272160883283
 30
0.0
 10
1.054440903438616
 20
-0.7129941138314027
 30
0.0
 10
1.041637174590025
 20
-0.7314544376719014
 30
0.0
  0
POLYLINE
  5
EE
330
1F
100
AcDbEntity
  8
Ghosted
  6
AI-Linetype-5
 62
     7
420
 16777215
370
    15
100
AcDb2dPolyline
 66
     1
 10
0.0
 20
0.0
 30
0.0
  0
VERTEX
  5
EF
330
EE
100
AcDbEntity
  8
Ghosted
  6
AI-Linetype-5
 62
     7
420
 16777215
370
    15
100
AcDbVertex
100
AcDb2dVertex
 10
1.251275077899764
 20
-0.6334823827595275
 30
0.0
  0
VERTEX
  5
F0
330
EE
100
AcDbEntity
  8
Ghosted
  6
AI-Linetype-5
 62
     7
420
 16777215
370
    15
100
AcDbVertex
100
AcDb2dVertex
 10
1.224658312456995
 20
-0.6234798023061405
 30
0.0
  0
SEQEND
  5
F2
330
EE
100
AcDbEntity
  8
Ghosted
  6
AI-Linetype-5
 62
     7
420
 16777215
370
    15
  0
POLYLINE
  5
F3
330
1F
100
AcDbEntity
  8
Ghosted
  6
AI-Linetype-6
 62
     7
420
 16777215
370
    15
100
AcDb2dPolyline
 66
     1
 10
0.0
 20
0.0
 30
0.0
  0
VERTEX
  5
F4
330
F3
100
AcDbEntity
  8
Ghosted
  6
AI-Linetype-6
 62
     7
420
 16777215
370
    15
100
AcDbVertex
100
AcDb2dVertex
 10
1.145546897537365
 20
-0.5950903602848712
 30
0.0
  0
VERTEX
  5
F5
330
F3
100
AcDbEntity
  8
Ghosted
  6
AI-Linetype-6
 62
     7
420
 16777215
370
    15
100
AcDbVertex
100
AcDb2dVertex
 10
1.118930132094596
 20
-0.5850888445021003
 30
0.0
  0
SEQEND
  5
F7
330
F3
100
AcDbEntity
  8
Ghosted
  6
AI-Linetype-6
 62
     7
420
 16777215
370
    15
  0
SPLINE
  5
F8
330
1F
100
AcDbEntity
  8
Ghosted
  6
AI-Linetype-7
 62
     7
420
 16777215
370
    20
100
AcDbSpline
210
0.0
220
0.0
230
1.0
 70
     8
 71
     3
 72
     8
 73
     4
 74
     0
 42
0.0000000001
 43
0.0000000001
 12
1.0
 22
0.0
 32
0.0
 13
1.0
 23
0.0
 33
0.0
 40
0.0
 40
0.0
 40
0.0
 40
0.0
 40
1.0
 40
1.0
 40
1.0
 40
1.0
 10
1.283932784427407
 20
-0.6283613170883325
 30
0.0
 10
1.272849563297061
 20
-0.6288031553946843
 30
0.0
 10
1.262421114596539
 20
-0.6438895380476499
 30
0.0
 10
1.274981033873701
 20
-0.6556328549610018
 30
0.0
  0
SPLINE
  5
FA
330
1F
100
AcDbEntity
  8
Ghosted
  6
AI-Linetype-8
 62
     7
420
 16777215
370
    20
100
AcDbSpline
210
0.0
220
0.0
230
1.0
 70
     8
 71
     3
 72
    11
 73
     7
 74
     0
 42
0.0000000001
 43
0.0000000001
 12
1.0
 22
0.0
 32
0.0
 13
1.0
 23
0.0
 33
0.0
 40
0.0
 40
0.0
 40
0.0
 40
0.0
 40
1.0
 40
1.0
 40
1.0
 40
2.0
 40
2.0
 40
2.0
 40
2.0
 10
1.284868629900378
 20
-0.3647567507057248
 30
0.0
 10
1.284868629900378
 20
-0.3647567507057248
 30
0.0
 10
1.272101099852787
 20
-0.3562414086382104
 30
0.0
 10
1.272101099852787
 20
-0.3455947024611103
 30
0.0
 10
1.272101099852787
 20
-0.3317508968860794
 30
0.0
 10
1.284868629900378
 20
-0.3261312459646256
 30
0.0
 10
1.284868629900378
 20
-0.3261312459646256
 30
0.0
  0
SPLINE
  5
FC
330
1F
100
AcDbEntity
  8
Ghosted
  6
AI-Linetype-9
 62
   250
420
  2301728
370
    13
100
AcDbSpline
210
0.0
220
0.0
230
1.0
 70
    11
 71
     3
 72
    20
 73
    16
 74
     0
 42
0.0000000001
 43
0.0000000001
 12
1.0
 22
0.0
 32
0.0
 13
1.0
 23
0.0
 33
0.0
 40
0.0
 40
0.0
 40
0.0
 40
0.0
 40
1.0
 40
1.0
 40
1.0
 40
2.0
 40
2.0
 40
2.0
 40
3.0
 40
3.0
 40
3.0
 40
4.0
 40
4.0
 40
4.0
 40
5.0
 40
5.0
 40
5.0
 40
5.0
 10
1.199840840358143
 20
-0.3280754409796221
 30
0.0
 10
1.20876171546393
 20
-0.333066084500135
 30
0.0
 10
1.210278871094185
 20
-0.3465980480512422
 30
0.0
 10
1.207118928700816
 20
-0.3516303201929152
 30
0.0
 10
1.201274951680211
 20
-0.3609824933659461
 30
0.0
 10
1.187821773754826
 20
-0.356922478432365
 30
0.0
 10
1.172890833012035
 20
-0.3519890077240133
 30
0.0
 10
1.163387583078348
 20
-0.3488438642522422
 30
0.0
 10
1.158709420384134
 20
-0.345417967138562
 30
0.0
 10
1.154300619356187
 20
-0.336642738973271
 30
0.0
 10
1.149352030325038
 20
-0.3268122092917009
 30
0.0
 10
1.152024353575497
 20
-0.3189987406822057
 30
0.0
 10
1.159520699394812
 20
-0.3170544711402701
 30
0.0
 10
1.166995751801778
 20
-0.3150738111566069
 30
0.0
 10
1.190108686241653
 20
-0.3226533503379869
 30
0.0
 10
1.199840840358143
 20
-0.3280754409796221
 30
0.0
  0
SPLINE
  5
FE
330
1F
100
AcDbEntity
  8
Ghosted
  6
AI-Linetype-10
 62
   250
420
  2301728
370
    20
100
AcDbSpline
210
0.0
220
0.0
230
1.0
 70
     8
 71
     3
 72
    14
 73
    10
 74
     0
 42
0.0000000001
 43
0.0000000001
 12
1.0
 22
0.0
 32
0.0
 13
1.0
 23
0.0
 33
0.0
 40
0.0
 40
0.0
 40
0.0
 40
0.0
 40
1.0
 40
1.0
 40
1.0
 40
2.0
 40
2.0
 40
2.0
 40
3.0
 40
3.0
 40
3.0
 40
3.0
 10
1.16332583218251
 20
-0.3185204799940367
 30
0.0
 10
1.161963053791851
 20
-0.3226013624717123
 30
0.0
 10
1.160725906534076
 20
-0.3228612911563257
 30
0.0
 10
1.16332583218251
 20
-0.3283769556985463
 30
0.0
 10
1.167962472722643
 20
-0.3383374816625443
 30
0.0
 10
1.174055582667809
 20
-0.3404168898459956
 30
0.0
 10
1.183256466146051
 20
-0.3428550920276115
 30
0.0
 10
1.183256466146051
 20
-0.3428550920276115
 30
0.0
 10
1.200401921773694
 20
-0.3493168974076878
 30
0.0
 10
1.205954179045041
 20
-0.3428498751415974
 30
0.0
  0
SPLINE
  5
100
330
1F
100
AcDbEntity
  8
Ghosted
  6
AI-Linetype-11
 62
   250
420
  2301728
370
    20
100
AcDbSpline
210
0.0
220
0.0
230
1.0
 70
    11
 71
     3
 72
    20
 73
    16
 74
     0
 42
0.0000000001
 43
0.0000000001
 12
1.0
 22
0.0
 32
0.0
 13
1.0
 23
0.0
 33
0.0
 40
0.0
 40
0.0
 40
0.0
 40
0.0
 40
1.0
 40
1.0
 40
1.0
 40
2.0
 40
2.0
 40
2.0
 40
3.0
 40
3.0
 40
3.0
 40
4.0
 40
4.0
 40
4.0
 40
5.0
 40
5.0
 40
5.0
 40
5.0
 10
1.192074068201944
 20
-0.6312412511092462
 30
0.0
 10
1.202200150446995
 20
-0.6325827360875564
 30
0.0
 10
1.213377062591715
 20
-0.6196799928715234
 30
0.0
 10
1.212088811144288
 20
-0.6138881847111735
 30
0.0
 10
1.208542393316697
 20
-0.597918125445517
 30
0.0
 10
1.198613275135914
 20
-0.597601918272062
 30
0.0
 10
1.183703627805496
 20
-0.5925947723569607
 30
0.0
 10
1.174201442542451
 20
-0.5894348299636046
 30
0.0
 10
1.159988089795989
 20
-0.5842051678894096
 30
0.0
 10
1.15919810419766
 20
-0.5970972643992682
 30
0.0
 10
1.158522038355386
 20
-0.6080814711621845
 30
0.0
 10
1.148333140543905
 20
-0.608331668757349
 30
0.0
 10
1.153167809818923
 20
-0.6143875152308863
 30
0.0
 10
1.157970538975456
 20
-0.6204444263750398
 30
0.0
 10
1.181021722519492
 20
-0.6297549709269231
 30
0.0
 10
1.192074068201944
 20
-0.6312412511092462
 30
0.0
  0
SPLINE
  5
102
330
1F
100
AcDbEntity
  8
Ghosted
  6
AI-Linetype-12
 62
   250
420
  2301728
370
    13
100
AcDbSpline
210
0.0
220
0.0
230
1.0
 70
    11
 71
     3
 72
    17
 73
    13
 74
     0
 42
0.0000000001
 43
0.0000000001
 12
1.0
 22
0.0
 32
0.0
 13
1.0
 23
0.0
 33
0.0
 40
0.0
 40
0.0
 40
0.0
 40
0.0
 40
1.0
 40
1.0
 40
1.0
 40
2.0
 40
2.0
 40
2.0
 40
3.0
 40
3.0
 40
3.0
 40
4.0
 40
4.0
 40
4.0
 40
4.0
 10
1.252970033523146
 20
0.3087830540330161
 30
0.0
 10
1.24845795944528
 20
0.3184523925830641
 30
0.0
 10
1.239454040031306
 20
0.3234999959816302
 30
0.0
 10
1.23246660676725
 20
0.3194968344590355
 30
0.0
 10
1.223462687353276
 20
0.3143140178920273
 30
0.0
 10
1.220801010809004
 20
0.302419517750953
 30
0.0
 10
1.22531308488687
 20
0.2927246271060792
 30
0.0
 10
1.229826223635327
 20
0.2830499652029377
 30
0.0
 10
1.239807510676378
 20
0.2784282300514683
 30
0.0
 10
1.246793879269793
 20
0.2824100981617019
 30
0.0
 10
1.253781312533849
 20
0.2863823842363773
 30
0.0
 10
1.257461878859254
 20
0.2991137154829681
 30
0.0
 10
1.252970033523146
 20
0.3087830540330161
 30
0.0
  0
SPLINE
  5
104
330
1F
100
AcDbEntity
  8
Ghosted
  6
AI-Linetype-13
 62
   250
420
  2301728
370
    20
100
AcDbSpline
210
0.0
220
0.0
230
1.0
 70
     8
 71
     3
 72
    11
 73
     7
 74
     0
 42
0.0000000001
 43
0.0000000001
 12
1.0
 22
0.0
 32
0.0
 13
1.0
 23
0.0
 33
0.0
 40
0.0
 40
0.0
 40
0.0
 40
0.0
 40
1.0
 40
1.0
 40
1.0
 40
2.0
 40
2.0
 40
2.0
 40
2.0
 10
1.241865518980426
 20
0.3175367758518253
 30
0.0
 10
1.236376077275509
 20
0.3142724957379212
 30
0.0
 10
1.233205488175953
 20
0.3028773261165725
 30
0.0
 10
1.23769626884147
 20
0.2932079875665118
 30
0.0
 10
1.240191856769393
 20
0.2878633410656196
 30
0.0
 10
1.242447893808301
 20
0.2858362082094901
 30
0.0
 10
1.246679959513712
 20
0.2841721280340153
 30
0.0
  0
SPLINE
  5
106
330
1F
100
AcDbEntity
  8
Ghosted
  6
AI-Linetype-14
 62
   250
420
  2301728
370
    13
100
AcDbSpline
210
0.0
220
0.0
230
1.0
 70
    11
 71
     3
 72
    17
 73
    13
 74
     0
 42
0.0000000001
 43
0.0000000001
 12
1.0
 22
0.0
 32
0.0
 13
1.0
 23
0.0
 33
0.0
 40
0.0
 40
0.0
 40
0.0
 40
0.0
 40
1.0
 40
1.0
 40
1.0
 40
2.0
 40
2.0
 40
2.0
 40
3.0
 40
3.0
 40
3.0
 40
4.0
 40
4.0
 40
4.0
 40
4.0
 10
1.169646781639888
 20
0.2704538471248144
 30
0.0
 10
1.165134707562023
 20
0.2801231856748624
 30
0.0
 10
1.156130788148049
 20
0.2851707890734158
 30
0.0
 10
1.149143354883992
 20
0.2811676275508211
 30
0.0
 10
1.140139435469993
 20
0.2759848109838129
 30
0.0
 10
1.137477758925747
 20
0.2640903108427513
 30
0.0
 10
1.141990897674203
 20
0.2543954201978775
 30
0.0
 10
1.146502971752069
 20
0.244720758294736
 30
0.0
 10
1.156473612086933
 20
0.240099023143254
 30
0.0
 10
1.163470627386535
 20
0.2440808912535001
 30
0.0
 10
1.170447413944379
 20
0.2480531773281756
 30
0.0
 10
1.174138626975996
 20
0.2607887672572183
 30
0.0
 10
1.169646781639888
 20
0.2704538471248144
 30
0.0
  0
SPLINE
  5
108
330
1F
100
AcDbEntity
  8
Ghosted
  6
AI-Linetype-15
 62
   250
420
  2301728
370
    20
100
AcDbSpline
210
0.0
220
0.0
230
1.0
 70
     8
 71
     3
 72
    11
 73
     7
 74
     0
 42
0.0000000001
 43
0.0000000001
 12
1.0
 22
0.0
 32
0.0
 13
1.0
 23
0.0
 33
0.0
 40
0.0
 40
0.0
 40
0.0
 40
0.0
 40
1.0
 40
1.0
 40
1.0
 40
2.0
 40
2.0
 40
2.0
 40
2.0
 10
1.15854333176776
 20
0.279212892296717
 30
0.0
 10
1.153052825392226
 20
0.2759486121828129
 30
0.0
 10
1.149871589586509
 20
0.2645481192083581
 30
0.0
 10
1.154363434922617
 20
0.2548841040114035
 30
0.0
 10
1.15685902285054
 20
0.2495394575104986
 30
0.0
 10
1.159124641925043
 20
0.2475070013012883
 30
0.0
 10
1.163346060924242
 20
0.2458429211258009
 30
0.0
  0
SPLINE
  5
10A
330
1F
100
AcDbEntity
  8
Ghosted
  6
AI-Linetype-16
 62
   250
420
  2301728
370
    13
100
AcDbSpline
210
0.0
220
0.0
230
1.0
 70
    11
 71
     3
 72
    17
 73
    13
 74
     0
 42
0.0000000001
 43
0.0000000001
 12
1.0
 22
0.0
 32
0.0
 13
1.0
 23
0.0
 33
0.0
 40
0.0
 40
0.0
 40
0.0
 40
0.0
 40
1.0
 40
1.0
 40
1.0
 40
2.0
 40
2.0
 40
2.0
 40
3.0
 40
3.0
 40
3.0
 40
4.0
 40
4.0
 40
4.0
 40
4.0
 10
1.216485900795457
 20
0.1980530511086221
 30
0.0
 10
1.211984473423753
 20
0.2077223896586702
 30
0.0
 10
1.202980554009779
 20
0.2127753164103297
 30
0.0
 10
1.195993120745748
 20
0.208772154887735
 30
0.0
 10
1.186989201331774
 20
0.2035840149676333
 30
0.0
 10
1.184327524787477
 20
0.1916895148265717
 30
0.0
 10
1.188840663535959
 20
0.1819999475347787
 30
0.0
 10
1.193352737613825
 20
0.1723252856316498
 30
0.0
 10
1.203312731242502
 20
0.1677035504801552
 30
0.0
 10
1.210320393248266
 20
0.1716854185904013
 30
0.0
 10
1.217286533099948
 20
0.1756577046650768
 30
0.0
 10
1.220988392837727
 20
0.1883890359116675
 30
0.0
 10
1.216485900795457
 20
0.1980530511086221
 30
0.0
  0
SPLINE
  5
10C
330
1F
100
AcDbEntity
  8
Ghosted
  6
AI-Linetype-17
 62
   250
420
  2301728
370
    20
100
AcDbSpline
210
0.0
220
0.0
230
1.0
 70
     8
 71
     3
 72
    11
 73
     7
 74
     0
 42
0.0000000001
 43
0.0000000001
 12
1.0
 22
0.0
 32
0.0
 13
1.0
 23
0.0
 33
0.0
 40
0.0
 40
0.0
 40
0.0
 40
0.0
 40
1.0
 40
1.0
 40
1.0
 40
2.0
 40
2.0
 40
2.0
 40
2.0
 10
1.205392032958874
 20
0.2068120962805374
 30
0.0
 10
1.199902591253981
 20
0.2035478161666333
 30
0.0
 10
1.196721355448264
 20
0.1921473231921785
 30
0.0
 10
1.201213200784372
 20
0.1824833079952239
 30
0.0
 10
1.203707724041679
 20
0.1771386614943064
 30
0.0
 10
1.205974407786774
 20
0.1751115286381895
 30
0.0
 10
1.210195826785972
 20
0.1734474484627021
 30
0.0
  0
SPLINE
  5
10E
330
1F
100
AcDbEntity
  8
Ghosted
  6
AI-Linetype-18
 62
   250
420
  2301728
370
    13
100
AcDbSpline
210
0.0
220
0.0
230
1.0
 70
    11
 71
     3
 72
    17
 73
    13
 74
     0
 42
0.0000000001
 43
0.0000000001
 12
1.0
 22
0.0
 32
0.0
 13
1.0
 23
0.0
 33
0.0
 40
0.0
 40
0.0
 40
0.0
 40
0.0
 40
1.0
 40
1.0
 40
1.0
 40
2.0
 40
2.0
 40
2.0
 40
3.0
 40
3.0
 40
3.0
 40
4.0
 40
4.0
 40
4.0
 40
4.0
 10
0.8734522217808818
 20
-1.218261236902082
 30
0.0
 10
0.8834335088219328
 20
-1.214496561597874
 30
0.0
 10
0.8891465313565479
 20
-1.205887634983052
 30
0.0
 10
0.885669317119108
 20
-1.198630840052753
 30
0.0
 10
0.881161501723707
 20
-1.189252156581334
 30
0.0
 10
0.8695065524716483
 20
-1.185717450130546
 30
0.0
 10
0.8595092953713295
 20
-1.189502354176511
 30
0.0
 10
0.8495184262947583
 20
-1.193265964810103
 30
0.0
 10
0.8441737797938407
 20
-1.202872487793709
 30
0.0
 10
0.8476158599008966
 20
-1.210150576136382
 30
0.0
 10
0.8510515519842556
 20
-1.217408435737323
 30
0.0
 10
0.8634762580929367
 20
-1.222045076277431
 30
0.0
 10
0.8734522217808818
 20
-1.218261236902082
 30
0.0
  0
SPLINE
  5
110
330
1F
100
AcDbEntity
  8
Ghosted
  6
AI-Linetype-19
 62
   250
420
  2301728
370
    20
100
AcDbSpline
210
0.0
220
0.0
230
1.0
 70
     8
 71
     3
 72
    11
 73
     7
 74
     0
 42
0.0000000001
 43
0.0000000001
 12
1.0
 22
0.0
 32
0.0
 13
1.0
 23
0.0
 33
0.0
 40
0.0
 40
0.0
 40
0.0
 40
0.0
 40
1.0
 40
1.0
 40
1.0
 40
2.0
 40
2.0
 40
2.0
 40
2.0
 10
0.883018287281023
 20
-1.20786366364953
 30
0.0
 10
0.8801692287080287
 20
-1.202145317761809
 30
0.0
 10
0.8690444854235516
 20
-1.198111280791308
 30
0.0
 10
0.8590631983825006
 20
-1.201874891424899
 30
0.0
 10
0.8535524632652596
 20
-1.203954193141322
 30
0.0
 10
0.8513581771221652
 20
-1.206075017011775
 30
0.0
 10
0.8493885364793843
 20
-1.210171869548731
 30
0.0
  0
SPLINE
  5
112
330
1F
100
AcDbEntity
  8
Ghosted
  6
AI-Linetype-20
 62
   250
420
  2301728
370
    13
100
AcDbSpline
210
0.0
220
0.0
230
1.0
 70
     8
 71
     3
 72
    11
 73
     7
 74
     0
 42
0.0000000001
 43
0.0000000001
 12
1.0
 22
0.0
 32
0.0
 13
1.0
 23
0.0
 33
0.0
 40
0.0
 40
0.0
 40
0.0
 40
0.0
 40
1.0
 40
1.0
 40
1.0
 40
2.0
 40
2.0
 40
2.0
 40
2.0
 10
0.7924744392684159
 20
-1.143422345171353
 30
0.0
 10
0.7959101313517749
 20
-1.150679140101652
 30
0.0
 10
0.8028347490493514
 20
-1.157198118293915
 30
0.0
 10
0.8183054777953203
 20
-1.151552170008194
 30
0.0
 10
0.8283282869904521
 20
-1.147892897095112
 30
0.0
 10
0.8309377946744563
 20
-1.139179632759781
 30
0.0
 10
0.8274605804370164
 20
-1.131901544417107
 30
0.0
  0
SPLINE
  5
114
330
1F
100
AcDbEntity
  8
Ghosted
  6
AI-Linetype-21
 62
   250
420
  2301728
370
    13
100
AcDbSpline
210
0.0
220
0.0
230
1.0
 70
    11
 71
     3
 72
    17
 73
    13
 74
     0
 42
0.0000000001
 43
0.0000000001
 12
1.0
 22
0.0
 32
0.0
 13
1.0
 23
0.0
 33
0.0
 40
0.0
 40
0.0
 40
0.0
 40
0.0
 40
1.0
 40
1.0
 40
1.0
 40
2.0
 40
2.0
 40
2.0
 40
3.0
 40
3.0
 40
3.0
 40
4.0
 40
4.0
 40
4.0
 40
4.0
 10
0.9004533333166415
 20
-1.119591822735149
 30
0.0
 10
0.9104346203576925
 20
-1.115848440843264
 30
0.0
 10
0.9161487075629237
 20
-1.107219285486735
 30
0.0
 10
0.9126704286548677
 20
-1.099961425885795
 30
0.0
 10
0.9081636779301081
 20
-1.090583807084992
 30
0.0
 10
0.8965129873604888
 20
-1.087069329375936
 30
0.0
 10
0.8865114715777306
 20
-1.090832940009528
 30
0.0
 10
0.8765248611835987
 20
-1.094596550643145
 30
0.0
 10
0.8711748913296004
 20
-1.104204138297367
 30
0.0
 10
0.8746169714366563
 20
-1.111482226640015
 30
0.0
 10
0.8780526635200152
 20
-1.118739021570339
 30
0.0
 10
0.8904826929817773
 20
-1.123375662110498
 30
0.0
 10
0.9004533333166415
 20
-1.119591822735149
 30
0.0
  0
SPLINE
  5
116
330
1F
100
AcDbEntity
  8
Ghosted
  6
AI-Linetype-22
 62
   250
420
  2301728
370
    20
100
AcDbSpline
210
0.0
220
0.0
230
1.0
 70
     8
 71
     3
 72
    11
 73
     7
 74
     0
 42
0.0000000001
 43
0.0000000001
 12
1.0
 22
0.0
 32
0.0
 13
1.0
 23
0.0
 33
0.0
 40
0.0
 40
0.0
 40
0.0
 40
0.0
 40
1.0
 40
1.0
 40
1.0
 40
2.0
 40
2.0
 40
2.0
 40
2.0
 10
0.9100193988167827
 20
-1.109194249482572
 30
0.0
 10
0.9071756635968692
 20
-1.10347590359485
 30
0.0
 10
0.8960455969593365
 20
-1.099462095366082
 30
0.0
 10
0.8860643099182854
 20
-1.103205477257941
 30
0.0
 10
0.8805588981541
 20
-1.105284778974338
 30
0.0
 10
0.878360353328541
 20
-1.107405602844816
 30
0.0
 10
0.876389648015144
 20
-1.111502455381772
 30
0.0
  0
SPLINE
  5
118
330
1F
100
AcDbEntity
  8
Ghosted
  6
AI-Linetype-23
 62
   250
420
  2301728
370
    13
100
AcDbSpline
210
0.0
220
0.0
230
1.0
 70
    11
 71
     3
 72
    17
 73
    13
 74
     0
 42
0.0000000001
 43
0.0000000001
 12
1.0
 22
0.0
 32
0.0
 13
1.0
 23
0.0
 33
0.0
 40
0.0
 40
0.0
 40
0.0
 40
0.0
 40
1.0
 40
1.0
 40
1.0
 40
2.0
 40
2.0
 40
2.0
 40
3.0
 40
3.0
 40
3.0
 40
4.0
 40
4.0
 40
4.0
 40
4.0
 10
0.8990660675017604
 20
-1.035893806794421
 30
0.0
 10
0.9090473545428115
 20
-1.032130196160804
 30
0.0
 10
0.9147603770774265
 20
-1.023521269546008
 30
0.0
 10
0.9112820981693706
 20
-1.016264474615683
 30
0.0
 10
0.906775347444611
 20
-1.006885791144264
 30
0.0
 10
0.895120398192527
 20
-1.003351084693501
 30
0.0
 10
0.8851231410922334
 20
-1.007135988739441
 30
0.0
 10
0.8751365306981016
 20
-1.010899599373059
 30
0.0
 10
0.8697876255147194
 20
-1.020506122356639
 30
0.0
 10
0.8732286409511592
 20
-1.027784210699312
 30
0.0
 10
0.8766653977051343
 20
-1.035042070300278
 30
0.0
 10
0.8890901038138155
 20
-1.039678710840386
 30
0.0
 10
0.8990660675017604
 20
-1.035893806794421
 30
0.0
  0
SPLINE
  5
11A
330
1F
100
AcDbEntity
  8
Ghosted
  6
AI-Linetype-24
 62
   250
420
  2301728
370
    20
100
AcDbSpline
210
0.0
220
0.0
230
1.0
 70
     8
 71
     3
 72
    11
 73
     7
 74
     0
 42
0.0000000001
 43
0.0000000001
 12
1.0
 22
0.0
 32
0.0
 13
1.0
 23
0.0
 33
0.0
 40
0.0
 40
0.0
 40
0.0
 40
0.0
 40
1.0
 40
1.0
 40
1.0
 40
2.0
 40
2.0
 40
2.0
 40
2.0
 10
0.9086310683312856
 20
-1.025497298212485
 30
0.0
 10
0.905787333111372
 20
-1.019778952324739
 30
0.0
 10
0.8946572664738394
 20
-1.015744915354238
 30
0.0
 10
0.8846759794327883
 20
-1.019508525987855
 30
0.0
 10
0.8791705676686029
 20
-1.021587827704227
 30
0.0
 10
0.8769720228430439
 20
-1.02370865157473
 30
0.0
 10
0.8750013175296468
 20
-1.027805504111661
 30
0.0
  0
SPLINE
  5
11C
330
1F
100
AcDbEntity
  8
Ghosted
  6
AI-Linetype-25
 62
   250
420
  2301728
370
    13
100
AcDbSpline
210
0.0
220
0.0
230
1.0
 70
    11
 71
     3
 72
    17
 73
    13
 74
     0
 42
0.0000000001
 43
0.0000000001
 12
1.0
 22
0.0
 32
0.0
 13
1.0
 23
0.0
 33
0.0
 40
0.0
 40
0.0
 40
0.0
 40
0.0
 40
1.0
 40
1.0
 40
1.0
 40
2.0
 40
2.0
 40
2.0
 40
3.0
 40
3.0
 40
3.0
 40
4.0
 40
4.0
 40
4.0
 40
4.0
 10
1.177694626839133
 20
0.1389553144607336
 30
0.0
 10
1.173182552761268
 20
0.1486246530107943
 30
0.0
 10
1.164178633347294
 20
0.1536722564093477
 30
0.0
 10
1.157191200083263
 20
0.149669094886753
 30
0.0
 10
1.148187280669289
 20
0.1444862783197449
 30
0.0
 10
1.145525604124992
 20
0.1325917781786832
 30
0.0
 10
1.150037678202857
 20
0.1228968875338094
 30
0.0
 10
1.154550816951339
 20
0.1132222256306679
 30
0.0
 10
1.16453210399239
 20
0.1086004904791859
 30
0.0
 10
1.17151847258578
 20
0.1125823585894194
 30
0.0
 10
1.178505905849837
 20
0.1165546446641075
 30
0.0
 10
1.182186472175267
 20
0.1292859759106856
 30
0.0
 10
1.177694626839133
 20
0.1389553144607336
 30
0.0
  0
SPLINE
  5
11E
330
1F
100
AcDbEntity
  8
Ghosted
  6
AI-Linetype-26
 62
   250
420
  2301728
370
    20
100
AcDbSpline
210
0.0
220
0.0
230
1.0
 70
     8
 71
     3
 72
    11
 73
     7
 74
     0
 42
0.0000000001
 43
0.0000000001
 12
1.0
 22
0.0
 32
0.0
 13
1.0
 23
0.0
 33
0.0
 40
0.0
 40
0.0
 40
0.0
 40
0.0
 40
1.0
 40
1.0
 40
1.0
 40
2.0
 40
2.0
 40
2.0
 40
2.0
 10
1.166590112296414
 20
0.1477101009501717
 30
0.0
 10
1.161100670591521
 20
0.1444447561656514
 30
0.0
 10
1.15792901682135
 20
0.13304958654429
 30
0.0
 10
1.162420862157483
 20
0.123380247994242
 30
0.0
 10
1.164916450085356
 20
0.1180356014933371
 30
0.0
 10
1.167172487124289
 20
0.1160084686372203
 30
0.0
 10
1.171404552829699
 20
0.114345453132349
 30
0.0
  0
SPLINE
  5
120
330
1F
100
AcDbEntity
  8
Ghosted
  6
AI-Linetype-27
 62
   250
420
  2301728
370
    13
100
AcDbSpline
210
0.0
220
0.0
230
1.0
 70
     8
 71
     3
 72
    11
 73
     7
 74
     0
 42
0.0000000001
 43
0.0000000001
 12
1.0
 22
0.0
 32
0.0
 13
1.0
 23
0.0
 33
0.0
 40
0.0
 40
0.0
 40
0.0
 40
0.0
 40
1.0
 40
1.0
 40
1.0
 40
2.0
 40
2.0
 40
2.0
 40
2.0
 10
1.211755569240924
 20
0.0622969006443302
 30
0.0
 10
1.207254141869271
 20
0.0719662391943782
 30
0.0
 10
1.198259804490842
 20
0.0770138425929442
 30
0.0
 10
1.191273435897428
 20
0.0730160044234304
 30
0.0
 10
1.182258869777242
 20
0.0678278645033288
 30
0.0
 10
1.179597193232995
 20
0.0559333643622671
 30
0.0
 10
1.184119914017022
 20
0.0462384737173933
 30
0.0
  0
SPLINE
  5
122
330
1F
100
AcDbEntity
  8
Ghosted
  6
AI-Linetype-28
 62
   250
420
  2301728
370
    20
100
AcDbSpline
210
0.0
220
0.0
230
1.0
 70
     8
 71
     3
 72
     8
 73
     4
 74
     0
 42
0.0000000001
 43
0.0000000001
 12
1.0
 22
0.0
 32
0.0
 13
1.0
 23
0.0
 33
0.0
 40
0.0
 40
0.0
 40
0.0
 40
0.0
 40
1.0
 40
1.0
 40
1.0
 40
1.0
 10
1.200672348110579
 20
0.0710559458162329
 30
0.0
 10
1.195182906405661
 20
0.0677916657023287
 30
0.0
 10
1.192000605929328
 20
0.0563911727278865
 30
0.0
 10
1.196492451265436
 20
0.0467271575309193
 30
0.0
  0
SPLINE
  5
124
330
1F
100
AcDbEntity
  8
Ghosted
  6
AI-Linetype-29
 62
     7
420
 16777215
370
    20
100
AcDbSpline
210
0.0
220
0.0
230
1.0
 70
     8
 71
     3
 72
    17
 73
    13
 74
     0
 42
0.0000000001
 43
0.0000000001
 12
1.0
 22
0.0
 32
0.0
 13
1.0
 23
0.0
 33
0.0
 40
0.0
 40
0.0
 40
0.0
 40
0.0
 40
1.0
 40
1.0
 40
1.0
 40
2.0
 40
2.0
 40
2.0
 40
3.0
 40
3.0
 40
3.0
 40
4.0
 40
4.0
 40
4.0
 40
4.0
 10
0.8058605429448814
 20
-1.151864118499184
 30
0.0
 10
0.8058605429448814
 20
-1.151864118499184
 30
0.0
 10
0.7309694823538848
 20
-1.058268924496234
 30
0.0
 10
0.722984452721044
 20
-1.050283894863393
 30
0.0
 10
0.7149994230882283
 20
-1.042298865230578
 30
0.0
 10
0.7070143934554127
 20
-1.005035393610696
 30
0.0
 10
0.7070143934554127
 20
-1.005035393610696
 30
0.0
 10
0.7070143934554127
 20
-1.005035393610696
 30
0.0
 10
0.7389545119867257
 20
-1.031652159053465
 30
0.0
 10
0.7389545119867257
 20
-1.031652159053465
 30
0.0
 10
0.7389545119867257
 20
-1.031652159053465
 30
0.0
 10
0.8253184631541646
 20
-1.138566382483987
 30
0.0
 10
0.8253184631541646
 20
-1.138566382483987
 30
0.0
  0
HATCH
  5
126
330
1F
100
AcDbEntity
  8
Ghosted
 62
    43
420
 15510365
100
AcDbHatch
 10
0.0
 20
0.0
 30
0.0
210
0.0
220
0.0
230
1.0
  2
SOLID
 70
     1
 71
     0
 91
        1
 92
        1
 93
        2
 72
     4
 94
        3
 73
     0
 74
     0
 95
       17
 96
       13
 40
0.0
 40
0.0
 40
0.0
 40
0.0
 40
0.0138888888888889
 40
0.0138888888888889
 40
0.0138888888888889
 40
0.0277777777777778
 40
0.0277777777777778
 40
0.0277777777777778
 40
0.0416666666666667
 40
0.0416666666666667
 40
0.0416666666666667
 40
0.0555555555555556
 40
0.0555555555555556
 40
0.0555555555555556
 40
0.0555555555555556
 10
0.8058605429448814
 20
-1.151864118499184
 10
0.8058605429448814
 20
-1.151864118499184
 10
0.7309694823538848
 20
-1.058268924496234
 10
0.722984452721044
 20
-1.050283894863393
 10
0.7149994230882283
 20
-1.042298865230578
 10
0.7070143934554127
 20
-1.005035393610696
 10
0.7070143934554127
 20
-1.005035393610696
 10
0.7070143934554127
 20
-1.005035393610696
 10
0.7389545119867257
 20
-1.031652159053465
 10
0.7389545119867257
 20
-1.031652159053465
 10
0.7389545119867257
 20
-1.031652159053465
 10
0.8253184631541646
 20
-1.138566382483987
 10
0.8253184631541646
 20
-1.138566382483987
 97
        0
 72
     1
 10
0.8253184631541646
 20
-1.138566382483987
 11
0.8058605429448814
 21
-1.151864118499184
 97
        0
 75
     2
 76
     1
 98
        0
  0
SPLINE
  5
128
330
1F
100
AcDbEntity
  8
LSCZ-Color
370
     0
100
AcDbSpline
210
0.0
220
0.0
230
1.0
 70
    11
 71
     3
 72
    56
 73
    52
 74
     0
 42
0.0000000001
 43
0.0000000001
 12
1.0
 22
0.0
 32
0.0
 13
1.0
 23
0.0
 33
0.0
 40
0.0
 40
0.0
 40
0.0
 40
0.0
 40
1.0
 40
1.0
 40
1.0
 40
2.0
 40
2.0
 40
2.0
 40
3.0
 40
3.0
 40
3.0
 40
4.0
 40
4.0
 40
4.0
 40
5.0
 40
5.0
 40
5.0
 40
6.0
 40
6.0
 40
6.0
 40
7.0
 40
7.0
 40
7.0
 40
8.0
 40
8.0
 40
8.0
 40
9.0
 40
9.0
 40
9.0
 40
10.0
 40
10.0
 40
10.0
 40
11.0
 40
11.0
 40
11.0
 40
12.0
 40
12.0
 40
12.0
 40
13.0
 40
13.0
 40
13.0
 40
14.0
 40
14.0
 40
14.0
 40
15.0
 40
15.0
 40
15.0
 40
16.0
 40
16.0
 40
16.0
 40
17.0
 40
17.0
 40
17.0
 40
17.0
 10
1.286386850201224
 20
0.1001480704451801
 30
0.0
 10
1.286386850201224
 20
0.1001480704451801
 30
0.0
 10
1.209739083091007
 20
0.0572642026344031
 30
0.0
 10
1.209739083091007
 20
0.0572642026344031
 30
0.0
 10
1.209739083091007
 20
0.0572642026344031
 30
0.0
 10
1.207887620886797
 20
0.0496539370590199
 30
0.0
 10
1.207887620886797
 20
0.0496539370590199
 30
0.0
 10
1.207887620886797
 20
0.0496539370590199
 30
0.0
 10
1.187030723485855
 20
0.0383939806061006
 30
0.0
 10
1.187030723485855
 20
0.0383939806061006
 30
0.0
 10
1.187030723485855
 20
0.0383939806061006
 30
0.0
 10
1.177798964559669
 20
0.042656921759418
 30
0.0
 10
1.177798964559669
 20
0.042656921759418
 30
0.0
 10
1.177798964559669
 20
0.042656921759418
 30
0.0
 10
1.16501014109973
 20
0.0362678333825417
 30
0.0
 10
1.16501014109973
 20
0.0362678333825417
 30
0.0
 10
1.16501014109973
 20
0.0362678333825417
 30
0.0
 10
1.149040081834048
 20
0.0312979509390566
 30
0.0
 10
1.149040081834048
 20
0.0021962442745512
 30
0.0
 10
1.149040081834048
 20
-0.0286781389684418
 30
0.0
 10
1.149040081834048
 20
-0.2320316110230023
 30
0.0
 10
1.149040081834048
 20
-0.2511935528005501
 30
0.0
 10
1.149040081834048
 20
-0.2703607114641373
 30
0.0
 10
1.168566140962892
 20
-0.2703607114641373
 30
0.0
 10
1.168566140962892
 20
-0.2703607114641373
 30
0.0
 10
1.168566140962892
 20
-0.2703607114641373
 30
0.0
 10
1.18778025160072
 20
-0.2690143290009751
 30
0.0
 10
1.18778025160072
 20
-0.2690143290009751
 30
0.0
 10
1.18778025160072
 20
-0.2690143290009751
 30
0.0
 10
1.190857149685902
 20
-0.2604990934005273
 30
0.0
 10
1.190857149685902
 20
-0.2604990934005273
 30
0.0
 10
1.190857149685902
 20
-0.2604990934005273
 30
0.0
 10
1.208324135840055
 20
-0.2597140052870373
 30
0.0
 10
1.208324135840055
 20
-0.2597140052870373
 30
0.0
 10
1.208324135840055
 20
-0.2597140052870373
 30
0.0
 10
1.218202149831187
 20
-0.267397520200916
 30
0.0
 10
1.218202149831187
 20
-0.267397520200916
 30
0.0
 10
1.218202149831187
 20
-0.267397520200916
 30
0.0
 10
1.287425968724114
 20
-0.2579985015207108
 30
0.0
 10
1.287425968724114
 20
-0.2579985015207108
 30
0.0
 10
1.287425968724114
 20
-0.2579985015207108
 30
0.0
 10
1.306266379975114
 20
-0.2533250233772151
 30
0.0
 10
1.306266379975114
 20
-0.2362892288232135
 30
0.0
 10
1.306266379975114
 20
-0.2220970630220715
 30
0.0
 10
1.306266379975114
 20
0.1001480704451801
 30
0.0
 10
1.306266379975114
 20
0.1001480704451801
 30
0.0
 10
1.306266379975114
 20
0.1001480704451801
 30
0.0
 10
1.306973321265281
 20
0.1136331884891004
 30
0.0
 10
1.287384446570033
 20
0.1200222768659766
 30
0.0
 10
1.287384446570033
 20
0.1100825119790443
 30
0.0
 10
1.286386850201224
 20
0.1001480704451801
 30
0.0
 10
1.286386850201224
 20
0.1001480704451801
 30
0.0
  0
HATCH
  5
129
330
1F
100
AcDbEntity
  8
LSCZ-Color
 62
   254
420
 13358815
100
AcDbHatch
 10
0.0
 20
0.0
 30
0.0
210
0.0
220
0.0
230
1.0
  2
SOLID
 70
     1
 71
     0
 91
        1
 92
        1
 93
        1
 72
     4
 94
        3
 73
     0
 74
     1
 95
       56
 96
       52
 40
0.0
 40
0.0
 40
0.0
 40
0.0
 40
1.0
 40
1.0
 40
1.0
 40
2.0
 40
2.0
 40
2.0
 40
3.0
 40
3.0
 40
3.0
 40
4.0
 40
4.0
 40
4.0
 40
5.0
 40
5.0
 40
5.0
 40
6.0
 40
6.0
 40
6.0
 40
7.0
 40
7.0
 40
7.0
 40
8.0
 40
8.0
 40
8.0
 40
9.0
 40
9.0
 40
9.0
 40
10.0
 40
10.0
 40
10.0
 40
11.0
 40
11.0
 40
11.0
 40
12.0
 40
12.0
 40
12.0
 40
13.0
 40
13.0
 40
13.0
 40
14.0
 40
14.0
 40
14.0
 40
15.0
 40
15.0
 40
15.0
 40
16.0
 40
16.0
 40
16.0
 40
17.0
 40
17.0
 40
17.0
 40
17.0
 10
1.286386850201224
 20
0.1001480704451801
 10
1.286386850201224
 20
0.1001480704451801
 10
1.209739083091007
 20
0.0572642026344031
 10
1.209739083091007
 20
0.0572642026344031
 10
1.209739083091007
 20
0.0572642026344031
 10
1.207887620886797
 20
0.0496539370590199
 10
1.207887620886797
 20
0.0496539370590199
 10
1.207887620886797
 20
0.0496539370590199
 10
1.187030723485855
 20
0.0383939806061006
 10
1.187030723485855
 20
0.0383939806061006
 10
1.187030723485855
 20
0.0383939806061006
 10
1.177798964559669
 20
0.042656921759418
 10
1.177798964559669
 20
0.042656921759418
 10
1.177798964559669
 20
0.042656921759418
 10
1.16501014109973
 20
0.0362678333825417
 10
1.16501014109973
 20
0.0362678333825417
 10
1.16501014109973
 20
0.0362678333825417
 10
1.149040081834048
 20
0.0312979509390566
 10
1.149040081834048
 20
0.0021962442745512
 10
1.149040081834048
 20
-0.0286781389684418
 10
1.149040081834048
 20
-0.2320316110230023
 10
1.149040081834048
 20
-0.2511935528005501
 10
1.149040081834048
 20
-0.2703607114641373
 10
1.168566140962892
 20
-0.2703607114641373
 10
1.168566140962892
 20
-0.2703607114641373
 10
1.168566140962892
 20
-0.2703607114641373
 10
1.18778025160072
 20
-0.2690143290009751
 10
1.18778025160072
 20
-0.2690143290009751
 10
1.18778025160072
 20
-0.2690143290009751
 10
1.190857149685902
 20
-0.2604990934005273
 10
1.190857149685902
 20
-0.2604990934005273
 10
1.190857149685902
 20
-0.2604990934005273
 10
1.208324135840055
 20
-0.2597140052870373
 10
1.208324135840055
 20
-0.2597140052870373
 10
1.208324135840055
 20
-0.2597140052870373
 10
1.218202149831187
 20
-0.267397520200916
 10
1.218202149831187
 20
-0.267397520200916
 10
1.218202149831187
 20
-0.267397520200916
 10
1.287425968724114
 20
-0.2579985015207108
 10
1.287425968724114
 20
-0.2579985015207108
 10
1.287425968724114
 20
-0.2579985015207108
 10
1.306266379975114
 20
-0.2533250233772151
 10
1.306266379975114
 20
-0.2362892288232135
 10
1.306266379975114
 20
-0.2220970630220715
 10
1.306266379975114
 20
0.1001480704451801
 10
1.306266379975114
 20
0.1001480704451801
 10
1.306266379975114
 20
0.1001480704451801
 10
1.306973321265281
 20
0.1136331884891004
 10
1.287384446570033
 20
0.1200222768659766
 10
1.287384446570033
 20
0.1100825119790443
 10
1.286386850201224
 20
0.1001480704451801
 10
1.286386850201224
 20
0.1001480704451801
 97
        0
 97
        0
 75
     2
 76
     1
 98
        0
  0
SPLINE
  5
12A
330
1F
100
AcDbEntity
  8
LSCZ-Color
370
     0
100
AcDbSpline
210
0.0
220
0.0
230
1.0
 70
    11
 71
     3
 72
    56
 73
    52
 74
     0
 42
0.0000000001
 43
0.0000000001
 12
1.0
 22
0.0
 32
0.0
 13
1.0
 23
0.0
 33
0.0
 40
0.0
 40
0.0
 40
0.0
 40
0.0
 40
1.0
 40
1.0
 40
1.0
 40
2.0
 40
2.0
 40
2.0
 40
3.0
 40
3.0
 40
3.0
 40
4.0
 40
4.0
 40
4.0
 40
5.0
 40
5.0
 40
5.0
 40
6.0
 40
6.0
 40
6.0
 40
7.0
 40
7.0
 40
7.0
 40
8.0
 40
8.0
 40
8.0
 40
9.0
 40
9.0
 40
9.0
 40
10.0
 40
10.0
 40
10.0
 40
11.0
 40
11.0
 40
11.0
 40
12.0
 40
12.0
 40
12.0
 40
13.0
 40
13.0
 40
13.0
 40
14.0
 40
14.0
 40
14.0
 40
15.0
 40
15.0
 40
15.0
 40
16.0
 40
16.0
 40
16.0
 40
17.0
 40
17.0
 40
17.0
 40
17.0
 10
1.014385865459114
 20
-1.071431447342977
 30
0.0
 10
1.014385865459114
 20
-1.071431447342977
 30
0.0
 10
0.9610639669123076
 20
-1.014414077082114
 30
0.0
 10
0.9610639669123076
 20
-1.014414077082114
 30
0.0
 10
0.9610639669123076
 20
-1.014414077082114
 30
0.0
 10
0.9641728051159992
 20
-1.004536063090983
 30
0.0
 10
0.9641728051159992
 20
-1.004536063090983
 30
0.0
 10
0.9641728051159992
 20
-1.004536063090983
 30
0.0
 10
0.9465961578882292
 20
-0.9918930995056598
 30
0.0
 10
0.9465961578882292
 20
-0.9918930995056598
 30
0.0
 10
0.9465961578882292
 20
-0.9918930995056598
 30
0.0
 10
0.9365169211503649
 20
-0.9917898264557657
 30
0.0
 10
0.9365169211503649
 20
-0.9917898264557657
 30
0.0
 10
0.9365169211503649
 20
-0.9917898264557657
 30
0.0
 10
0.9279026711824624
 20
-0.9795620844113525
 30
0.0
 10
0.9279026711824624
 20
-0.9795620844113525
 30
0.0
 10
0.9279026711824624
 20
-0.9795620844113525
 30
0.0
 10
0.92300518634099
 20
-0.9576032529210654
 30
0.0
 10
0.9385334073003074
 20
-0.9329827448864813
 30
0.0
 10
0.9550177024743283
 20
-0.9068866033757734
 30
0.0
 10
1.064719233582006
 20
-0.7324264819458727
 30
0.0
 10
1.074949653547568
 20
-0.716212613108736
 30
0.0
 10
1.08518007351318
 20
-0.7000136496602761
 30
0.0
 10
1.10169098545263
 20
-0.7104314516545855
 30
0.0
 10
1.10169098545263
 20
-0.7104314516545855
 30
0.0
 10
1.10169098545263
 20
-0.7104314516545855
 30
0.0
 10
1.117224529765028
 20
-0.7218266212759469
 30
0.0
 10
1.117224529765028
 20
-0.7218266212759469
 30
0.0
 10
1.117224529765028
 20
-0.7218266212759469
 30
0.0
 10
1.115269794510899
 20
-0.7306697754266275
 30
0.0
 10
1.115269794510899
 20
-0.7306697754266275
 30
0.0
 10
1.115269794510899
 20
-0.7306697754266275
 30
0.0
 10
1.12961836042579
 20
-0.7388049236165494
 30
0.0
 10
1.12961836042579
 20
-0.7388049236165494
 30
0.0
 10
1.12961836042579
 20
-0.7388049236165494
 30
0.0
 10
1.142094170724148
 20
-0.7357439955906354
 30
0.0
 10
1.142094170724148
 20
-0.7357439955906354
 30
0.0
 10
1.142094170724148
 20
-0.7357439955906354
 30
0.0
 10
1.204124010253205
 20
-0.7687179092917581
 30
0.0
 10
1.204124010253205
 20
-0.7687179092917581
 30
0.0
 10
1.204124010253205
 20
-0.7687179092917581
 30
0.0
 10
1.217556959436858
 20
-0.7827225865971235
 30
0.0
 10
1.208449766972939
 20
-0.7971286447253886
 30
0.0
 10
1.200879958881008
 20
-0.8091210945632762
 30
0.0
 10
1.033881049140013
 20
-1.078252791990659
 30
0.0
 10
1.033881049140013
 20
-1.078252791990659
 30
0.0
 10
1.033881049140013
 20
-1.078252791990659
 30
0.0
 10
1.029805490015406
 20
-1.092870719571844
 30
0.0
 10
1.007372880100244
 20
-1.084698307910281
 30
0.0
 10
1.012587636785813
 20
-1.076381101044717
 30
0.0
 10
1.014385865459114
 20
-1.071431447342977
 30
0.0
 10
1.014385865459114
 20
-1.071431447342977
 30
0.0
  0
HATCH
  5
12B
330
1F
100
AcDbEntity
  8
LSCZ-Color
 62
   254
420
 13358815
100
AcDbHatch
 10
0.0
 20
0.0
 30
0.0
210
0.0
220
0.0
230
1.0
  2
SOLID
 70
     1
 71
     0
 91
        1
 92
        1
 93
        1
 72
     4
 94
        3
 73
     0
 74
     1
 95
       56
 96
       52
 40
0.0
 40
0.0
 40
0.0
 40
0.0
 40
1.0
 40
1.0
 40
1.0
 40
2.0
 40
2.0
 40
2.0
 40
3.0
 40
3.0
 40
3.0
 40
4.0
 40
4.0
 40
4.0
 40
5.0
 40
5.0
 40
5.0
 40
6.0
 40
6.0
 40
6.0
 40
7.0
 40
7.0
 40
7.0
 40
8.0
 40
8.0
 40
8.0
 40
9.0
 40
9.0
 40
9.0
 40
10.0
 40
10.0
 40
10.0
 40
11.0
 40
11.0
 40
11.0
 40
12.0
 40
12.0
 40
12.0
 40
13.0
 40
13.0
 40
13.0
 40
14.0
 40
14.0
 40
14.0
 40
15.0
 40
15.0
 40
15.0
 40
16.0
 40
16.0
 40
16.0
 40
17.0
 40
17.0
 40
17.0
 40
17.0
 10
1.014385865459114
 20
-1.071431447342977
 10
1.014385865459114
 20
-1.071431447342977
 10
0.9610639669123076
 20
-1.014414077082114
 10
0.9610639669123076
 20
-1.014414077082114
 10
0.9610639669123076
 20
-1.014414077082114
 10
0.9641728051159992
 20
-1.004536063090983
 10
0.9641728051159992
 20
-1.004536063090983
 10
0.9641728051159992
 20
-1.004536063090983
 10
0.9465961578882292
 20
-0.9918930995056598
 10
0.9465961578882292
 20
-0.9918930995056598
 10
0.9465961578882292
 20
-0.9918930995056598
 10
0.9365169211503649
 20
-0.9917898264557657
 10
0.9365169211503649
 20
-0.9917898264557657
 10
0.9365169211503649
 20
-0.9917898264557657
 10
0.9279026711824624
 20
-0.9795620844113525
 10
0.9279026711824624
 20
-0.9795620844113525
 10
0.9279026711824624
 20
-0.9795620844113525
 10
0.92300518634099
 20
-0.9576032529210654
 10
0.9385334073003074
 20
-0.9329827448864813
 10
0.9550177024743283
 20
-0.9068866033757734
 10
1.064719233582006
 20
-0.7324264819458727
 10
1.074949653547568
 20
-0.716212613108736
 10
1.08518007351318
 20
-0.7000136496602761
 10
1.10169098545263
 20
-0.7104314516545855
 10
1.10169098545263
 20
-0.7104314516545855
 10
1.10169098545263
 20
-0.7104314516545855
 10
1.117224529765028
 20
-0.7218266212759469
 10
1.117224529765028
 20
-0.7218266212759469
 10
1.117224529765028
 20
-0.7218266212759469
 10
1.115269794510899
 20
-0.7306697754266275
 10
1.115269794510899
 20
-0.7306697754266275
 10
1.115269794510899
 20
-0.7306697754266275
 10
1.12961836042579
 20
-0.7388049236165494
 10
1.12961836042579
 20
-0.7388049236165494
 10
1.12961836042579
 20
-0.7388049236165494
 10
1.142094170724148
 20
-0.7357439955906354
 10
1.142094170724148
 20
-0.7357439955906354
 10
1.142094170724148
 20
-0.7357439955906354
 10
1.204124010253205
 20
-0.7687179092917581
 10
1.204124010253205
 20
-0.7687179092917581
 10
1.204124010253205
 20
-0.7687179092917581
 10
1.217556959436858
 20
-0.7827225865971235
 10
1.208449766972939
 20
-0.7971286447253886
 10
1.200879958881008
 20
-0.8091210945632762
 10
1.033881049140013
 20
-1.078252791990659
 10
1.033881049140013
 20
-1.078252791990659
 10
1.033881049140013
 20
-1.078252791990659
 10
1.029805490015406
 20
-1.092870719571844
 10
1.007372880100244
 20
-1.084698307910281
 10
1.012587636785813
 20
-1.076381101044717
 10
1.014385865459114
 20
-1.071431447342977
 10
1.014385865459114
 20
-1.071431447342977
 97
        0
 97
        0
 75
     2
 76
     1
 98
        0
  0
POLYLINE
  5
12C
330
1F
100
AcDbEntity
  8
LSCZ-Color
370
     0
100
AcDb2dPolyline
 66
     1
 10
0.0
 20
0.0
 30
0.0
  0
VERTEX
  5
12D
330
12C
100
AcDbEntity
  8
LSCZ-Color
370
     0
100
AcDbVertex
100
AcDb2dVertex
 10
1.095119838400125
 20
0.3827584978927865
 30
0.0
  0
VERTEX
  5
12E
330
12C
100
AcDbEntity
  8
LSCZ-Color
370
     0
100
AcDbVertex
100
AcDb2dVertex
 10
1.095119838400125
 20
0.3894020425473046
 30
0.0
  0
VERTEX
  5
12F
330
12C
100
AcDbEntity
  8
LSCZ-Color
370
     0
100
AcDbVertex
100
AcDb2dVertex
 10
1.105953926605935
 20
0.3982813954990105
 30
0.0
  0
VERTEX
  5
130
330
12C
100
AcDbEntity
  8
LSCZ-Color
370
     0
100
AcDbVertex
100
AcDb2dVertex
 10
1.123525250480624
 20
0.4052113365496931
 30
0.0
  0
VERTEX
  5
131
330
12C
100
AcDbEntity
  8
LSCZ-Color
370
     0
100
AcDbVertex
100
AcDb2dVertex
 10
1.269397901154409
 20
0.3617983274419126
 30
0.0
  0
VERTEX
  5
132
330
12C
100
AcDbEntity
  8
LSCZ-Color
370
     0
100
AcDbVertex
100
AcDb2dVertex
 10
1.286439019061491
 20
0.3419241210211162
 30
0.0
  0
VERTEX
  5
133
330
12C
100
AcDbEntity
  8
LSCZ-Color
370
     0
100
AcDbVertex
100
AcDb2dVertex
 10
1.286439019061491
 20
0.323135878630372
 30
0.0
  0
SEQEND
  5
135
330
12C
100
AcDbEntity
  8
LSCZ-Color
370
     0
  0
HATCH
  5
134
330
1F
100
AcDbEntity
  8
LSCZ-Color
 62
   254
420
 13358815
100
AcDbHatch
 10
0.0
 20
0.0
 30
0.0
210
0.0
220
0.0
230
1.0
  2
SOLID
 70
     1
 71
     0
 91
        1
 92
        1
 93
        7
 72
     1
 10
1.095119838400125
 20
0.3827584978927865
 11
1.095119838400125
 21
0.3894020425473046
 72
     1
 10
1.095119838400125
 20
0.3894020425473046
 11
1.105953926605935
 21
0.3982813954990105
 72
     1
 10
1.105953926605935
 20
0.3982813954990105
 11
1.123525250480624
 21
0.4052113365496931
 72
     1
 10
1.123525250480624
 20
0.4052113365496931
 11
1.269397901154409
 21
0.3617983274419126
 72
     1
 10
1.269397901154409
 20
0.3617983274419126
 11
1.286439019061491
 21
0.3419241210211162
 72
     1
 10
1.286439019061491
 20
0.3419241210211162
 11
1.286439019061491
 21
0.323135878630372
 72
     1
 10
1.286439019061491
 20
0.323135878630372
 11
1.095119838400125
 21
0.3827584978927865
 97
        0
 75
     2
 76
     1
 98
        0
  0
SPLINE
  5
137
330
1F
100
AcDbEntity
  8
LSCZ-Line Art
 62
     7
420
 16777215
370
    20
100
AcDbSpline
210
0.0
220
0.0
230
1.0
 70
    11
 71
     3
 72
    59
 73
    55
 74
     0
 42
0.0000000001
 43
0.0000000001
 12
1.0
 22
0.0
 32
0.0
 13
1.0
 23
0.0
 33
0.0
 40
0.0
 40
0.0
 40
0.0
 40
0.0
 40
1.0
 40
1.0
 40
1.0
 40
2.0
 40
2.0
 40
2.0
 40
3.0
 40
3.0
 40
3.0
 40
4.0
 40
4.0
 40
4.0
 40
5.0
 40
5.0
 40
5.0
 40
6.0
 40
6.0
 40
6.0
 40
7.0
 40
7.0
 40
7.0
 40
8.0
 40
8.0
 40
8.0
 40
9.0
 40
9.0
 40
9.0
 40
10.0
 40
10.0
 40
10.0
 40
11.0
 40
11.0
 40
11.0
 40
12.0
 40
12.0
 40
12.0
 40
13.0
 40
13.0
 40
13.0
 40
14.0
 40
14.0
 40
14.0
 40
15.0
 40
15.0
 40
15.0
 40
16.0
 40
16.0
 40
16.0
 40
17.0
 40
17.0
 40
17.0
 40
18.0
 40
18.0
 40
18.0
 40
18.0
 10
1.286386850201224
 20
0.1001480704451801
 30
0.0
 10
1.286386850201224
 20
0.1001480704451801
 30
0.0
 10
1.209739083091007
 20
0.0572642026344031
 30
0.0
 10
1.209739083091007
 20
0.0572642026344031
 30
0.0
 10
1.209739083091007
 20
0.0572642026344031
 30
0.0
 10
1.207887620886797
 20
0.0496539370590199
 30
0.0
 10
1.207887620886797
 20
0.0496539370590199
 30
0.0
 10
1.207887620886797
 20
0.0496539370590199
 30
0.0
 10
1.187030723485855
 20
0.0383939806061006
 30
0.0
 10
1.187030723485855
 20
0.0383939806061006
 30
0.0
 10
1.187030723485855
 20
0.0383939806061006
 30
0.0
 10
1.177798964559669
 20
0.042656921759418
 30
0.0
 10
1.177798964559669
 20
0.042656921759418
 30
0.0
 10
1.177798964559669
 20
0.042656921759418
 30
0.0
 10
1.16501014109973
 20
0.0362678333825417
 30
0.0
 10
1.16501014109973
 20
0.0362678333825417
 30
0.0
 10
1.16501014109973
 20
0.0362678333825417
 30
0.0
 10
1.149040081834048
 20
0.0312979509390566
 30
0.0
 10
1.149040081834048
 20
0.0021962442745512
 30
0.0
 10
1.149040081834048
 20
-0.0286781389684418
 30
0.0
 10
1.149040081834048
 20
-0.2320316110230023
 30
0.0
 10
1.149040081834048
 20
-0.2511935528005501
 30
0.0
 10
1.149040081834048
 20
-0.2703607114641373
 30
0.0
 10
1.168566140962892
 20
-0.2703607114641373
 30
0.0
 10
1.168566140962892
 20
-0.2703607114641373
 30
0.0
 10
1.168566140962892
 20
-0.2703607114641373
 30
0.0
 10
1.174242964696532
 20
-0.2703087555379903
 30
0.0
 10
1.174242964696532
 20
-0.2703087555379903
 30
0.0
 10
1.174242964696532
 20
-0.2703087555379903
 30
0.0
 10
1.189006752152333
 20
-0.2690143290009751
 30
0.0
 10
1.189006752152333
 20
-0.2690143290009751
 30
0.0
 10
1.189006752152333
 20
-0.2690143290009751
 30
0.0
 10
1.190857149685902
 20
-0.2604990934005273
 30
0.0
 10
1.190857149685902
 20
-0.2604990934005273
 30
0.0
 10
1.190857149685902
 20
-0.2604990934005273
 30
0.0
 10
1.207555443654074
 20
-0.2592981449437528
 30
0.0
 10
1.207555443654074
 20
-0.2592981449437528
 30
0.0
 10
1.207555443654074
 20
-0.2592981449437528
 30
0.0
 10
1.218202149831187
 20
-0.267397520200916
 30
0.0
 10
1.218202149831187
 20
-0.267397520200916
 30
0.0
 10
1.218202149831187
 20
-0.267397520200916
 30
0.0
 10
1.289234844103602
 20
-0.2568704830012444
 30
0.0
 10
1.289234844103602
 20
-0.2568704830012444
 30
0.0
 10
1.289234844103602
 20
-0.2568704830012444
 30
0.0
 10
1.306266379975114
 20
-0.2504813946243681
 30
0.0
 10
1.306266379975114
 20
-0.2362892288232135
 30
0.0
 10
1.306266379975114
 20
-0.2220970630220715
 30
0.0
 10
1.306266379975114
 20
0.1001480704451801
 30
0.0
 10
1.306266379975114
 20
0.1001480704451801
 30
0.0
 10
1.306266379975114
 20
0.1001480704451801
 30
0.0
 10
1.306973321265281
 20
0.1136331884891004
 30
0.0
 10
1.287384446570033
 20
0.1200222768659766
 30
0.0
 10
1.287384446570033
 20
0.1100825119790443
 30
0.0
 10
1.286386850201224
 20
0.1001480704451801
 30
0.0
 10
1.286386850201224
 20
0.1001480704451801
 30
0.0
  0
SPLINE
  5
138
330
1F
100
AcDbEntity
  8
LSCZ-Line Art
 62
     7
420
 16777215
370
    13
100
AcDbSpline
210
0.0
220
0.0
230
1.0
 70
     8
 71
     3
 72
    32
 73
    28
 74
     0
 42
0.0000000001
 43
0.0000000001
 12
1.0
 22
0.0
 32
0.0
 13
1.0
 23
0.0
 33
0.0
 40
0.0
 40
0.0
 40
0.0
 40
0.0
 40
1.0
 40
1.0
 40
1.0
 40
2.0
 40
2.0
 40
2.0
 40
3.0
 40
3.0
 40
3.0
 40
4.0
 40
4.0
 40
4.0
 40
5.0
 40
5.0
 40
5.0
 40
6.0
 40
6.0
 40
6.0
 40
7.0
 40
7.0
 40
7.0
 40
8.0
 40
8.0
 40
8.0
 40
9.0
 40
9.0
 40
9.0
 40
9.0
 10
1.16326301661608
 20
-0.2675222995973172
 30
0.0
 10
1.161432847824219
 20
-0.2648294282039387
 30
0.0
 10
1.160216993978793
 20
-0.2612372295397891
 30
0.0
 10
1.160216993978793
 20
-0.2564545161909059
 30
0.0
 10
1.160216993978793
 20
-0.2372925744133454
 30
0.0
 10
1.160216993978793
 20
-0.0339397411611597
 30
0.0
 10
1.160216993978793
 20
-0.0030653579181793
 30
0.0
 10
1.160216993978793
 20
0.0263280684955842
 30
0.0
 10
1.174949905986674
 20
0.0291718037154851
 30
0.0
 10
1.174949905986674
 20
0.0291718037154851
 30
0.0
 10
1.174949905986674
 20
0.0291718037154851
 30
0.0
 10
1.187737664775998
 20
0.035560892092374
 30
0.0
 10
1.187737664775998
 20
0.035560892092374
 30
0.0
 10
1.187737664775998
 20
0.035560892092374
 30
0.0
 10
1.191252142485079
 20
0.0276535834146393
 30
0.0
 10
1.191252142485079
 20
0.0276535834146393
 30
0.0
 10
1.191252142485079
 20
0.0276535834146393
 30
0.0
 10
1.217827385773742
 20
0.0425579073919759
 30
0.0
 10
1.217827385773742
 20
0.0425579073919759
 30
0.0
 10
1.217827385773742
 20
0.0425579073919759
 30
0.0
 10
1.21967778330731
 20
0.0501681729673591
 30
0.0
 10
1.21967778330731
 20
0.0501681729673591
 30
0.0
 10
1.21967778330731
 20
0.0501681729673591
 30
0.0
 10
1.289942850064386
 20
0.0887890996248315
 30
0.0
 10
1.289942850064386
 20
0.0887890996248315
 30
0.0
 10
1.289942850064386
 20
0.0887890996248315
 30
0.0
 10
1.311236262418586
 20
0.0973043352252792
 30
0.0
 10
1.301296497531641
 20
0.1100825119790443
 30
0.0
  0
SPLINE
  5
139
330
1F
100
AcDbEntity
  8
LSCZ-Line Art
 62
     7
420
 16777215
370
    18
100
AcDbSpline
210
0.0
220
0.0
230
1.0
 70
    11
 71
     3
 72
    20
 73
    16
 74
     0
 42
0.0000000001
 43
0.0000000001
 12
1.0
 22
0.0
 32
0.0
 13
1.0
 23
0.0
 33
0.0
 40
0.0
 40
0.0
 40
0.0
 40
0.0
 40
1.0
 40
1.0
 40
1.0
 40
2.0
 40
2.0
 40
2.0
 40
3.0
 40
3.0
 40
3.0
 40
4.0
 40
4.0
 40
4.0
 40
5.0
 40
5.0
 40
5.0
 40
5.0
 10
1.209634745370471
 20
-0.0075880787022066
 30
0.0
 10
1.209634745370471
 20
-0.020922013518417
 30
0.0
 10
1.201130156476211
 20
-0.0317348083118911
 30
0.0
 10
1.190660185621608
 20
-0.0317348083118911
 30
0.0
 10
1.18688592828183
 20
-0.0317348083118911
 30
0.0
 10
1.180917384798956
 20
-0.0291146539217001
 30
0.0
 10
1.177965053176043
 20
-0.0267084983256735
 30
0.0
 10
1.172703450983312
 20
-0.0224093583713562
 30
0.0
 10
1.171684561202154
 20
-0.0161288663974801
 30
0.0
 10
1.171684561202154
 20
-0.0075880787022066
 30
0.0
 10
1.171684561202154
 20
0.00574692078462
 30
0.0
 10
1.180179568060895
 20
0.0165597155780941
 30
0.0
 10
1.190660185621608
 20
0.0165597155780941
 30
0.0
 10
1.201130156476211
 20
0.0165597155780941
 30
0.0
 10
1.209634745370471
 20
0.00574692078462
 30
0.0
 10
1.209634745370471
 20
-0.0075880787022066
 30
0.0
  0
SPLINE
  5
13A
330
1F
100
AcDbEntity
  8
LSCZ-Line Art
 62
     7
420
 16777215
370
     9
100
AcDbSpline
210
0.0
220
0.0
230
1.0
 70
     8
 71
     3
 72
    11
 73
     7
 74
     0
 42
0.0000000001
 43
0.0000000001
 12
1.0
 22
0.0
 32
0.0
 13
1.0
 23
0.0
 33
0.0
 40
0.0
 40
0.0
 40
0.0
 40
0.0
 40
1.0
 40
1.0
 40
1.0
 40
2.0
 40
2.0
 40
2.0
 40
2.0
 10
1.198021318272468
 20
-0.0292402850545841
 30
0.0
 10
1.18861175935313
 20
-0.0321095723693235
 30
0.0
 10
1.180938678211305
 20
-0.0225648002815433
 30
0.0
 10
1.180938678211305
 20
-0.0105670270905623
 30
0.0
 10
1.180938678211305
 20
0.0014371341241283
 30
0.0
 10
1.188590465940807
 20
0.0111682235700022
 30
0.0
 10
1.198021318272468
 20
0.0111682235700022
 30
0.0
  0
SPLINE
  5
13B
330
1F
100
AcDbEntity
  8
LSCZ-Line Art
 62
     7
420
 16777215
370
    18
100
AcDbSpline
210
0.0
220
0.0
230
1.0
 70
    11
 71
     3
 72
    20
 73
    16
 74
     0
 42
0.0000000001
 43
0.0000000001
 12
1.0
 22
0.0
 32
0.0
 13
1.0
 23
0.0
 33
0.0
 40
0.0
 40
0.0
 40
0.0
 40
0.0
 40
1.0
 40
1.0
 40
1.0
 40
2.0
 40
2.0
 40
2.0
 40
3.0
 40
3.0
 40
3.0
 40
4.0
 40
4.0
 40
4.0
 40
5.0
 40
5.0
 40
5.0
 40
5.0
 10
1.227538246477909
 20
-0.0760847275632462
 30
0.0
 10
1.227538246477909
 20
-0.0894186623794566
 30
0.0
 10
1.219023010877436
 20
-0.1002314571729307
 30
0.0
 10
1.208553040022859
 20
-0.1002314571729307
 30
0.0
 10
1.204789429389267
 20
-0.1002314571729307
 30
0.0
 10
1.198811303870823
 20
-0.0976113027827397
 30
0.0
 10
1.195857907577293
 20
-0.0952051471867132
 30
0.0
 10
1.190608016761366
 20
-0.0909060072323958
 30
0.0
 10
1.189578480274021
 20
-0.0846255152585197
 30
0.0
 10
1.189578480274021
 20
-0.0760847275632462
 30
0.0
 10
1.189578480274021
 20
-0.0627497280764197
 30
0.0
 10
1.19807242246212
 20
-0.0519369332829456
 30
0.0
 10
1.208553040022859
 20
-0.0519369332829456
 30
0.0
 10
1.219023010877436
 20
-0.0519369332829456
 30
0.0
 10
1.227538246477909
 20
-0.0627497280764197
 30
0.0
 10
1.227538246477909
 20
-0.0760847275632462
 30
0.0
  0
SPLINE
  5
13C
330
1F
100
AcDbEntity
  8
LSCZ-Line Art
 62
     7
420
 16777215
370
     9
100
AcDbSpline
210
0.0
220
0.0
230
1.0
 70
     8
 71
     3
 72
    11
 73
     7
 74
     0
 42
0.0000000001
 43
0.0000000001
 12
1.0
 22
0.0
 32
0.0
 13
1.0
 23
0.0
 33
0.0
 40
0.0
 40
0.0
 40
0.0
 40
0.0
 40
1.0
 40
1.0
 40
1.0
 40
2.0
 40
2.0
 40
2.0
 40
2.0
 10
1.215914172673719
 20
-0.0977369339156363
 30
0.0
 10
1.206495031718835
 20
-0.1006062212303505
 30
0.0
 10
1.198842179318717
 20
-0.0910614491425829
 30
0.0
 10
1.198842179318717
 20
-0.0790636759516019
 30
0.0
 10
1.198842179318717
 20
-0.0670595147369113
 30
0.0
 10
1.206473738306461
 20
-0.0573273606204212
 30
0.0
 10
1.215914172673719
 20
-0.0573273606204212
 30
0.0
  0
SPLINE
  5
13D
330
1F
100
AcDbEntity
  8
LSCZ-Line Art
 62
     7
420
 16777215
370
    18
100
AcDbSpline
210
0.0
220
0.0
230
1.0
 70
    11
 71
     3
 72
    20
 73
    16
 74
     0
 42
0.0000000001
 43
0.0000000001
 12
1.0
 22
0.0
 32
0.0
 13
1.0
 23
0.0
 33
0.0
 40
0.0
 40
0.0
 40
0.0
 40
0.0
 40
1.0
 40
1.0
 40
1.0
 40
2.0
 40
2.0
 40
2.0
 40
3.0
 40
3.0
 40
3.0
 40
4.0
 40
4.0
 40
4.0
 40
5.0
 40
5.0
 40
5.0
 40
5.0
 10
1.216038739135987
 20
-0.1460367811586896
 30
0.0
 10
1.216038739135987
 20
-0.1593707159749
 30
0.0
 10
1.207534150241726
 20
-0.1701835107683741
 30
0.0
 10
1.197053532680962
 20
-0.1701835107683741
 30
0.0
 10
1.19328992204737
 20
-0.1701835107683741
 30
0.0
 10
1.187322443235113
 20
-0.1675644210487993
 30
0.0
 10
1.184369046941558
 20
-0.1651572007821566
 30
0.0
 10
1.179108509419469
 20
-0.1608580608278392
 30
0.0
 10
1.178089619638311
 20
-0.1545775688539632
 30
0.0
 10
1.178089619638311
 20
-0.1460367811586896
 30
0.0
 10
1.178089619638311
 20
-0.1327017816718631
 30
0.0
 10
1.186573979790839
 20
-0.1218889868784016
 30
0.0
 10
1.197053532680962
 20
-0.1218889868784016
 30
0.0
 10
1.207534150241726
 20
-0.1218889868784016
 30
0.0
 10
1.216038739135987
 20
-0.1327017816718631
 30
0.0
 10
1.216038739135987
 20
-0.1460367811586896
 30
0.0
  0
SPLINE
  5
13E
330
1F
100
AcDbEntity
  8
LSCZ-Line Art
 62
     7
420
 16777215
370
     9
100
AcDbSpline
210
0.0
220
0.0
230
1.0
 70
     8
 71
     3
 72
    11
 73
     7
 74
     0
 42
0.0000000001
 43
0.0000000001
 12
1.0
 22
0.0
 32
0.0
 13
1.0
 23
0.0
 33
0.0
 40
0.0
 40
0.0
 40
0.0
 40
0.0
 40
1.0
 40
1.0
 40
1.0
 40
2.0
 40
2.0
 40
2.0
 40
2.0
 10
1.204415730002438
 20
-0.1676889875110798
 30
0.0
 10
1.194995524376938
 20
-0.1705582748258065
 30
0.0
 10
1.187342671976845
 20
-0.1610135027380263
 30
0.0
 10
1.187342671976845
 20
-0.1490157295470453
 30
0.0
 10
1.187342671976845
 20
-0.1370115683323674
 30
0.0
 10
1.194984877670777
 20
-0.1272804788864808
 30
0.0
 10
1.204415730002438
 20
-0.1272804788864808
 30
0.0
  0
SPLINE
  5
13F
330
1F
100
AcDbEntity
  8
LSCZ-Line Art
 62
     7
420
 16777215
370
    18
100
AcDbSpline
210
0.0
220
0.0
230
1.0
 70
    11
 71
     3
 72
    20
 73
    16
 74
     0
 42
0.0000000001
 43
0.0000000001
 12
1.0
 22
0.0
 32
0.0
 13
1.0
 23
0.0
 33
0.0
 40
0.0
 40
0.0
 40
0.0
 40
0.0
 40
1.0
 40
1.0
 40
1.0
 40
2.0
 40
2.0
 40
2.0
 40
3.0
 40
3.0
 40
3.0
 40
4.0
 40
4.0
 40
4.0
 40
5.0
 40
5.0
 40
5.0
 40
5.0
 10
1.208657377743394
 20
-0.2185516033980295
 30
0.0
 10
1.208657377743394
 20
-0.231886070549548
 30
0.0
 10
1.200142142142946
 20
-0.2426990782771428
 30
0.0
 10
1.189672171288395
 20
-0.2426990782771428
 30
0.0
 10
1.185908560654777
 20
-0.2426990782771428
 30
0.0
 10
1.179929370465718
 20
-0.2400790303540311
 30
0.0
 10
1.176977038842829
 20
-0.2376720230215091
 30
0.0
 10
1.17172608335626
 20
-0.2333727766001251
 30
0.0
 10
1.170697611539531
 20
-0.2270929234286111
 30
0.0
 10
1.170697611539531
 20
-0.2185516033980295
 30
0.0
 10
1.170697611539531
 20
-0.2052122387616717
 30
0.0
 10
1.179191553727631
 20
-0.1944037026506749
 30
0.0
 10
1.189672171288395
 20
-0.1944037026506749
 30
0.0
 10
1.200142142142946
 20
-0.1944037026506749
 30
0.0
 10
1.208657377743394
 20
-0.2052122387616717
 30
0.0
 10
1.208657377743394
 20
-0.2185516033980295
 30
0.0
  0
SPLINE
  5
140
330
1F
100
AcDbEntity
  8
LSCZ-Line Art
 62
     7
420
 16777215
370
     9
100
AcDbSpline
210
0.0
220
0.0
230
1.0
 70
     8
 71
     3
 72
    11
 73
     7
 74
     0
 42
0.0000000001
 43
0.0000000001
 12
1.0
 22
0.0
 32
0.0
 13
1.0
 23
0.0
 33
0.0
 40
0.0
 40
0.0
 40
0.0
 40
0.0
 40
1.0
 40
1.0
 40
1.0
 40
2.0
 40
2.0
 40
2.0
 40
2.0
 10
1.197033303939255
 20
-0.2402038097504197
 30
0.0
 10
1.187613098313755
 20
-0.2430734164663338
 30
0.0
 10
1.179961310584228
 20
-0.2335287508456203
 30
0.0
 10
1.179961310584228
 20
-0.2215304453193185
 30
0.0
 10
1.179961310584228
 20
-0.2095269229070153
 30
0.0
 10
1.187592869571997
 20
-0.1997951946587667
 30
0.0
 10
1.197033303939255
 20
-0.1997951946587667
 30
0.0
  0
SPLINE
  5
141
330
1F
100
AcDbEntity
  8
LSCZ-Line Art
 62
     7
420
 16777215
370
    18
100
AcDbSpline
210
0.0
220
0.0
230
1.0
 70
    11
 71
     3
 72
    20
 73
    16
 74
     0
 42
0.0000000001
 43
0.0000000001
 12
1.0
 22
0.0
 32
0.0
 13
1.0
 23
0.0
 33
0.0
 40
0.0
 40
0.0
 40
0.0
 40
0.0
 40
1.0
 40
1.0
 40
1.0
 40
2.0
 40
2.0
 40
2.0
 40
3.0
 40
3.0
 40
3.0
 40
4.0
 40
4.0
 40
4.0
 40
5.0
 40
5.0
 40
5.0
 40
5.0
 10
1.113855911930588
 20
-0.7670336003745635
 30
0.0
 10
1.113855911930588
 20
-0.7803685998613521
 30
0.0
 10
1.105351323036302
 20
-0.7911813946548641
 30
0.0
 10
1.09488135218175
 20
-0.7911813946548641
 30
0.0
 10
1.091107094841947
 20
-0.7911813946548641
 30
0.0
 10
1.085138551359099
 20
-0.7885612402646478
 30
0.0
 10
1.082186219736185
 20
-0.786148696644937
 30
0.0
 10
1.076924617543429
 20
-0.7818602033967939
 30
0.0
 10
1.075905727762296
 20
-0.7755807760935214
 30
0.0
 10
1.075905727762296
 20
-0.7670336003745635
 30
0.0
 10
1.075905727762296
 20
-0.7536943422052597
 30
0.0
 10
1.084400734620987
 20
-0.7428911294473437
 30
0.0
 10
1.09488135218175
 20
-0.7428911294473437
 30
0.0
 10
1.105351323036302
 20
-0.7428911294473437
 30
0.0
 10
1.113855911930588
 20
-0.7536943422052597
 30
0.0
 10
1.113855911930588
 20
-0.7670336003745635
 30
0.0
  0
SPLINE
  5
142
330
1F
100
AcDbEntity
  8
LSCZ-Line Art
 62
     7
420
 16777215
370
     9
100
AcDbSpline
210
0.0
220
0.0
230
1.0
 70
     8
 71
     3
 72
    11
 73
     7
 74
     0
 42
0.0000000001
 43
0.0000000001
 12
1.0
 22
0.0
 32
0.0
 13
1.0
 23
0.0
 33
0.0
 40
0.0
 40
0.0
 40
0.0
 40
0.0
 40
1.0
 40
1.0
 40
1.0
 40
2.0
 40
2.0
 40
2.0
 40
2.0
 10
1.10224248483261
 20
-0.788685806726941
 30
0.0
 10
1.092832925913273
 20
-0.7915550940416425
 30
0.0
 10
1.085159844771422
 20
-0.7820060632714103
 30
0.0
 10
1.085159844771422
 20
-0.7700125487629066
 30
0.0
 10
1.085159844771422
 20
-0.7580094522188321
 30
0.0
 10
1.092811632500924
 20
-0.748277298102342
 30
0.0
 10
1.10224248483261
 20
-0.748277298102342
 30
0.0
  0
SPLINE
  5
143
330
1F
100
AcDbEntity
  8
LSCZ-Line Art
 62
     7
420
 16777215
370
    18
100
AcDbSpline
210
0.0
220
0.0
230
1.0
 70
    11
 71
     3
 72
    20
 73
    16
 74
     0
 42
0.0000000001
 43
0.0000000001
 12
1.0
 22
0.0
 32
0.0
 13
1.0
 23
0.0
 33
0.0
 40
0.0
 40
0.0
 40
0.0
 40
0.0
 40
1.0
 40
1.0
 40
1.0
 40
2.0
 40
2.0
 40
2.0
 40
3.0
 40
3.0
 40
3.0
 40
4.0
 40
4.0
 40
4.0
 40
5.0
 40
5.0
 40
5.0
 40
5.0
 10
1.085565484276786
 20
-0.8295308303047729
 30
0.0
 10
1.085565484276786
 20
-0.8428807351802636
 30
0.0
 10
1.077050248676338
 20
-0.8536945946443666
 30
0.0
 10
1.066584536504226
 20
-0.8536945946443666
 30
0.0
 10
1.062815602517528
 20
-0.8536945946443666
 30
0.0
 10
1.056842800352165
 20
-0.8510744402541502
 30
0.0
 10
1.053890468729252
 20
-0.8486618966344395
 30
0.0
 10
1.048634189889627
 20
-0.8443787267394024
 30
0.0
 10
1.047609976755388
 20
-0.8380982347655137
 30
0.0
 10
1.047609976755388
 20
-0.8295308303047729
 30
0.0
 10
1.047609976755388
 20
-0.8161606966875752
 30
0.0
 10
1.056104983614104
 20
-0.8053574839296591
 30
0.0
 10
1.066584536504226
 20
-0.8053574839296591
 30
0.0
 10
1.077050248676338
 20
-0.8053574839296591
 30
0.0
 10
1.085565484276786
 20
-0.8161606966875752
 30
0.0
 10
1.085565484276786
 20
-0.8295308303047729
 30
0.0
  0
SPLINE
  5
144
330
1F
100
AcDbEntity
  8
LSCZ-Line Art
 62
     7
420
 16777215
370
     9
100
AcDbSpline
210
0.0
220
0.0
230
1.0
 70
     8
 71
     3
 72
    11
 73
     7
 74
     0
 42
0.0000000001
 43
0.0000000001
 12
1.0
 22
0.0
 32
0.0
 13
1.0
 23
0.0
 33
0.0
 40
0.0
 40
0.0
 40
0.0
 40
0.0
 40
1.0
 40
1.0
 40
1.0
 40
2.0
 40
2.0
 40
2.0
 40
2.0
 10
1.073946733825702
 20
-0.8511990067164434
 30
0.0
 10
1.064531851553284
 20
-0.8540682940311449
 30
0.0
 10
1.05686941711762
 20
-0.8445235219433773
 30
0.0
 10
1.05686941711762
 20
-0.832515102046222
 30
0.0
 10
1.05686941711762
 20
-0.8204747420305314
 30
0.0
 10
1.064510558140935
 20
-0.8107436525846575
 30
0.0
 10
1.073946733825702
 20
-0.8107436525846575
 30
0.0
  0
SPLINE
  5
145
330
1F
100
AcDbEntity
  8
LSCZ-Line Art
 62
     7
420
 16777215
370
    18
100
AcDbSpline
210
0.0
220
0.0
230
1.0
 70
    11
 71
     3
 72
    20
 73
    16
 74
     0
 42
0.0000000001
 43
0.0000000001
 12
1.0
 22
0.0
 32
0.0
 13
1.0
 23
0.0
 33
0.0
 40
0.0
 40
0.0
 40
0.0
 40
0.0
 40
1.0
 40
1.0
 40
1.0
 40
2.0
 40
2.0
 40
2.0
 40
3.0
 40
3.0
 40
3.0
 40
4.0
 40
4.0
 40
4.0
 40
5.0
 40
5.0
 40
5.0
 40
5.0
 10
1.053292123842109
 20
-0.8918726183248458
 30
0.0
 10
1.053292123842109
 20
-0.9052022944585789
 30
0.0
 10
1.044782211594742
 20
-0.9160150892520403
 30
0.0
 10
1.034359086247352
 20
-0.9160150892520403
 30
0.0
 10
1.03059547561376
 20
-0.9160150892520403
 30
0.0
 10
1.024621608777781
 20
-0.9133949348618746
 30
0.0
 10
1.021669277154868
 20
-0.9109823912421132
 30
0.0
 10
1.016412998315218
 20
-0.9066992213470763
 30
0.0
 10
1.015389849851595
 20
-0.9004187293731876
 30
0.0
 10
1.015389849851595
 20
-0.8918726183248458
 30
0.0
 10
1.015389849851595
 20
-0.8785227134493551
 30
0.0
 10
1.023878468686613
 20
-0.867730147397626
 30
0.0
 10
1.034359086247352
 20
-0.867730147397626
 30
0.0
 10
1.044782211594742
 20
-0.867730147397626
 30
0.0
 10
1.053292123842109
 20
-0.8785227134493551
 30
0.0
 10
1.053292123842109
 20
-0.8918726183248458
 30
0.0
  0
SPLINE
  5
146
330
1F
100
AcDbEntity
  8
LSCZ-Line Art
 62
     7
420
 16777215
370
     9
100
AcDbSpline
210
0.0
220
0.0
230
1.0
 70
     8
 71
     3
 72
    11
 73
     7
 74
     0
 42
0.0000000001
 43
0.0000000001
 12
1.0
 22
0.0
 32
0.0
 13
1.0
 23
0.0
 33
0.0
 40
0.0
 40
0.0
 40
0.0
 40
0.0
 40
1.0
 40
1.0
 40
1.0
 40
2.0
 40
2.0
 40
2.0
 40
2.0
 10
1.041689343450293
 20
-0.9135195013241425
 30
0.0
 10
1.032305336625793
 20
-0.9163887886388693
 30
0.0
 10
1.024648225543236
 20
-0.9068450812216926
 30
0.0
 10
1.024648225543236
 20
-0.8948462433601081
 30
0.0
 10
1.024648225543236
 20
-0.8828474054985236
 30
0.0
 10
1.032290431237167
 20
-0.8731163160526244
 30
0.0
 10
1.041689343450293
 20
-0.8731163160526244
 30
0.0
  0
SPLINE
  5
147
330
1F
100
AcDbEntity
  8
LSCZ-Line Art
 62
     7
420
 16777215
370
    18
100
AcDbSpline
210
0.0
220
0.0
230
1.0
 70
    11
 71
     3
 72
    20
 73
    16
 74
     0
 42
0.0000000001
 43
0.0000000001
 12
1.0
 22
0.0
 32
0.0
 13
1.0
 23
0.0
 33
0.0
 40
0.0
 40
0.0
 40
0.0
 40
0.0
 40
1.0
 40
1.0
 40
1.0
 40
2.0
 40
2.0
 40
2.0
 40
3.0
 40
3.0
 40
3.0
 40
4.0
 40
4.0
 40
4.0
 40
5.0
 40
5.0
 40
5.0
 40
5.0
 10
1.00407240118534
 20
-0.9441085528415745
 30
0.0
 10
1.00407240118534
 20
-0.9574371643046914
 30
0.0
 10
0.9955624889379981
 20
-0.9682499590981529
 30
0.0
 10
0.9850925180833958
 20
-0.9682499590981529
 30
0.0
 10
0.981322519426107
 20
-0.9682499590981529
 30
0.0
 10
0.9753497172607442
 20
-0.9656298047079872
 30
0.0
 10
0.9723973856378304
 20
-0.9632183257588672
 30
0.0
 10
0.967141106798206
 20
-0.9589340911931887
 30
0.0
 10
0.9661168936639417
 20
-0.9526546638899415
 30
0.0
 10
0.9661168936639417
 20
-0.9441085528415745
 30
0.0
 10
0.9661168936639417
 20
-0.9307575832954929
 30
0.0
 10
0.9746119005226824
 20
-0.9199660819143799
 30
0.0
 10
0.9850925180833958
 20
-0.9199660819143799
 30
0.0
 10
0.9955624889379981
 20
-0.9199660819143799
 30
0.0
 10
1.00407240118534
 20
-0.9307575832954929
 30
0.0
 10
1.00407240118534
 20
-0.9441085528415745
 30
0.0
  0
SPLINE
  5
148
330
1F
100
AcDbEntity
  8
LSCZ-Line Art
 62
     7
420
 16777215
370
     9
100
AcDbSpline
210
0.0
220
0.0
230
1.0
 70
     8
 71
     3
 72
    11
 73
     7
 74
     0
 42
0.0000000001
 43
0.0000000001
 12
1.0
 22
0.0
 32
0.0
 13
1.0
 23
0.0
 33
0.0
 40
0.0
 40
0.0
 40
0.0
 40
0.0
 40
1.0
 40
1.0
 40
1.0
 40
2.0
 40
2.0
 40
2.0
 40
2.0
 10
0.992453650734256
 20
-0.9657554358408712
 30
0.0
 10
0.983038768461837
 20
-0.9686247231555979
 30
0.0
 10
0.9753763340261987
 20
-0.9590799510678556
 30
0.0
 10
0.9753763340261987
 20
-0.9470811132062206
 30
0.0
 10
0.9753763340261987
 20
-0.9350833400152522
 30
0.0
 10
0.9830174750494886
 20
-0.9253511858987622
 30
0.0
 10
0.992453650734256
 20
-0.9253511858987622
 30
0.0
  0
POLYLINE
  5
149
330
1F
100
AcDbEntity
  8
LSCZ-Line Art
 62
     7
420
 16777215
370
     9
100
AcDb2dPolyline
 66
     1
 10
0.0
 20
0.0
 30
0.0
  0
VERTEX
  5
14A
330
149
100
AcDbEntity
  8
LSCZ-Line Art
 62
     7
420
 16777215
370
     9
100
AcDbVertex
100
AcDb2dVertex
 10
1.206473738306461
 20
0.047720495217239
 30
0.0
  0
VERTEX
  5
14B
330
149
100
AcDbEntity
  8
LSCZ-Line Art
 62
     7
420
 16777215
370
     9
100
AcDbVertex
100
AcDb2dVertex
 10
1.217827385773742
 20
0.0425579073919759
 30
0.0
  0
SEQEND
  5
14C
330
149
100
AcDbEntity
  8
LSCZ-Line Art
 62
     7
420
 16777215
370
     9
  0
POLYLINE
  5
14D
330
1F
100
AcDbEntity
  8
LSCZ-Line Art
 62
     7
420
 16777215
370
     9
100
AcDb2dPolyline
 66
     1
 10
0.0
 20
0.0
 30
0.0
  0
VERTEX
  5
14E
330
14D
100
AcDbEntity
  8
LSCZ-Line Art
 62
     7
420
 16777215
370
     9
100
AcDbVertex
100
AcDb2dVertex
 10
1.209031077130223
 20
0.0566509523586092
 30
0.0
  0
VERTEX
  5
14F
330
14D
100
AcDbEntity
  8
LSCZ-Line Art
 62
     7
420
 16777215
370
     9
100
AcDbVertex
100
AcDb2dVertex
 10
1.22038578926812
 20
0.0514936878864142
 30
0.0
  0
SEQEND
  5
150
330
14D
100
AcDbEntity
  8
LSCZ-Line Art
 62
     7
420
 16777215
370
     9
  0
POLYLINE
  5
151
330
1F
100
AcDbEntity
  8
LSCZ-Line Art
 62
     7
420
 16777215
370
    13
100
AcDb2dPolyline
 66
     1
 10
0.0
 20
0.0
 30
0.0
  0
VERTEX
  5
152
330
151
100
AcDbEntity
  8
LSCZ-Line Art
 62
     7
420
 16777215
370
    13
100
AcDbVertex
100
AcDb2dVertex
 10
1.206141561073764
 20
-0.2577801375770276
 30
0.0
  0
VERTEX
  5
153
330
151
100
AcDbEntity
  8
LSCZ-Line Art
 62
     7
420
 16777215
370
    13
100
AcDbVertex
100
AcDb2dVertex
 10
1.218826046813168
 20
-0.2567768984539498
 30
0.0
  0
VERTEX
  5
154
330
151
100
AcDbEntity
  8
LSCZ-Line Art
 62
     7
420
 16777215
370
    13
100
AcDbVertex
100
AcDb2dVertex
 10
1.222382046676305
 20
-0.2660978767778867
 30
0.0
  0
SEQEND
  5
155
330
151
100
AcDbEntity
  8
LSCZ-Line Art
 62
     7
420
 16777215
370
    13
  0
SPLINE
  5
156
330
1F
100
AcDbEntity
  8
LSCZ-Line Art
 62
     7
420
 16777215
370
    20
100
AcDbSpline
210
0.0
220
0.0
230
1.0
 70
    11
 71
     3
 72
    59
 73
    55
 74
     0
 42
0.0000000001
 43
0.0000000001
 12
1.0
 22
0.0
 32
0.0
 13
1.0
 23
0.0
 33
0.0
 40
0.0
 40
0.0
 40
0.0
 40
0.0
 40
1.0
 40
1.0
 40
1.0
 40
2.0
 40
2.0
 40
2.0
 40
3.0
 40
3.0
 40
3.0
 40
4.0
 40
4.0
 40
4.0
 40
5.0
 40
5.0
 40
5.0
 40
6.0
 40
6.0
 40
6.0
 40
7.0
 40
7.0
 40
7.0
 40
8.0
 40
8.0
 40
8.0
 40
9.0
 40
9.0
 40
9.0
 40
10.0
 40
10.0
 40
10.0
 40
11.0
 40
11.0
 40
11.0
 40
12.0
 40
12.0
 40
12.0
 40
13.0
 40
13.0
 40
13.0
 40
14.0
 40
14.0
 40
14.0
 40
15.0
 40
15.0
 40
15.0
 40
16.0
 40
16.0
 40
16.0
 40
17.0
 40
17.0
 40
17.0
 40
18.0
 40
18.0
 40
18.0
 40
18.0
 10
1.014385865459114
 20
-1.071431447342977
 30
0.0
 10
1.014385865459114
 20
-1.071431447342977
 30
0.0
 10
0.9610639669123076
 20
-1.014414077082114
 30
0.0
 10
0.9610639669123076
 20
-1.014414077082114
 30
0.0
 10
0.9610639669123076
 20
-1.014414077082114
 30
0.0
 10
0.9629516279174923
 20
-1.006387525295193
 30
0.0
 10
0.9629516279174923
 20
-1.006387525295193
 30
0.0
 10
0.9629516279174923
 20
-1.006387525295193
 30
0.0
 10
0.9465961578882292
 20
-0.9912692025237043
 30
0.0
 10
0.9465961578882292
 20
-0.9912692025237043
 30
0.0
 10
0.9465961578882292
 20
-0.9912692025237043
 30
0.0
 10
0.9365169211503649
 20
-0.9917898264557657
 30
0.0
 10
0.9365169211503649
 20
-0.9917898264557657
 30
0.0
 10
0.9365169211503649
 20
-0.9917898264557657
 30
0.0
 10
0.9279026711824624
 20
-0.9795620844113525
 30
0.0
 10
0.9279026711824624
 20
-0.9795620844113525
 30
0.0
 10
0.9279026711824624
 20
-0.9795620844113525
 30
0.0
 10
0.9170526129173595
 20
-0.9656095759662295
 30
0.0
 10
0.9325808338766768
 20
-0.9410092966734029
 30
0.0
 10
0.9490661937213392
 20
-0.914891861750372
 30
0.0
 10
1.064719233582006
 20
-0.7324264819458727
 30
0.0
 10
1.074949653547568
 20
-0.716212613108736
 30
0.0
 10
1.08518007351318
 20
-0.7000136496602761
 30
0.0
 10
1.10169098545263
 20
-0.7104314516545855
 30
0.0
 10
1.10169098545263
 20
-0.7104314516545855
 30
0.0
 10
1.10169098545263
 20
-0.7104314516545855
 30
0.0
 10
1.10647348586738
 20
-0.7135094144103833
 30
0.0
 10
1.10647348586738
 20
-0.7135094144103833
 30
0.0
 10
1.10647348586738
 20
-0.7135094144103833
 30
0.0
 10
1.118264712958535
 20
-0.7224867170589024
 30
0.0
 10
1.118264712958535
 20
-0.7224867170589024
 30
0.0
 10
1.118264712958535
 20
-0.7224867170589024
 30
0.0
 10
1.115269794510899
 20
-0.7306697754266275
 30
0.0
 10
1.115269794510899
 20
-0.7306697754266275
 30
0.0
 10
1.115269794510899
 20
-0.7306697754266275
 30
0.0
 10
1.128765559261006
 20
-0.738753819426923
 30
0.0
 10
1.128765559261006
 20
-0.738753819426923
 30
0.0
 10
1.128765559261006
 20
-0.738753819426923
 30
0.0
 10
1.142094170724148
 20
-0.7357439955906354
 30
0.0
 10
1.142094170724148
 20
-0.7357439955906354
 30
0.0
 10
1.142094170724148
 20
-0.7357439955906354
 30
0.0
 10
1.205038562313803
 20
-0.7706364457448621
 30
0.0
 10
1.205038562313803
 20
-0.7706364457448621
 30
0.0
 10
1.205038562313803
 20
-0.7706364457448621
 30
0.0
 10
1.218025414508651
 20
-0.782015645306981
 30
0.0
 10
1.210446024381175
 20
-0.7940198065216464
 30
0.0
 10
1.202876216289244
 20
-0.8060122563595592
 30
0.0
 10
1.033881049140013
 20
-1.078252791990659
 30
0.0
 10
1.033881049140013
 20
-1.078252791990659
 30
0.0
 10
1.033881049140013
 20
-1.078252791990659
 30
0.0
 10
1.02660296079734
 20
-1.091456836991509
 30
0.0
 10
1.007762549546341
 20
-1.083408991792213
 30
0.0
 10
1.012977306231884
 20
-1.075112013668432
 30
0.0
 10
1.014385865459114
 20
-1.071431447342977
 30
0.0
 10
1.014385865459114
 20
-1.071431447342977
 30
0.0
  0
SPLINE
  5
157
330
1F
100
AcDbEntity
  8
LSCZ-Line Art
 62
     7
420
 16777215
370
    13
100
AcDbSpline
210
0.0
220
0.0
230
1.0
 70
     8
 71
     3
 72
    32
 73
    28
 74
     0
 42
0.0000000001
 43
0.0000000001
 12
1.0
 22
0.0
 32
0.0
 13
1.0
 23
0.0
 33
0.0
 40
0.0
 40
0.0
 40
0.0
 40
0.0
 40
1.0
 40
1.0
 40
1.0
 40
2.0
 40
2.0
 40
2.0
 40
3.0
 40
3.0
 40
3.0
 40
4.0
 40
4.0
 40
4.0
 40
5.0
 40
5.0
 40
5.0
 40
6.0
 40
6.0
 40
6.0
 40
7.0
 40
7.0
 40
7.0
 40
8.0
 40
8.0
 40
8.0
 40
9.0
 40
9.0
 40
9.0
 40
9.0
 10
1.095702213227999
 20
-0.7100002600544081
 30
0.0
 10
1.092708359450979
 20
-0.7113002228786374
 30
0.0
 10
1.089765609863636
 20
-0.7136861497329189
 30
0.0
 10
1.087217853075445
 20
-0.7177350920920718
 30
0.0
 10
1.076987433109884
 20
-0.7339393788936124
 30
0.0
 10
0.9613141645074594
 20
-0.9164100820512178
 30
0.0
 10
0.9448394513690093
 20
-0.9425275169742741
 30
0.0
 10
0.929150465146424
 20
-0.9673769291916363
 30
0.0
 10
0.9400931497552341
 20
-0.9776488713113293
 30
0.0
 10
0.9400931497552341
 20
-0.9776488713113293
 30
0.0
 10
0.9400931497552341
 20
-0.9776488713113293
 30
0.0
 10
0.9487073997231366
 20
-0.9898766133557425
 30
0.0
 10
0.9487073997231366
 20
-0.9898766133557425
 30
0.0
 10
0.9487073997231366
 20
-0.9898766133557425
 30
0.0
 10
0.9577475179381356
 20
-0.986902988320455
 30
0.0
 10
0.9577475179381356
 20
-0.986902988320455
 30
0.0
 10
0.9577475179381356
 20
-0.986902988320455
 30
0.0
 10
0.9763739303949831
 20
-1.003850415213189
 30
0.0
 10
0.9763739303949831
 20
-1.003850415213189
 30
0.0
 10
0.9763739303949831
 20
-1.003850415213189
 30
0.0
 10
0.9738687604315146
 20
-1.011273298759862
 30
0.0
 10
0.9738687604315146
 20
-1.011273298759862
 30
0.0
 10
0.9738687604315146
 20
-1.011273298759862
 30
0.0
 10
1.0238529165918
 20
-1.063155762631519
 30
0.0
 10
1.0238529165918
 20
-1.063155762631519
 30
0.0
 10
1.0238529165918
 20
-1.063155762631519
 30
0.0
 10
1.040248844104528
 20
-1.077587372854598
 30
0.0
 10
1.023784777672265
 20
-1.084844167784922
 30
0.0
  0
POLYLINE
  5
158
330
1F
100
AcDbEntity
  8
LSCZ-Line Art
 62
     7
420
 16777215
370
     9
100
AcDb2dPolyline
 66
     1
 10
0.0
 20
0.0
 30
0.0
  0
VERTEX
  5
159
330
158
100
AcDbEntity
  8
LSCZ-Line Art
 62
     7
420
 16777215
370
     9
100
AcDbVertex
100
AcDb2dVertex
 10
0.9640120398527566
 20
-1.005222775639393
 30
0.0
  0
VERTEX
  5
15A
330
158
100
AcDbEntity
  8
LSCZ-Line Art
 62
     7
420
 16777215
370
     9
100
AcDbVertex
100
AcDb2dVertex
 10
0.9763739303949831
 20
-1.003850415213189
 30
0.0
  0
SEQEND
  5
15B
330
158
100
AcDbEntity
  8
LSCZ-Line Art
 62
     7
420
 16777215
370
     9
  0
POLYLINE
  5
15C
330
1F
100
AcDbEntity
  8
LSCZ-Line Art
 62
     7
420
 16777215
370
     9
100
AcDb2dPolyline
 66
     1
 10
0.0
 20
0.0
 30
0.0
  0
VERTEX
  5
15D
330
15C
100
AcDbEntity
  8
LSCZ-Line Art
 62
     7
420
 16777215
370
     9
100
AcDbVertex
100
AcDb2dVertex
 10
0.9620157824445211
 20
-1.014143650745205
 30
0.0
  0
VERTEX
  5
15E
330
15C
100
AcDbEntity
  8
LSCZ-Line Art
 62
     7
420
 16777215
370
     9
100
AcDbVertex
100
AcDb2dVertex
 10
0.9737644227109538
 20
-1.012749996906627
 30
0.0
  0
SEQEND
  5
15F
330
15C
100
AcDbEntity
  8
LSCZ-Line Art
 62
     7
420
 16777215
370
     9
  0
POLYLINE
  5
160
330
1F
100
AcDbEntity
  8
LSCZ-Line Art
 62
     7
420
 16777215
370
    13
100
AcDb2dPolyline
 66
     1
 10
0.0
 20
0.0
 30
0.0
  0
VERTEX
  5
161
330
160
100
AcDbEntity
  8
LSCZ-Line Art
 62
     7
420
 16777215
370
    13
100
AcDbVertex
100
AcDb2dVertex
 10
1.126748008440447
 20
-0.7392787020414491
 30
0.0
  0
VERTEX
  5
162
330
160
100
AcDbEntity
  8
LSCZ-Line Art
 62
     7
420
 16777215
370
    13
100
AcDbVertex
100
AcDb2dVertex
 10
1.136937970922544
 20
-0.7450545401425188
 30
0.0
  0
VERTEX
  5
163
330
160
100
AcDbEntity
  8
LSCZ-Line Art
 62
     7
420
 16777215
370
    13
100
AcDbVertex
100
AcDb2dVertex
 10
1.144923000555385
 20
-0.7390657679179135
 30
0.0
  0
SEQEND
  5
164
330
160
100
AcDbEntity
  8
LSCZ-Line Art
 62
     7
420
 16777215
370
    13
  0
POLYLINE
  5
165
330
1F
100
AcDbEntity
  8
LSCZ-Line Art
 62
     7
420
 16777215
370
    20
100
AcDb2dPolyline
 66
     1
 10
0.0
 20
0.0
 30
0.0
  0
VERTEX
  5
166
330
165
100
AcDbEntity
  8
LSCZ-Line Art
 62
     7
420
 16777215
370
    20
100
AcDbVertex
100
AcDb2dVertex
 10
1.095119838400125
 20
0.3820515566026314
 30
0.0
  0
VERTEX
  5
167
330
165
100
AcDbEntity
  8
LSCZ-Line Art
 62
     7
420
 16777215
370
    20
100
AcDbVertex
100
AcDb2dVertex
 10
1.095119838400125
 20
0.3886951012571495
 30
0.0
  0
VERTEX
  5
168
330
165
100
AcDbEntity
  8
LSCZ-Line Art
 62
     7
420
 16777215
370
    20
100
AcDbVertex
100
AcDb2dVertex
 10
1.105953926605935
 20
0.3975744542088553
 30
0.0
  0
VERTEX
  5
169
330
165
100
AcDbEntity
  8
LSCZ-Line Art
 62
     7
420
 16777215
370
    20
100
AcDbVertex
100
AcDb2dVertex
 10
1.123525250480624
 20
0.404504395259538
 30
0.0
  0
VERTEX
  5
16A
330
165
100
AcDbEntity
  8
LSCZ-Line Art
 62
     7
420
 16777215
370
    20
100
AcDbVertex
100
AcDb2dVertex
 10
1.269397901154409
 20
0.3610903214811413
 30
0.0
  0
VERTEX
  5
16B
330
165
100
AcDbEntity
  8
LSCZ-Line Art
 62
     7
420
 16777215
370
    20
100
AcDbVertex
100
AcDb2dVertex
 10
1.286439019061491
 20
0.3412161150603323
 30
0.0
  0
VERTEX
  5
16C
330
165
100
AcDbEntity
  8
LSCZ-Line Art
 62
     7
420
 16777215
370
    20
100
AcDbVertex
100
AcDb2dVertex
 10
1.286439019061491
 20
0.3224289373402042
 30
0.0
  0
SEQEND
  5
16D
330
165
100
AcDbEntity
  8
LSCZ-Line Art
 62
     7
420
 16777215
370
    20
  0
POLYLINE
  5
16E
330
1F
100
AcDbEntity
  8
LSCZ-Line Art
 62
     7
420
 16777215
370
    13
100
AcDb2dPolyline
 66
     1
 10
0.0
 20
0.0
 30
0.0
  0
VERTEX
  5
16F
330
16E
100
AcDbEntity
  8
LSCZ-Line Art
 62
     7
420
 16777215
370
    13
100
AcDbVertex
100
AcDb2dVertex
 10
1.109270375580107
 20
0.3965970865817907
 30
0.0
  0
VERTEX
  5
170
330
16E
100
AcDbEntity
  8
LSCZ-Line Art
 62
     7
420
 16777215
370
    13
100
AcDbVertex
100
AcDb2dVertex
 10
1.260320519467819
 20
0.3503456656072027
 30
0.0
  0
VERTEX
  5
171
330
16E
100
AcDbEntity
  8
LSCZ-Line Art
 62
     7
420
 16777215
370
    13
100
AcDbVertex
100
AcDb2dVertex
 10
1.27469996083063
 20
0.3341158267108236
 30
0.0
  0
VERTEX
  5
172
330
16E
100
AcDbEntity
  8
LSCZ-Line Art
 62
     7
420
 16777215
370
    13
100
AcDbVertex
100
AcDb2dVertex
 10
1.27469996083063
 20
0.3252460557946759
 30
0.0
  0
SEQEND
  5
173
330
16E
100
AcDbEntity
  8
LSCZ-Line Art
 62
     7
420
 16777215
370
    13
  0
POLYLINE
  5
174
330
1F
100
AcDbEntity
  8
LSCZ-Line Art
 62
     7
420
 16777215
370
     9
100
AcDb2dPolyline
 66
     1
 10
0.0
 20
0.0
 30
0.0
  0
VERTEX
  5
175
330
174
100
AcDbEntity
  8
LSCZ-Line Art
 62
     7
420
 16777215
370
     9
100
AcDbVertex
100
AcDb2dVertex
 10
1.260268350607551
 20
0.3511558799472899
 30
0.0
  0
VERTEX
  5
176
330
174
100
AcDbEntity
  8
LSCZ-Line Art
 62
     7
420
 16777215
370
     9
100
AcDbVertex
100
AcDb2dVertex
 10
1.271976533390519
 20
0.3575449683241661
 30
0.0
  0
SEQEND
  5
177
330
174
100
AcDbEntity
  8
LSCZ-Line Art
 62
     7
420
 16777215
370
     9
  0
POLYLINE
  5
178
330
1F
100
AcDbEntity
  8
LSCZ-Line Art
 62
     7
420
 16777215
370
     9
100
AcDb2dPolyline
 66
     1
 10
0.0
 20
0.0
 30
0.0
  0
VERTEX
  5
179
330
178
100
AcDbEntity
  8
LSCZ-Line Art
 62
     7
420
 16777215
370
     9
100
AcDbVertex
100
AcDb2dVertex
 10
1.274034541694542
 20
0.3341988710190106
 30
0.0
  0
VERTEX
  5
17A
330
178
100
AcDbEntity
  8
LSCZ-Line Art
 62
     7
420
 16777215
370
     9
100
AcDbVertex
100
AcDb2dVertex
 10
1.28574165980692
 20
0.3405879593958869
 30
0.0
  0
SEQEND
  5
17B
330
178
100
AcDbEntity
  8
LSCZ-Line Art
 62
     7
420
 16777215
370
     9
  0
MTEXT
  5
17D
330
1F
100
AcDbEntity
  8
callout
 62
   250
420
  2236191
100
AcDbMText
 10
0.3867001003689236
 20
-3.346416685316298
 30
0.0
 40
0.118
 41
0.0
 46
0.0
 71
     7
 72
     1
  1
\fHelvetica Neue LT Std 55 Roman|b0|i0|c0|p34;\W1;SIMPSON Strong-Tie\H0.068794;®\H0.118; ^C
 73
     1
 44
1.0
  0
MTEXT
  5
17E
330
1F
100
AcDbEntity
  8
callout
 62
   250
420
  2236191
100
AcDbMText
 10
-0.0775061713324653
 20
-3.546408547295464
 30
0.0
 40
0.118
 41
0.0
 46
0.0
 71
     7
 72
     1
  1
\fHelvetica Neue LT Std 55 Roman|b0|i0|c0|p34;\W1;LSC Staircase Stringer Connection
 73
     1
 44
1.0
  0
MTEXT
  5
17F
330
1F
100
AcDbEntity
  8
callout
 62
   250
420
  2236191
100
AcDbMText
 10
1.047609541151259
 20
-2.366339365641276
 30
0.0
 40
0.118
 41
0.0
 46
0.0
 71
     7
 72
     1
  1
\fHelvetica Neue LT Std 57 Condensed|b0|i0|c0|p34;\W1;Stringer
 73
     1
 44
1.0
  0
MTEXT
  5
180
330
1F
100
AcDbEntity
  8
callout
 62
   250
420
  2236191
100
AcDbMText
 10
1.615930557250977
 20
-1.737830268012153
 30
0.0
 40
0.118
 41
0.0
 46
0.0
 71
     7
 72
     1
  1
\fHelvetica Neue LT Std 57 Condensed|b0|i0|c0|p34;\W1;LSC
 73
     1
 44
1.0
  0
MTEXT
  5
181
330
1F
100
AcDbEntity
  8
callout
 62
   250
420
  2236191
100
AcDbMText
 10
2.006001366509332
 20
-1.269015947977702
 30
0.0
 40
0.118
 41
0.0
 46
0.0
 71
     7
 72
     1
  1
\fHelvetica Neue LT Std 57 Condensed|b0|i0|c0|p34;\W1;Boundary Joist
 73
     1
 44
1.0
  0
POLYLINE
  5
182
330
1F
100
AcDbEntity
  8
callout
 62
   250
420
  2236191
370
    18
100
AcDb2dPolyline
 66
     1
 10
0.0
 20
0.0
 30
0.0
  0
VERTEX
  5
183
330
182
100
AcDbEntity
  8
callout
 62
   250
420
  2236191
370
    18
100
AcDbVertex
100
AcDb2dVertex
 10
1.536643026004716
 20
-1.654432301554001
 30
0.0
  0
VERTEX
  5
184
330
182
100
AcDbEntity
  8
callout
 62
   250
420
  2236191
370
    18
100
AcDbVertex
100
AcDb2dVertex
 10
1.06851852638988
 20
-1.003850415213189
 30
0.0
  0
SEQEND
  5
185
330
182
100
AcDbEntity
  8
callout
 62
   250
420
  2236191
370
    18
  0
POLYLINE
  5
186
330
1F
100
AcDbEntity
  8
callout
 62
   250
420
  2236191
370
    18
100
AcDb2dPolyline
 66
     1
 10
0.0
 20
0.0
 30
0.0
  0
VERTEX
  5
187
330
186
100
AcDbEntity
  8
callout
 62
   250
420
  2236191
370
    18
100
AcDbVertex
100
AcDb2dVertex
 10
2.111111111111086
 20
-1.087181368715493
 30
0.0
  0
VERTEX
  5
188
330
186
100
AcDbEntity
  8
callout
 62
   250
420
  2236191
370
    18
100
AcDbVertex
100
AcDb2dVertex
 10
2.068896808042306
 20
-0.5639631775936146
 30
0.0
  0
SEQEND
  5
189
330
186
100
AcDbEntity
  8
callout
 62
   250
420
  2236191
370
    18
  0
POLYLINE
  5
18A
330
1F
100
AcDbEntity
  8
callout
 62
   250
420
  2236191
370
    18
100
AcDb2dPolyline
 66
     1
 10
0.0
 20
0.0
 30
0.0
  0
VERTEX
  5
18B
330
18A
100
AcDbEntity
  8
callout
 62
   250
420
  2236191
370
    18
100
AcDbVertex
100
AcDb2dVertex
 10
0.992453650734256
 20
-2.286143965866485
 30
0.0
  0
VERTEX
  5
18C
330
18A
100
AcDbEntity
  8
callout
 62
   250
420
  2236191
370
    18
100
AcDbVertex
100
AcDb2dVertex
 10
0.5321041784973709
 20
-1.828700249937431
 30
0.0
  0
SEQEND
  5
18D
330
18A
100
AcDbEntity
  8
callout
 62
   250
420
  2236191
370
    18
  0
ENDSEC
  0
SECTION
  2
OBJECTS
  0
DICTIONARY
  5
C
330
0
100
AcDbDictionary
281
     1
  3
ACAD_GROUP
350
D
  3
ACAD_LAYOUT
350
1A
  3
ACAD_MATERIAL
350
3B
  3
ACAD_MLEADERSTYLE
350
18F
  3
ACAD_MLINESTYLE
350
17
  3
ACAD_PLOTSETTINGS
350
19
  3
ACAD_PLOTSTYLENAME
350
E
  3
ACAD_TABLESTYLE
350
18E
  3
ACAD_VISUALSTYLE
350
2A
  0
SUN
  5
3F
330
29
100
AcDbSun
 90
        1
290
     0
 63
     7
421
 16777215
 40
1.0
291
     1
 91
  2455826
 92
 54000000
292
     0
 70
     2
 71
   256
280
     1
  0
DICTIONARY
  5
D
102
{ACAD_REACTORS
330
C
102
}
330
C
100
AcDbDictionary
281
     1
  0
DICTIONARY
  5
1A
102
{ACAD_REACTORS
330
C
102
}
330
C
100
AcDbDictionary
281
     1
  3
Layout1
350
1E
  3
Layout2
350
26
  3
Model
350
22
  0
DICTIONARY
  5
3B
102
{ACAD_REACTORS
330
C
102
}
330
C
100
AcDbDictionary
281
     1
  3
ByBlock
350
3D
  3
ByLayer
350
3C
  3
Global
350
3E
  0
DICTIONARY
  5
18F
102
{ACAD_REACTORS
330
C
102
}
330
C
100
AcDbDictionary
281
     1
  0
DICTIONARY
  5
17
102
{ACAD_REACTORS
330
C
102
}
330
C
100
AcDbDictionary
281
     1
  3
Standard
350
18
  0
DICTIONARY
  5
19
102
{ACAD_REACTORS
330
C
102
}
330
C
100
AcDbDictionary
281
     1
  0
ACDBDICTIONARYWDFLT
  5
E
102
{ACAD_REACTORS
330
C
102
}
330
C
100
AcDbDictionary
281
     1
  3
Normal
350
F
100
AcDbDictionaryWithDefault
340
F
  0
DICTIONARY
  5
18E
102
{ACAD_REACTORS
330
C
102
}
330
C
100
AcDbDictionary
281
     1
  0
DICTIONARY
  5
2A
102
{ACAD_REACTORS
330
C
102
}
330
C
100
AcDbDictionary
281
     1
  3
2dWireframe
350
2F
  3
3D Hidden
350
31
  3
3dWireframe
350
30
  3
Basic
350
32
  3
Brighten
350
36
  3
ColorChange
350
3A
  3
Conceptual
350
34
  3
Dim
350
35
  3
Facepattern
350
39
  3
Flat
350
2B
  3
FlatWithEdges
350
2C
  3
Gouraud
350
2D
  3
GouraudWithEdges
350
2E
  3
Linepattern
350
38
  3
Realistic
350
33
  3
Thicken
350
37
  0
LAYOUT
  5
1E
102
{ACAD_REACTORS
330
1A
102
}
330
1A
100
AcDbPlotSettings
  1

  2
none_device
  4

  6

 40
0.0
 41
0.0
 42
0.0
 43
0.0
 44
0.0
 45
0.0
 46
0.0
 47
0.0
 48
0.0
 49
0.0
140
0.0
141
0.0
142
1.0
143
1.0
 70
   688
 72
     0
 73
     0
 74
     5
  7

 75
    16
 76
     0
 77
     2
 78
   300
147
1.0
148
0.0
149
0.0
100
AcDbLayout
  1
Layout1
 70
     1
 71
     1
 10
0.0
 20
0.0
 11
12.0
 21
9.0
 12
0.0
 22
0.0
 32
0.0
 14
1.000000000000000E+20
 24
1.000000000000000E+20
 34
1.000000000000000E+20
 15
-1.000000000000000E+20
 25
-1.000000000000000E+20
 35
-1.000000000000000E+20
146
0.0
 13
0.0
 23
0.0
 33
0.0
 16
1.0
 26
0.0
 36
0.0
 17
0.0
 27
1.0
 37
0.0
 76
     0
330
1B
  0
LAYOUT
  5
26
102
{ACAD_REACTORS
330
1A
102
}
330
1A
100
AcDbPlotSettings
  1

  2
none_device
  4

  6

 40
0.0
 41
0.0
 42
0.0
 43
0.0
 44
0.0
 45
0.0
 46
0.0
 47
0.0
 48
0.0
 49
0.0
140
0.0
141
0.0
142
1.0
143
1.0
 70
   688
 72
     0
 73
     0
 74
     5
  7

 75
    16
 76
     0
 77
     2
 78
   300
147
1.0
148
0.0
149
0.0
100
AcDbLayout
  1
Layout2
 70
     1
 71
     2
 10
0.0
 20
0.0
 11
0.0
 21
0.0
 12
0.0
 22
0.0
 32
0.0
 14
0.0
 24
0.0
 34
0.0
 15
0.0
 25
0.0
 35
0.0
146
0.0
 13
0.0
 23
0.0
 33
0.0
 16
1.0
 26
0.0
 36
0.0
 17
0.0
 27
1.0
 37
0.0
 76
     0
330
23
  0
LAYOUT
  5
22
102
{ACAD_REACTORS
330
1A
102
}
330
1A
100
AcDbPlotSettings
  1

  2
none_device
  4

  6

 40
0.0
 41
0.0
 42
0.0
 43
0.0
 44
0.0
 45
0.0
 46
0.0
 47
0.0
 48
0.0
 49
0.0
140
0.0
141
0.0
142
1.0
143
1.0
 70
  1712
 72
     0
 73
     0
 74
     0
  7

 75
     0
 76
     0
 77
     2
 78
   300
147
1.0
148
0.0
149
0.0
100
AcDbLayout
  1
Model
 70
     1
 71
     0
 10
0.0
 20
0.0
 11
12.0
 21
9.0
 12
0.0
 22
0.0
 32
0.0
 14
1.000000000000000E+20
 24
1.000000000000000E+20
 34
1.000000000000000E+20
 15
-1.000000000000000E+20
 25
-1.000000000000000E+20
 35
-1.000000000000000E+20
146
0.0
 13
0.0
 23
0.0
 33
0.0
 16
1.0
 26
0.0
 36
0.0
 17
0.0
 27
1.0
 37
0.0
 76
     0
330
1F
331
29
  0
MATERIAL
  5
3D
102
{ACAD_REACTORS
330
3B
102
}
330
3B
100
AcDbMaterial
  1
ByBlock
 72
     1
 94
      127
  0
MATERIAL
  5
3C
102
{ACAD_REACTORS
330
3B
102
}
330
3B
100
AcDbMaterial
  1
ByLayer
 72
     1
 94
      127
  0
MATERIAL
  5
3E
102
{ACAD_REACTORS
330
3B
102
}
330
3B
100
AcDbMaterial
  1
Global
 72
     1
 94
      127
  0
MLINESTYLE
  5
18
102
{ACAD_REACTORS
330
17
102
}
330
17
100
AcDbMlineStyle
  2
Standard
 70
     0
  3

 62
   256
 51
90.0
 52
90.0
 71
     2
 49
0.5
 62
   256
  6
BYLAYER
 49
-0.5
 62
   256
  6
BYLAYER
  0
ACDBPLACEHOLDER
  5
F
102
{ACAD_REACTORS
330
E
102
}
330
E
  0
VISUALSTYLE
  5
2F
102
{ACAD_REACTORS
330
2A
102
}
330
2A
100
AcDbVisualStyle
  2
2dWireframe
 70
     4
177
     2
291
     0
 71
     0
176
     1
 72
     2
176
     1
 73
     0
176
     1
 90
        0
176
     1
 40
-0.6
176
     1
 41
-30.0
176
     1
 62
     5
 63
     7
421
 16777215
176
     1
 74
     1
176
     1
 91
        4
176
     1
 64
     7
176
     1
 65
   257
176
     1
 75
     1
176
     1
175
     1
176
     1
 42
1.0
176
     1
 92
        0
176
     1
 66
   257
176
     1
 43
1.0
176
     1
 76
     1
176
     1
 77
     6
176
     1
 78
     2
176
     1
 67
     7
176
     1
 79
     5
176
     1
170
     0
176
     1
171
     0
176
     1
290
     0
176
     1
 93
        1
176
     1
 44
0.0
176
     1
173
     0
176
     1
  0
VISUALSTYLE
  5
31
102
{ACAD_REACTORS
330
2A
102
}
330
2A
100
AcDbVisualStyle
  2
3D Hidden
 70
     6
177
     2
291
     0
 71
     1
176
     1
 72
     2
176
     1
 73
     2
176
     1
 90
        0
176
     1
 40
-0.6
176
     1
 41
-30.0
176
     1
 62
     5
 63
     7
421
 16777215
176
     1
 74
     2
176
     1
 91
        2
176
     1
 64
     7
176
     1
 65
   257
176
     1
 75
     2
176
     1
175
     1
176
     1
 42
40.0
176
     1
 92
        0
176
     1
 66
   257
176
     1
 43
1.0
176
     1
 76
     1
176
     1
 77
     6
176
     1
 78
     2
176
     1
 67
     7
176
     1
 79
     3
176
     1
170
     0
176
     1
171
     0
176
     1
290
     0
176
     1
 93
        1
176
     1
 44
0.0
176
     1
173
     0
176
     1
  0
VISUALSTYLE
  5
30
102
{ACAD_REACTORS
330
2A
102
}
330
2A
100
AcDbVisualStyle
  2
3dWireframe
 70
     5
177
     2
291
     0
 71
     0
176
     1
 72
     2
176
     1
 73
     0
176
     1
 90
        0
176
     1
 40
-0.6
176
     1
 41
-30.0
176
     1
 62
     5
 63
     7
421
 16777215
176
     1
 74
     1
176
     1
 91
        4
176
     1
 64
     7
176
     1
 65
   257
176
     1
 75
     1
176
     1
175
     1
176
     1
 42
1.0
176
     1
 92
        0
176
     1
 66
   257
176
     1
 43
1.0
176
     1
 76
     1
176
     1
 77
     6
176
     1
 78
     2
176
     1
 67
     7
176
     1
 79
     5
176
     1
170
     0
176
     1
171
     0
176
     1
290
     0
176
     1
 93
        1
176
     1
 44
0.0
176
     1
173
     0
176
     1
  0
VISUALSTYLE
  5
32
102
{ACAD_REACTORS
330
2A
102
}
330
2A
100
AcDbVisualStyle
  2
Basic
 70
     7
177
     2
291
     1
 71
     1
176
     1
 72
     0
176
     1
 73
     1
176
     1
 90
        0
176
     1
 40
-0.6
176
     1
 41
-30.0
176
     1
 62
     5
 63
     7
421
 16777215
176
     1
 74
     0
176
     1
 91
        4
176
     1
 64
     7
176
     1
 65
   257
176
     1
 75
     1
176
     1
175
     1
176
     1
 42
1.0
176
     1
 92
        8
176
     1
 66
     7
176
     1
 43
1.0
176
     1
 76
     1
176
     1
 77
     6
176
     1
 78
     2
176
     1
 67
     7
176
     1
 79
     5
176
     1
170
     0
176
     1
171
     0
176
     1
290
     0
176
     1
 93
        1
176
     1
 44
0.0
176
     1
173
     0
176
     1
  0
VISUALSTYLE
  5
36
102
{ACAD_REACTORS
330
2A
102
}
330
2A
100
AcDbVisualStyle
  2
Brighten
 70
    12
177
     2
291
     1
 71
     2
176
     1
 72
     2
176
     1
 73
     0
176
     1
 90
        0
176
     1
 40
-0.6
176
     1
 41
-30.0
176
     1
 62
     5
 63
     7
421
 16777215
176
     1
 74
     1
176
     1
 91
        4
176
     1
 64
     7
176
     1
 65
   257
176
     1
 75
     1
176
     1
175
     1
176
     1
 42
1.0
176
     1
 92
        8
176
     1
 66
     7
176
     1
 43
1.0
176
     1
 76
     1
176
     1
 77
     6
176
     1
 78
     2
176
     1
 67
     7
176
     1
 79
     5
176
     1
170
     0
176
     1
171
     0
176
     1
290
     0
176
     1
 93
        1
176
     1
 44
50.0
176
     1
173
     0
176
     1
  0
VISUALSTYLE
  5
3A
102
{ACAD_REACTORS
330
2A
102
}
330
2A
100
AcDbVisualStyle
  2
ColorChange
 70
    16
177
     2
291
     1
 71
     2
176
     1
 72
     2
176
     1
 73
     3
176
     1
 90
        0
176
     1
 40
-0.6
176
     1
 41
-30.0
176
     1
 62
     5
 63
     8
421
  8421504
176
     1
 74
     1
176
     1
 91
        4
176
     1
 64
     7
176
     1
 65
   257
176
     1
 75
     1
176
     1
175
     1
176
     1
 42
1.0
176
     1
 92
        8
176
     1
 66
     8
424
  8421504
176
     1
 43
1.0
176
     1
 76
     1
176
     1
 77
     6
176
     1
 78
     2
176
     1
 67
     7
176
     1
 79
     5
176
     1
170
     0
176
     1
171
     0
176
     1
290
     0
176
     1
 93
        1
176
     1
 44
0.0
176
     1
173
     0
176
     1
  0
VISUALSTYLE
  5
34
102
{ACAD_REACTORS
330
2A
102
}
330
2A
100
AcDbVisualStyle
  2
Conceptual
 70
     9
177
     2
291
     0
 71
     3
176
     1
 72
     2
176
     1
 73
     0
176
     1
 90
        0
176
     1
 40
-0.6
176
     1
 41
-30.0
176
     1
 62
     5
 63
     7
421
 16777215
176
     1
 74
     2
176
     1
 91
        2
176
     1
 64
     7
176
     1
 65
   257
176
     1
 75
     1
176
     1
175
     1
176
     1
 42
40.0
176
     1
 92
        8
176
     1
 66
     7
176
     1
 43
1.0
176
     1
 76
     1
176
     1
 77
     6
176
     1
 78
     2
176
     1
 67
     7
176
     1
 79
     3
176
     1
170
     0
176
     1
171
     0
176
     1
290
     0
176
     1
 93
        1
176
     1
 44
0.0
176
     1
173
     0
176
     1
  0
VISUALSTYLE
  5
35
102
{ACAD_REACTORS
330
2A
102
}
330
2A
100
AcDbVisualStyle
  2
Dim
 70
    11
177
     2
291
     1
 71
     2
176
     1
 72
     2
176
     1
 73
     0
176
     1
 90
        0
176
     1
 40
-0.6
176
     1
 41
-30.0
176
     1
 62
     5
 63
     7
421
 16777215
176
     1
 74
     1
176
     1
 91
        4
176
     1
 64
     7
176
     1
 65
   257
176
     1
 75
     1
176
     1
175
     1
176
     1
 42
1.0
176
     1
 92
        8
176
     1
 66
     7
176
     1
 43
1.0
176
     1
 76
     1
176
     1
 77
     6
176
     1
 78
     2
176
     1
 67
     7
176
     1
 79
     5
176
     1
170
     0
176
     1
171
     0
176
     1
290
     0
176
     1
 93
        1
176
     1
 44
-50.0
176
     1
173
     0
176
     1
  0
VISUALSTYLE
  5
39
102
{ACAD_REACTORS
330
2A
102
}
330
2A
100
AcDbVisualStyle
  2
Facepattern
 70
    15
177
     2
291
     1
 71
     2
176
     1
 72
     2
176
     1
 73
     0
176
     1
 90
        0
176
     1
 40
-0.6
176
     1
 41
-30.0
176
     1
 62
     5
 63
     7
421
 16777215
176
     1
 74
     1
176
     1
 91
        4
176
     1
 64
     7
176
     1
 65
   257
176
     1
 75
     1
176
     1
175
     1
176
     1
 42
1.0
176
     1
 92
        8
176
     1
 66
     7
176
     1
 43
1.0
176
     1
 76
     1
176
     1
 77
     6
176
     1
 78
     2
176
     1
 67
     7
176
     1
 79
     5
176
     1
170
     0
176
     1
171
     0
176
     1
290
     0
176
     1
 93
        1
176
     1
 44
0.0
176
     1
173
     0
176
     1
  0
VISUALSTYLE
  5
2B
102
{ACAD_REACTORS
330
2A
102
}
330
2A
100
AcDbVisualStyle
  2
Flat
 70
     0
177
     2
291
     1
 71
     2
176
     1
 72
     1
176
     1
 73
     1
176
     1
 90
        2
176
     1
 40
-0.6
176
     1
 41
30.0
176
     1
 62
     5
 63
     7
421
 16777215
176
     1
 74
     0
176
     1
 91
        4
176
     1
 64
     7
176
     1
 65
   257
176
     1
 75
     1
176
     1
175
     1
176
     1
 42
1.0
176
     1
 92
        8
176
     1
 66
     7
176
     1
 43
1.0
176
     1
 76
     1
176
     1
 77
     6
176
     1
 78
     2
176
     1
 67
     7
176
     1
 79
     5
176
     1
170
     0
176
     1
171
     0
176
     1
290
     0
176
     1
 93
       13
176
     1
 44
0.0
176
     1
173
     0
176
     1
  0
VISUALSTYLE
  5
2C
102
{ACAD_REACTORS
330
2A
102
}
330
2A
100
AcDbVisualStyle
  2
FlatWithEdges
 70
     1
177
     2
291
     1
 71
     2
176
     1
 72
     1
176
     1
 73
     1
176
     1
 90
        2
176
     1
 40
-0.6
176
     1
 41
30.0
176
     1
 62
     5
 63
     7
421
 16777215
176
     1
 74
     1
176
     1
 91
        4
176
     1
 64
     7
176
     1
 65
   257
176
     1
 75
     1
176
     1
175
     1
176
     1
 42
1.0
176
     1
 92
        0
176
     1
 66
   257
176
     1
 43
1.0
176
     1
 76
     1
176
     1
 77
     6
176
     1
 78
     2
176
     1
 67
     7
176
     1
 79
     5
176
     1
170
     0
176
     1
171
     0
176
     1
290
     0
176
     1
 93
       13
176
     1
 44
0.0
176
     1
173
     0
176
     1
  0
VISUALSTYLE
  5
2D
102
{ACAD_REACTORS
330
2A
102
}
330
2A
100
AcDbVisualStyle
  2
Gouraud
 70
     2
177
     2
291
     1
 71
     2
176
     1
 72
     2
176
     1
 73
     1
176
     1
 90
        2
176
     1
 40
-0.6
176
     1
 41
30.0
176
     1
 62
     5
 63
     7
421
 16777215
176
     1
 74
     0
176
     1
 91
        4
176
     1
 64
     7
176
     1
 65
   257
176
     1
 75
     1
176
     1
175
     1
176
     1
 42
1.0
176
     1
 92
        0
176
     1
 66
     7
176
     1
 43
1.0
176
     1
 76
     1
176
     1
 77
     6
176
     1
 78
     2
176
     1
 67
     7
176
     1
 79
     5
176
     1
170
     0
176
     1
171
     0
176
     1
290
     0
176
     1
 93
       13
176
     1
 44
0.0
176
     1
173
     0
176
     1
  0
VISUALSTYLE
  5
2E
102
{ACAD_REACTORS
330
2A
102
}
330
2A
100
AcDbVisualStyle
  2
GouraudWithEdges
 70
     3
177
     2
291
     1
 71
     2
176
     1
 72
     2
176
     1
 73
     1
176
     1
 90
        2
176
     1
 40
-0.6
176
     1
 41
30.0
176
     1
 62
     5
 63
     7
421
 16777215
176
     1
 74
     1
176
     1
 91
        4
176
     1
 64
     7
176
     1
 65
   257
176
     1
 75
     1
176
     1
175
     1
176
     1
 42
1.0
176
     1
 92
        0
176
     1
 66
   257
176
     1
 43
1.0
176
     1
 76
     1
176
     1
 77
     6
176
     1
 78
     2
176
     1
 67
     7
176
     1
 79
     5
176
     1
170
     0
176
     1
171
     0
176
     1
290
     0
176
     1
 93
       13
176
     1
 44
0.0
176
     1
173
     0
176
     1
  0
VISUALSTYLE
  5
38
102
{ACAD_REACTORS
330
2A
102
}
330
2A
100
AcDbVisualStyle
  2
Linepattern
 70
    14
177
     2
291
     1
 71
     2
176
     1
 72
     2
176
     1
 73
     0
176
     1
 90
        0
176
     1
 40
-0.6
176
     1
 41
-30.0
176
     1
 62
     5
 63
     7
421
 16777215
176
     1
 74
     1
176
     1
 91
        4
176
     1
 64
     7
176
     1
 65
   257
176
     1
 75
     7
176
     1
175
     7
176
     1
 42
1.0
176
     1
 92
        8
176
     1
 66
     7
176
     1
 43
1.0
176
     1
 76
     1
176
     1
 77
     6
176
     1
 78
     2
176
     1
 67
     7
176
     1
 79
     5
176
     1
170
     0
176
     1
171
     0
176
     1
290
     0
176
     1
 93
        1
176
     1
 44
0.0
176
     1
173
     0
176
     1
  0
VISUALSTYLE
  5
33
102
{ACAD_REACTORS
330
2A
102
}
330
2A
100
AcDbVisualStyle
  2
Realistic
 70
     8
177
     2
291
     0
 71
     2
176
     1
 72
     2
176
     1
 73
     0
176
     1
 90
        0
176
     1
 40
-0.6
176
     1
 41
-30.0
176
     1
 62
     5
 63
     7
421
 16777215
176
     1
 74
     1
176
     1
 91
        0
176
     1
 64
     7
176
     1
 65
   257
176
     1
 75
     1
176
     1
175
     1
176
     1
 42
1.0
176
     1
 92
        8
176
     1
 66
     8
424
  7895160
176
     1
 43
1.0
176
     1
 76
     1
176
     1
 77
     6
176
     1
 78
     2
176
     1
 67
     7
176
     1
 79
     5
176
     1
170
     0
176
     1
171
     0
176
     1
290
     0
176
     1
 93
       13
176
     1
 44
0.0
176
     1
173
     0
176
     1
  0
VISUALSTYLE
  5
37
102
{ACAD_REACTORS
330
2A
102
}
330
2A
100
AcDbVisualStyle
  2
Thicken
 70
    13
177
     2
291
     1
 71
     2
176
     1
 72
     2
176
     1
 73
     0
176
     1
 90
        0
176
     1
 40
-0.6
176
     1
 41
-30.0
176
     1
 62
     5
 63
     7
421
 16777215
176
     1
 74
     1
176
     1
 91
        4
176
     1
 64
     7
176
     1
 65
   257
176
     1
 75
     1
176
     1
175
     1
176
     1
 42
1.0
176
     1
 92
       12
176
     1
 66
     7
176
     1
 43
1.0
176
     1
 76
     1
176
     1
 77
     6
176
     1
 78
     2
176
     1
 67
     7
176
     1
 79
     5
176
     1
170
     0
176
     1
171
     0
176
     1
290
     0
176
     1
 93
        1
176
     1
 44
0.0
176
     1
173
     0
176
     1
  0
ENDSEC
  0
EOF
