  0
SECTION
  2
HEADER
  9
$ACADVER
  1
AC1024
  9
$ACADMAINTVER
 70
     6
  9
$DWGCODEPAGE
  3
ANSI_1252
  9
$INSBASE
 10
0.0
 20
0.0
 30
0.0
  9
$EXTMIN
 10
1.000000000000000E+20
 20
1.000000000000000E+20
 30
1.000000000000000E+20
  9
$EXTMAX
 10
-1.000000000000000E+20
 20
-1.000000000000000E+20
 30
-1.000000000000000E+20
  9
$LIMMIN
 10
0.0
 20
0.0
  9
$LIMMAX
 10
12.0
 20
9.0
  9
$ORTHOMODE
 70
     0
  9
$REGENMODE
 70
     1
  9
$FILLMODE
 70
     1
  9
$QTEXTMODE
 70
     0
  9
$MIRRTEXT
 70
     1
  9
$LTSCALE
 40
1.0
  9
$ATTMODE
 70
     1
  9
$TEXTSIZE
 40
0.2
  9
$TRACEWID
 40
0.05
  9
$TEXTSTYLE
  7
Standard
  9
$CLAYER
  8
0
  9
$CELTYPE
  6
ByLayer
  9
$CECOLOR
 62
   256
  9
$CELTSCALE
 40
1.0
  9
$DISPSILH
 70
     0
  9
$DIMSCALE
 40
1.0
  9
$DIMASZ
 40
0.18
  9
$DIMEXO
 40
0.0625
  9
$DIMDLI
 40
0.38
  9
$DIMRND
 40
0.0
  9
$DIMDLE
 40
0.0
  9
$DIMEXE
 40
0.18
  9
$DIMTP
 40
0.0
  9
$DIMTM
 40
0.0
  9
$DIMTXT
 40
0.18
  9
$DIMCEN
 40
0.09
  9
$DIMTSZ
 40
0.0
  9
$DIMTOL
 70
     0
  9
$DIMLIM
 70
     0
  9
$DIMTIH
 70
     1
  9
$DIMTOH
 70
     1
  9
$DIMSE1
 70
     0
  9
$DIMSE2
 70
     0
  9
$DIMTAD
 70
     0
  9
$DIMZIN
 70
     0
  9
$DIMBLK
  1

  9
$DIMASO
 70
     1
  9
$DIMSHO
 70
     1
  9
$DIMPOST
  1

  9
$DIMAPOST
  1

  9
$DIMALT
 70
     0
  9
$DIMALTD
 70
     2
  9
$DIMALTF
 40
25.4
  9
$DIMLFAC
 40
1.0
  9
$DIMTOFL
 70
     0
  9
$DIMTVP
 40
0.0
  9
$DIMTIX
 70
     0
  9
$DIMSOXD
 70
     0
  9
$DIMSAH
 70
     0
  9
$DIMBLK1
  1

  9
$DIMBLK2
  1

  9
$DIMSTYLE
  2
Standard
  9
$DIMCLRD
 70
     0
  9
$DIMCLRE
 70
     0
  9
$DIMCLRT
 70
     0
  9
$DIMTFAC
 40
1.0
  9
$DIMGAP
 40
0.09
  9
$DIMJUST
 70
     0
  9
$DIMSD1
 70
     0
  9
$DIMSD2
 70
     0
  9
$DIMTOLJ
 70
     1
  9
$DIMTZIN
 70
     0
  9
$DIMALTZ
 70
     0
  9
$DIMALTTZ
 70
     0
  9
$DIMUPT
 70
     0
  9
$DIMDEC
 70
     4
  9
$DIMTDEC
 70
     4
  9
$DIMALTU
 70
     2
  9
$DIMALTTD
 70
     2
  9
$DIMTXSTY
  7
Standard
  9
$DIMAUNIT
 70
     0
  9
$DIMADEC
 70
     0
  9
$DIMALTRND
 40
0.0
  9
$DIMAZIN
 70
     0
  9
$DIMDSEP
 70
    46
  9
$DIMATFIT
 70
     3
  9
$DIMFRAC
 70
     0
  9
$DIMLDRBLK
  1

  9
$DIMLUNIT
 70
     2
  9
$DIMLWD
 70
    -2
  9
$DIMLWE
 70
    -2
  9
$DIMTMOVE
 70
     0
  9
$DIMFXL
 40
1.0
  9
$DIMFXLON
 70
     0
  9
$DIMJOGANG
 40
0.7853981633974483
  9
$DIMTFILL
 70
     0
  9
$DIMTFILLCLR
 70
     0
  9
$DIMARCSYM
 70
     0
  9
$DIMLTYPE
  6

  9
$DIMLTEX1
  6

  9
$DIMLTEX2
  6

  9
$DIMTXTDIRECTION
 70
     0
  9
$LUNITS
 70
     2
  9
$LUPREC
 70
     4
  9
$SKETCHINC
 40
0.1
  9
$FILLETRAD
 40
0.5
  9
$AUNITS
 70
     0
  9
$AUPREC
 70
     0
  9
$MENU
  1
.
  9
$ELEVATION
 40
0.0
  9
$PELEVATION
 40
0.0
  9
$THICKNESS
 40
0.0
  9
$LIMCHECK
 70
     0
  9
$CHAMFERA
 40
0.5
  9
$CHAMFERB
 40
0.5
  9
$CHAMFERC
 40
1.0
  9
$CHAMFERD
 40
0.0
  9
$SKPOLY
 70
     0
  9
$TDCREATE
 40
2458787.642625729
  9
$TDUCREATE
 40
2458787.100959063
  9
$TDUPDATE
 40
2458787.642625903
  9
$TDUUPDATE
 40
2458787.100959236
  9
$TDINDWG
 40
0.0000000116
  9
$TDUSRTIMER
 40
0.0000000116
  9
$USRTIMER
 70
     1
  9
$ANGBASE
 50
0.0
  9
$ANGDIR
 70
     0
  9
$PDMODE
 70
     0
  9
$PDSIZE
 40
0.0
  9
$PLINEWID
 40
0.0
  9
$SPLFRAME
 70
     0
  9
$SPLINETYPE
 70
     6
  9
$SPLINESEGS
 70
     8
  9
$HANDSEED
  5
23A
  9
$SURFTAB1
 70
     6
  9
$SURFTAB2
 70
     6
  9
$SURFTYPE
 70
     6
  9
$SURFU
 70
     6
  9
$SURFV
 70
     6
  9
$UCSBASE
  2

  9
$UCSNAME
  2

  9
$UCSORG
 10
0.0
 20
0.0
 30
0.0
  9
$UCSXDIR
 10
1.0
 20
0.0
 30
0.0
  9
$UCSYDIR
 10
0.0
 20
1.0
 30
0.0
  9
$UCSORTHOREF
  2

  9
$UCSORTHOVIEW
 70
     0
  9
$UCSORGTOP
 10
0.0
 20
0.0
 30
0.0
  9
$UCSORGBOTTOM
 10
0.0
 20
0.0
 30
0.0
  9
$UCSORGLEFT
 10
0.0
 20
0.0
 30
0.0
  9
$UCSORGRIGHT
 10
0.0
 20
0.0
 30
0.0
  9
$UCSORGFRONT
 10
0.0
 20
0.0
 30
0.0
  9
$UCSORGBACK
 10
0.0
 20
0.0
 30
0.0
  9
$PUCSBASE
  2

  9
$PUCSNAME
  2

  9
$PUCSORG
 10
0.0
 20
0.0
 30
0.0
  9
$PUCSXDIR
 10
1.0
 20
0.0
 30
0.0
  9
$PUCSYDIR
 10
0.0
 20
1.0
 30
0.0
  9
$PUCSORTHOREF
  2

  9
$PUCSORTHOVIEW
 70
     0
  9
$PUCSORGTOP
 10
0.0
 20
0.0
 30
0.0
  9
$PUCSORGBOTTOM
 10
0.0
 20
0.0
 30
0.0
  9
$PUCSORGLEFT
 10
0.0
 20
0.0
 30
0.0
  9
$PUCSORGRIGHT
 10
0.0
 20
0.0
 30
0.0
  9
$PUCSORGFRONT
 10
0.0
 20
0.0
 30
0.0
  9
$PUCSORGBACK
 10
0.0
 20
0.0
 30
0.0
  9
$USERI1
 70
     0
  9
$USERI2
 70
     0
  9
$USERI3
 70
     0
  9
$USERI4
 70
     0
  9
$USERI5
 70
     0
  9
$USERR1
 40
0.0
  9
$USERR2
 40
0.0
  9
$USERR3
 40
0.0
  9
$USERR4
 40
0.0
  9
$USERR5
 40
0.0
  9
$WORLDVIEW
 70
     1
  9
$SHADEDGE
 70
     3
  9
$SHADEDIF
 70
    70
  9
$TILEMODE
 70
     1
  9
$MAXACTVP
 70
    64
  9
$PINSBASE
 10
0.0
 20
0.0
 30
0.0
  9
$PLIMCHECK
 70
     0
  9
$PEXTMIN
 10
1.000000000000000E+20
 20
1.000000000000000E+20
 30
1.000000000000000E+20
  9
$PEXTMAX
 10
-1.000000000000000E+20
 20
-1.000000000000000E+20
 30
-1.000000000000000E+20
  9
$PLIMMIN
 10
0.0
 20
0.0
  9
$PLIMMAX
 10
12.0
 20
9.0
  9
$UNITMODE
 70
     0
  9
$VISRETAIN
 70
     1
  9
$PLINEGEN
 70
     0
  9
$PSLTSCALE
 70
     1
  9
$TREEDEPTH
 70
  3020
  9
$CMLSTYLE
  2
Standard
  9
$CMLJUST
 70
     0
  9
$CMLSCALE
 40
1.0
  9
$PROXYGRAPHICS
 70
     1
  9
$MEASUREMENT
 70
     0
  9
$CELWEIGHT
370
    -1
  9
$ENDCAPS
280
     0
  9
$JOINSTYLE
280
     0
  9
$LWDISPLAY
290
     1
  9
$INSUNITS
 70
     1
  9
$HYPERLINKBASE
  1

  9
$STYLESHEET
  1

  9
$XEDIT
290
     1
  9
$CEPSNTYPE
380
     0
  9
$PSTYLEMODE
290
     1
  9
$FINGERPRINTGUID
  2
{21EBFADD-7807-40EC-A5E9-7E714FA9EA85}
  9
$VERSIONGUID
  2
{FAEB1C32-E019-11D5-929B-00C0DF256EC4}
  9
$EXTNAMES
290
     1
  9
$PSVPSCALE
 40
0.0
  9
$OLESTARTUP
290
     0
  9
$SORTENTS
280
   127
  9
$INDEXCTL
280
     0
  9
$HIDETEXT
280
     1
  9
$XCLIPFRAME
280
     2
  9
$HALOGAP
280
     0
  9
$OBSCOLOR
 70
   257
  9
$OBSLTYPE
280
     0
  9
$INTERSECTIONDISPLAY
280
     0
  9
$INTERSECTIONCOLOR
 70
   257
  9
$DIMASSOC
280
     2
  9
$PROJECTNAME
  1

  9
$CAMERADISPLAY
290
     0
  9
$LENSLENGTH
 40
50.0
  9
$CAMERAHEIGHT
 40
0.0
  9
$STEPSPERSEC
 40
2.0
  9
$STEPSIZE
 40
6.0
  9
$3DDWFPREC
 40
2.0
  9
$PSOLWIDTH
 40
0.25
  9
$PSOLHEIGHT
 40
4.0
  9
$LOFTANG1
 40
1.570796326794897
  9
$LOFTANG2
 40
1.570796326794897
  9
$LOFTMAG1
 40
0.0
  9
$LOFTMAG2
 40
0.0
  9
$LOFTPARAM
 70
     7
  9
$LOFTNORMALS
280
     1
  9
$LATITUDE
 40
37.795
  9
$LONGITUDE
 40
-122.394
  9
$NORTHDIRECTION
 40
0.0
  9
$TIMEZONE
 70
 -8000
  9
$LIGHTGLYPHDISPLAY
280
     1
  9
$TILEMODELIGHTSYNCH
280
     1
  9
$CMATERIAL
347
3C
  9
$SOLIDHIST
280
     1
  9
$SHOWHIST
280
     1
  9
$DWFFRAME
280
     2
  9
$DGNFRAME
280
     2
  9
$REALWORLDSCALE
290
     1
  9
$INTERFERECOLOR
 62
   256
  9
$CSHADOW
280
     0
  9
$SHADOWPLANELOCATION
 40
0.0
  0
ENDSEC
  0
SECTION
  2
CLASSES
  0
CLASS
  1
ACDBDICTIONARYWDFLT
  2
AcDbDictionaryWithDefault
  3
ObjectDBX Classes
 90
        0
 91
        4
280
     0
281
     0
  0
CLASS
  1
VISUALSTYLE
  2
AcDbVisualStyle
  3
ObjectDBX Classes
 90
     4095
 91
        4
280
     0
281
     0
  0
CLASS
  1
MATERIAL
  2
AcDbMaterial
  3
ObjectDBX Classes
 90
     1153
 91
        4
280
     0
281
     0
  0
CLASS
  1
SUN
  2
AcDbSun
  3
SCENEOE
 90
     1024
 91
        4
280
     0
281
     0
  0
ENDSEC
  0
SECTION
  2
TABLES
  0
TABLE
  2
VPORT
  5
8
330
0
100
AcDbSymbolTable
 70
     1
  0
VPORT
  5
29
330
8
100
AcDbSymbolTableRecord
100
AcDbViewportTableRecord
  2
*Active
 70
     0
 10
0.0
 20
0.0
 11
1.0
 21
1.0
 12
0.0
 22
0.0
 13
0.0
 23
0.0
 14
0.5
 24
0.5
 15
0.5
 25
0.5
 16
0.0
 26
0.0
 36
1.0
 17
4.465379748306127
 27
5.645827722892792
 37
0.0
 40
11.69291338582677
 41
0.7070707070707065
 42
50.0
 43
0.0
 44
0.0
 50
0.0
 51
0.0
 71
     0
 72
   100
 73
     1
 74
     3
 75
     0
 76
     0
 77
     0
 78
     0
281
     0
 65
     1
110
0.0
120
0.0
130
0.0
111
1.0
121
0.0
131
0.0
112
0.0
122
1.0
132
0.0
 79
     0
146
0.0
 60
     3
 61
     5
292
     1
282
     1
141
0.0
142
0.0
 63
   250
361
3F
  0
ENDTAB
  0
TABLE
  2
LTYPE
  5
5
330
0
100
AcDbSymbolTable
 70
     1
  0
LTYPE
  5
14
330
5
100
AcDbSymbolTableRecord
100
AcDbLinetypeTableRecord
  2
ByBlock
 70
     0
  3

 72
    65
 73
     0
 40
0.0
  0
LTYPE
  5
15
330
5
100
AcDbSymbolTableRecord
100
AcDbLinetypeTableRecord
  2
ByLayer
 70
     0
  3

 72
    65
 73
     0
 40
0.0
  0
LTYPE
  5
16
330
5
100
AcDbSymbolTableRecord
100
AcDbLinetypeTableRecord
  2
Continuous
 70
     0
  3
Solid line
 72
    65
 73
     0
 40
0.0
  0
ENDTAB
  0
TABLE
  2
LAYER
  5
2
330
0
100
AcDbSymbolTable
 70
     4
  0
LAYER
  5
10
330
2
100
AcDbSymbolTableRecord
100
AcDbLayerTableRecord
  2
0
 70
     0
 62
     7
  6
Continuous
370
    -3
390
F
347
3E
  0
LAYER
  5
40
330
2
100
AcDbSymbolTableRecord
100
AcDbLayerTableRecord
  2
Wood
 70
     0
 62
     7
  6
Continuous
370
    -3
390
F
347
3E
  0
LAYER
  5
147
330
2
100
AcDbSymbolTableRecord
100
AcDbLayerTableRecord
  2
IUSE
 70
     0
 62
     7
  6
Continuous
370
    -3
390
F
347
3E
  0
LAYER
  5
22A
330
2
100
AcDbSymbolTableRecord
100
AcDbLayerTableRecord
  2
callouts
 70
     0
 62
     7
  6
Continuous
370
    -3
390
F
347
3E
  0
ENDTAB
  0
TABLE
  2
STYLE
  5
3
330
0
100
AcDbSymbolTable
 70
     1
  0
STYLE
  5
11
330
3
100
AcDbSymbolTableRecord
100
AcDbTextStyleTableRecord
  2
Standard
 70
     0
 40
0.0
 41
1.0
 50
0.0
 71
     0
 42
0.2
  3
txt
  4

  0
ENDTAB
  0
TABLE
  2
VIEW
  5
6
330
0
100
AcDbSymbolTable
 70
     0
  0
ENDTAB
  0
TABLE
  2
UCS
  5
7
330
0
100
AcDbSymbolTable
 70
     0
  0
ENDTAB
  0
TABLE
  2
APPID
  5
9
330
0
100
AcDbSymbolTable
 70
     1
  0
APPID
  5
12
330
9
100
AcDbSymbolTableRecord
100
AcDbRegAppTableRecord
  2
ACAD
 70
     0
  0
ENDTAB
  0
TABLE
  2
DIMSTYLE
  5
A
330
0
100
AcDbSymbolTable
 70
     1
100
AcDbDimStyleTable
  0
DIMSTYLE
105
27
330
A
100
AcDbSymbolTableRecord
100
AcDbDimStyleTableRecord
  2
Standard
 70
     0
178
     0
340
11
  0
ENDTAB
  0
TABLE
  2
BLOCK_RECORD
  5
1
330
0
100
AcDbSymbolTable
 70
    12
  0
BLOCK_RECORD
  5
1F
330
1
100
AcDbSymbolTableRecord
100
AcDbBlockTableRecord
  2
*Model_Space
340
22
 70
     0
280
     1
281
     0
  0
BLOCK_RECORD
  5
1B
330
1
100
AcDbSymbolTableRecord
100
AcDbBlockTableRecord
  2
*Paper_Space
340
1E
 70
     0
280
     1
281
     0
  0
BLOCK_RECORD
  5
23
330
1
100
AcDbSymbolTableRecord
100
AcDbBlockTableRecord
  2
*Paper_Space0
340
26
 70
     0
280
     1
281
     0
  0
BLOCK_RECORD
  5
7F
330
1
100
AcDbSymbolTableRecord
100
AcDbBlockTableRecord
  2
block 2
340
0
102
{BLKREFS
331
80
102
}
 70
     0
280
     1
281
     0
  0
BLOCK_RECORD
  5
1B7
330
1
100
AcDbSymbolTableRecord
100
AcDbBlockTableRecord
  2
block 3
340
0
102
{BLKREFS
331
1B8
102
}
 70
     0
280
     1
281
     0
  0
BLOCK_RECORD
  5
1C7
330
1
100
AcDbSymbolTableRecord
100
AcDbBlockTableRecord
  2
block 4
340
0
102
{BLKREFS
331
1C8
102
}
 70
     0
280
     1
281
     0
  0
BLOCK_RECORD
  5
1CB
330
1
100
AcDbSymbolTableRecord
100
AcDbBlockTableRecord
  2
block 5
340
0
102
{BLKREFS
331
1CC
102
}
 70
     0
280
     1
281
     0
  0
BLOCK_RECORD
  5
1EC
330
1
100
AcDbSymbolTableRecord
100
AcDbBlockTableRecord
  2
block 6
340
0
102
{BLKREFS
331
1ED
102
}
 70
     0
280
     1
281
     0
  0
BLOCK_RECORD
  5
1F0
330
1
100
AcDbSymbolTableRecord
100
AcDbBlockTableRecord
  2
block 7
340
0
102
{BLKREFS
331
1F1
102
}
 70
     0
280
     1
281
     0
  0
BLOCK_RECORD
  5
1F5
330
1
100
AcDbSymbolTableRecord
100
AcDbBlockTableRecord
  2
block 8
340
0
102
{BLKREFS
331
1F6
102
}
 70
     0
280
     1
281
     0
  0
BLOCK_RECORD
  5
1FD
330
1
100
AcDbSymbolTableRecord
100
AcDbBlockTableRecord
  2
block 9
340
0
102
{BLKREFS
331
1FE
102
}
 70
     0
280
     1
281
     0
  0
BLOCK_RECORD
  5
205
330
1
100
AcDbSymbolTableRecord
100
AcDbBlockTableRecord
  2
block 10
340
0
102
{BLKREFS
331
206
102
}
 70
     0
280
     1
281
     0
  0
BLOCK_RECORD
  5
20D
330
1
100
AcDbSymbolTableRecord
100
AcDbBlockTableRecord
  2
block 11
340
0
102
{BLKREFS
331
20E
102
}
 70
     0
280
     1
281
     0
  0
BLOCK_RECORD
  5
215
330
1
100
AcDbSymbolTableRecord
100
AcDbBlockTableRecord
  2
block 12
340
0
102
{BLKREFS
331
216
102
}
 70
     0
280
     1
281
     0
  0
ENDTAB
  0
ENDSEC
  0
SECTION
  2
BLOCKS
  0
BLOCK
  5
20
330
1F
100
AcDbEntity
  8
0
100
AcDbBlockBegin
  2
*Model_Space
 70
     0
 10
0.0
 20
0.0
 30
0.0
  3
*Model_Space
  1

  0
ENDBLK
  5
21
330
1F
100
AcDbEntity
  8
0
100
AcDbBlockEnd
  0
BLOCK
  5
1C
330
1B
100
AcDbEntity
 67
     1
  8
0
100
AcDbBlockBegin
  2
*Paper_Space
 70
     0
 10
0.0
 20
0.0
 30
0.0
  3
*Paper_Space
  1

  0
ENDBLK
  5
1D
330
1B
100
AcDbEntity
 67
     1
  8
0
100
AcDbBlockEnd
  0
BLOCK
  5
24
330
23
100
AcDbEntity
  8
0
100
AcDbBlockBegin
  2
*Paper_Space0
 70
     0
 10
0.0
 20
0.0
 30
0.0
  3
*Paper_Space0
  1

  0
ENDBLK
  5
25
330
23
100
AcDbEntity
  8
0
100
AcDbBlockEnd
  0
BLOCK
  5
81
330
7F
100
AcDbEntity
  8
0
100
AcDbBlockBegin
  2
block 2
 70
     0
 10
0.0
 20
0.0
 30
0.0
  3
block 2
  1

  0
POLYLINE
  5
83
330
7F
100
AcDbEntity
  8
Wood
370
     0
100
AcDb2dPolyline
 66
     1
 10
0.0
 20
0.0
 30
0.0
  0
VERTEX
  5
84
330
83
100
AcDbEntity
  8
Wood
370
     0
100
AcDbVertex
100
AcDb2dVertex
 10
4.678913770689582
 20
6.318806784817954
 30
0.0
  0
VERTEX
  5
85
330
83
100
AcDbEntity
  8
Wood
370
     0
100
AcDbVertex
100
AcDb2dVertex
 10
4.603665161479411
 20
6.272487341543638
 30
0.0
  0
VERTEX
  5
86
330
83
100
AcDbEntity
  8
Wood
370
     0
100
AcDbVertex
100
AcDb2dVertex
 10
4.603665161479411
 20
5.247802645207129
 30
0.0
  0
VERTEX
  5
87
330
83
100
AcDbEntity
  8
Wood
370
     0
100
AcDbVertex
100
AcDb2dVertex
 10
4.678913770689582
 20
5.21887209038242
 30
0.0
  0
VERTEX
  5
88
330
83
100
AcDbEntity
  8
Wood
370
     0
100
AcDbVertex
100
AcDb2dVertex
 10
4.678913770689582
 20
5.056776261143972
 30
0.0
  0
VERTEX
  5
89
330
83
100
AcDbEntity
  8
Wood
370
     0
100
AcDbVertex
100
AcDb2dVertex
 10
3.736463794497872
 20
4.351237390078495
 30
0.0
  0
VERTEX
  5
8A
330
83
100
AcDbEntity
  8
Wood
370
     0
100
AcDbVertex
100
AcDb2dVertex
 10
3.488917967418072
 20
4.460977665084
 30
0.0
  0
VERTEX
  5
8B
330
83
100
AcDbEntity
  8
Wood
370
     0
100
AcDbVertex
100
AcDb2dVertex
 10
3.488917967418072
 20
4.662055555555551
 30
0.0
  0
VERTEX
  5
8C
330
83
100
AcDbEntity
  8
Wood
370
     0
100
AcDbVertex
100
AcDb2dVertex
 10
3.567979076531931
 20
4.716009603085795
 30
0.0
  0
VERTEX
  5
8D
330
83
100
AcDbEntity
  8
Wood
370
     0
100
AcDbVertex
100
AcDb2dVertex
 10
3.567979076531931
 20
5.096259593479872
 30
0.0
  0
VERTEX
  5
8E
330
83
100
AcDbEntity
  8
Wood
370
     0
100
AcDbVertex
100
AcDb2dVertex
 10
3.519883244413601
 20
5.145426258904485
 30
0.0
  0
VERTEX
  5
8F
330
83
100
AcDbEntity
  8
Wood
370
     0
100
AcDbVertex
100
AcDb2dVertex
 10
3.645358241243836
 20
5.278631811094985
 30
0.0
  0
VERTEX
  5
90
330
83
100
AcDbEntity
  8
Wood
370
     0
100
AcDbVertex
100
AcDb2dVertex
 10
3.567979076531931
 20
5.349447087083818
 30
0.0
  0
VERTEX
  5
91
330
83
100
AcDbEntity
  8
Wood
370
     0
100
AcDbVertex
100
AcDb2dVertex
 10
3.567979076531931
 20
5.842813741286995
 30
0.0
  0
VERTEX
  5
92
330
83
100
AcDbEntity
  8
Wood
370
     0
100
AcDbVertex
100
AcDb2dVertex
 10
3.488917967418072
 20
5.867051240674704
 30
0.0
  0
VERTEX
  5
93
330
83
100
AcDbEntity
  8
Wood
370
     0
100
AcDbVertex
100
AcDb2dVertex
 10
3.488917967418072
 20
6.064391513467247
 30
0.0
  0
VERTEX
  5
94
330
83
100
AcDbEntity
  8
Wood
370
     0
100
AcDbVertex
100
AcDb2dVertex
 10
4.460394331765403
 20
6.545030390214176
 30
0.0
  0
VERTEX
  5
95
330
83
100
AcDbEntity
  8
Wood
370
     0
100
AcDbVertex
100
AcDb2dVertex
 10
4.678913770689582
 20
6.488517891641802
 30
0.0
  0
VERTEX
  5
96
330
83
100
AcDbEntity
  8
Wood
370
     0
100
AcDbVertex
100
AcDb2dVertex
 10
4.678913770689582
 20
6.318806784817954
 30
0.0
  0
SEQEND
  5
98
330
83
100
AcDbEntity
  8
Wood
370
     0
  0
HATCH
  5
97
330
7F
100
AcDbEntity
  8
Wood
 62
    43
420
 15510365
100
AcDbHatch
 10
0.0
 20
0.0
 30
0.0
210
0.0
220
0.0
230
1.0
  2
SOLID
 70
     1
 71
     0
 91
        1
 92
        1
 93
       18
 72
     1
 10
4.678913770689582
 20
6.318806784817954
 11
4.603665161479411
 21
6.272487341543638
 72
     1
 10
4.603665161479411
 20
6.272487341543638
 11
4.603665161479411
 21
5.247802645207129
 72
     1
 10
4.603665161479411
 20
5.247802645207129
 11
4.678913770689582
 21
5.21887209038242
 72
     1
 10
4.678913770689582
 20
5.21887209038242
 11
4.678913770689582
 21
5.056776261143972
 72
     1
 10
4.678913770689582
 20
5.056776261143972
 11
3.736463794497872
 21
4.351237390078495
 72
     1
 10
3.736463794497872
 20
4.351237390078495
 11
3.488917967418072
 21
4.460977665084
 72
     1
 10
3.488917967418072
 20
4.460977665084
 11
3.488917967418072
 21
4.662055555555551
 72
     1
 10
3.488917967418072
 20
4.662055555555551
 11
3.567979076531931
 21
4.716009603085795
 72
     1
 10
3.567979076531931
 20
4.716009603085795
 11
3.567979076531931
 21
5.096259593479872
 72
     1
 10
3.567979076531931
 20
5.096259593479872
 11
3.519883244413601
 21
5.145426258904485
 72
     1
 10
3.519883244413601
 20
5.145426258904485
 11
3.645358241243836
 21
5.278631811094985
 72
     1
 10
3.645358241243836
 20
5.278631811094985
 11
3.567979076531931
 21
5.349447087083818
 72
     1
 10
3.567979076531931
 20
5.349447087083818
 11
3.567979076531931
 21
5.842813741286995
 72
     1
 10
3.567979076531931
 20
5.842813741286995
 11
3.488917967418072
 21
5.867051240674704
 72
     1
 10
3.488917967418072
 20
5.867051240674704
 11
3.488917967418072
 21
6.064391513467247
 72
     1
 10
3.488917967418072
 20
6.064391513467247
 11
4.460394331765403
 21
6.545030390214176
 72
     1
 10
4.460394331765403
 20
6.545030390214176
 11
4.678913770689582
 21
6.488517891641802
 72
     1
 10
4.678913770689582
 20
6.488517891641802
 11
4.678913770689582
 21
6.318806784817954
 97
        0
 75
     2
 76
     1
 98
        0
  0
POLYLINE
  5
99
330
7F
100
AcDbEntity
  8
Wood
 62
   250
420
  2301728
370
    25
100
AcDb2dPolyline
 66
     1
 10
0.0
 20
0.0
 30
0.0
  0
VERTEX
  5
9A
330
99
100
AcDbEntity
  8
Wood
 62
   250
420
  2301728
370
    25
100
AcDbVertex
100
AcDb2dVertex
 10
3.73989573885563
 20
5.790920687042368
 30
0.0
  0
VERTEX
  5
9B
330
99
100
AcDbEntity
  8
Wood
 62
   250
420
  2301728
370
    25
100
AcDbVertex
100
AcDb2dVertex
 10
3.64363601906512
 20
5.818488741901496
 30
0.0
  0
SEQEND
  5
9C
330
99
100
AcDbEntity
  8
Wood
 62
   250
420
  2301728
370
    25
  0
POLYLINE
  5
9D
330
7F
100
AcDbEntity
  8
Wood
 62
   250
420
  2301728
370
    25
100
AcDb2dPolyline
 66
     1
 10
0.0
 20
0.0
 30
0.0
  0
VERTEX
  5
9E
330
9D
100
AcDbEntity
  8
Wood
 62
   250
420
  2301728
370
    25
100
AcDbVertex
100
AcDb2dVertex
 10
4.678913770689582
 20
6.318806784817954
 30
0.0
  0
VERTEX
  5
9F
330
9D
100
AcDbEntity
  8
Wood
 62
   250
420
  2301728
370
    25
100
AcDbVertex
100
AcDb2dVertex
 10
4.603665161479411
 20
6.272487341543638
 30
0.0
  0
VERTEX
  5
A0
330
9D
100
AcDbEntity
  8
Wood
 62
   250
420
  2301728
370
    25
100
AcDbVertex
100
AcDb2dVertex
 10
4.603665161479411
 20
5.247802645207129
 30
0.0
  0
VERTEX
  5
A1
330
9D
100
AcDbEntity
  8
Wood
 62
   250
420
  2301728
370
    25
100
AcDbVertex
100
AcDb2dVertex
 10
4.678913770689582
 20
5.21887209038242
 30
0.0
  0
VERTEX
  5
A2
330
9D
100
AcDbEntity
  8
Wood
 62
   250
420
  2301728
370
    25
100
AcDbVertex
100
AcDb2dVertex
 10
4.678913770689582
 20
5.056776261143972
 30
0.0
  0
VERTEX
  5
A3
330
9D
100
AcDbEntity
  8
Wood
 62
   250
420
  2301728
370
    25
100
AcDbVertex
100
AcDb2dVertex
 10
3.736463794497872
 20
4.351237390078495
 30
0.0
  0
VERTEX
  5
A4
330
9D
100
AcDbEntity
  8
Wood
 62
   250
420
  2301728
370
    25
100
AcDbVertex
100
AcDb2dVertex
 10
3.488917967418072
 20
4.460977665084
 30
0.0
  0
VERTEX
  5
A5
330
9D
100
AcDbEntity
  8
Wood
 62
   250
420
  2301728
370
    25
100
AcDbVertex
100
AcDb2dVertex
 10
3.488917967418072
 20
4.662055555555551
 30
0.0
  0
VERTEX
  5
A6
330
9D
100
AcDbEntity
  8
Wood
 62
   250
420
  2301728
370
    25
100
AcDbVertex
100
AcDb2dVertex
 10
3.567979076531931
 20
4.716009603085795
 30
0.0
  0
VERTEX
  5
A7
330
9D
100
AcDbEntity
  8
Wood
 62
   250
420
  2301728
370
    25
100
AcDbVertex
100
AcDb2dVertex
 10
3.567979076531931
 20
5.096259593479872
 30
0.0
  0
VERTEX
  5
A8
330
9D
100
AcDbEntity
  8
Wood
 62
   250
420
  2301728
370
    25
100
AcDbVertex
100
AcDb2dVertex
 10
3.519883244413601
 20
5.145426258904485
 30
0.0
  0
VERTEX
  5
A9
330
9D
100
AcDbEntity
  8
Wood
 62
   250
420
  2301728
370
    25
100
AcDbVertex
100
AcDb2dVertex
 10
3.645358241243836
 20
5.278631811094985
 30
0.0
  0
VERTEX
  5
AA
330
9D
100
AcDbEntity
  8
Wood
 62
   250
420
  2301728
370
    25
100
AcDbVertex
100
AcDb2dVertex
 10
3.567979076531931
 20
5.349447087083818
 30
0.0
  0
VERTEX
  5
AB
330
9D
100
AcDbEntity
  8
Wood
 62
   250
420
  2301728
370
    25
100
AcDbVertex
100
AcDb2dVertex
 10
3.567979076531931
 20
5.842813741286995
 30
0.0
  0
VERTEX
  5
AC
330
9D
100
AcDbEntity
  8
Wood
 62
   250
420
  2301728
370
    25
100
AcDbVertex
100
AcDb2dVertex
 10
3.488917967418072
 20
5.867051240674704
 30
0.0
  0
VERTEX
  5
AD
330
9D
100
AcDbEntity
  8
Wood
 62
   250
420
  2301728
370
    25
100
AcDbVertex
100
AcDb2dVertex
 10
3.488917967418072
 20
6.064391513467247
 30
0.0
  0
VERTEX
  5
AE
330
9D
100
AcDbEntity
  8
Wood
 62
   250
420
  2301728
370
    25
100
AcDbVertex
100
AcDb2dVertex
 10
4.460394331765403
 20
6.545030390214176
 30
0.0
  0
VERTEX
  5
AF
330
9D
100
AcDbEntity
  8
Wood
 62
   250
420
  2301728
370
    25
100
AcDbVertex
100
AcDb2dVertex
 10
4.678913770689582
 20
6.488517891641802
 30
0.0
  0
VERTEX
  5
B0
330
9D
100
AcDbEntity
  8
Wood
 62
   250
420
  2301728
370
    25
100
AcDbVertex
100
AcDb2dVertex
 10
4.678913770689582
 20
6.318806784817954
 30
0.0
  0
SEQEND
  5
B1
330
9D
100
AcDbEntity
  8
Wood
 62
   250
420
  2301728
370
    25
  0
POLYLINE
  5
B2
330
7F
100
AcDbEntity
  8
Wood
 62
   250
420
  2301728
370
    18
100
AcDb2dPolyline
 66
     1
 10
0.0
 20
0.0
 30
0.0
  0
VERTEX
  5
B3
330
B2
100
AcDbEntity
  8
Wood
 62
   250
420
  2301728
370
    18
100
AcDbVertex
100
AcDb2dVertex
 10
3.488917967418072
 20
6.064391513467247
 30
0.0
  0
VERTEX
  5
B4
330
B2
100
AcDbEntity
  8
Wood
 62
   250
420
  2301728
370
    18
100
AcDbVertex
100
AcDb2dVertex
 10
3.73989573885563
 20
5.991984570851955
 30
0.0
  0
VERTEX
  5
B5
330
B2
100
AcDbEntity
  8
Wood
 62
   250
420
  2301728
370
    18
100
AcDbVertex
100
AcDb2dVertex
 10
4.678913770689582
 20
6.488517891641802
 30
0.0
  0
SEQEND
  5
B6
330
B2
100
AcDbEntity
  8
Wood
 62
   250
420
  2301728
370
    18
  0
POLYLINE
  5
B7
330
7F
100
AcDbEntity
  8
Wood
 62
   250
420
  2301728
370
    18
100
AcDb2dPolyline
 66
     1
 10
0.0
 20
0.0
 30
0.0
  0
VERTEX
  5
B8
330
B7
100
AcDbEntity
  8
Wood
 62
   250
420
  2301728
370
    18
100
AcDbVertex
100
AcDb2dVertex
 10
3.642224907989657
 20
4.600097222222226
 30
0.0
  0
VERTEX
  5
B9
330
B7
100
AcDbEntity
  8
Wood
 62
   250
420
  2301728
370
    18
100
AcDbVertex
100
AcDb2dVertex
 10
3.733017961251587
 20
4.563408218051942
 30
0.0
  0
VERTEX
  5
BA
330
B7
100
AcDbEntity
  8
Wood
 62
   250
420
  2301728
370
    18
100
AcDbVertex
100
AcDb2dVertex
 10
4.676377659642538
 20
5.218858201493882
 30
0.0
  0
SEQEND
  5
BB
330
B7
100
AcDbEntity
  8
Wood
 62
   250
420
  2301728
370
    18
  0
POLYLINE
  5
BC
330
7F
100
AcDbEntity
  8
Wood
 62
   250
420
  2301728
370
    18
100
AcDb2dPolyline
 66
     1
 10
0.0
 20
0.0
 30
0.0
  0
VERTEX
  5
BD
330
BC
100
AcDbEntity
  8
Wood
 62
   250
420
  2301728
370
    18
100
AcDbVertex
100
AcDb2dVertex
 10
3.488917967418072
 20
4.662055555555551
 30
0.0
  0
VERTEX
  5
BE
330
BC
100
AcDbEntity
  8
Wood
 62
   250
420
  2301728
370
    18
100
AcDbVertex
100
AcDb2dVertex
 10
3.569186020945886
 20
4.629611111111116
 30
0.0
  0
SEQEND
  5
BF
330
BC
100
AcDbEntity
  8
Wood
 62
   250
420
  2301728
370
    18
  0
POLYLINE
  5
C0
330
7F
100
AcDbEntity
  8
Wood
 62
   250
420
  2301728
370
    18
100
AcDb2dPolyline
 66
     1
 10
0.0
 20
0.0
 30
0.0
  0
VERTEX
  5
C1
330
C0
100
AcDbEntity
  8
Wood
 62
   250
420
  2301728
370
    18
100
AcDbVertex
100
AcDb2dVertex
 10
3.64363601906512
 20
5.323283198855885
 30
0.0
  0
VERTEX
  5
C2
330
C0
100
AcDbEntity
  8
Wood
 62
   250
420
  2301728
370
    18
100
AcDbVertex
100
AcDb2dVertex
 10
3.717556850531057
 20
5.252373478424993
 30
0.0
  0
VERTEX
  5
C3
330
C0
100
AcDbEntity
  8
Wood
 62
   250
420
  2301728
370
    18
100
AcDbVertex
100
AcDb2dVertex
 10
3.58692768716436
 20
5.120917926190284
 30
0.0
  0
VERTEX
  5
C4
330
C0
100
AcDbEntity
  8
Wood
 62
   250
420
  2301728
370
    18
100
AcDbVertex
100
AcDb2dVertex
 10
3.643229074630956
 20
5.068209594188475
 30
0.0
  0
VERTEX
  5
C5
330
C0
100
AcDbEntity
  8
Wood
 62
   250
420
  2301728
370
    18
100
AcDbVertex
100
AcDb2dVertex
 10
3.642184630212897
 20
4.519544330271148
 30
0.0
  0
VERTEX
  5
C6
330
C0
100
AcDbEntity
  8
Wood
 62
   250
420
  2301728
370
    18
100
AcDbVertex
100
AcDb2dVertex
 10
3.569999999999999
 20
4.549208333333328
 30
0.0
  0
VERTEX
  5
C7
330
C0
100
AcDbEntity
  8
Wood
 62
   250
420
  2301728
370
    18
100
AcDbVertex
100
AcDb2dVertex
 10
3.569999999999999
 20
5.092569444444456
 30
0.0
  0
VERTEX
  5
C8
330
C0
100
AcDbEntity
  8
Wood
 62
   250
420
  2301728
370
    18
100
AcDbVertex
100
AcDb2dVertex
 10
3.519883244413601
 20
5.145426258904485
 30
0.0
  0
VERTEX
  5
C9
330
C0
100
AcDbEntity
  8
Wood
 62
   250
420
  2301728
370
    18
100
AcDbVertex
100
AcDb2dVertex
 10
3.647080463422551
 20
5.278685977760284
 30
0.0
  0
VERTEX
  5
CA
330
C0
100
AcDbEntity
  8
Wood
 62
   250
420
  2301728
370
    18
100
AcDbVertex
100
AcDb2dVertex
 10
3.569999999999999
 20
5.351359587035504
 30
0.0
  0
VERTEX
  5
CB
330
C0
100
AcDbEntity
  8
Wood
 62
   250
420
  2301728
370
    18
100
AcDbVertex
100
AcDb2dVertex
 10
3.569999999999999
 20
5.914320683925022
 30
0.0
  0
VERTEX
  5
CC
330
C0
100
AcDbEntity
  8
Wood
 62
   250
420
  2301728
370
    18
100
AcDbVertex
100
AcDb2dVertex
 10
3.64464018570642
 20
5.891492906723922
 30
0.0
  0
VERTEX
  5
CD
330
C0
100
AcDbEntity
  8
Wood
 62
   250
420
  2301728
370
    18
100
AcDbVertex
100
AcDb2dVertex
 10
3.64363601906512
 20
5.323283198855885
 30
0.0
  0
SEQEND
  5
CE
330
C0
100
AcDbEntity
  8
Wood
 62
   250
420
  2301728
370
    18
  0
POLYLINE
  5
CF
330
7F
100
AcDbEntity
  8
Wood
 62
   250
420
  2301728
370
    18
100
AcDb2dPolyline
 66
     1
 10
0.0
 20
0.0
 30
0.0
  0
VERTEX
  5
D0
330
CF
100
AcDbEntity
  8
Wood
 62
   250
420
  2301728
370
    18
100
AcDbVertex
100
AcDb2dVertex
 10
3.522705466564528
 20
5.146280425549573
 30
0.0
  0
VERTEX
  5
D1
330
CF
100
AcDbEntity
  8
Wood
 62
   250
420
  2301728
370
    18
100
AcDbVertex
100
AcDb2dVertex
 10
3.588636020454537
 20
5.11907209290358
 30
0.0
  0
SEQEND
  5
D2
330
CF
100
AcDbEntity
  8
Wood
 62
   250
420
  2301728
370
    18
  0
POLYLINE
  5
D3
330
7F
100
AcDbEntity
  8
Wood
 62
   250
420
  2301728
370
    18
100
AcDb2dPolyline
 66
     1
 10
0.0
 20
0.0
 30
0.0
  0
VERTEX
  5
D4
330
D3
100
AcDbEntity
  8
Wood
 62
   250
420
  2301728
370
    18
100
AcDbVertex
100
AcDb2dVertex
 10
3.568020743197545
 20
5.096259593479872
 30
0.0
  0
VERTEX
  5
D5
330
D3
100
AcDbEntity
  8
Wood
 62
   250
420
  2301728
370
    18
100
AcDbVertex
100
AcDb2dVertex
 10
3.64363601906512
 20
5.068209594188475
 30
0.0
  0
SEQEND
  5
D6
330
D3
100
AcDbEntity
  8
Wood
 62
   250
420
  2301728
370
    18
  0
POLYLINE
  5
D7
330
7F
100
AcDbEntity
  8
Wood
 62
   250
420
  2301728
370
    13
100
AcDb2dPolyline
 66
     1
 10
0.0
 20
0.0
 30
0.0
  0
VERTEX
  5
D8
330
D7
100
AcDbEntity
  8
Wood
 62
   250
420
  2301728
370
    13
100
AcDbVertex
100
AcDb2dVertex
 10
3.587917964917121
 20
5.907348461878933
 30
0.0
  0
VERTEX
  5
D9
330
D7
100
AcDbEntity
  8
Wood
 62
   250
420
  2301728
370
    13
100
AcDbVertex
100
AcDb2dVertex
 10
3.586954076052582
 20
5.346177642721967
 30
0.0
  0
VERTEX
  5
DA
330
D7
100
AcDbEntity
  8
Wood
 62
   250
420
  2301728
370
    13
100
AcDbVertex
100
AcDb2dVertex
 10
3.662542963031935
 20
5.273451255670301
 30
0.0
  0
VERTEX
  5
DB
330
D7
100
AcDbEntity
  8
Wood
 62
   250
420
  2301728
370
    13
100
AcDbVertex
100
AcDb2dVertex
 10
3.535359632911523
 20
5.140191536814503
 30
0.0
  0
VERTEX
  5
DC
330
D7
100
AcDbEntity
  8
Wood
 62
   250
420
  2301728
370
    13
100
AcDbVertex
100
AcDb2dVertex
 10
3.586506853841658
 20
5.091105426943411
 30
0.0
  0
VERTEX
  5
DD
330
D7
100
AcDbEntity
  8
Wood
 62
   250
420
  2301728
370
    13
100
AcDbVertex
100
AcDb2dVertex
 10
3.585462409423599
 20
4.541951274149546
 30
0.0
  0
SEQEND
  5
DE
330
D7
100
AcDbEntity
  8
Wood
 62
   250
420
  2301728
370
    13
  0
POLYLINE
  5
DF
330
7F
100
AcDbEntity
  8
Wood
 62
   250
420
  2301728
370
    25
100
AcDb2dPolyline
 66
     1
 10
0.0
 20
0.0
 30
0.0
  0
VERTEX
  5
E0
330
DF
100
AcDbEntity
  8
Wood
 62
   250
420
  2301728
370
    25
100
AcDbVertex
100
AcDb2dVertex
 10
3.73989573885563
 20
5.790920687042368
 30
0.0
  0
VERTEX
  5
E1
330
DF
100
AcDbEntity
  8
Wood
 62
   250
420
  2301728
370
    25
100
AcDbVertex
100
AcDb2dVertex
 10
4.676960992961136
 20
6.318155395945521
 30
0.0
  0
SEQEND
  5
E2
330
DF
100
AcDbEntity
  8
Wood
 62
   250
420
  2301728
370
    25
  0
POLYLINE
  5
E3
330
7F
100
AcDbEntity
  8
Wood
 62
   250
420
  2301728
370
    18
100
AcDb2dPolyline
 66
     1
 10
0.0
 20
0.0
 30
0.0
  0
VERTEX
  5
E4
330
E3
100
AcDbEntity
  8
Wood
 62
   250
420
  2301728
370
    18
100
AcDbVertex
100
AcDb2dVertex
 10
3.738172127788049
 20
5.790885964821023
 30
0.0
  0
VERTEX
  5
E5
330
E3
100
AcDbEntity
  8
Wood
 62
   250
420
  2301728
370
    18
100
AcDbVertex
100
AcDb2dVertex
 10
3.738172127788049
 20
5.991942904186342
 30
0.0
  0
SEQEND
  5
E6
330
E3
100
AcDbEntity
  8
Wood
 62
   250
420
  2301728
370
    18
  0
POLYLINE
  5
E7
330
7F
100
AcDbEntity
  8
Wood
 62
   250
420
  2301728
370
    18
100
AcDb2dPolyline
 66
     1
 10
0.0
 20
0.0
 30
0.0
  0
VERTEX
  5
E8
330
E7
100
AcDbEntity
  8
Wood
 62
   250
420
  2301728
370
    18
100
AcDbVertex
100
AcDb2dVertex
 10
3.738172127788049
 20
4.353162390029865
 30
0.0
  0
VERTEX
  5
E9
330
E7
100
AcDbEntity
  8
Wood
 62
   250
420
  2301728
370
    18
100
AcDbVertex
100
AcDb2dVertex
 10
3.738172127788049
 20
4.563544329159614
 30
0.0
  0
SEQEND
  5
EA
330
E7
100
AcDbEntity
  8
Wood
 62
   250
420
  2301728
370
    18
  0
POLYLINE
  5
EB
330
7F
100
AcDbEntity
  8
Wood
 62
   250
420
  2301728
370
    18
100
AcDb2dPolyline
 66
     1
 10
0.0
 20
0.0
 30
0.0
  0
VERTEX
  5
EC
330
EB
100
AcDbEntity
  8
Wood
 62
   250
420
  2301728
370
    18
100
AcDbVertex
100
AcDb2dVertex
 10
3.568331854300797
 20
5.356622086902562
 30
0.0
  0
VERTEX
  5
ED
330
EB
100
AcDbEntity
  8
Wood
 62
   250
420
  2301728
370
    18
100
AcDbVertex
100
AcDb2dVertex
 10
3.64363601906512
 20
5.323283198855885
 30
0.0
  0
SEQEND
  5
EE
330
EB
100
AcDbEntity
  8
Wood
 62
   250
420
  2301728
370
    18
  0
POLYLINE
  5
EF
330
7F
100
AcDbEntity
  8
Wood
 62
   250
420
  2301728
370
    18
100
AcDb2dPolyline
 66
     1
 10
0.0
 20
0.0
 30
0.0
  0
VERTEX
  5
F0
330
EF
100
AcDbEntity
  8
Wood
 62
   250
420
  2301728
370
    18
100
AcDbVertex
100
AcDb2dVertex
 10
3.641927685774943
 20
5.280422088827536
 30
0.0
  0
VERTEX
  5
F1
330
EF
100
AcDbEntity
  8
Wood
 62
   250
420
  2301728
370
    18
100
AcDbVertex
100
AcDb2dVertex
 10
3.714111111111113
 20
5.254163756157545
 30
0.0
  0
SEQEND
  5
F2
330
EF
100
AcDbEntity
  8
Wood
 62
   250
420
  2301728
370
    18
  0
POLYLINE
  5
F3
330
7F
100
AcDbEntity
  8
Wood
 62
   250
420
  2301728
370
    13
100
AcDb2dPolyline
 66
     1
 10
0.0
 20
0.0
 30
0.0
  0
VERTEX
  5
F4
330
F3
100
AcDbEntity
  8
Wood
 62
   250
420
  2301728
370
    13
100
AcDbVertex
100
AcDb2dVertex
 10
3.625731852850751
 20
5.897054017694548
 30
0.0
  0
VERTEX
  5
F5
330
F3
100
AcDbEntity
  8
Wood
 62
   250
420
  2301728
370
    13
100
AcDbVertex
100
AcDb2dVertex
 10
3.62474157509799
 20
5.332044309745672
 30
0.0
  0
VERTEX
  5
F6
330
F3
100
AcDbEntity
  8
Wood
 62
   250
420
  2301728
370
    13
100
AcDbVertex
100
AcDb2dVertex
 10
3.700372128742957
 20
5.259426256024603
 30
0.0
  0
VERTEX
  5
F7
330
F3
100
AcDbEntity
  8
Wood
 62
   250
420
  2301728
370
    13
100
AcDbVertex
100
AcDb2dVertex
 10
3.56974296537626
 20
5.126098481614968
 30
0.0
  0
VERTEX
  5
F8
330
F3
100
AcDbEntity
  8
Wood
 62
   250
420
  2301728
370
    13
100
AcDbVertex
100
AcDb2dVertex
 10
3.624322130664142
 20
5.075262371788085
 30
0.0
  0
VERTEX
  5
F9
330
F3
100
AcDbEntity
  8
Wood
 62
   250
420
  2301728
370
    13
100
AcDbVertex
100
AcDb2dVertex
 10
3.62327777777778
 20
4.524684607919071
 30
0.0
  0
SEQEND
  5
FA
330
F3
100
AcDbEntity
  8
Wood
 62
   250
420
  2301728
370
    13
  0
POLYLINE
  5
FB
330
7F
100
AcDbEntity
  8
Wood
 62
   250
420
  2301728
370
    13
100
AcDb2dPolyline
 66
     1
 10
0.0
 20
0.0
 30
0.0
  0
VERTEX
  5
FC
330
FB
100
AcDbEntity
  8
Wood
 62
   250
420
  2301728
370
    13
100
AcDbVertex
100
AcDb2dVertex
 10
3.606824908883937
 20
5.90220123978674
 30
0.0
  0
VERTEX
  5
FD
330
FB
100
AcDbEntity
  8
Wood
 62
   250
420
  2301728
370
    13
100
AcDbVertex
100
AcDb2dVertex
 10
3.605848520019713
 20
5.33730680961273
 30
0.0
  0
VERTEX
  5
FE
330
FB
100
AcDbEntity
  8
Wood
 62
   250
420
  2301728
370
    13
100
AcDbVertex
100
AcDb2dVertex
 10
3.679727684820035
 20
5.268269311356764
 30
0.0
  0
VERTEX
  5
FF
330
FB
100
AcDbEntity
  8
Wood
 62
   250
420
  2301728
370
    13
100
AcDbVertex
100
AcDb2dVertex
 10
3.554266576878338
 20
5.133179036991653
 30
0.0
  0
VERTEX
  5
100
330
FB
100
AcDbEntity
  8
Wood
 62
   250
420
  2301728
370
    13
100
AcDbVertex
100
AcDb2dVertex
 10
3.605401297808789
 20
5.080362371659248
 30
0.0
  0
VERTEX
  5
101
330
FB
100
AcDbEntity
  8
Wood
 62
   250
420
  2301728
370
    13
100
AcDbVertex
100
AcDb2dVertex
 10
3.604369353390414
 20
4.533541666666679
 30
0.0
  0
SEQEND
  5
102
330
FB
100
AcDbEntity
  8
Wood
 62
   250
420
  2301728
370
    13
  0
POLYLINE
  5
103
330
7F
100
AcDbEntity
  8
Wood
 62
   250
420
  2301728
370
    18
100
AcDb2dPolyline
 66
     1
 10
0.0
 20
0.0
 30
0.0
  0
VERTEX
  5
104
330
103
100
AcDbEntity
  8
Wood
 62
   250
420
  2301728
370
    18
100
AcDbVertex
100
AcDb2dVertex
 10
3.641927685774943
 20
4.600423494894636
 30
0.0
  0
VERTEX
  5
105
330
103
100
AcDbEntity
  8
Wood
 62
   250
420
  2301728
370
    18
100
AcDbVertex
100
AcDb2dVertex
 10
4.587579050774669
 20
5.253024867297427
 30
0.0
  0
SEQEND
  5
106
330
103
100
AcDbEntity
  8
Wood
 62
   250
420
  2301728
370
    18
  0
ENDBLK
  5
82
330
7F
100
AcDbEntity
  8
0
100
AcDbBlockEnd
  0
BLOCK
  5
1B9
330
1B7
100
AcDbEntity
  8
0
100
AcDbBlockBegin
  2
block 3
 70
     0
 10
0.0
 20
0.0
 30
0.0
  3
block 3
  1

  0
POLYLINE
  5
1BB
330
1B7
100
AcDbEntity
  8
IUSE
370
     0
100
AcDb2dPolyline
 66
     1
 10
0.0
 20
0.0
 30
0.0
  0
VERTEX
  5
1BC
330
1BB
100
AcDbEntity
  8
IUSE
370
     0
100
AcDbVertex
100
AcDb2dVertex
 10
4.601997105965993
 20
5.03884570604138
 30
0.0
  0
VERTEX
  5
1BD
330
1BB
100
AcDbEntity
  8
IUSE
370
     0
100
AcDbVertex
100
AcDb2dVertex
 10
4.60872349468496
 20
5.048611111111111
 30
0.0
  0
VERTEX
  5
1BE
330
1BB
100
AcDbEntity
  8
IUSE
370
     0
100
AcDbVertex
100
AcDb2dVertex
 10
4.608941550235007
 20
5.0492623724449
 30
0.0
  0
VERTEX
  5
1BF
330
1BB
100
AcDbEntity
  8
IUSE
370
     0
100
AcDbVertex
100
AcDb2dVertex
 10
4.600694444444444
 20
5.047526261377647
 30
0.0
  0
VERTEX
  5
1C0
330
1BB
100
AcDbEntity
  8
IUSE
370
     0
100
AcDbVertex
100
AcDb2dVertex
 10
4.592448495096101
 20
5.036458333333333
 30
0.0
  0
VERTEX
  5
1C1
330
1BB
100
AcDbEntity
  8
IUSE
370
     0
100
AcDbVertex
100
AcDb2dVertex
 10
4.601997105965993
 20
5.03884570604138
 30
0.0
  0
SEQEND
  5
1C3
330
1BB
100
AcDbEntity
  8
IUSE
370
     0
  0
HATCH
  5
1C2
330
1B7
100
AcDbEntity
  8
IUSE
 62
    43
420
 15510365
100
AcDbHatch
 10
0.0
 20
0.0
 30
0.0
210
0.0
220
0.0
230
1.0
  2
SOLID
 70
     1
 71
     0
 91
        1
 92
        1
 93
        5
 72
     1
 10
4.601997105965993
 20
5.03884570604138
 11
4.60872349468496
 21
5.048611111111111
 72
     1
 10
4.60872349468496
 20
5.048611111111111
 11
4.608941550235007
 21
5.0492623724449
 72
     1
 10
4.608941550235007
 20
5.0492623724449
 11
4.600694444444444
 21
5.047526261377647
 72
     1
 10
4.600694444444444
 20
5.047526261377647
 11
4.592448495096101
 21
5.036458333333333
 72
     1
 10
4.592448495096101
 20
5.036458333333333
 11
4.601997105965993
 21
5.03884570604138
 97
        0
 75
     2
 76
     1
 98
        0
  0
ENDBLK
  5
1BA
330
1B7
100
AcDbEntity
  8
0
100
AcDbBlockEnd
  0
BLOCK
  5
1C9
330
1C7
100
AcDbEntity
  8
0
100
AcDbBlockBegin
  2
block 4
 70
     0
 10
0.0
 20
0.0
 30
0.0
  3
block 4
  1

  0
INSERT
  5
1CC
330
1C7
100
AcDbEntity
  8
IUSE
100
AcDbBlockReference
  2
block 5
 10
0.0
 20
0.0
 30
0.0
  0
POLYLINE
  5
1DD
330
1C7
100
AcDbEntity
  8
IUSE
 62
   250
420
  2301728
370
     9
100
AcDb2dPolyline
 66
     1
 10
0.0
 20
0.0
 30
0.0
  0
VERTEX
  5
1DE
330
1DD
100
AcDbEntity
  8
IUSE
 62
   250
420
  2301728
370
     9
100
AcDbVertex
100
AcDb2dVertex
 10
4.54307766300998
 20
5.089788760310006
 30
0.0
  0
VERTEX
  5
1DF
330
1DD
100
AcDbEntity
  8
IUSE
 62
   250
420
  2301728
370
     9
100
AcDbVertex
100
AcDb2dVertex
 10
4.551052662808514
 20
5.087130427043828
 30
0.0
  0
SEQEND
  5
1E0
330
1DD
100
AcDbEntity
  8
IUSE
 62
   250
420
  2301728
370
     9
  0
ENDBLK
  5
1CA
330
1C7
100
AcDbEntity
  8
0
100
AcDbBlockEnd
  0
BLOCK
  5
1CD
330
1CB
100
AcDbEntity
  8
0
100
AcDbBlockBegin
  2
block 5
 70
     0
 10
0.0
 20
0.0
 30
0.0
  3
block 5
  1

  0
POLYLINE
  5
1CF
330
1CB
100
AcDbEntity
  8
IUSE
370
     0
100
AcDb2dPolyline
 66
     1
 10
0.0
 20
0.0
 30
0.0
  0
VERTEX
  5
1D0
330
1CF
100
AcDbEntity
  8
IUSE
370
     0
100
AcDbVertex
100
AcDb2dVertex
 10
4.523030441294193
 20
5.084187371562621
 30
0.0
  0
VERTEX
  5
1D1
330
1CF
100
AcDbEntity
  8
IUSE
370
     0
100
AcDbVertex
100
AcDb2dVertex
 10
4.54131377416565
 20
5.088310982569561
 30
0.0
  0
VERTEX
  5
1D2
330
1CF
100
AcDbEntity
  8
IUSE
370
     0
100
AcDbVertex
100
AcDb2dVertex
 10
4.543673496328261
 20
5.096570704583124
 30
0.0
  0
VERTEX
  5
1D3
330
1CF
100
AcDbEntity
  8
IUSE
370
     0
100
AcDbVertex
100
AcDb2dVertex
 10
4.537773496477308
 20
5.104234593278407
 30
0.0
  0
VERTEX
  5
1D4
330
1CF
100
AcDbEntity
  8
IUSE
370
     0
100
AcDbVertex
100
AcDb2dVertex
 10
4.527154052301133
 20
5.095974871264843
 30
0.0
  0
VERTEX
  5
1D5
330
1CF
100
AcDbEntity
  8
IUSE
370
     0
100
AcDbVertex
100
AcDb2dVertex
 10
4.523030441294193
 20
5.084187371562621
 30
0.0
  0
SEQEND
  5
1D7
330
1CF
100
AcDbEntity
  8
IUSE
370
     0
  0
HATCH
  5
1D6
330
1CB
100
AcDbEntity
  8
IUSE
 62
    43
420
 15510365
100
AcDbHatch
 10
0.0
 20
0.0
 30
0.0
210
0.0
220
0.0
230
1.0
  2
SOLID
 70
     1
 71
     0
 91
        1
 92
        1
 93
        5
 72
     1
 10
4.523030441294193
 20
5.084187371562621
 11
4.54131377416565
 21
5.088310982569561
 72
     1
 10
4.54131377416565
 20
5.088310982569561
 11
4.543673496328261
 21
5.096570704583124
 72
     1
 10
4.543673496328261
 20
5.096570704583124
 11
4.537773496477308
 21
5.104234593278407
 72
     1
 10
4.537773496477308
 20
5.104234593278407
 11
4.527154052301133
 21
5.095974871264843
 72
     1
 10
4.527154052301133
 20
5.095974871264843
 11
4.523030441294193
 21
5.084187371562621
 97
        0
 75
     2
 76
     1
 98
        0
  0
SPLINE
  5
1D8
330
1CB
100
AcDbEntity
  8
IUSE
 62
   250
420
  2301728
370
     9
100
AcDbSpline
210
0.0
220
0.0
230
1.0
 70
     8
 71
     3
 72
    14
 73
    10
 74
     0
 42
0.0000000001
 43
0.0000000001
 12
1.0
 22
0.0
 32
0.0
 13
1.0
 23
0.0
 33
0.0
 40
0.0
 40
0.0
 40
0.0
 40
0.0
 40
1.0
 40
1.0
 40
1.0
 40
2.0
 40
2.0
 40
2.0
 40
3.0
 40
3.0
 40
3.0
 40
3.0
 10
4.520372108028014
 20
5.077691538393386
 30
0.0
 10
4.521254052450179
 20
5.093912371316947
 30
0.0
 10
4.53302627437501
 20
5.103204037748886
 30
0.0
 10
4.53719016315871
 20
5.10365125995981
 30
0.0
 10
4.539577663098397
 20
5.103922093286301
 30
0.0
 10
4.545451274061128
 20
5.096001260153066
 30
0.0
 10
4.542494329691382
 20
5.091552649154336
 30
0.0
 10
4.542494329691382
 20
5.091552649154336
 30
0.0
 10
4.541015163062083
 20
5.084486111111119
 30
0.0
 10
4.522433219087057
 20
5.083888888888901
 30
0.0
  0
SPLINE
  5
1D9
330
1CB
100
AcDbEntity
  8
IUSE
 62
   250
420
  2301728
370
     9
100
AcDbSpline
210
0.0
220
0.0
230
1.0
 70
     8
 71
     3
 72
    11
 73
     7
 74
     0
 42
0.0000000001
 43
0.0000000001
 12
1.0
 22
0.0
 32
0.0
 13
1.0
 23
0.0
 33
0.0
 40
0.0
 40
0.0
 40
0.0
 40
0.0
 40
1.0
 40
1.0
 40
1.0
 40
2.0
 40
2.0
 40
2.0
 40
2.0
 10
4.521891552434075
 20
5.076835982859444
 30
0.0
 10
4.541015163062083
 20
5.074449871808611
 30
0.0
 10
4.548977662860933
 20
5.082410982718607
 30
0.0
 10
4.550754051704947
 20
5.091267926939306
 30
0.0
 10
4.550754051704947
 20
5.091267926939306
 30
0.0
 10
4.551635996127112
 20
5.084770704881217
 30
0.0
 10
4.551635996127112
 20
5.084770704881217
 30
0.0
  0
SPLINE
  5
1DA
330
1CB
100
AcDbEntity
  8
IUSE
 62
   250
420
  2301728
370
     9
100
AcDbSpline
210
0.0
220
0.0
230
1.0
 70
     8
 71
     3
 72
     8
 73
     4
 74
     0
 42
0.0000000001
 43
0.0000000001
 12
1.0
 22
0.0
 32
0.0
 13
1.0
 23
0.0
 33
0.0
 40
0.0
 40
0.0
 40
0.0
 40
0.0
 40
1.0
 40
1.0
 40
1.0
 40
1.0
 10
4.520073496924447
 20
5.072088760757146
 30
0.0
 10
4.522731830190625
 20
5.061767927684539
 30
0.0
 10
4.5274526634047
 20
5.060288761055239
 30
0.0
 10
4.532755441048518
 20
5.059406816633074
 30
0.0
  0
SPLINE
  5
1DB
330
1CB
100
AcDbEntity
  8
IUSE
 62
   250
420
  2301728
370
     9
100
AcDbSpline
210
0.0
220
0.0
230
1.0
 70
     8
 71
     3
 72
    11
 73
     7
 74
     0
 42
0.0000000001
 43
0.0000000001
 12
1.0
 22
0.0
 32
0.0
 13
1.0
 23
0.0
 33
0.0
 40
0.0
 40
0.0
 40
0.0
 40
0.0
 40
1.0
 40
1.0
 40
1.0
 40
2.0
 40
2.0
 40
2.0
 40
2.0
 10
4.55090277777779
 20
5.086683204832903
 30
0.0
 10
4.55090277777779
 20
5.086683204832903
 30
0.0
 10
4.550998496143216
 20
5.100694444444444
 30
0.0
 10
4.544012385208589
 20
5.103787371067483
 30
0.0
 10
4.537204052047248
 20
5.106784593213988
 30
0.0
 10
4.528781830037789
 20
5.101724871119586
 30
0.0
 10
4.522569444444444
 20
5.08599153818371
 30
0.0
  0
SPLINE
  5
1DC
330
1CB
100
AcDbEntity
  8
IUSE
 62
   250
420
  2301728
370
     9
100
AcDbSpline
210
0.0
220
0.0
230
1.0
 70
     8
 71
     3
 72
     8
 73
     4
 74
     0
 42
0.0000000001
 43
0.0000000001
 12
1.0
 22
0.0
 32
0.0
 13
1.0
 23
0.0
 33
0.0
 40
0.0
 40
0.0
 40
0.0
 40
0.0
 40
1.0
 40
1.0
 40
1.0
 40
1.0
 10
4.538072107580875
 20
5.059705427736642
 30
0.0
 10
4.543388888888885
 20
5.061184594365941
 30
0.0
 10
4.553697107186154
 20
5.064426260950717
 30
0.0
 10
4.551934607230678
 20
5.084770704881217
 30
0.0
  0
ENDBLK
  5
1CE
330
1CB
100
AcDbEntity
  8
0
100
AcDbBlockEnd
  0
BLOCK
  5
1EE
330
1EC
100
AcDbEntity
  8
0
100
AcDbBlockBegin
  2
block 6
 70
     0
 10
0.0
 20
0.0
 30
0.0
  3
block 6
  1

  0
INSERT
  5
1F1
330
1EC
100
AcDbEntity
  8
IUSE
100
AcDbBlockReference
  2
block 7
 10
0.0
 20
0.0
 30
0.0
  0
INSERT
  5
1F6
330
1EC
100
AcDbEntity
  8
IUSE
100
AcDbBlockReference
  2
block 8
 10
0.0
 20
0.0
 30
0.0
  0
INSERT
  5
1FE
330
1EC
100
AcDbEntity
  8
IUSE
100
AcDbBlockReference
  2
block 9
 10
0.0
 20
0.0
 30
0.0
  0
INSERT
  5
206
330
1EC
100
AcDbEntity
  8
IUSE
100
AcDbBlockReference
  2
block 10
 10
0.0
 20
0.0
 30
0.0
  0
INSERT
  5
20E
330
1EC
100
AcDbEntity
  8
IUSE
100
AcDbBlockReference
  2
block 11
 10
0.0
 20
0.0
 30
0.0
  0
INSERT
  5
216
330
1EC
100
AcDbEntity
  8
IUSE
100
AcDbBlockReference
  2
block 12
 10
0.0
 20
0.0
 30
0.0
  0
ENDBLK
  5
1EF
330
1EC
100
AcDbEntity
  8
0
100
AcDbBlockEnd
  0
BLOCK
  5
1F2
330
1F0
100
AcDbEntity
  8
0
100
AcDbBlockBegin
  2
block 7
 70
     0
 10
0.0
 20
0.0
 30
0.0
  3
block 7
  1

  0
SPLINE
  5
1F4
330
1F0
100
AcDbEntity
  8
IUSE
 62
   250
420
  2301728
370
     9
100
AcDbSpline
210
0.0
220
0.0
230
1.0
 70
     8
 71
     3
 72
    11
 73
     7
 74
     0
 42
0.0000000001
 43
0.0000000001
 12
1.0
 22
0.0
 32
0.0
 13
1.0
 23
0.0
 33
0.0
 40
0.0
 40
0.0
 40
0.0
 40
0.0
 40
1.0
 40
1.0
 40
1.0
 40
2.0
 40
2.0
 40
2.0
 40
2.0
 10
4.589437384061057
 20
5.035399872795097
 30
0.0
 10
4.59429293949395
 20
5.029541666666672
 30
0.0
 10
4.604302661463306
 20
5.027452650773638
 30
0.0
 10
4.609944444444434
 20
5.03884570604138
 30
0.0
 10
4.612630439030706
 20
5.044270705904333
 30
0.0
 10
4.612263888888896
 20
5.048977650229871
 30
0.0
 10
4.61288738346866
 20
5.050631816854749
 30
0.0
  0
ENDBLK
  5
1F3
330
1F0
100
AcDbEntity
  8
0
100
AcDbBlockEnd
  0
BLOCK
  5
1F7
330
1F5
100
AcDbEntity
  8
0
100
AcDbBlockBegin
  2
block 8
 70
     0
 10
0.0
 20
0.0
 30
0.0
  3
block 8
  1

  0
POLYLINE
  5
1F9
330
1F5
100
AcDbEntity
  8
IUSE
 62
   250
420
  2301728
370
     9
100
AcDb2dPolyline
 66
     1
 10
0.0
 20
0.0
 30
0.0
  0
VERTEX
  5
1FA
330
1F9
100
AcDbEntity
  8
IUSE
 62
   250
420
  2301728
370
     9
100
AcDbVertex
100
AcDb2dVertex
 10
4.601169328209127
 20
5.04774292803884
 30
0.0
  0
VERTEX
  5
1FB
330
1F9
100
AcDbEntity
  8
IUSE
 62
   250
420
  2301728
370
     9
100
AcDbVertex
100
AcDb2dVertex
 10
4.61288738346866
 20
5.050631816854749
 30
0.0
  0
SEQEND
  5
1FC
330
1F9
100
AcDbEntity
  8
IUSE
 62
   250
420
  2301728
370
     9
  0
ENDBLK
  5
1F8
330
1F5
100
AcDbEntity
  8
0
100
AcDbBlockEnd
  0
BLOCK
  5
1FF
330
1FD
100
AcDbEntity
  8
0
100
AcDbBlockBegin
  2
block 9
 70
     0
 10
0.0
 20
0.0
 30
0.0
  3
block 9
  1

  0
POLYLINE
  5
201
330
1FD
100
AcDbEntity
  8
IUSE
 62
   250
420
  2301728
370
     9
100
AcDb2dPolyline
 66
     1
 10
0.0
 20
0.0
 30
0.0
  0
VERTEX
  5
202
330
201
100
AcDbEntity
  8
IUSE
 62
   250
420
  2301728
370
     9
100
AcDbVertex
100
AcDb2dVertex
 10
4.61288738346866
 20
5.050631816854749
 30
0.0
  0
VERTEX
  5
203
330
201
100
AcDbEntity
  8
IUSE
 62
   250
420
  2301728
370
     9
100
AcDbVertex
100
AcDb2dVertex
 10
4.601169328209127
 20
5.062092927676328
 30
0.0
  0
SEQEND
  5
204
330
201
100
AcDbEntity
  8
IUSE
 62
   250
420
  2301728
370
     9
  0
ENDBLK
  5
200
330
1FD
100
AcDbEntity
  8
0
100
AcDbBlockEnd
  0
BLOCK
  5
207
330
205
100
AcDbEntity
  8
0
100
AcDbBlockBegin
  2
block 10
 70
     0
 10
0.0
 20
0.0
 30
0.0
  3
block 10
  1

  0
POLYLINE
  5
209
330
205
100
AcDbEntity
  8
IUSE
 62
   250
420
  2301728
370
     9
100
AcDb2dPolyline
 66
     1
 10
0.0
 20
0.0
 30
0.0
  0
VERTEX
  5
20A
330
209
100
AcDbEntity
  8
IUSE
 62
   250
420
  2301728
370
     9
100
AcDbVertex
100
AcDb2dVertex
 10
4.601169328209127
 20
5.048394316911273
 30
0.0
  0
VERTEX
  5
20B
330
209
100
AcDbEntity
  8
IUSE
 62
   250
420
  2301728
370
     9
100
AcDbVertex
100
AcDb2dVertex
 10
4.589437384061057
 20
5.035399872795097
 30
0.0
  0
SEQEND
  5
20C
330
209
100
AcDbEntity
  8
IUSE
 62
   250
420
  2301728
370
     9
  0
ENDBLK
  5
208
330
205
100
AcDbEntity
  8
0
100
AcDbBlockEnd
  0
BLOCK
  5
20F
330
20D
100
AcDbEntity
  8
0
100
AcDbBlockBegin
  2
block 11
 70
     0
 10
0.0
 20
0.0
 30
0.0
  3
block 11
  1

  0
POLYLINE
  5
211
330
20D
100
AcDbEntity
  8
IUSE
 62
   250
420
  2301728
370
     9
100
AcDb2dPolyline
 66
     1
 10
0.0
 20
0.0
 30
0.0
  0
VERTEX
  5
212
330
211
100
AcDbEntity
  8
IUSE
 62
   250
420
  2301728
370
     9
100
AcDbVertex
100
AcDb2dVertex
 10
4.601169328209127
 20
5.062092927676328
 30
0.0
  0
VERTEX
  5
213
330
211
100
AcDbEntity
  8
IUSE
 62
   250
420
  2301728
370
     9
100
AcDbVertex
100
AcDb2dVertex
 10
4.589437384061057
 20
5.035399872795097
 30
0.0
  0
SEQEND
  5
214
330
211
100
AcDbEntity
  8
IUSE
 62
   250
420
  2301728
370
     9
  0
ENDBLK
  5
210
330
20D
100
AcDbEntity
  8
0
100
AcDbBlockEnd
  0
BLOCK
  5
217
330
215
100
AcDbEntity
  8
0
100
AcDbBlockBegin
  2
block 12
 70
     0
 10
0.0
 20
0.0
 30
0.0
  3
block 12
  1

  0
POLYLINE
  5
219
330
215
100
AcDbEntity
  8
IUSE
 62
   250
420
  2301728
370
     9
100
AcDb2dPolyline
 66
     1
 10
0.0
 20
0.0
 30
0.0
  0
VERTEX
  5
21A
330
219
100
AcDbEntity
  8
IUSE
 62
   250
420
  2301728
370
     9
100
AcDbVertex
100
AcDb2dVertex
 10
4.601169328209127
 20
5.047959594700033
 30
0.0
  0
VERTEX
  5
21B
330
219
100
AcDbEntity
  8
IUSE
 62
   250
420
  2301728
370
     9
100
AcDbVertex
100
AcDb2dVertex
 10
4.601169328209127
 20
5.062092927676328
 30
0.0
  0
SEQEND
  5
21C
330
219
100
AcDbEntity
  8
IUSE
 62
   250
420
  2301728
370
     9
  0
ENDBLK
  5
218
330
215
100
AcDbEntity
  8
0
100
AcDbBlockEnd
  0
ENDSEC
  0
SECTION
  2
ENTITIES
  0
POLYLINE
  5
41
330
1F
100
AcDbEntity
  8
Wood
370
     0
100
AcDb2dPolyline
 66
     1
 10
0.0
 20
0.0
 30
0.0
  0
VERTEX
  5
42
330
41
100
AcDbEntity
  8
Wood
370
     0
100
AcDbVertex
100
AcDb2dVertex
 10
5.310966532500363
 20
4.826767933621138
 30
0.0
  0
VERTEX
  5
43
330
41
100
AcDbEntity
  8
Wood
370
     0
100
AcDbVertex
100
AcDb2dVertex
 10
3.372517970358583
 20
5.545891526565659
 30
0.0
  0
VERTEX
  5
44
330
41
100
AcDbEntity
  8
Wood
370
     0
100
AcDbVertex
100
AcDb2dVertex
 10
3.372517970358583
 20
6.118055555555555
 30
0.0
  0
VERTEX
  5
45
330
41
100
AcDbEntity
  8
Wood
370
     0
100
AcDbVertex
100
AcDb2dVertex
 10
3.413194444444444
 20
6.135416666666666
 30
0.0
  0
VERTEX
  5
46
330
41
100
AcDbEntity
  8
Wood
370
     0
100
AcDbVertex
100
AcDb2dVertex
 10
3.329861111111111
 20
6.222222222222221
 30
0.0
  0
VERTEX
  5
47
330
41
100
AcDbEntity
  8
Wood
370
     0
100
AcDbVertex
100
AcDb2dVertex
 10
3.372517970358583
 20
6.243055555555555
 30
0.0
  0
VERTEX
  5
48
330
41
100
AcDbEntity
  8
Wood
370
     0
100
AcDbVertex
100
AcDb2dVertex
 10
3.372517970358583
 20
6.83315677182438
 30
0.0
  0
VERTEX
  5
49
330
41
100
AcDbEntity
  8
Wood
370
     0
100
AcDbVertex
100
AcDb2dVertex
 10
3.659722222222222
 20
6.940972222222221
 30
0.0
  0
VERTEX
  5
4A
330
41
100
AcDbEntity
  8
Wood
370
     0
100
AcDbVertex
100
AcDb2dVertex
 10
5.547458333333325
 20
6.471767892064943
 30
0.0
  0
VERTEX
  5
4B
330
41
100
AcDbEntity
  8
Wood
370
     0
100
AcDbVertex
100
AcDb2dVertex
 10
5.547458333333325
 20
5.798916666666665
 30
0.0
  0
VERTEX
  5
4C
330
41
100
AcDbEntity
  8
Wood
370
     0
100
AcDbVertex
100
AcDb2dVertex
 10
5.505410972032728
 20
5.766920687648672
 30
0.0
  0
VERTEX
  5
4D
330
41
100
AcDbEntity
  8
Wood
370
     0
100
AcDbVertex
100
AcDb2dVertex
 10
5.601590136269705
 20
5.677829023232637
 30
0.0
  0
VERTEX
  5
4E
330
41
100
AcDbEntity
  8
Wood
370
     0
100
AcDbVertex
100
AcDb2dVertex
 10
5.547458333333325
 20
5.635240135419634
 30
0.0
  0
VERTEX
  5
4F
330
41
100
AcDbEntity
  8
Wood
370
     0
100
AcDbVertex
100
AcDb2dVertex
 10
5.547458333333325
 20
5.015909595509684
 30
0.0
  0
VERTEX
  5
50
330
41
100
AcDbEntity
  8
Wood
370
     0
100
AcDbVertex
100
AcDb2dVertex
 10
5.310966532500363
 20
4.826767933621138
 30
0.0
  0
SEQEND
  5
52
330
41
100
AcDbEntity
  8
Wood
370
     0
  0
HATCH
  5
51
330
1F
100
AcDbEntity
  8
Wood
 62
    43
420
 15510365
100
AcDbHatch
 10
0.0
 20
0.0
 30
0.0
210
0.0
220
0.0
230
1.0
  2
SOLID
 70
     1
 71
     0
 91
        1
 92
        1
 93
       14
 72
     1
 10
5.310966532500363
 20
4.826767933621138
 11
3.372517970358583
 21
5.545891526565659
 72
     1
 10
3.372517970358583
 20
5.545891526565659
 11
3.372517970358583
 21
6.118055555555555
 72
     1
 10
3.372517970358583
 20
6.118055555555555
 11
3.413194444444444
 21
6.135416666666666
 72
     1
 10
3.413194444444444
 20
6.135416666666666
 11
3.329861111111111
 21
6.222222222222221
 72
     1
 10
3.329861111111111
 20
6.222222222222221
 11
3.372517970358583
 21
6.243055555555555
 72
     1
 10
3.372517970358583
 20
6.243055555555555
 11
3.372517970358583
 21
6.83315677182438
 72
     1
 10
3.372517970358583
 20
6.83315677182438
 11
3.659722222222222
 21
6.940972222222221
 72
     1
 10
3.659722222222222
 20
6.940972222222221
 11
5.547458333333325
 21
6.471767892064943
 72
     1
 10
5.547458333333325
 20
6.471767892064943
 11
5.547458333333325
 21
5.798916666666665
 72
     1
 10
5.547458333333325
 20
5.798916666666665
 11
5.505410972032728
 21
5.766920687648672
 72
     1
 10
5.505410972032728
 20
5.766920687648672
 11
5.601590136269705
 21
5.677829023232637
 72
     1
 10
5.601590136269705
 20
5.677829023232637
 11
5.547458333333325
 21
5.635240135419634
 72
     1
 10
5.547458333333325
 20
5.635240135419634
 11
5.547458333333325
 21
5.015909595509684
 72
     1
 10
5.547458333333325
 20
5.015909595509684
 11
5.310966532500363
 21
4.826767933621138
 97
        0
 75
     2
 76
     1
 98
        0
  0
POLYLINE
  5
53
330
1F
100
AcDbEntity
  8
Wood
 62
   250
420
  2301728
370
    25
100
AcDb2dPolyline
 66
     1
 10
0.0
 20
0.0
 30
0.0
  0
VERTEX
  5
54
330
53
100
AcDbEntity
  8
Wood
 62
   250
420
  2301728
370
    25
100
AcDbVertex
100
AcDb2dVertex
 10
5.310966532500363
 20
4.826767933621138
 30
0.0
  0
VERTEX
  5
55
330
53
100
AcDbEntity
  8
Wood
 62
   250
420
  2301728
370
    25
100
AcDbVertex
100
AcDb2dVertex
 10
3.372517970358583
 20
5.545891526565659
 30
0.0
  0
VERTEX
  5
56
330
53
100
AcDbEntity
  8
Wood
 62
   250
420
  2301728
370
    25
100
AcDbVertex
100
AcDb2dVertex
 10
3.372517970358583
 20
6.118055555555555
 30
0.0
  0
VERTEX
  5
57
330
53
100
AcDbEntity
  8
Wood
 62
   250
420
  2301728
370
    25
100
AcDbVertex
100
AcDb2dVertex
 10
3.413194444444444
 20
6.135416666666666
 30
0.0
  0
VERTEX
  5
58
330
53
100
AcDbEntity
  8
Wood
 62
   250
420
  2301728
370
    25
100
AcDbVertex
100
AcDb2dVertex
 10
3.329861111111111
 20
6.222222222222221
 30
0.0
  0
VERTEX
  5
59
330
53
100
AcDbEntity
  8
Wood
 62
   250
420
  2301728
370
    25
100
AcDbVertex
100
AcDb2dVertex
 10
3.372517970358583
 20
6.243055555555555
 30
0.0
  0
VERTEX
  5
5A
330
53
100
AcDbEntity
  8
Wood
 62
   250
420
  2301728
370
    25
100
AcDbVertex
100
AcDb2dVertex
 10
3.372517970358583
 20
6.83315677182438
 30
0.0
  0
VERTEX
  5
5B
330
53
100
AcDbEntity
  8
Wood
 62
   250
420
  2301728
370
    25
100
AcDbVertex
100
AcDb2dVertex
 10
3.659722222222222
 20
6.940972222222221
 30
0.0
  0
VERTEX
  5
5C
330
53
100
AcDbEntity
  8
Wood
 62
   250
420
  2301728
370
    25
100
AcDbVertex
100
AcDb2dVertex
 10
5.547458333333325
 20
6.471767892064943
 30
0.0
  0
VERTEX
  5
5D
330
53
100
AcDbEntity
  8
Wood
 62
   250
420
  2301728
370
    25
100
AcDbVertex
100
AcDb2dVertex
 10
5.547458333333325
 20
5.798916666666665
 30
0.0
  0
VERTEX
  5
5E
330
53
100
AcDbEntity
  8
Wood
 62
   250
420
  2301728
370
    25
100
AcDbVertex
100
AcDb2dVertex
 10
5.505410972032728
 20
5.766920687648672
 30
0.0
  0
VERTEX
  5
5F
330
53
100
AcDbEntity
  8
Wood
 62
   250
420
  2301728
370
    25
100
AcDbVertex
100
AcDb2dVertex
 10
5.601590136269705
 20
5.677829023232637
 30
0.0
  0
VERTEX
  5
60
330
53
100
AcDbEntity
  8
Wood
 62
   250
420
  2301728
370
    25
100
AcDbVertex
100
AcDb2dVertex
 10
5.547458333333325
 20
5.635240135419634
 30
0.0
  0
VERTEX
  5
61
330
53
100
AcDbEntity
  8
Wood
 62
   250
420
  2301728
370
    25
100
AcDbVertex
100
AcDb2dVertex
 10
5.547458333333325
 20
5.015909595509684
 30
0.0
  0
VERTEX
  5
62
330
53
100
AcDbEntity
  8
Wood
 62
   250
420
  2301728
370
    25
100
AcDbVertex
100
AcDb2dVertex
 10
5.310966532500363
 20
4.826767933621138
 30
0.0
  0
SEQEND
  5
63
330
53
100
AcDbEntity
  8
Wood
 62
   250
420
  2301728
370
    25
  0
POLYLINE
  5
64
330
1F
100
AcDbEntity
  8
Wood
 62
   250
420
  2301728
370
    18
100
AcDb2dPolyline
 66
     1
 10
0.0
 20
0.0
 30
0.0
  0
VERTEX
  5
65
330
64
100
AcDbEntity
  8
Wood
 62
   250
420
  2301728
370
    18
100
AcDbVertex
100
AcDb2dVertex
 10
5.310899865835381
 20
4.827054044725021
 30
0.0
  0
VERTEX
  5
66
330
64
100
AcDbEntity
  8
Wood
 62
   250
420
  2301728
370
    18
100
AcDbVertex
100
AcDb2dVertex
 10
5.310899865835381
 20
5.473524861727128
 30
0.0
  0
VERTEX
  5
67
330
64
100
AcDbEntity
  8
Wood
 62
   250
420
  2301728
370
    18
100
AcDbVertex
100
AcDb2dVertex
 10
5.363172086737095
 20
5.490329027969286
 30
0.0
  0
VERTEX
  5
68
330
64
100
AcDbEntity
  8
Wood
 62
   250
420
  2301728
370
    18
100
AcDbVertex
100
AcDb2dVertex
 10
5.258652777777772
 20
5.594876247550423
 30
0.0
  0
VERTEX
  5
69
330
64
100
AcDbEntity
  8
Wood
 62
   250
420
  2301728
370
    18
100
AcDbVertex
100
AcDb2dVertex
 10
5.305894310406276
 20
5.612948469316103
 30
0.0
  0
VERTEX
  5
6A
330
64
100
AcDbEntity
  8
Wood
 62
   250
420
  2301728
370
    18
100
AcDbVertex
100
AcDb2dVertex
 10
5.305894310406276
 20
6.331625000000005
 30
0.0
  0
SEQEND
  5
6B
330
64
100
AcDbEntity
  8
Wood
 62
   250
420
  2301728
370
    18
  0
POLYLINE
  5
6C
330
1F
100
AcDbEntity
  8
Wood
 62
   250
420
  2301728
370
    18
100
AcDb2dPolyline
 66
     1
 10
0.0
 20
0.0
 30
0.0
  0
VERTEX
  5
6D
330
6C
100
AcDbEntity
  8
Wood
 62
   250
420
  2301728
370
    18
100
AcDbVertex
100
AcDb2dVertex
 10
3.373941581433731
 20
6.831272049649783
 30
0.0
  0
VERTEX
  5
6E
330
6C
100
AcDbEntity
  8
Wood
 62
   250
420
  2301728
370
    18
100
AcDbVertex
100
AcDb2dVertex
 10
5.306437365948113
 20
6.330804006737101
 30
0.0
  0
VERTEX
  5
6F
330
6C
100
AcDbEntity
  8
Wood
 62
   250
420
  2301728
370
    18
100
AcDbVertex
100
AcDb2dVertex
 10
5.547390137638912
 20
6.471666666666667
 30
0.0
  0
SEQEND
  5
70
330
6C
100
AcDbEntity
  8
Wood
 62
   250
420
  2301728
370
    18
  0
POLYLINE
  5
71
330
1F
100
AcDbEntity
  8
Wood
 62
   250
420
  2301728
370
    25
100
AcDb2dPolyline
 66
     1
 10
0.0
 20
0.0
 30
0.0
  0
VERTEX
  5
72
330
71
100
AcDbEntity
  8
Wood
 62
   250
420
  2301728
370
    25
100
AcDbVertex
100
AcDb2dVertex
 10
5.505410972032728
 20
5.766920687648672
 30
0.0
  0
VERTEX
  5
73
330
71
100
AcDbEntity
  8
Wood
 62
   250
420
  2301728
370
    25
100
AcDbVertex
100
AcDb2dVertex
 10
5.306437365948113
 20
5.612934580427564
 30
0.0
  0
VERTEX
  5
74
330
71
100
AcDbEntity
  8
Wood
 62
   250
420
  2301728
370
    25
100
AcDbVertex
100
AcDb2dVertex
 10
5.258652777777772
 20
5.594876247550423
 30
0.0
  0
SEQEND
  5
75
330
71
100
AcDbEntity
  8
Wood
 62
   250
420
  2301728
370
    25
  0
POLYLINE
  5
76
330
1F
100
AcDbEntity
  8
Wood
 62
   250
420
  2301728
370
    25
100
AcDb2dPolyline
 66
     1
 10
0.0
 20
0.0
 30
0.0
  0
VERTEX
  5
77
330
76
100
AcDbEntity
  8
Wood
 62
   250
420
  2301728
370
    25
100
AcDbVertex
100
AcDb2dVertex
 10
5.546847222222216
 20
5.634684579878113
 30
0.0
  0
VERTEX
  5
78
330
76
100
AcDbEntity
  8
Wood
 62
   250
420
  2301728
370
    25
100
AcDbVertex
100
AcDb2dVertex
 10
5.363240142290932
 20
5.490613750184315
 30
0.0
  0
VERTEX
  5
79
330
76
100
AcDbEntity
  8
Wood
 62
   250
420
  2301728
370
    25
100
AcDbVertex
100
AcDb2dVertex
 10
5.310899865835381
 20
5.473524861727128
 30
0.0
  0
SEQEND
  5
7A
330
76
100
AcDbEntity
  8
Wood
 62
   250
420
  2301728
370
    25
  0
POLYLINE
  5
7B
330
1F
100
AcDbEntity
  8
Wood
 62
   250
420
  2301728
370
    25
100
AcDb2dPolyline
 66
     1
 10
0.0
 20
0.0
 30
0.0
  0
VERTEX
  5
7C
330
7B
100
AcDbEntity
  8
Wood
 62
   250
420
  2301728
370
    25
100
AcDbVertex
100
AcDb2dVertex
 10
4.653212382449965
 20
6.494045669279936
 30
0.0
  0
VERTEX
  5
237
330
7B
100
AcDbEntity
  8
0
100
AcDbVertex
100
AcDb2dVertex
 10
4.653212382449965
 20
6.494045669279936
 30
0.0
  0
SEQEND
  5
7D
330
7B
100
AcDbEntity
  8
Wood
 62
   250
420
  2301728
370
    25
  0
SPLINE
  5
7E
330
1F
100
AcDbEntity
  8
Wood
 62
   250
420
  2301728
370
     9
100
AcDbSpline
210
0.0
220
0.0
230
1.0
 70
     8
 71
     3
 72
    26
 73
    22
 74
     0
 42
0.0000000001
 43
0.0000000001
 12
1.0
 22
0.0
 32
0.0
 13
1.0
 23
0.0
 33
0.0
 40
0.0
 40
0.0
 40
0.0
 40
0.0
 40
1.0
 40
1.0
 40
1.0
 40
2.0
 40
2.0
 40
2.0
 40
3.0
 40
3.0
 40
3.0
 40
4.0
 40
4.0
 40
4.0
 40
5.0
 40
5.0
 40
5.0
 40
6.0
 40
6.0
 40
6.0
 40
7.0
 40
7.0
 40
7.0
 40
7.0
 10
3.621527777777778
 20
5.298027777777785
 30
0.0
 10
3.621527777777778
 20
5.298027777777785
 30
0.0
 10
3.649305555555555
 20
5.301500000000007
 30
0.0
 10
3.677083333333333
 20
5.294555555555562
 30
0.0
 10
3.704861111111111
 20
5.287611111111119
 30
0.0
 10
3.71875
 20
5.301500000000007
 30
0.0
 10
3.739583333333333
 20
5.298027777777785
 30
0.0
 10
3.760416666666667
 20
5.294555555555562
 30
0.0
 10
3.770833333333333
 20
5.287611111111119
 30
0.0
 10
3.767361111111111
 20
5.273722222222229
 30
0.0
 10
3.763888888888889
 20
5.259833333333341
 30
0.0
 10
3.78125
 20
5.245944444444452
 30
0.0
 10
3.770833333333333
 20
5.235527777777785
 30
0.0
 10
3.760416666666667
 20
5.225111111111119
 30
0.0
 10
3.75
 20
5.221638888888896
 30
0.0
 10
3.739583333333333
 20
5.179972222222229
 30
0.0
 10
3.729166666666667
 20
5.138305555555562
 30
0.0
 10
3.71875
 20
5.114000000000007
 30
0.0
 10
3.697916666666667
 20
5.100111111111119
 30
0.0
 10
3.687581851288289
 20
5.093220704667752
 30
0.0
 10
3.664429074095399
 20
5.077785982835445
 30
0.0
 10
3.643717963507495
 20
5.063977649850939
 30
0.0
  0
INSERT
  5
80
330
1F
100
AcDbEntity
  8
Wood
100
AcDbBlockReference
  2
block 2
 10
0.0
 20
0.0
 30
0.0
  0
POLYLINE
  5
107
330
1F
100
AcDbEntity
  8
Wood
 62
   250
420
  2301728
370
    13
100
AcDb2dPolyline
 66
     1
 10
0.0
 20
0.0
 30
0.0
  0
VERTEX
  5
108
330
107
100
AcDbEntity
  8
Wood
 62
   250
420
  2301728
370
    13
100
AcDbVertex
100
AcDb2dVertex
 10
3.49045130071267
 20
6.034722222222222
 30
0.0
  0
VERTEX
  5
109
330
107
100
AcDbEntity
  8
Wood
 62
   250
420
  2301728
370
    13
100
AcDbVertex
100
AcDb2dVertex
 10
3.737847222222222
 20
5.960937349414053
 30
0.0
  0
SEQEND
  5
10A
330
107
100
AcDbEntity
  8
Wood
 62
   250
420
  2301728
370
    13
  0
POLYLINE
  5
10B
330
1F
100
AcDbEntity
  8
Wood
 62
   250
420
  2301728
370
    13
100
AcDb2dPolyline
 66
     1
 10
0.0
 20
0.0
 30
0.0
  0
VERTEX
  5
10C
330
10B
100
AcDbEntity
  8
Wood
 62
   250
420
  2301728
370
    13
100
AcDbVertex
100
AcDb2dVertex
 10
3.49045130071267
 20
6.006944444444444
 30
0.0
  0
VERTEX
  5
10D
330
10B
100
AcDbEntity
  8
Wood
 62
   250
420
  2301728
370
    13
100
AcDbVertex
100
AcDb2dVertex
 10
3.737847222222222
 20
5.933159572338
 30
0.0
  0
SEQEND
  5
10E
330
10B
100
AcDbEntity
  8
Wood
 62
   250
420
  2301728
370
    13
  0
POLYLINE
  5
10F
330
1F
100
AcDbEntity
  8
Wood
 62
   250
420
  2301728
370
    13
100
AcDb2dPolyline
 66
     1
 10
0.0
 20
0.0
 30
0.0
  0
VERTEX
  5
110
330
10F
100
AcDbEntity
  8
Wood
 62
   250
420
  2301728
370
    13
100
AcDbVertex
100
AcDb2dVertex
 10
3.49045130071267
 20
5.979166666666666
 30
0.0
  0
VERTEX
  5
111
330
10F
100
AcDbEntity
  8
Wood
 62
   250
420
  2301728
370
    13
100
AcDbVertex
100
AcDb2dVertex
 10
3.737847222222222
 20
5.905381795261948
 30
0.0
  0
SEQEND
  5
112
330
10F
100
AcDbEntity
  8
Wood
 62
   250
420
  2301728
370
    13
  0
POLYLINE
  5
113
330
1F
100
AcDbEntity
  8
Wood
 62
   250
420
  2301728
370
    13
100
AcDb2dPolyline
 66
     1
 10
0.0
 20
0.0
 30
0.0
  0
VERTEX
  5
114
330
113
100
AcDbEntity
  8
Wood
 62
   250
420
  2301728
370
    13
100
AcDbVertex
100
AcDb2dVertex
 10
3.49045130071267
 20
5.951388888888888
 30
0.0
  0
VERTEX
  5
115
330
113
100
AcDbEntity
  8
Wood
 62
   250
420
  2301728
370
    13
100
AcDbVertex
100
AcDb2dVertex
 10
3.737847222222222
 20
5.877604018185896
 30
0.0
  0
SEQEND
  5
116
330
113
100
AcDbEntity
  8
Wood
 62
   250
420
  2301728
370
    13
  0
POLYLINE
  5
117
330
1F
100
AcDbEntity
  8
Wood
 62
   250
420
  2301728
370
    13
100
AcDb2dPolyline
 66
     1
 10
0.0
 20
0.0
 30
0.0
  0
VERTEX
  5
118
330
117
100
AcDbEntity
  8
Wood
 62
   250
420
  2301728
370
    13
100
AcDbVertex
100
AcDb2dVertex
 10
3.645127685694105
 20
5.877474851522505
 30
0.0
  0
VERTEX
  5
119
330
117
100
AcDbEntity
  8
Wood
 62
   250
420
  2301728
370
    13
100
AcDbVertex
100
AcDb2dVertex
 10
3.737847222222222
 20
5.849826241109844
 30
0.0
  0
SEQEND
  5
11A
330
117
100
AcDbEntity
  8
Wood
 62
   250
420
  2301728
370
    13
  0
POLYLINE
  5
11B
330
1F
100
AcDbEntity
  8
Wood
 62
   250
420
  2301728
370
    13
100
AcDb2dPolyline
 66
     1
 10
0.0
 20
0.0
 30
0.0
  0
VERTEX
  5
11C
330
11B
100
AcDbEntity
  8
Wood
 62
   250
420
  2301728
370
    13
100
AcDbVertex
100
AcDb2dVertex
 10
3.49045130071267
 20
5.923611111111111
 30
0.0
  0
VERTEX
  5
11D
330
11B
100
AcDbEntity
  8
Wood
 62
   250
420
  2301728
370
    13
100
AcDbVertex
100
AcDb2dVertex
 10
3.570204076475723
 20
5.899827628735592
 30
0.0
  0
SEQEND
  5
11E
330
11B
100
AcDbEntity
  8
Wood
 62
   250
420
  2301728
370
    13
  0
POLYLINE
  5
11F
330
1F
100
AcDbEntity
  8
Wood
 62
   250
420
  2301728
370
    13
100
AcDb2dPolyline
 66
     1
 10
0.0
 20
0.0
 30
0.0
  0
VERTEX
  5
120
330
11F
100
AcDbEntity
  8
Wood
 62
   250
420
  2301728
370
    13
100
AcDbVertex
100
AcDb2dVertex
 10
3.644137407941344
 20
5.849995685550008
 30
0.0
  0
VERTEX
  5
121
330
11F
100
AcDbEntity
  8
Wood
 62
   250
420
  2301728
370
    13
100
AcDbVertex
100
AcDb2dVertex
 10
3.737847222222222
 20
5.822048464033792
 30
0.0
  0
SEQEND
  5
122
330
11F
100
AcDbEntity
  8
Wood
 62
   250
420
  2301728
370
    13
  0
POLYLINE
  5
123
330
1F
100
AcDbEntity
  8
Wood
 62
   250
420
  2301728
370
    13
100
AcDb2dPolyline
 66
     1
 10
0.0
 20
0.0
 30
0.0
  0
VERTEX
  5
124
330
123
100
AcDbEntity
  8
Wood
 62
   250
420
  2301728
370
    13
100
AcDbVertex
100
AcDb2dVertex
 10
3.49045130071267
 20
5.895833333333333
 30
0.0
  0
VERTEX
  5
125
330
123
100
AcDbEntity
  8
Wood
 62
   250
420
  2301728
370
    13
100
AcDbVertex
100
AcDb2dVertex
 10
3.569905465372155
 20
5.872137351657329
 30
0.0
  0
SEQEND
  5
126
330
123
100
AcDbEntity
  8
Wood
 62
   250
420
  2301728
370
    13
  0
POLYLINE
  5
127
330
1F
100
AcDbEntity
  8
Wood
 62
   250
420
  2301728
370
    13
100
AcDb2dPolyline
 66
     1
 10
0.0
 20
0.0
 30
0.0
  0
VERTEX
  5
128
330
127
100
AcDbEntity
  8
Wood
 62
   250
420
  2301728
370
    13
100
AcDbVertex
100
AcDb2dVertex
 10
3.642808241308254
 20
4.565497106888061
 30
0.0
  0
VERTEX
  5
129
330
127
100
AcDbEntity
  8
Wood
 62
   250
420
  2301728
370
    13
100
AcDbVertex
100
AcDb2dVertex
 10
3.738715183329886
 20
4.526204052325132
 30
0.0
  0
SEQEND
  5
12A
330
127
100
AcDbEntity
  8
Wood
 62
   250
420
  2301728
370
    13
  0
POLYLINE
  5
12B
330
1F
100
AcDbEntity
  8
Wood
 62
   250
420
  2301728
370
    13
100
AcDb2dPolyline
 66
     1
 10
0.0
 20
0.0
 30
0.0
  0
VERTEX
  5
12C
330
12B
100
AcDbEntity
  8
Wood
 62
   250
420
  2301728
370
    13
100
AcDbVertex
100
AcDb2dVertex
 10
3.488715189645417
 20
4.628634605293073
 30
0.0
  0
VERTEX
  5
12D
330
12B
100
AcDbEntity
  8
Wood
 62
   250
420
  2301728
370
    13
100
AcDbVertex
100
AcDb2dVertex
 10
3.568820743177336
 20
4.595810995011157
 30
0.0
  0
SEQEND
  5
12E
330
12B
100
AcDbEntity
  8
Wood
 62
   250
420
  2301728
370
    13
  0
POLYLINE
  5
12F
330
1F
100
AcDbEntity
  8
Wood
 62
   250
420
  2301728
370
    13
100
AcDb2dPolyline
 66
     1
 10
0.0
 20
0.0
 30
0.0
  0
VERTEX
  5
130
330
12F
100
AcDbEntity
  8
Wood
 62
   250
420
  2301728
370
    13
100
AcDbVertex
100
AcDb2dVertex
 10
3.642306852432032
 20
4.537935996473203
 30
0.0
  0
VERTEX
  5
131
330
12F
100
AcDbEntity
  8
Wood
 62
   250
420
  2301728
370
    13
100
AcDbVertex
100
AcDb2dVertex
 10
3.738715183329886
 20
4.49842627524908
 30
0.0
  0
SEQEND
  5
132
330
12F
100
AcDbEntity
  8
Wood
 62
   250
420
  2301728
370
    13
  0
POLYLINE
  5
133
330
1F
100
AcDbEntity
  8
Wood
 62
   250
420
  2301728
370
    13
100
AcDb2dPolyline
 66
     1
 10
0.0
 20
0.0
 30
0.0
  0
VERTEX
  5
134
330
133
100
AcDbEntity
  8
Wood
 62
   250
420
  2301728
370
    13
100
AcDbVertex
100
AcDb2dVertex
 10
3.488715189645417
 20
4.600856828217021
 30
0.0
  0
VERTEX
  5
135
330
133
100
AcDbEntity
  8
Wood
 62
   250
420
  2301728
370
    13
100
AcDbVertex
100
AcDb2dVertex
 10
3.569526298715068
 20
4.567748495720076
 30
0.0
  0
SEQEND
  5
136
330
133
100
AcDbEntity
  8
Wood
 62
   250
420
  2301728
370
    13
  0
POLYLINE
  5
137
330
1F
100
AcDbEntity
  8
Wood
 62
   250
420
  2301728
370
    13
100
AcDb2dPolyline
 66
     1
 10
0.0
 20
0.0
 30
0.0
  0
VERTEX
  5
138
330
137
100
AcDbEntity
  8
Wood
 62
   250
420
  2301728
370
    13
100
AcDbVertex
100
AcDb2dVertex
 10
3.488715189645417
 20
4.57307905114097
 30
0.0
  0
VERTEX
  5
139
330
137
100
AcDbEntity
  8
Wood
 62
   250
420
  2301728
370
    13
100
AcDbVertex
100
AcDb2dVertex
 10
3.738715183329886
 20
4.467759609357118
 30
0.0
  0
SEQEND
  5
13A
330
137
100
AcDbEntity
  8
Wood
 62
   250
420
  2301728
370
    13
  0
POLYLINE
  5
13B
330
1F
100
AcDbEntity
  8
Wood
 62
   250
420
  2301728
370
    13
100
AcDb2dPolyline
 66
     1
 10
0.0
 20
0.0
 30
0.0
  0
VERTEX
  5
13C
330
13B
100
AcDbEntity
  8
Wood
 62
   250
420
  2301728
370
    13
100
AcDbVertex
100
AcDb2dVertex
 10
3.488715189645417
 20
4.545301274064918
 30
0.0
  0
VERTEX
  5
13D
330
13B
100
AcDbEntity
  8
Wood
 62
   250
420
  2301728
370
    13
100
AcDbVertex
100
AcDb2dVertex
 10
3.738715183329886
 20
4.439981832281066
 30
0.0
  0
SEQEND
  5
13E
330
13B
100
AcDbEntity
  8
Wood
 62
   250
420
  2301728
370
    13
  0
POLYLINE
  5
13F
330
1F
100
AcDbEntity
  8
Wood
 62
   250
420
  2301728
370
    13
100
AcDb2dPolyline
 66
     1
 10
0.0
 20
0.0
 30
0.0
  0
VERTEX
  5
140
330
13F
100
AcDbEntity
  8
Wood
 62
   250
420
  2301728
370
    13
100
AcDbVertex
100
AcDb2dVertex
 10
3.488715189645417
 20
4.517523496988866
 30
0.0
  0
VERTEX
  5
141
330
13F
100
AcDbEntity
  8
Wood
 62
   250
420
  2301728
370
    13
100
AcDbVertex
100
AcDb2dVertex
 10
3.738715183329886
 20
4.412204055205014
 30
0.0
  0
SEQEND
  5
142
330
13F
100
AcDbEntity
  8
Wood
 62
   250
420
  2301728
370
    13
  0
POLYLINE
  5
143
330
1F
100
AcDbEntity
  8
Wood
 62
   250
420
  2301728
370
    13
100
AcDb2dPolyline
 66
     1
 10
0.0
 20
0.0
 30
0.0
  0
VERTEX
  5
144
330
143
100
AcDbEntity
  8
Wood
 62
   250
420
  2301728
370
    13
100
AcDbVertex
100
AcDb2dVertex
 10
3.488715189645417
 20
4.489745719912813
 30
0.0
  0
VERTEX
  5
145
330
143
100
AcDbEntity
  8
Wood
 62
   250
420
  2301728
370
    13
100
AcDbVertex
100
AcDb2dVertex
 10
3.738715183329886
 20
4.384426278128962
 30
0.0
  0
SEQEND
  5
146
330
143
100
AcDbEntity
  8
Wood
 62
   250
420
  2301728
370
    13
  0
SPLINE
  5
148
330
1F
100
AcDbEntity
  8
IUSE
370
     0
100
AcDbSpline
210
0.0
220
0.0
230
1.0
 70
    11
 71
     3
 72
    86
 73
    82
 74
     0
 42
0.0000000001
 43
0.0000000001
 12
1.0
 22
0.0
 32
0.0
 13
1.0
 23
0.0
 33
0.0
 40
0.0
 40
0.0
 40
0.0
 40
0.0
 40
1.0
 40
1.0
 40
1.0
 40
2.0
 40
2.0
 40
2.0
 40
3.0
 40
3.0
 40
3.0
 40
4.0
 40
4.0
 40
4.0
 40
5.0
 40
5.0
 40
5.0
 40
6.0
 40
6.0
 40
6.0
 40
7.0
 40
7.0
 40
7.0
 40
8.0
 40
8.0
 40
8.0
 40
9.0
 40
9.0
 40
9.0
 40
10.0
 40
10.0
 40
10.0
 40
11.0
 40
11.0
 40
11.0
 40
12.0
 40
12.0
 40
12.0
 40
13.0
 40
13.0
 40
13.0
 40
14.0
 40
14.0
 40
14.0
 40
15.0
 40
15.0
 40
15.0
 40
16.0
 40
16.0
 40
16.0
 40
17.0
 40
17.0
 40
17.0
 40
18.0
 40
18.0
 40
18.0
 40
19.0
 40
19.0
 40
19.0
 40
20.0
 40
20.0
 40
20.0
 40
21.0
 40
21.0
 40
21.0
 40
22.0
 40
22.0
 40
22.0
 40
23.0
 40
23.0
 40
23.0
 40
24.0
 40
24.0
 40
24.0
 40
25.0
 40
25.0
 40
25.0
 40
26.0
 40
26.0
 40
26.0
 40
27.0
 40
27.0
 40
27.0
 40
27.0
 10
4.49293321983229
 20
4.916245709138517
 30
0.0
 10
4.49293321983229
 20
4.916245709138517
 30
0.0
 10
4.487752664407607
 20
5.109767926471957
 30
0.0
 10
4.487752664407607
 20
5.109767926471957
 30
0.0
 10
4.487752664407607
 20
5.109767926471957
 30
0.0
 10
4.576212384395149
 20
5.493495694555955
 30
0.0
 10
4.576212384395149
 20
5.493495694555955
 30
0.0
 10
4.576212384395149
 20
5.493495694555955
 30
0.0
 10
4.576212384395149
 20
5.978420682305719
 30
0.0
 10
4.576212384395149
 20
6.022806792295543
 30
0.0
 10
4.576212384395149
 20
6.067213735618174
 30
0.0
 10
4.574504051104971
 20
6.038384569679793
 30
0.0
 10
4.578491551004238
 20
6.066765124518408
 30
0.0
 10
4.584255439747519
 20
6.107822067925654
 30
0.0
 10
4.597398494971054
 20
6.241373453440751
 30
0.0
 10
4.610487383529289
 20
6.342284562002633
 30
0.0
 10
4.610635994636646
 20
6.343370673086307
 30
0.0
 10
4.614949883416557
 20
6.351569444444445
 30
0.0
 10
4.616156827830511
 20
6.354952617238167
 30
0.0
 10
4.624809605389701
 20
6.379265116623982
 30
0.0
 10
4.674967937455929
 20
6.479973447413208
 30
0.0
 10
4.674967937455929
 20
6.479973447413208
 30
0.0
 10
4.674967937455929
 20
6.479973447413208
 30
0.0
 10
4.689344325981639
 20
6.486131780590969
 30
0.0
 10
4.689344325981639
 20
6.486131780590969
 30
0.0
 10
4.689344325981639
 20
6.486131780590969
 30
0.0
 10
4.787027777777767
 20
6.458822059058648
 30
0.0
 10
4.787027777777767
 20
6.458822059058648
 30
0.0
 10
4.787027777777767
 20
6.458822059058648
 30
0.0
 10
4.790147101212924
 20
6.461899836758676
 30
0.0
 10
4.796088767729493
 20
6.465602614442913
 30
0.0
 10
4.802029045357206
 20
6.469305555555555
 30
0.0
 10
4.84328876653712
 20
6.482029002916836
 30
0.0
 10
4.84328876653712
 20
6.482029002916836
 30
0.0
 10
4.84328876653712
 20
6.482029002916836
 30
0.0
 10
4.906901264930133
 20
6.467658169946541
 30
0.0
 10
4.906901264930133
 20
6.467658169946541
 30
0.0
 10
4.906901264930133
 20
6.467658169946541
 30
0.0
 10
4.909736111111114
 20
6.457309559096857
 30
0.0
 10
4.909736111111114
 20
6.457309559096857
 30
0.0
 10
4.909736111111114
 20
6.457309559096857
 30
0.0
 10
4.863809599352053
 20
6.44199567059483
 30
0.0
 10
4.863809599352053
 20
6.44199567059483
 30
0.0
 10
4.863809599352053
 20
6.44199567059483
 30
0.0
 10
4.867622099255741
 20
5.522874999999999
 30
0.0
 10
4.867622099255741
 20
5.522874999999999
 30
0.0
 10
4.867622099255741
 20
5.522874999999999
 30
0.0
 10
4.697361111111099
 20
5.257988756060917
 30
0.0
 10
4.69137904815246
 20
5.238430555555547
 30
0.0
 10
4.685397103859132
 20
5.218898479270643
 30
0.0
 10
4.667059604322376
 20
5.185505424558666
 30
0.0
 10
4.66250265999305
 20
5.154405425344319
 30
0.0
 10
4.657158215683618
 20
5.117960981820539
 30
0.0
 10
4.661770715567096
 20
5.038899872706679
 30
0.0
 10
4.661770715567096
 20
5.032755428417456
 30
0.0
 10
4.661770715567096
 20
5.021388888888901
 30
0.0
 10
4.638698493927728
 20
5.004137373584854
 30
0.0
 10
4.638698493927728
 20
5.004137373584854
 30
0.0
 10
4.638698493927728
 20
5.004137373584854
 30
0.0
 10
4.638698493927728
 20
4.991441540572244
 30
0.0
 10
4.631048494120983
 20
4.98558181849805
 30
0.0
 10
4.62410404985197
 20
4.980265151965694
 30
0.0
 10
4.616481827822301
 20
4.981730429706456
 30
0.0
 10
4.616481827822301
 20
4.981730429706456
 30
0.0
 10
4.616481827822301
 20
4.981730429706456
 30
0.0
 10
4.581108217604802
 20
4.950913763818284
 30
0.0
 10
4.581108217604802
 20
4.950913763818284
 30
0.0
 10
4.581108217604802
 20
4.950913763818284
 30
0.0
 10
4.57999710652176
 20
4.941691541829035
 30
0.0
 10
4.573716551124865
 20
4.93564154198187
 30
0.0
 10
4.568604051254018
 20
4.93067765321838
 30
0.0
 10
4.561210995885227
 20
4.934176264241109
 30
0.0
 10
4.561210995885227
 20
4.934176264241109
 30
0.0
 10
4.561210995885227
 20
4.934176264241109
 30
0.0
 10
4.511515163807315
 20
4.893147098610926
 30
0.0
 10
4.511515163807315
 20
4.893147098610926
 30
0.0
 10
4.511515163807315
 20
4.893147098610926
 30
0.0
 10
4.4786373868601
 20
4.900079042880255
 30
0.0
 10
4.4786373868601
 20
4.900079042880255
 30
0.0
 10
4.4786373868601
 20
4.900079042880255
 30
0.0
 10
4.49293321983229
 20
4.916245709138517
 30
0.0
 10
4.49293321983229
 20
4.916245709138517
 30
0.0
  0
HATCH
  5
149
330
1F
100
AcDbEntity
  8
IUSE
 62
   254
420
 13358815
100
AcDbHatch
 10
0.0
 20
0.0
 30
0.0
210
0.0
220
0.0
230
1.0
  2
SOLID
 70
     1
 71
     0
 91
        1
 92
        1
 93
        1
 72
     4
 94
        3
 73
     0
 74
     1
 95
       86
 96
       82
 40
0.0
 40
0.0
 40
0.0
 40
0.0
 40
1.0
 40
1.0
 40
1.0
 40
2.0
 40
2.0
 40
2.0
 40
3.0
 40
3.0
 40
3.0
 40
4.0
 40
4.0
 40
4.0
 40
5.0
 40
5.0
 40
5.0
 40
6.0
 40
6.0
 40
6.0
 40
7.0
 40
7.0
 40
7.0
 40
8.0
 40
8.0
 40
8.0
 40
9.0
 40
9.0
 40
9.0
 40
10.0
 40
10.0
 40
10.0
 40
11.0
 40
11.0
 40
11.0
 40
12.0
 40
12.0
 40
12.0
 40
13.0
 40
13.0
 40
13.0
 40
14.0
 40
14.0
 40
14.0
 40
15.0
 40
15.0
 40
15.0
 40
16.0
 40
16.0
 40
16.0
 40
17.0
 40
17.0
 40
17.0
 40
18.0
 40
18.0
 40
18.0
 40
19.0
 40
19.0
 40
19.0
 40
20.0
 40
20.0
 40
20.0
 40
21.0
 40
21.0
 40
21.0
 40
22.0
 40
22.0
 40
22.0
 40
23.0
 40
23.0
 40
23.0
 40
24.0
 40
24.0
 40
24.0
 40
25.0
 40
25.0
 40
25.0
 40
26.0
 40
26.0
 40
26.0
 40
27.0
 40
27.0
 40
27.0
 40
27.0
 10
4.49293321983229
 20
4.916245709138517
 10
4.49293321983229
 20
4.916245709138517
 10
4.487752664407607
 20
5.109767926471957
 10
4.487752664407607
 20
5.109767926471957
 10
4.487752664407607
 20
5.109767926471957
 10
4.576212384395149
 20
5.493495694555955
 10
4.576212384395149
 20
5.493495694555955
 10
4.576212384395149
 20
5.493495694555955
 10
4.576212384395149
 20
5.978420682305719
 10
4.576212384395149
 20
6.022806792295543
 10
4.576212384395149
 20
6.067213735618174
 10
4.574504051104971
 20
6.038384569679793
 10
4.578491551004238
 20
6.066765124518408
 10
4.584255439747519
 20
6.107822067925654
 10
4.597398494971054
 20
6.241373453440751
 10
4.610487383529289
 20
6.342284562002633
 10
4.610635994636646
 20
6.343370673086307
 10
4.614949883416557
 20
6.351569444444445
 10
4.616156827830511
 20
6.354952617238167
 10
4.624809605389701
 20
6.379265116623982
 10
4.674967937455929
 20
6.479973447413208
 10
4.674967937455929
 20
6.479973447413208
 10
4.674967937455929
 20
6.479973447413208
 10
4.689344325981639
 20
6.486131780590969
 10
4.689344325981639
 20
6.486131780590969
 10
4.689344325981639
 20
6.486131780590969
 10
4.787027777777767
 20
6.458822059058648
 10
4.787027777777767
 20
6.458822059058648
 10
4.787027777777767
 20
6.458822059058648
 10
4.790147101212924
 20
6.461899836758676
 10
4.796088767729493
 20
6.465602614442913
 10
4.802029045357206
 20
6.469305555555555
 10
4.84328876653712
 20
6.482029002916836
 10
4.84328876653712
 20
6.482029002916836
 10
4.84328876653712
 20
6.482029002916836
 10
4.906901264930133
 20
6.467658169946541
 10
4.906901264930133
 20
6.467658169946541
 10
4.906901264930133
 20
6.467658169946541
 10
4.909736111111114
 20
6.457309559096857
 10
4.909736111111114
 20
6.457309559096857
 10
4.909736111111114
 20
6.457309559096857
 10
4.863809599352053
 20
6.44199567059483
 10
4.863809599352053
 20
6.44199567059483
 10
4.863809599352053
 20
6.44199567059483
 10
4.867622099255741
 20
5.522874999999999
 10
4.867622099255741
 20
5.522874999999999
 10
4.867622099255741
 20
5.522874999999999
 10
4.697361111111099
 20
5.257988756060917
 10
4.69137904815246
 20
5.238430555555547
 10
4.685397103859132
 20
5.218898479270643
 10
4.667059604322376
 20
5.185505424558666
 10
4.66250265999305
 20
5.154405425344319
 10
4.657158215683618
 20
5.117960981820539
 10
4.661770715567096
 20
5.038899872706679
 10
4.661770715567096
 20
5.032755428417456
 10
4.661770715567096
 20
5.021388888888901
 10
4.638698493927728
 20
5.004137373584854
 10
4.638698493927728
 20
5.004137373584854
 10
4.638698493927728
 20
5.004137373584854
 10
4.638698493927728
 20
4.991441540572244
 10
4.631048494120983
 20
4.98558181849805
 10
4.62410404985197
 20
4.980265151965694
 10
4.616481827822301
 20
4.981730429706456
 10
4.616481827822301
 20
4.981730429706456
 10
4.616481827822301
 20
4.981730429706456
 10
4.581108217604802
 20
4.950913763818284
 10
4.581108217604802
 20
4.950913763818284
 10
4.581108217604802
 20
4.950913763818284
 10
4.57999710652176
 20
4.941691541829035
 10
4.573716551124865
 20
4.93564154198187
 10
4.568604051254018
 20
4.93067765321838
 10
4.561210995885227
 20
4.934176264241109
 10
4.561210995885227
 20
4.934176264241109
 10
4.561210995885227
 20
4.934176264241109
 10
4.511515163807315
 20
4.893147098610926
 10
4.511515163807315
 20
4.893147098610926
 10
4.511515163807315
 20
4.893147098610926
 10
4.4786373868601
 20
4.900079042880255
 10
4.4786373868601
 20
4.900079042880255
 10
4.4786373868601
 20
4.900079042880255
 10
4.49293321983229
 20
4.916245709138517
 10
4.49293321983229
 20
4.916245709138517
 97
        0
 97
        0
 75
     2
 76
     1
 98
        0
  0
SPLINE
  5
14A
330
1F
100
AcDbEntity
  8
IUSE
370
     0
100
AcDbSpline
210
0.0
220
0.0
230
1.0
 70
    11
 71
     3
 72
    32
 73
    28
 74
     0
 42
0.0000000001
 43
0.0000000001
 12
1.0
 22
0.0
 32
0.0
 13
1.0
 23
0.0
 33
0.0
 40
0.0
 40
0.0
 40
0.0
 40
0.0
 40
1.0
 40
1.0
 40
1.0
 40
2.0
 40
2.0
 40
2.0
 40
3.0
 40
3.0
 40
3.0
 40
4.0
 40
4.0
 40
4.0
 40
5.0
 40
5.0
 40
5.0
 40
6.0
 40
6.0
 40
6.0
 40
7.0
 40
7.0
 40
7.0
 40
8.0
 40
8.0
 40
8.0
 40
9.0
 40
9.0
 40
9.0
 40
9.0
 10
4.266520725551951
 20
6.447130392687338
 30
0.0
 10
4.263509614516908
 20
6.465115114455228
 30
0.0
 10
4.266194444444434
 20
6.581549833736075
 30
0.0
 10
4.266194444444434
 20
6.581549833736075
 30
0.0
 10
4.266194444444434
 20
6.581549833736075
 30
0.0
 10
4.262355447879397
 20
6.598767888856653
 30
0.0
 10
4.273708333333338
 20
6.603122055413324
 30
0.0
 10
4.287136002808944
 20
6.608248444172709
 30
0.0
 10
4.325019335185263
 20
6.613383166265217
 30
0.0
 10
4.325019335185263
 20
6.613383166265217
 30
0.0
 10
4.325019335185263
 20
6.613383166265217
 30
0.0
 10
4.382487389289054
 20
6.60106788879855
 30
0.0
 10
4.382487389289054
 20
6.60106788879855
 30
0.0
 10
4.382487389289054
 20
6.60106788879855
 30
0.0
 10
4.383517944818575
 20
6.589783166861404
 30
0.0
 10
4.383517944818575
 20
6.589783166861404
 30
0.0
 10
4.383517944818575
 20
6.589783166861404
 30
0.0
 10
4.355808223296359
 20
6.583624999999996
 30
0.0
 10
4.355808223296359
 20
6.583624999999996
 30
0.0
 10
4.355808223296359
 20
6.583624999999996
 30
0.0
 10
4.351698501177958
 20
6.575412333891109
 30
0.0
 10
4.351698501177958
 20
6.575412333891109
 30
0.0
 10
4.351698501177958
 20
6.575412333891109
 30
0.0
 10
4.460490165096315
 20
6.546677612394786
 30
0.0
 10
4.460490165096315
 20
6.546677612394786
 30
0.0
 10
4.460490165096315
 20
6.546677612394786
 30
0.0
 10
4.266520725551951
 20
6.447130392687338
 30
0.0
 10
4.266520725551951
 20
6.447130392687338
 30
0.0
  0
HATCH
  5
14B
330
1F
100
AcDbEntity
  8
IUSE
 62
   254
420
 13358815
100
AcDbHatch
 10
0.0
 20
0.0
 30
0.0
210
0.0
220
0.0
230
1.0
  2
SOLID
 70
     1
 71
     0
 91
        1
 92
        1
 93
        1
 72
     4
 94
        3
 73
     0
 74
     1
 95
       32
 96
       28
 40
0.0
 40
0.0
 40
0.0
 40
0.0
 40
1.0
 40
1.0
 40
1.0
 40
2.0
 40
2.0
 40
2.0
 40
3.0
 40
3.0
 40
3.0
 40
4.0
 40
4.0
 40
4.0
 40
5.0
 40
5.0
 40
5.0
 40
6.0
 40
6.0
 40
6.0
 40
7.0
 40
7.0
 40
7.0
 40
8.0
 40
8.0
 40
8.0
 40
9.0
 40
9.0
 40
9.0
 40
9.0
 10
4.266520725551951
 20
6.447130392687338
 10
4.263509614516908
 20
6.465115114455228
 10
4.266194444444434
 20
6.581549833736075
 10
4.266194444444434
 20
6.581549833736075
 10
4.266194444444434
 20
6.581549833736075
 10
4.262355447879397
 20
6.598767888856653
 10
4.273708333333338
 20
6.603122055413324
 10
4.287136002808944
 20
6.608248444172709
 10
4.325019335185263
 20
6.613383166265217
 10
4.325019335185263
 20
6.613383166265217
 10
4.325019335185263
 20
6.613383166265217
 10
4.382487389289054
 20
6.60106788879855
 10
4.382487389289054
 20
6.60106788879855
 10
4.382487389289054
 20
6.60106788879855
 10
4.383517944818575
 20
6.589783166861404
 10
4.383517944818575
 20
6.589783166861404
 10
4.383517944818575
 20
6.589783166861404
 10
4.355808223296359
 20
6.583624999999996
 10
4.355808223296359
 20
6.583624999999996
 10
4.355808223296359
 20
6.583624999999996
 10
4.351698501177958
 20
6.575412333891109
 10
4.351698501177958
 20
6.575412333891109
 10
4.351698501177958
 20
6.575412333891109
 10
4.460490165096315
 20
6.546677612394786
 10
4.460490165096315
 20
6.546677612394786
 10
4.460490165096315
 20
6.546677612394786
 10
4.266520725551951
 20
6.447130392687338
 10
4.266520725551951
 20
6.447130392687338
 97
        0
 97
        0
 75
     2
 76
     1
 98
        0
  0
SPLINE
  5
14C
330
1F
100
AcDbEntity
  8
IUSE
370
     0
100
AcDbSpline
210
0.0
220
0.0
230
1.0
 70
    11
 71
     3
 72
    14
 73
    10
 74
     0
 42
0.0000000001
 43
0.0000000001
 12
1.0
 22
0.0
 32
0.0
 13
1.0
 23
0.0
 33
0.0
 40
0.0
 40
0.0
 40
0.0
 40
0.0
 40
1.0
 40
1.0
 40
1.0
 40
2.0
 40
2.0
 40
2.0
 40
3.0
 40
3.0
 40
3.0
 40
3.0
 10
4.619316549972912
 20
5.499091527747926
 30
0.0
 10
4.620252661060375
 20
5.494873472298928
 30
0.0
 10
4.646863771499233
 20
5.507215138653818
 30
0.0
 10
4.646863771499233
 20
5.507215138653818
 30
0.0
 10
4.646863771499233
 20
5.507215138653818
 30
0.0
 10
4.634806827359372
 20
5.524305555555555
 30
0.0
 10
4.632433216308224
 20
5.523355416023858
 30
0.0
 10
4.632433216308224
 20
5.523355416023858
 30
0.0
 10
4.618380438885449
 20
5.503309583196924
 30
0.0
 10
4.619316549972912
 20
5.499091527747926
 30
0.0
  0
HATCH
  5
14D
330
1F
100
AcDbEntity
  8
IUSE
 62
    43
420
 15510365
100
AcDbHatch
 10
0.0
 20
0.0
 30
0.0
210
0.0
220
0.0
230
1.0
  2
SOLID
 70
     1
 71
     0
 91
        1
 92
        1
 93
        1
 72
     4
 94
        3
 73
     0
 74
     1
 95
       14
 96
       10
 40
0.0
 40
0.0
 40
0.0
 40
0.0
 40
1.0
 40
1.0
 40
1.0
 40
2.0
 40
2.0
 40
2.0
 40
3.0
 40
3.0
 40
3.0
 40
3.0
 10
4.619316549972912
 20
5.499091527747926
 10
4.620252661060375
 20
5.494873472298928
 10
4.646863771499233
 20
5.507215138653818
 10
4.646863771499233
 20
5.507215138653818
 10
4.646863771499233
 20
5.507215138653818
 10
4.634806827359372
 20
5.524305555555555
 10
4.632433216308224
 20
5.523355416023858
 10
4.632433216308224
 20
5.523355416023858
 10
4.618380438885449
 20
5.503309583196924
 10
4.619316549972912
 20
5.499091527747926
 97
        0
 97
        0
 75
     2
 76
     1
 98
        0
  0
SPLINE
  5
14E
330
1F
100
AcDbEntity
  8
IUSE
370
     0
100
AcDbSpline
210
0.0
220
0.0
230
1.0
 70
    11
 71
     3
 72
    14
 73
    10
 74
     0
 42
0.0000000001
 43
0.0000000001
 12
1.0
 22
0.0
 32
0.0
 13
1.0
 23
0.0
 33
0.0
 40
0.0
 40
0.0
 40
0.0
 40
0.0
 40
1.0
 40
1.0
 40
1.0
 40
2.0
 40
2.0
 40
2.0
 40
3.0
 40
3.0
 40
3.0
 40
3.0
 10
4.634033216267804
 20
6.072041666666665
 30
0.0
 10
4.638305555555562
 20
6.071349846624811
 30
0.0
 10
4.636583333333343
 20
6.100660956995449
 30
0.0
 10
4.636583333333343
 20
6.100660956995449
 30
0.0
 10
4.636583333333343
 20
6.100660956995449
 30
0.0
 10
4.621229049924598
 20
6.090331790589718
 30
0.0
 10
4.621229049924598
 20
6.087767901765599
 30
0.0
 10
4.621229049924598
 20
6.087767901765599
 30
0.0
 10
4.629760994153508
 20
6.072733179923185
 30
0.0
 10
4.634033216267804
 20
6.072041666666665
 30
0.0
  0
HATCH
  5
14F
330
1F
100
AcDbEntity
  8
IUSE
 62
    43
420
 15510365
100
AcDbHatch
 10
0.0
 20
0.0
 30
0.0
210
0.0
220
0.0
230
1.0
  2
SOLID
 70
     1
 71
     0
 91
        1
 92
        1
 93
        1
 72
     4
 94
        3
 73
     0
 74
     1
 95
       14
 96
       10
 40
0.0
 40
0.0
 40
0.0
 40
0.0
 40
1.0
 40
1.0
 40
1.0
 40
2.0
 40
2.0
 40
2.0
 40
3.0
 40
3.0
 40
3.0
 40
3.0
 10
4.634033216267804
 20
6.072041666666665
 10
4.638305555555562
 20
6.071349846624811
 10
4.636583333333343
 20
6.100660956995449
 10
4.636583333333343
 20
6.100660956995449
 10
4.636583333333343
 20
6.100660956995449
 10
4.621229049924598
 20
6.090331790589718
 10
4.621229049924598
 20
6.087767901765599
 10
4.621229049924598
 20
6.087767901765599
 10
4.629760994153508
 20
6.072733179923185
 10
4.634033216267804
 20
6.072041666666665
 97
        0
 97
        0
 75
     2
 76
     1
 98
        0
  0
SPLINE
  5
150
330
1F
100
AcDbEntity
  8
IUSE
370
     0
100
AcDbSpline
210
0.0
220
0.0
230
1.0
 70
    11
 71
     3
 72
    14
 73
    10
 74
     0
 42
0.0000000001
 43
0.0000000001
 12
1.0
 22
0.0
 32
0.0
 13
1.0
 23
0.0
 33
0.0
 40
0.0
 40
0.0
 40
0.0
 40
0.0
 40
1.0
 40
1.0
 40
1.0
 40
2.0
 40
2.0
 40
2.0
 40
3.0
 40
3.0
 40
3.0
 40
3.0
 10
4.740152777777767
 20
5.432644307204302
 30
0.0
 10
4.739854046927879
 20
5.427327640671946
 30
0.0
 10
4.717041666666672
 20
5.434692918263661
 30
0.0
 10
4.717041666666672
 20
5.434692918263661
 30
0.0
 10
4.717041666666672
 20
5.434692918263661
 30
0.0
 10
4.730481824942419
 20
5.454209584437295
 30
0.0
 10
4.732490158225017
 20
5.453734584449294
 30
0.0
 10
4.732490158225017
 20
5.453734584449294
 30
0.0
 10
4.740423491357938
 20
5.437988751513735
 30
0.0
 10
4.740152777777767
 20
5.432644307204302
 30
0.0
  0
HATCH
  5
151
330
1F
100
AcDbEntity
  8
IUSE
 62
    43
420
 15510365
100
AcDbHatch
 10
0.0
 20
0.0
 30
0.0
210
0.0
220
0.0
230
1.0
  2
SOLID
 70
     1
 71
     0
 91
        1
 92
        1
 93
        1
 72
     4
 94
        3
 73
     0
 74
     1
 95
       14
 96
       10
 40
0.0
 40
0.0
 40
0.0
 40
0.0
 40
1.0
 40
1.0
 40
1.0
 40
2.0
 40
2.0
 40
2.0
 40
3.0
 40
3.0
 40
3.0
 40
3.0
 10
4.740152777777767
 20
5.432644307204302
 10
4.739854046927879
 20
5.427327640671946
 10
4.717041666666672
 20
5.434692918263661
 10
4.717041666666672
 20
5.434692918263661
 10
4.717041666666672
 20
5.434692918263661
 10
4.730481824942419
 20
5.454209584437295
 10
4.732490158225017
 20
5.453734584449294
 10
4.732490158225017
 20
5.453734584449294
 10
4.740423491357938
 20
5.437988751513735
 10
4.740152777777767
 20
5.432644307204302
 97
        0
 97
        0
 75
     2
 76
     1
 98
        0
  0
SPLINE
  5
152
330
1F
100
AcDbEntity
  8
IUSE
370
     0
100
AcDbSpline
210
0.0
220
0.0
230
1.0
 70
    11
 71
     3
 72
    14
 73
    10
 74
     0
 42
0.0000000001
 43
0.0000000001
 12
1.0
 22
0.0
 32
0.0
 13
1.0
 23
0.0
 33
0.0
 40
0.0
 40
0.0
 40
0.0
 40
0.0
 40
1.0
 40
1.0
 40
1.0
 40
2.0
 40
2.0
 40
2.0
 40
3.0
 40
3.0
 40
3.0
 40
3.0
 10
4.340006834806647
 20
6.48826789164813
 30
0.0
 10
4.342799890291644
 20
6.480705391839162
 30
0.0
 10
4.353881834456135
 20
6.486435947249952
 30
0.0
 10
4.351779056731478
 20
6.491712336005561
 30
0.0
 10
4.348511001258481
 20
6.499931780242352
 30
0.0
 10
4.33950405704157
 20
6.503363724600098
 30
0.0
 10
4.33950405704157
 20
6.503363724600098
 30
0.0
 10
4.33950405704157
 20
6.503363724600098
 30
0.0
 10
4.337212390432796
 20
6.495842891456757
 30
0.0
 10
4.340006834806647
 20
6.48826789164813
 30
0.0
  0
HATCH
  5
153
330
1F
100
AcDbEntity
  8
IUSE
 62
    43
420
 15510365
100
AcDbHatch
 10
0.0
 20
0.0
 30
0.0
210
0.0
220
0.0
230
1.0
  2
SOLID
 70
     1
 71
     0
 91
        1
 92
        1
 93
        1
 72
     4
 94
        3
 73
     0
 74
     1
 95
       14
 96
       10
 40
0.0
 40
0.0
 40
0.0
 40
0.0
 40
1.0
 40
1.0
 40
1.0
 40
2.0
 40
2.0
 40
2.0
 40
3.0
 40
3.0
 40
3.0
 40
3.0
 10
4.340006834806647
 20
6.48826789164813
 10
4.342799890291644
 20
6.480705391839162
 10
4.353881834456135
 20
6.486435947249952
 10
4.351779056731478
 20
6.491712336005561
 10
4.348511001258481
 20
6.499931780242352
 10
4.33950405704157
 20
6.503363724600098
 10
4.33950405704157
 20
6.503363724600098
 10
4.33950405704157
 20
6.503363724600098
 10
4.337212390432796
 20
6.495842891456757
 10
4.340006834806647
 20
6.48826789164813
 97
        0
 97
        0
 75
     2
 76
     1
 98
        0
  0
SPLINE
  5
154
330
1F
100
AcDbEntity
  8
IUSE
370
     0
100
AcDbSpline
210
0.0
220
0.0
230
1.0
 70
    11
 71
     3
 72
    17
 73
    13
 74
     0
 42
0.0000000001
 43
0.0000000001
 12
1.0
 22
0.0
 32
0.0
 13
1.0
 23
0.0
 33
0.0
 40
0.0
 40
0.0
 40
0.0
 40
0.0
 40
1.0
 40
1.0
 40
1.0
 40
2.0
 40
2.0
 40
2.0
 40
3.0
 40
3.0
 40
3.0
 40
4.0
 40
4.0
 40
4.0
 40
4.0
 10
4.771823490564707
 20
6.351997061757275
 30
0.0
 10
4.774617934938558
 20
6.344415117504367
 30
0.0
 10
4.781480434765196
 20
6.342284562002633
 30
0.0
 10
4.781480434765196
 20
6.342284562002633
 30
0.0
 10
4.781480434765196
 20
6.342284562002633
 30
0.0
 10
4.785726267991271
 20
6.350151228470572
 30
0.0
 10
4.783595712489538
 20
6.355420672781898
 30
0.0
 10
4.780341545905078
 20
6.363647061462971
 30
0.0
 10
4.771322101688484
 20
6.367079005820718
 30
0.0
 10
4.771322101688484
 20
6.367079005820718
 30
0.0
 10
4.771322101688484
 20
6.367079005820718
 30
0.0
 10
4.769029046190856
 20
6.359558172677376
 30
0.0
 10
4.771823490564707
 20
6.351997061757275
 30
0.0
  0
HATCH
  5
155
330
1F
100
AcDbEntity
  8
IUSE
 62
    43
420
 15510365
100
AcDbHatch
 10
0.0
 20
0.0
 30
0.0
210
0.0
220
0.0
230
1.0
  2
SOLID
 70
     1
 71
     0
 91
        1
 92
        1
 93
        1
 72
     4
 94
        3
 73
     0
 74
     1
 95
       17
 96
       13
 40
0.0
 40
0.0
 40
0.0
 40
0.0
 40
1.0
 40
1.0
 40
1.0
 40
2.0
 40
2.0
 40
2.0
 40
3.0
 40
3.0
 40
3.0
 40
4.0
 40
4.0
 40
4.0
 40
4.0
 10
4.771823490564707
 20
6.351997061757275
 10
4.774617934938558
 20
6.344415117504367
 10
4.781480434765196
 20
6.342284562002633
 10
4.781480434765196
 20
6.342284562002633
 10
4.781480434765196
 20
6.342284562002633
 10
4.785726267991271
 20
6.350151228470572
 10
4.783595712489538
 20
6.355420672781898
 10
4.780341545905078
 20
6.363647061462971
 10
4.771322101688484
 20
6.367079005820718
 10
4.771322101688484
 20
6.367079005820718
 10
4.771322101688484
 20
6.367079005820718
 10
4.769029046190856
 20
6.359558172677376
 10
4.771823490564707
 20
6.351997061757275
 97
        0
 97
        0
 75
     2
 76
     1
 98
        0
  0
SPLINE
  5
156
330
1F
100
AcDbEntity
  8
IUSE
370
     0
100
AcDbSpline
210
0.0
220
0.0
230
1.0
 70
    11
 71
     3
 72
    17
 73
    13
 74
     0
 42
0.0000000001
 43
0.0000000001
 12
1.0
 22
0.0
 32
0.0
 13
1.0
 23
0.0
 33
0.0
 40
0.0
 40
0.0
 40
0.0
 40
0.0
 40
1.0
 40
1.0
 40
1.0
 40
2.0
 40
2.0
 40
2.0
 40
3.0
 40
3.0
 40
3.0
 40
4.0
 40
4.0
 40
4.0
 40
4.0
 10
4.681517937290462
 20
5.786309576047743
 30
0.0
 10
4.669256826489092
 20
5.788295687108681
 30
0.0
 10
4.659315160073573
 20
5.775533187431089
 30
0.0
 10
4.659315160073573
 20
5.759501243391658
 30
0.0
 10
4.659315160073573
 20
5.743469299352202
 30
0.0
 10
4.665473493251334
 20
5.728630410838175
 30
0.0
 10
4.681517937290462
 20
5.726880410882384
 30
0.0
 10
4.697048492453683
 20
5.725192910925013
 30
0.0
 10
4.703708333333325
 20
5.736287355089189
 30
0.0
 10
4.703708333333325
 20
5.752319444444449
 30
0.0
 10
4.703708333333325
 20
5.768351243168088
 30
0.0
 10
4.693792936980369
 20
5.784329020542221
 30
0.0
 10
4.681517937290462
 20
5.786309576047743
 30
0.0
  0
HATCH
  5
157
330
1F
100
AcDbEntity
  8
IUSE
 62
    43
420
 15510365
100
AcDbHatch
 10
0.0
 20
0.0
 30
0.0
210
0.0
220
0.0
230
1.0
  2
SOLID
 70
     1
 71
     0
 91
        1
 92
        1
 93
        1
 72
     4
 94
        3
 73
     0
 74
     1
 95
       17
 96
       13
 40
0.0
 40
0.0
 40
0.0
 40
0.0
 40
1.0
 40
1.0
 40
1.0
 40
2.0
 40
2.0
 40
2.0
 40
3.0
 40
3.0
 40
3.0
 40
4.0
 40
4.0
 40
4.0
 40
4.0
 10
4.681517937290462
 20
5.786309576047743
 10
4.669256826489092
 20
5.788295687108681
 10
4.659315160073573
 20
5.775533187431089
 10
4.659315160073573
 20
5.759501243391658
 10
4.659315160073573
 20
5.743469299352202
 10
4.665473493251334
 20
5.728630410838175
 10
4.681517937290462
 20
5.726880410882384
 10
4.697048492453683
 20
5.725192910925013
 10
4.703708333333325
 20
5.736287355089189
 10
4.703708333333325
 20
5.752319444444449
 10
4.703708333333325
 20
5.768351243168088
 10
4.693792936980369
 20
5.784329020542221
 10
4.681517937290462
 20
5.786309576047743
 97
        0
 97
        0
 75
     2
 76
     1
 98
        0
  0
POLYLINE
  5
158
330
1F
100
AcDbEntity
  8
IUSE
 62
   250
420
  2301728
370
     9
100
AcDb2dPolyline
 66
     1
 10
0.0
 20
0.0
 30
0.0
  0
VERTEX
  5
159
330
158
100
AcDbEntity
  8
IUSE
 62
   250
420
  2301728
370
     9
100
AcDbVertex
100
AcDb2dVertex
 10
4.63182210521255
 20
6.339035950973589
 30
0.0
  0
VERTEX
  5
15A
330
158
100
AcDbEntity
  8
IUSE
 62
   250
420
  2301728
370
     9
100
AcDbVertex
100
AcDb2dVertex
 10
4.672065159751481
 20
6.354587339469617
 30
0.0
  0
SEQEND
  5
15B
330
158
100
AcDbEntity
  8
IUSE
 62
   250
420
  2301728
370
     9
  0
SPLINE
  5
15C
330
1F
100
AcDbEntity
  8
IUSE
 62
   250
420
  2301728
370
     9
100
AcDbSpline
210
0.0
220
0.0
230
1.0
 70
     8
 71
     3
 72
    17
 73
    13
 74
     0
 42
0.0000000001
 43
0.0000000001
 12
1.0
 22
0.0
 32
0.0
 13
1.0
 23
0.0
 33
0.0
 40
0.0
 40
0.0
 40
0.0
 40
0.0
 40
1.0
 40
1.0
 40
1.0
 40
2.0
 40
2.0
 40
2.0
 40
3.0
 40
3.0
 40
3.0
 40
4.0
 40
4.0
 40
4.0
 40
4.0
 10
4.6351457162397
 20
6.101155401427402
 30
0.0
 10
4.641547104966876
 20
6.105258179101535
 30
0.0
 10
4.645847222222224
 20
6.10253873472579
 30
0.0
 10
4.645847222222224
 20
6.096116512665806
 30
0.0
 10
4.645847222222224
 20
6.089687346161554
 30
0.0
 10
4.646172104850039
 20
6.077459568692675
 30
0.0
 10
4.646172104850039
 20
6.073629013233888
 30
0.0
 10
4.646172104850039
 20
6.06556512454871
 30
0.0
 10
4.641234604974771
 20
6.063408180158754
 30
0.0
 10
4.637722222222211
 20
6.066894291181799
 30
0.0
 10
4.636081827327163
 20
6.068515124474199
 30
0.0
 10
4.634630438474939
 20
6.069945679993617
 30
0.0
 10
4.633355438507149
 20
6.071267902182424
 30
0.0
  0
SPLINE
  5
15D
330
1F
100
AcDbEntity
  8
IUSE
 62
   250
420
  2301728
370
    18
100
AcDbSpline
210
0.0
220
0.0
230
1.0
 70
    11
 71
     3
 72
    26
 73
    22
 74
     0
 42
0.0000000001
 43
0.0000000001
 12
1.0
 22
0.0
 32
0.0
 13
1.0
 23
0.0
 33
0.0
 40
0.0
 40
0.0
 40
0.0
 40
0.0
 40
1.0
 40
1.0
 40
1.0
 40
2.0
 40
2.0
 40
2.0
 40
3.0
 40
3.0
 40
3.0
 40
4.0
 40
4.0
 40
4.0
 40
5.0
 40
5.0
 40
5.0
 40
6.0
 40
6.0
 40
6.0
 40
7.0
 40
7.0
 40
7.0
 40
7.0
 10
4.623291666666672
 20
6.090433179476046
 30
0.0
 10
4.620754049936598
 20
6.08797222222222
 30
0.0
 10
4.621351272143733
 20
6.084690124065572
 30
0.0
 10
4.625202660935328
 20
6.080545679725825
 30
0.0
 10
4.628092938640091
 20
6.077426235360185
 30
0.0
 10
4.630642938575672
 20
6.074565124321351
 30
0.0
 10
4.634602660697864
 20
6.070529013312213
 30
0.0
 10
4.636148493992146
 20
6.071919291054857
 30
0.0
 10
4.637192938410205
 20
6.074327624327351
 30
0.0
 10
4.637192938410205
 20
6.077901235348185
 30
0.0
 10
4.637192938410205
 20
6.08174567969551
 30
0.0
 10
4.636881827306953
 20
6.093987346052927
 30
0.0
 10
4.636881827306953
 20
6.100395679224372
 30
0.0
 10
4.636881827306953
 20
6.100863734768104
 30
0.0
 10
4.63684016064134
 20
6.101230401425507
 30
0.0
 10
4.63679988286458
 20
6.101670679192162
 30
0.0
 10
4.636651271757223
 20
6.101583333333338
 30
0.0
 10
4.63655555555556
 20
6.101562345861566
 30
0.0
 10
4.636433216207175
 20
6.101487345863461
 30
0.0
 10
4.633626271833641
 20
6.0996706792427
 30
0.0
 10
4.625854049807761
 20
6.092929012746329
 30
0.0
 10
4.623291666666672
 20
6.090433179476046
 30
0.0
  0
SPLINE
  5
15E
330
1F
100
AcDbEntity
  8
IUSE
 62
   250
420
  2301728
370
     9
100
AcDbSpline
210
0.0
220
0.0
230
1.0
 70
     8
 71
     3
 72
    17
 73
    13
 74
     0
 42
0.0000000001
 43
0.0000000001
 12
1.0
 22
0.0
 32
0.0
 13
1.0
 23
0.0
 33
0.0
 40
0.0
 40
0.0
 40
0.0
 40
0.0
 40
1.0
 40
1.0
 40
1.0
 40
2.0
 40
2.0
 40
2.0
 40
3.0
 40
3.0
 40
3.0
 40
4.0
 40
4.0
 40
4.0
 40
4.0
 10
4.74080404690388
 20
5.431992918331868
 30
0.0
 10
4.744466546811357
 20
5.423055555555544
 30
0.0
 10
4.741780435768103
 20
5.41788736313265
 30
0.0
 10
4.736694444444437
 20
5.419026251992768
 30
0.0
 10
4.73162210269139
 20
5.420152777777781
 30
0.0
 10
4.724080436215242
 20
5.421183196382723
 30
0.0
 10
4.721029047403438
 20
5.421847222222216
 30
0.0
 10
4.714654047564484
 20
5.423312362995603
 30
0.0
 10
4.712226269848037
 20
5.430745696141154
 30
0.0
 10
4.714762380895081
 20
5.434651251598047
 30
0.0
 10
4.715929047532275
 20
5.436441529330598
 30
0.0
 10
4.71721654749975
 20
5.437879029294284
 30
0.0
 10
4.718316547471962
 20
5.439005418154718
 30
0.0
  0
SPLINE
  5
15F
330
1F
100
AcDbEntity
  8
IUSE
 62
   250
420
  2301728
370
    18
100
AcDbSpline
210
0.0
220
0.0
230
1.0
 70
    11
 71
     3
 72
    26
 73
    22
 74
     0
 42
0.0000000001
 43
0.0000000001
 12
1.0
 22
0.0
 32
0.0
 13
1.0
 23
0.0
 33
0.0
 40
0.0
 40
0.0
 40
0.0
 40
0.0
 40
1.0
 40
1.0
 40
1.0
 40
2.0
 40
2.0
 40
2.0
 40
3.0
 40
3.0
 40
3.0
 40
4.0
 40
4.0
 40
4.0
 40
5.0
 40
5.0
 40
5.0
 40
6.0
 40
6.0
 40
6.0
 40
7.0
 40
7.0
 40
7.0
 40
7.0
 10
4.735148491491196
 20
5.450710973414567
 30
0.0
 10
4.733045713766538
 20
5.454427639987342
 30
0.0
 10
4.72919444444445
 20
5.451320695621385
 30
0.0
 10
4.726155436162824
 20
5.447130417949463
 30
0.0
 10
4.72390404733081
 20
5.443983195806746
 30
0.0
 10
4.720756825188093
 20
5.441541666666656
 30
0.0
 10
4.717827658595423
 20
5.437174862645406
 30
0.0
 10
4.719020714120839
 20
5.434990140478375
 30
0.0
 10
4.7210151585149
 20
5.433213751634361
 30
0.0
 10
4.723822102888435
 20
5.432590140539004
 30
0.0
 10
4.726874999999987
 20
5.431884585001272
 30
0.0
 10
4.735052658160283
 20
5.430976251690885
 30
0.0
 10
4.740138888888901
 20
5.429835973941914
 30
0.0
 10
4.740505435800312
 20
5.429741529499855
 30
0.0
 10
4.740817935792418
 20
5.429781807276615
 30
0.0
 10
4.741129046895669
 20
5.429741529499855
 30
0.0
 10
4.741074880230371
 20
5.429931807272825
 30
0.0
 10
4.741048491342149
 20
5.430026251714884
 30
0.0
 10
4.740966546899775
 20
5.430230418376393
 30
0.0
 10
4.739352658051656
 20
5.434163751610362
 30
0.0
 10
4.737304046992297
 20
5.447008195730328
 30
0.0
 10
4.735148491491196
 20
5.450710973414567
 30
0.0
  0
SPLINE
  5
160
330
1F
100
AcDbEntity
  8
IUSE
 62
   250
420
  2301728
370
     9
100
AcDbSpline
210
0.0
220
0.0
230
1.0
 70
     8
 71
     3
 72
    17
 73
    13
 74
     0
 42
0.0000000001
 43
0.0000000001
 12
1.0
 22
0.0
 32
0.0
 13
1.0
 23
0.0
 33
0.0
 40
0.0
 40
0.0
 40
0.0
 40
0.0
 40
1.0
 40
1.0
 40
1.0
 40
2.0
 40
2.0
 40
2.0
 40
3.0
 40
3.0
 40
3.0
 40
4.0
 40
4.0
 40
4.0
 40
4.0
 10
4.647080438160426
 20
5.508883194167234
 30
0.0
 10
4.653224882449649
 20
5.50442208316882
 30
0.0
 10
4.652288771362186
 20
5.499416666666662
 30
0.0
 10
4.64632210484625
 20
5.497083333333332
 30
0.0
 10
4.640312382775846
 20
5.494709583414179
 30
0.0
 10
4.629109605281074
 20
5.489908194646583
 30
0.0
 10
4.625501272038895
 20
5.488498472459974
 30
0.0
 10
4.618027777777772
 20
5.485555555555544
 30
0.0
 10
4.613715161225526
 20
5.489162361332092
 30
0.0
 10
4.61564155006575
 20
5.493720694550271
 30
0.0
 10
4.6165359944876
 20
5.495822083386074
 30
0.0
 10
4.617852661121004
 20
5.497870694445433
 30
0.0
 10
4.618611111111123
 20
5.499579027735611
 30
0.0
  0
SPLINE
  5
161
330
1F
100
AcDbEntity
  8
IUSE
 62
   250
420
  2301728
370
    18
100
AcDbSpline
210
0.0
220
0.0
230
1.0
 70
    11
 71
     3
 72
    26
 73
    22
 74
     0
 42
0.0000000001
 43
0.0000000001
 12
1.0
 22
0.0
 32
0.0
 13
1.0
 23
0.0
 33
0.0
 40
0.0
 40
0.0
 40
0.0
 40
0.0
 40
1.0
 40
1.0
 40
1.0
 40
2.0
 40
2.0
 40
2.0
 40
3.0
 40
3.0
 40
3.0
 40
4.0
 40
4.0
 40
4.0
 40
5.0
 40
5.0
 40
5.0
 40
6.0
 40
6.0
 40
6.0
 40
7.0
 40
7.0
 40
7.0
 40
7.0
 10
4.635917938442415
 20
5.522529027155845
 30
0.0
 10
4.632717938523253
 20
5.524006804896291
 30
0.0
 10
4.629855438595566
 20
5.522230416052277
 30
0.0
 10
4.627387383102359
 20
5.517090138404354
 30
0.0
 10
4.625583333333325
 20
5.51327902738952
 30
0.0
 10
4.620687383271616
 20
5.503281805419848
 30
0.0
 10
4.618380438885449
 20
5.498115138883703
 30
0.0
 10
4.620226272172153
 20
5.497219305573
 30
0.0
 10
4.622870716549793
 20
5.497111111111116
 30
0.0
 10
4.626192938688089
 20
5.498426249986955
 30
0.0
 10
4.629801271930268
 20
5.499823472173881
 30
0.0
 10
4.641017938313578
 20
5.504598472053254
 30
0.0
 10
4.646986111111119
 20
5.506944444444444
 30
0.0
 10
4.64744710481783
 20
5.507134583100297
 30
0.0
 10
4.647759604809935
 20
5.507337360872953
 30
0.0
 10
4.64815277777777
 20
5.507499999999999
 30
0.0
 10
4.648044327024965
 20
5.507622083087981
 30
0.0
 10
4.648004049248205
 20
5.50767624975328
 30
0.0
 10
4.647867938140532
 20
5.507812360860953
 30
0.0
 10
4.64512766043198
 20
5.509724860812639
 30
0.0
 10
4.639147105027505
 20
5.521063749415084
 30
0.0
 10
4.635917938442415
 20
5.522529027155845
 30
0.0
  0
SPLINE
  5
162
330
1F
100
AcDbEntity
  8
IUSE
370
     0
100
AcDbSpline
210
0.0
220
0.0
230
1.0
 70
    11
 71
     3
 72
    14
 73
    10
 74
     0
 42
0.0000000001
 43
0.0000000001
 12
1.0
 22
0.0
 32
0.0
 13
1.0
 23
0.0
 33
0.0
 40
0.0
 40
0.0
 40
0.0
 40
0.0
 40
1.0
 40
1.0
 40
1.0
 40
2.0
 40
2.0
 40
2.0
 40
3.0
 40
3.0
 40
3.0
 40
3.0
 10
4.619316549972912
 20
5.739827632777532
 30
0.0
 10
4.620252661060375
 20
5.735609577328533
 30
0.0
 10
4.646863771499233
 20
5.747951243683436
 30
0.0
 10
4.646863771499233
 20
5.747951243683436
 30
0.0
 10
4.646863771499233
 20
5.747951243683436
 30
0.0
 10
4.634806827359372
 20
5.765041666666662
 30
0.0
 10
4.632433216308224
 20
5.764091521053463
 30
0.0
 10
4.632433216308224
 20
5.764091521053463
 30
0.0
 10
4.618380438885449
 20
5.74404568822653
 30
0.0
 10
4.619316549972912
 20
5.739827632777532
 30
0.0
  0
HATCH
  5
163
330
1F
100
AcDbEntity
  8
IUSE
 62
    43
420
 15510365
100
AcDbHatch
 10
0.0
 20
0.0
 30
0.0
210
0.0
220
0.0
230
1.0
  2
SOLID
 70
     1
 71
     0
 91
        1
 92
        1
 93
        1
 72
     4
 94
        3
 73
     0
 74
     1
 95
       14
 96
       10
 40
0.0
 40
0.0
 40
0.0
 40
0.0
 40
1.0
 40
1.0
 40
1.0
 40
2.0
 40
2.0
 40
2.0
 40
3.0
 40
3.0
 40
3.0
 40
3.0
 10
4.619316549972912
 20
5.739827632777532
 10
4.620252661060375
 20
5.735609577328533
 10
4.646863771499233
 20
5.747951243683436
 10
4.646863771499233
 20
5.747951243683436
 10
4.646863771499233
 20
5.747951243683436
 10
4.634806827359372
 20
5.765041666666662
 10
4.632433216308224
 20
5.764091521053463
 10
4.632433216308224
 20
5.764091521053463
 10
4.618380438885449
 20
5.74404568822653
 10
4.619316549972912
 20
5.739827632777532
 97
        0
 97
        0
 75
     2
 76
     1
 98
        0
  0
SPLINE
  5
164
330
1F
100
AcDbEntity
  8
IUSE
 62
   250
420
  2301728
370
     9
100
AcDbSpline
210
0.0
220
0.0
230
1.0
 70
     8
 71
     3
 72
    17
 73
    13
 74
     0
 42
0.0000000001
 43
0.0000000001
 12
1.0
 22
0.0
 32
0.0
 13
1.0
 23
0.0
 33
0.0
 40
0.0
 40
0.0
 40
0.0
 40
0.0
 40
1.0
 40
1.0
 40
1.0
 40
2.0
 40
2.0
 40
2.0
 40
3.0
 40
3.0
 40
3.0
 40
4.0
 40
4.0
 40
4.0
 40
4.0
 10
4.647080438160426
 20
5.749620688085693
 30
0.0
 10
4.653224882449649
 20
5.745158188198426
 30
0.0
 10
4.652288771362186
 20
5.74015277777778
 30
0.0
 10
4.64632210484625
 20
5.737819444444439
 30
0.0
 10
4.640312382775846
 20
5.735445688443797
 30
0.0
 10
4.629109605281074
 20
5.730644299676189
 30
0.0
 10
4.625501272038895
 20
5.729234577489579
 30
0.0
 10
4.618027777777772
 20
5.726291666666662
 30
0.0
 10
4.613715161225526
 20
5.729898466361697
 30
0.0
 10
4.61564155006575
 20
5.734456799579877
 30
0.0
 10
4.6165359944876
 20
5.73655818841568
 30
0.0
 10
4.617852661121004
 20
5.738606799475039
 30
0.0
 10
4.618611111111123
 20
5.740315132765216
 30
0.0
  0
SPLINE
  5
165
330
1F
100
AcDbEntity
  8
IUSE
 62
   250
420
  2301728
370
    18
100
AcDbSpline
210
0.0
220
0.0
230
1.0
 70
    11
 71
     3
 72
    26
 73
    22
 74
     0
 42
0.0000000001
 43
0.0000000001
 12
1.0
 22
0.0
 32
0.0
 13
1.0
 23
0.0
 33
0.0
 40
0.0
 40
0.0
 40
0.0
 40
0.0
 40
1.0
 40
1.0
 40
1.0
 40
2.0
 40
2.0
 40
2.0
 40
3.0
 40
3.0
 40
3.0
 40
4.0
 40
4.0
 40
4.0
 40
5.0
 40
5.0
 40
5.0
 40
6.0
 40
6.0
 40
6.0
 40
7.0
 40
7.0
 40
7.0
 40
7.0
 10
4.635917938442415
 20
5.763265132185451
 30
0.0
 10
4.632717938523253
 20
5.764742909925896
 30
0.0
 10
4.629855438595566
 20
5.762966521081883
 30
0.0
 10
4.627387383102359
 20
5.75782624343396
 30
0.0
 10
4.625583333333325
 20
5.754015132419125
 30
0.0
 10
4.620687383271616
 20
5.744017910449454
 30
0.0
 10
4.618380438885449
 20
5.738851243913309
 30
0.0
 10
4.620226272172153
 20
5.737955410602606
 30
0.0
 10
4.622870716549793
 20
5.737847222222222
 30
0.0
 10
4.626192938688089
 20
5.73916235501656
 30
0.0
 10
4.629801271930268
 20
5.740559577203485
 30
0.0
 10
4.641017938313578
 20
5.745334577082859
 30
0.0
 10
4.646986111111119
 20
5.74768055555555
 30
0.0
 10
4.64744710481783
 20
5.747870688129902
 30
0.0
 10
4.647759604809935
 20
5.748073465902558
 30
0.0
 10
4.64815277777777
 20
5.748236111111106
 30
0.0
 10
4.648044327024965
 20
5.748358188117587
 30
0.0
 10
4.648004049248205
 20
5.748412354782886
 30
0.0
 10
4.647867938140532
 20
5.748548465890559
 30
0.0
 10
4.64512766043198
 20
5.750460965842245
 30
0.0
 10
4.639147105027505
 20
5.761799854444689
 30
0.0
 10
4.635917938442415
 20
5.763265132185451
 30
0.0
  0
SPLINE
  5
166
330
1F
100
AcDbEntity
  8
IUSE
370
     0
100
AcDbSpline
210
0.0
220
0.0
230
1.0
 70
    11
 71
     3
 72
    14
 73
    10
 74
     0
 42
0.0000000001
 43
0.0000000001
 12
1.0
 22
0.0
 32
0.0
 13
1.0
 23
0.0
 33
0.0
 40
0.0
 40
0.0
 40
0.0
 40
0.0
 40
1.0
 40
1.0
 40
1.0
 40
2.0
 40
2.0
 40
2.0
 40
3.0
 40
3.0
 40
3.0
 40
3.0
 10
4.619316549972912
 20
5.623345691275668
 30
0.0
 10
4.620252661060375
 20
5.619126246937816
 30
0.0
 10
4.646863771499233
 20
5.63146930218156
 30
0.0
 10
4.646863771499233
 20
5.63146930218156
 30
0.0
 10
4.646863771499233
 20
5.63146930218156
 30
0.0
 10
4.634806827359372
 20
5.648559579527601
 30
0.0
 10
4.632433216308224
 20
5.6476095795516
 30
0.0
 10
4.632433216308224
 20
5.6476095795516
 30
0.0
 10
4.618380438885449
 20
5.627563746724667
 30
0.0
 10
4.619316549972912
 20
5.623345691275668
 30
0.0
  0
HATCH
  5
167
330
1F
100
AcDbEntity
  8
IUSE
 62
    43
420
 15510365
100
AcDbHatch
 10
0.0
 20
0.0
 30
0.0
210
0.0
220
0.0
230
1.0
  2
SOLID
 70
     1
 71
     0
 91
        1
 92
        1
 93
        1
 72
     4
 94
        3
 73
     0
 74
     1
 95
       14
 96
       10
 40
0.0
 40
0.0
 40
0.0
 40
0.0
 40
1.0
 40
1.0
 40
1.0
 40
2.0
 40
2.0
 40
2.0
 40
3.0
 40
3.0
 40
3.0
 40
3.0
 10
4.619316549972912
 20
5.623345691275668
 10
4.620252661060375
 20
5.619126246937816
 10
4.646863771499233
 20
5.63146930218156
 10
4.646863771499233
 20
5.63146930218156
 10
4.646863771499233
 20
5.63146930218156
 10
4.634806827359372
 20
5.648559579527601
 10
4.632433216308224
 20
5.6476095795516
 10
4.632433216308224
 20
5.6476095795516
 10
4.618380438885449
 20
5.627563746724667
 10
4.619316549972912
 20
5.623345691275668
 97
        0
 97
        0
 75
     2
 76
     1
 98
        0
  0
SPLINE
  5
168
330
1F
100
AcDbEntity
  8
IUSE
 62
   250
420
  2301728
370
     9
100
AcDbSpline
210
0.0
220
0.0
230
1.0
 70
     8
 71
     3
 72
    17
 73
    13
 74
     0
 42
0.0000000001
 43
0.0000000001
 12
1.0
 22
0.0
 32
0.0
 13
1.0
 23
0.0
 33
0.0
 40
0.0
 40
0.0
 40
0.0
 40
0.0
 40
1.0
 40
1.0
 40
1.0
 40
2.0
 40
2.0
 40
2.0
 40
3.0
 40
3.0
 40
3.0
 40
4.0
 40
4.0
 40
4.0
 40
4.0
 10
4.647080438160426
 20
5.633137357694977
 30
0.0
 10
4.653224882449649
 20
5.628674857807709
 30
0.0
 10
4.652288771362186
 20
5.623670691267458
 30
0.0
 10
4.64632210484625
 20
5.62133735799307
 30
0.0
 10
4.640312382775846
 20
5.618963746941922
 30
0.0
 10
4.629109605281074
 20
5.614162358174339
 30
0.0
 10
4.625501272038895
 20
5.612752635987716
 30
0.0
 10
4.618027777777772
 20
5.609809580506508
 30
0.0
 10
4.613715161225526
 20
5.613416666666668
 30
0.0
 10
4.61564155006575
 20
5.617973469189161
 30
0.0
 10
4.6165359944876
 20
5.620076246913817
 30
0.0
 10
4.617852661121004
 20
5.622124999999995
 30
0.0
 10
4.618611111111123
 20
5.623833333333335
 30
0.0
  0
SPLINE
  5
169
330
1F
100
AcDbEntity
  8
IUSE
 62
   250
420
  2301728
370
    18
100
AcDbSpline
210
0.0
220
0.0
230
1.0
 70
    11
 71
     3
 72
    26
 73
    22
 74
     0
 42
0.0000000001
 43
0.0000000001
 12
1.0
 22
0.0
 32
0.0
 13
1.0
 23
0.0
 33
0.0
 40
0.0
 40
0.0
 40
0.0
 40
0.0
 40
1.0
 40
1.0
 40
1.0
 40
2.0
 40
2.0
 40
2.0
 40
3.0
 40
3.0
 40
3.0
 40
4.0
 40
4.0
 40
4.0
 40
5.0
 40
5.0
 40
5.0
 40
6.0
 40
6.0
 40
6.0
 40
7.0
 40
7.0
 40
7.0
 40
7.0
 10
4.635917938442415
 20
5.646783190683587
 30
0.0
 10
4.632717938523253
 20
5.648260968424034
 30
0.0
 10
4.629855438595566
 20
5.64648457958002
 30
0.0
 10
4.627387383102359
 20
5.641344301932096
 30
0.0
 10
4.625583333333325
 20
5.637531802028408
 30
0.0
 10
4.620687383271616
 20
5.627535968947591
 30
0.0
 10
4.618380438885449
 20
5.622367913522591
 30
0.0
 10
4.620226272172153
 20
5.621473469100756
 30
0.0
 10
4.622870716549793
 20
5.621365135770146
 30
0.0
 10
4.626192938688089
 20
5.62268055555555
 30
0.0
 10
4.629801271930268
 20
5.624077635701623
 30
0.0
 10
4.641017938313578
 20
5.628851246692142
 30
0.0
 10
4.646986111111119
 20
5.631198468855069
 30
0.0
 10
4.64744710481783
 20
5.631388888888889
 30
0.0
 10
4.647759604809935
 20
5.631591524400695
 30
0.0
 10
4.64815277777777
 20
5.631754024396602
 30
0.0
 10
4.648044327024965
 20
5.631876246615724
 30
0.0
 10
4.648004049248205
 20
5.631930555555552
 30
0.0
 10
4.647867938140532
 20
5.632066524388695
 30
0.0
 10
4.64512766043198
 20
5.633979024340394
 30
0.0
 10
4.639147105027505
 20
5.645317912942838
 30
0.0
 10
4.635917938442415
 20
5.646783190683587
 30
0.0
  0
SPLINE
  5
16A
330
1F
100
AcDbEntity
  8
IUSE
 62
   250
420
  2301728
370
    13
100
AcDbSpline
210
0.0
220
0.0
230
1.0
 70
     8
 71
     3
 72
    11
 73
     7
 74
     0
 42
0.0000000001
 43
0.0000000001
 12
1.0
 22
0.0
 32
0.0
 13
1.0
 23
0.0
 33
0.0
 40
0.0
 40
0.0
 40
0.0
 40
0.0
 40
1.0
 40
1.0
 40
1.0
 40
2.0
 40
2.0
 40
2.0
 40
2.0
 10
4.492797108724617
 20
4.913140153661415
 30
0.0
 10
4.492797108724617
 20
4.913140153661415
 30
0.0
 10
4.503227664016675
 20
4.908772098216205
 30
0.0
 10
4.503227664016675
 20
4.908772098216205
 30
0.0
 10
4.503227664016675
 20
4.908772098216205
 30
0.0
 10
4.519219330279358
 20
4.90549015385467
 30
0.0
 10
4.510294330504823
 20
4.891817931977837
 30
0.0
  0
POLYLINE
  5
16B
330
1F
100
AcDbEntity
  8
IUSE
 62
   250
420
  2301728
370
    18
100
AcDb2dPolyline
 66
     1
 10
0.0
 20
0.0
 30
0.0
  0
VERTEX
  5
16C
330
16B
100
AcDbEntity
  8
IUSE
 62
   250
420
  2301728
370
    18
100
AcDbVertex
100
AcDb2dVertex
 10
4.85446515514367
 20
6.431470670860714
 30
0.0
  0
VERTEX
  5
16D
330
16B
100
AcDbEntity
  8
IUSE
 62
   250
420
  2301728
370
    18
100
AcDbVertex
100
AcDb2dVertex
 10
4.854044321820967
 20
5.522724860484232
 30
0.0
  0
VERTEX
  5
16E
330
16B
100
AcDbEntity
  8
IUSE
 62
   250
420
  2301728
370
    18
100
AcDbVertex
100
AcDb2dVertex
 10
4.683512381684523
 20
5.247626256322696
 30
0.0
  0
VERTEX
  5
16F
330
16B
100
AcDbEntity
  8
IUSE
 62
   250
420
  2301728
370
    18
100
AcDbVertex
100
AcDb2dVertex
 10
4.683512381684523
 20
5.213487368296228
 30
0.0
  0
SEQEND
  5
170
330
16B
100
AcDbEntity
  8
IUSE
 62
   250
420
  2301728
370
    18
  0
POLYLINE
  5
171
330
1F
100
AcDbEntity
  8
IUSE
 62
   250
420
  2301728
370
    18
100
AcDb2dPolyline
 66
     1
 10
0.0
 20
0.0
 30
0.0
  0
VERTEX
  5
172
330
171
100
AcDbEntity
  8
IUSE
 62
   250
420
  2301728
370
    18
100
AcDbVertex
100
AcDb2dVertex
 10
4.678005437379195
 20
6.477592891917791
 30
0.0
  0
VERTEX
  5
173
330
171
100
AcDbEntity
  8
IUSE
 62
   250
420
  2301728
370
    18
100
AcDbVertex
100
AcDb2dVertex
 10
4.786024879094839
 20
6.445441503841114
 30
0.0
  0
SEQEND
  5
174
330
171
100
AcDbEntity
  8
IUSE
 62
   250
420
  2301728
370
    18
  0
SPLINE
  5
175
330
1F
100
AcDbEntity
  8
IUSE
 62
   250
420
  2301728
370
    18
100
AcDbSpline
210
0.0
220
0.0
230
1.0
 70
     8
 71
     3
 72
     8
 73
     4
 74
     0
 42
0.0000000001
 43
0.0000000001
 12
1.0
 22
0.0
 32
0.0
 13
1.0
 23
0.0
 33
0.0
 40
0.0
 40
0.0
 40
0.0
 40
0.0
 40
1.0
 40
1.0
 40
1.0
 40
1.0
 10
4.504679052868899
 20
4.90932904264658
 30
0.0
 10
4.488701275494754
 20
4.915459598047264
 30
0.0
 10
4.482109608994606
 20
4.905856820512073
 30
0.0
 10
4.482109608994606
 20
4.905856820512073
 30
0.0
  0
POLYLINE
  5
176
330
1F
100
AcDbEntity
  8
IUSE
 62
   250
420
  2301728
370
     9
100
AcDb2dPolyline
 66
     1
 10
0.0
 20
0.0
 30
0.0
  0
VERTEX
  5
177
330
176
100
AcDbEntity
  8
IUSE
 62
   250
420
  2301728
370
     9
100
AcDbVertex
100
AcDb2dVertex
 10
4.681694444444449
 20
6.453260948088023
 30
0.0
  0
VERTEX
  5
178
330
176
100
AcDbEntity
  8
IUSE
 62
   250
420
  2301728
370
     9
100
AcDbVertex
100
AcDb2dVertex
 10
4.681694444444449
 20
6.432263888888883
 30
0.0
  0
SEQEND
  5
179
330
176
100
AcDbEntity
  8
IUSE
 62
   250
420
  2301728
370
     9
  0
POLYLINE
  5
17A
330
1F
100
AcDbEntity
  8
IUSE
 62
   250
420
  2301728
370
     9
100
AcDb2dPolyline
 66
     1
 10
0.0
 20
0.0
 30
0.0
  0
VERTEX
  5
17B
330
17A
100
AcDbEntity
  8
IUSE
 62
   250
420
  2301728
370
     9
100
AcDbVertex
100
AcDb2dVertex
 10
4.681694444444449
 20
5.713527777777775
 30
0.0
  0
VERTEX
  5
17C
330
17A
100
AcDbEntity
  8
IUSE
 62
   250
420
  2301728
370
     9
100
AcDbVertex
100
AcDb2dVertex
 10
4.681694444444449
 20
5.696810967197558
 30
0.0
  0
SEQEND
  5
17D
330
17A
100
AcDbEntity
  8
IUSE
 62
   250
420
  2301728
370
     9
  0
POLYLINE
  5
17E
330
1F
100
AcDbEntity
  8
IUSE
 62
   250
420
  2301728
370
     9
100
AcDb2dPolyline
 66
     1
 10
0.0
 20
0.0
 30
0.0
  0
VERTEX
  5
17F
330
17E
100
AcDbEntity
  8
IUSE
 62
   250
420
  2301728
370
     9
100
AcDbVertex
100
AcDb2dVertex
 10
4.681694444444449
 20
5.688842911843292
 30
0.0
  0
VERTEX
  5
180
330
17E
100
AcDbEntity
  8
IUSE
 62
   250
420
  2301728
370
     9
100
AcDbVertex
100
AcDb2dVertex
 10
4.681694444444449
 20
5.302083333333333
 30
0.0
  0
SEQEND
  5
181
330
17E
100
AcDbEntity
  8
IUSE
 62
   250
420
  2301728
370
     9
  0
POLYLINE
  5
182
330
1F
100
AcDbEntity
  8
IUSE
 62
   250
420
  2301728
370
     9
100
AcDb2dPolyline
 66
     1
 10
0.0
 20
0.0
 30
0.0
  0
VERTEX
  5
183
330
182
100
AcDbEntity
  8
IUSE
 62
   250
420
  2301728
370
     9
100
AcDbVertex
100
AcDb2dVertex
 10
4.681694444444449
 20
6.421385948893253
 30
0.0
  0
VERTEX
  5
184
330
182
100
AcDbEntity
  8
IUSE
 62
   250
420
  2301728
370
     9
100
AcDbVertex
100
AcDb2dVertex
 10
4.681694444444449
 20
5.801880408987724
 30
0.0
  0
SEQEND
  5
185
330
182
100
AcDbEntity
  8
IUSE
 62
   250
420
  2301728
370
     9
  0
POLYLINE
  5
186
330
1F
100
AcDbEntity
  8
IUSE
 62
   250
420
  2301728
370
     9
100
AcDb2dPolyline
 66
     1
 10
0.0
 20
0.0
 30
0.0
  0
VERTEX
  5
187
330
186
100
AcDbEntity
  8
IUSE
 62
   250
420
  2301728
370
     9
100
AcDbVertex
100
AcDb2dVertex
 10
4.681694444444449
 20
5.289102644163803
 30
0.0
  0
VERTEX
  5
188
330
186
100
AcDbEntity
  8
IUSE
 62
   250
420
  2301728
370
     9
100
AcDbVertex
100
AcDb2dVertex
 10
4.681694444444449
 20
5.27065681129645
 30
0.0
  0
SEQEND
  5
189
330
186
100
AcDbEntity
  8
IUSE
 62
   250
420
  2301728
370
     9
  0
SPLINE
  5
18A
330
1F
100
AcDbEntity
  8
IUSE
 62
   250
420
  2301728
370
    18
100
AcDbSpline
210
0.0
220
0.0
230
1.0
 70
     8
 71
     3
 72
    29
 73
    25
 74
     0
 42
0.0000000001
 43
0.0000000001
 12
1.0
 22
0.0
 32
0.0
 13
1.0
 23
0.0
 33
0.0
 40
0.0
 40
0.0
 40
0.0
 40
0.0
 40
1.0
 40
1.0
 40
1.0
 40
2.0
 40
2.0
 40
2.0
 40
3.0
 40
3.0
 40
3.0
 40
4.0
 40
4.0
 40
4.0
 40
5.0
 40
5.0
 40
5.0
 40
6.0
 40
6.0
 40
6.0
 40
7.0
 40
7.0
 40
7.0
 40
8.0
 40
8.0
 40
8.0
 40
8.0
 10
4.505005441749542
 20
4.907199876033701
 30
0.0
 10
4.505005441749542
 20
4.907199876033701
 30
0.0
 10
4.506130441721123
 20
5.103204037748886
 30
0.0
 10
4.506130441721123
 20
5.103204037748886
 30
0.0
 10
4.506130441721123
 20
5.103204037748886
 30
0.0
 10
4.589748495164309
 20
5.486755416948451
 30
0.0
 10
4.589748495164309
 20
5.486755416948451
 30
0.0
 10
4.589748495164309
 20
5.486755416948451
 30
0.0
 10
4.589748495164309
 20
5.970309571399512
 30
0.0
 10
4.589748495164309
 20
6.014716514722143
 30
0.0
 10
4.589748495164309
 20
6.059109569156235
 30
0.0
 10
4.590074884044952
 20
6.029669292122182
 30
0.0
 10
4.590548495144099
 20
6.058912346938996
 30
0.0
 10
4.596490161660666
 20
6.100097222222226
 30
0.0
 10
4.609659605772422
 20
6.236402777777774
 30
0.0
 10
4.62273460544212
 20
6.338859562089156
 30
0.0
 10
4.622938772103629
 20
6.340480395381544
 30
0.0
 10
4.625895716473375
 20
6.347913728527096
 30
0.0
 10
4.628213771970372
 20
6.353888888888882
 30
0.0
 10
4.641574882743953
 20
6.38832622750619
 30
0.0
 10
4.676690159634644
 20
6.460435947906767
 30
0.0
 10
4.677381826283837
 20
6.463270670057378
 30
0.0
 10
4.677381826283837
 20
6.463270670057378
 30
0.0
 10
4.681545715067537
 20
6.466477614420809
 30
0.0
 10
4.680108215103852
 20
6.477919280798434
 30
0.0
  0
SPLINE
  5
18B
330
1F
100
AcDbEntity
  8
IUSE
 62
   250
420
  2301728
370
    18
100
AcDbSpline
210
0.0
220
0.0
230
1.0
 70
     8
 71
     3
 72
    11
 73
     7
 74
     0
 42
0.0000000001
 43
0.0000000001
 12
1.0
 22
0.0
 32
0.0
 13
1.0
 23
0.0
 33
0.0
 40
0.0
 40
0.0
 40
0.0
 40
0.0
 40
1.0
 40
1.0
 40
1.0
 40
2.0
 40
2.0
 40
2.0
 40
2.0
 10
4.637559605067609
 20
5.003892929146584
 30
0.0
 10
4.637559605067609
 20
5.003892929146584
 30
0.0
 10
4.637559605067609
 20
5.435749999999997
 30
0.0
 10
4.637559605067609
 20
5.441934584747387
 30
0.0
 10
4.637559605067609
 20
5.455742917731893
 30
0.0
 10
4.62902777777779
 20
5.461276250925443
 30
0.0
 10
4.622694444444455
 20
5.455729028843355
 30
0.0
  0
SPLINE
  5
18C
330
1F
100
AcDbEntity
  8
IUSE
 62
   250
420
  2301728
370
     9
100
AcDbSpline
210
0.0
220
0.0
230
1.0
 70
    24
 71
     3
 72
     8
 73
     4
 74
     0
 42
0.0000000001
 43
0.0000000001
 12
1.0
 22
0.0
 32
0.0
 13
1.0
 23
0.0
 33
0.0
 40
0.0
 40
0.0
 40
0.0
 40
0.0
 40
1.0
 40
1.0
 40
1.0
 40
1.0
 10
4.618815161096689
 20
5.427205418452811
 30
0.0
 10
4.618815161096689
 20
5.413085974365054
 30
0.0
 10
4.618815161096689
 20
5.007419317946389
 30
0.0
 10
4.618815161096689
 20
5.007419317946389
 30
0.0
  0
SPLINE
  5
18D
330
1F
100
AcDbEntity
  8
IUSE
 62
   250
420
  2301728
370
    18
100
AcDbSpline
210
0.0
220
0.0
230
1.0
 70
     8
 71
     3
 72
    11
 73
     7
 74
     0
 42
0.0000000001
 43
0.0000000001
 12
1.0
 22
0.0
 32
0.0
 13
1.0
 23
0.0
 33
0.0
 40
0.0
 40
0.0
 40
0.0
 40
0.0
 40
1.0
 40
1.0
 40
1.0
 40
2.0
 40
2.0
 40
2.0
 40
2.0
 10
4.581108217604802
 20
4.947523486126152
 30
0.0
 10
4.581108217604802
 20
4.947523486126152
 30
0.0
 10
4.581108217604802
 20
5.262451255948185
 30
0.0
 10
4.581108217604802
 20
5.268635978014168
 30
0.0
 10
4.581108217604802
 20
5.282442922109819
 30
0.0
 10
4.572577662264747
 20
5.287977644192223
 30
0.0
 10
4.566242940202553
 20
5.282430555555544
 30
0.0
  0
SPLINE
  5
18E
330
1F
100
AcDbEntity
  8
IUSE
 62
   250
420
  2301728
370
     9
100
AcDbSpline
210
0.0
220
0.0
230
1.0
 70
    24
 71
     3
 72
     8
 73
     4
 74
     0
 42
0.0000000001
 43
0.0000000001
 12
1.0
 22
0.0
 32
0.0
 13
1.0
 23
0.0
 33
0.0
 40
0.0
 40
0.0
 40
0.0
 40
0.0
 40
1.0
 40
1.0
 40
1.0
 40
1.0
 10
4.562363773633883
 20
5.253906811719591
 30
0.0
 10
4.562363773633883
 20
5.23978597874298
 30
0.0
 10
4.562363773633883
 20
4.964938763463983
 30
0.0
 10
4.562363773633883
 20
4.964938763463983
 30
0.0
  0
SPLINE
  5
18F
330
1F
100
AcDbEntity
  8
IUSE
 62
   250
420
  2301728
370
     9
100
AcDbSpline
210
0.0
220
0.0
230
1.0
 70
     8
 71
     3
 72
     8
 73
     4
 74
     0
 42
0.0000000001
 43
0.0000000001
 12
1.0
 22
0.0
 32
0.0
 13
1.0
 23
0.0
 33
0.0
 40
0.0
 40
0.0
 40
0.0
 40
0.0
 40
1.0
 40
1.0
 40
1.0
 40
1.0
 10
4.615152777777767
 20
4.984659596299125
 30
0.0
 10
4.615152777777767
 20
4.984659596299125
 30
0.0
 10
4.618408216662525
 20
4.988077651768334
 30
0.0
 10
4.618137383336034
 20
4.996269318228062
 30
0.0
  0
SPLINE
  5
190
330
1F
100
AcDbEntity
  8
IUSE
 62
   250
420
  2301728
370
     9
100
AcDbSpline
210
0.0
220
0.0
230
1.0
 70
     8
 71
     3
 72
     8
 73
     4
 74
     0
 42
0.0000000001
 43
0.0000000001
 12
1.0
 22
0.0
 32
0.0
 13
1.0
 23
0.0
 33
0.0
 40
0.0
 40
0.0
 40
0.0
 40
0.0
 40
1.0
 40
1.0
 40
1.0
 40
1.0
 10
4.561224884773765
 20
4.936699875288468
 30
0.0
 10
4.561224884773765
 20
4.936699875288468
 30
0.0
 10
4.564480440247078
 20
4.940144319645898
 30
0.0
 10
4.564195718032048
 20
4.94833737499448
 30
0.0
  0
SPLINE
  5
191
330
1F
100
AcDbEntity
  8
IUSE
 62
   250
420
  2301728
370
    13
100
AcDbSpline
210
0.0
220
0.0
230
1.0
 70
    11
 71
     3
 72
    17
 73
    13
 74
     0
 42
0.0000000001
 43
0.0000000001
 12
1.0
 22
0.0
 32
0.0
 13
1.0
 23
0.0
 33
0.0
 40
0.0
 40
0.0
 40
0.0
 40
0.0
 40
1.0
 40
1.0
 40
1.0
 40
2.0
 40
2.0
 40
2.0
 40
3.0
 40
3.0
 40
3.0
 40
4.0
 40
4.0
 40
4.0
 40
4.0
 10
4.703898492280637
 20
5.748073465902558
 30
0.0
 10
4.703898492280637
 20
5.731730410759862
 30
0.0
 10
4.694322103633668
 20
5.725266522034265
 30
0.0
 10
4.681124999999989
 20
5.727397077535998
 30
0.0
 10
4.667927659856003
 20
5.729533188593146
 30
0.0
 10
4.66061793781844
 20
5.739413743899099
 30
0.0
 10
4.66061793781844
 20
5.755770687930331
 30
0.0
 10
4.66061793781844
 20
5.772108187517611
 30
0.0
 10
4.667927659856003
 20
5.788737353764191
 30
0.0
 10
4.681124999999989
 20
5.786606798262457
 30
0.0
 10
4.694322103633668
 20
5.784470687205308
 30
0.0
 10
4.703898492280637
 20
5.764431798822645
 30
0.0
 10
4.703898492280637
 20
5.748073465902558
 30
0.0
  0
SPLINE
  5
192
330
1F
100
AcDbEntity
  8
IUSE
 62
   250
420
  2301728
370
    18
100
AcDbSpline
210
0.0
220
0.0
230
1.0
 70
     8
 71
     3
 72
    11
 73
     7
 74
     0
 42
0.0000000001
 43
0.0000000001
 12
1.0
 22
0.0
 32
0.0
 13
1.0
 23
0.0
 33
0.0
 40
0.0
 40
0.0
 40
0.0
 40
0.0
 40
1.0
 40
1.0
 40
1.0
 40
2.0
 40
2.0
 40
2.0
 40
2.0
 10
4.381455444870678
 20
6.588751222443029
 30
0.0
 10
4.381455444870678
 20
6.588751222443029
 30
0.0
 10
4.364352667524953
 20
6.586297055838359
 30
0.0
 10
4.359280445430866
 20
6.584574833659644
 30
0.0
 10
4.354206834447925
 20
6.582858167036344
 30
0.0
 10
4.351752667843256
 20
6.578416666666662
 30
0.0
 10
4.350572112317524
 20
6.573370667276018
 30
0.0
  0
SPLINE
  5
193
330
1F
100
AcDbEntity
  8
IUSE
 62
   250
420
  2301728
370
     9
100
AcDbSpline
210
0.0
220
0.0
230
1.0
 70
    11
 71
     3
 72
    11
 73
     7
 74
     0
 42
0.0000000001
 43
0.0000000001
 12
1.0
 22
0.0
 32
0.0
 13
1.0
 23
0.0
 33
0.0
 40
0.0
 40
0.0
 40
0.0
 40
0.0
 40
1.0
 40
1.0
 40
1.0
 40
2.0
 40
2.0
 40
2.0
 40
2.0
 10
4.78393599025872
 20
6.34959567292905
 30
0.0
 10
4.78393599025872
 20
6.32857206234904
 30
0.0
 10
4.76190821303741
 20
6.335897062163995
 30
0.0
 10
4.761894324148872
 20
6.354926228349945
 30
0.0
 10
4.761894324148872
 20
6.3764776166944
 30
0.0
 10
4.78393599025872
 20
6.365769283631582
 30
0.0
 10
4.78393599025872
 20
6.34959567292905
 30
0.0
  0
SPLINE
  5
194
330
1F
100
AcDbEntity
  8
IUSE
 62
   250
420
  2301728
370
    18
100
AcDbSpline
210
0.0
220
0.0
230
1.0
 70
    11
 71
     3
 72
    17
 73
    13
 74
     0
 42
0.0000000001
 43
0.0000000001
 12
1.0
 22
0.0
 32
0.0
 13
1.0
 23
0.0
 33
0.0
 40
0.0
 40
0.0
 40
0.0
 40
0.0
 40
1.0
 40
1.0
 40
1.0
 40
2.0
 40
2.0
 40
2.0
 40
3.0
 40
3.0
 40
3.0
 40
4.0
 40
4.0
 40
4.0
 40
4.0
 10
4.771863768341468
 20
6.365641505857032
 30
0.0
 10
4.771334601688168
 20
6.364060950341404
 30
0.0
 10
4.770684601704589
 20
6.362181783722209
 30
0.0
 10
4.771063768361677
 20
6.359822061559599
 30
0.0
 10
4.772379046106228
 20
6.350565117349005
 30
0.0
 10
4.775227657145377
 20
6.345547061920215
 30
0.0
 10
4.781480434765196
 20
6.342834561988739
 30
0.0
 10
4.782212379191151
 20
6.344685950830858
 30
0.0
 10
4.78317626805569
 20
6.348252617407436
 30
0.0
 10
4.78317626805569
 20
6.351101228446573
 30
0.0
 10
4.78317626805569
 20
6.358031783827047
 30
0.0
 10
4.777763888888885
 20
6.364467894775569
 30
0.0
 10
4.771863768341468
 20
6.365641505857032
 30
0.0
  0
SPLINE
  5
195
330
1F
100
AcDbEntity
  8
IUSE
370
     0
100
AcDbSpline
210
0.0
220
0.0
230
1.0
 70
    11
 71
     3
 72
    17
 73
    13
 74
     0
 42
0.0000000001
 43
0.0000000001
 12
1.0
 22
0.0
 32
0.0
 13
1.0
 23
0.0
 33
0.0
 40
0.0
 40
0.0
 40
0.0
 40
0.0
 40
1.0
 40
1.0
 40
1.0
 40
2.0
 40
2.0
 40
2.0
 40
3.0
 40
3.0
 40
3.0
 40
4.0
 40
4.0
 40
4.0
 40
4.0
 10
4.771823490564707
 20
6.174858177343291
 30
0.0
 10
4.774617934938558
 20
6.167276233090383
 30
0.0
 10
4.781480434765196
 20
6.165147066477503
 30
0.0
 10
4.781480434765196
 20
6.165147066477503
 30
0.0
 10
4.781480434765196
 20
6.165147066477503
 30
0.0
 10
4.785726267991271
 20
6.173013888888893
 30
0.0
 10
4.783595712489538
 20
6.178283177256768
 30
0.0
 10
4.780341545905078
 20
6.186509565937841
 30
0.0
 10
4.771322101688484
 20
6.189941510295587
 30
0.0
 10
4.771322101688484
 20
6.189941510295587
 30
0.0
 10
4.771322101688484
 20
6.189941510295587
 30
0.0
 10
4.769029046190856
 20
6.182420677152246
 30
0.0
 10
4.771823490564707
 20
6.174858177343291
 30
0.0
  0
HATCH
  5
196
330
1F
100
AcDbEntity
  8
IUSE
 62
    43
420
 15510365
100
AcDbHatch
 10
0.0
 20
0.0
 30
0.0
210
0.0
220
0.0
230
1.0
  2
SOLID
 70
     1
 71
     0
 91
        1
 92
        1
 93
        1
 72
     4
 94
        3
 73
     0
 74
     1
 95
       17
 96
       13
 40
0.0
 40
0.0
 40
0.0
 40
0.0
 40
1.0
 40
1.0
 40
1.0
 40
2.0
 40
2.0
 40
2.0
 40
3.0
 40
3.0
 40
3.0
 40
4.0
 40
4.0
 40
4.0
 40
4.0
 10
4.771823490564707
 20
6.174858177343291
 10
4.774617934938558
 20
6.167276233090383
 10
4.781480434765196
 20
6.165147066477503
 10
4.781480434765196
 20
6.165147066477503
 10
4.781480434765196
 20
6.165147066477503
 10
4.785726267991271
 20
6.173013888888893
 10
4.783595712489538
 20
6.178283177256768
 10
4.780341545905078
 20
6.186509565937841
 10
4.771322101688484
 20
6.189941510295587
 10
4.771322101688484
 20
6.189941510295587
 10
4.771322101688484
 20
6.189941510295587
 10
4.769029046190856
 20
6.182420677152246
 10
4.771823490564707
 20
6.174858177343291
 97
        0
 97
        0
 75
     2
 76
     1
 98
        0
  0
SPLINE
  5
197
330
1F
100
AcDbEntity
  8
IUSE
 62
   250
420
  2301728
370
     9
100
AcDbSpline
210
0.0
220
0.0
230
1.0
 70
    11
 71
     3
 72
    11
 73
     7
 74
     0
 42
0.0000000001
 43
0.0000000001
 12
1.0
 22
0.0
 32
0.0
 13
1.0
 23
0.0
 33
0.0
 40
0.0
 40
0.0
 40
0.0
 40
0.0
 40
1.0
 40
1.0
 40
1.0
 40
2.0
 40
2.0
 40
2.0
 40
2.0
 10
4.78393599025872
 20
6.172458333333338
 30
0.0
 10
4.78393599025872
 20
6.15143456682391
 30
0.0
 10
4.76190821303741
 20
6.158759566638865
 30
0.0
 10
4.761894324148872
 20
6.177788732824815
 30
0.0
 10
4.761894324148872
 20
6.19934012116927
 30
0.0
 10
4.78393599025872
 20
6.188631788106451
 30
0.0
 10
4.78393599025872
 20
6.172458333333338
 30
0.0
  0
SPLINE
  5
198
330
1F
100
AcDbEntity
  8
IUSE
 62
   250
420
  2301728
370
    18
100
AcDbSpline
210
0.0
220
0.0
230
1.0
 70
    11
 71
     3
 72
    17
 73
    13
 74
     0
 42
0.0000000001
 43
0.0000000001
 12
1.0
 22
0.0
 32
0.0
 13
1.0
 23
0.0
 33
0.0
 40
0.0
 40
0.0
 40
0.0
 40
0.0
 40
1.0
 40
1.0
 40
1.0
 40
2.0
 40
2.0
 40
2.0
 40
3.0
 40
3.0
 40
3.0
 40
4.0
 40
4.0
 40
4.0
 40
4.0
 10
4.771863768341468
 20
6.188504010331902
 30
0.0
 10
4.771334601688168
 20
6.186923454816275
 30
0.0
 10
4.770684601704589
 20
6.185044288197079
 30
0.0
 10
4.771063768361677
 20
6.182684566034468
 30
0.0
 10
4.772379046106228
 20
6.173427621823874
 30
0.0
 10
4.775227657145377
 20
6.168409566395085
 30
0.0
 10
4.781480434765196
 20
6.165697066463609
 30
0.0
 10
4.782212379191151
 20
6.167548455305728
 30
0.0
 10
4.78317626805569
 20
6.171115121882293
 30
0.0
 10
4.78317626805569
 20
6.173963732921442
 30
0.0
 10
4.78317626805569
 20
6.180894288301917
 30
0.0
 10
4.777763888888885
 20
6.187330399250438
 30
0.0
 10
4.771863768341468
 20
6.188504010331902
 30
0.0
  0
SPLINE
  5
199
330
1F
100
AcDbEntity
  8
IUSE
370
     0
100
AcDbSpline
210
0.0
220
0.0
230
1.0
 70
    11
 71
     3
 72
    17
 73
    13
 74
     0
 42
0.0000000001
 43
0.0000000001
 12
1.0
 22
0.0
 32
0.0
 13
1.0
 23
0.0
 33
0.0
 40
0.0
 40
0.0
 40
0.0
 40
0.0
 40
1.0
 40
1.0
 40
1.0
 40
2.0
 40
2.0
 40
2.0
 40
3.0
 40
3.0
 40
3.0
 40
4.0
 40
4.0
 40
4.0
 40
4.0
 10
4.771823490564707
 20
5.99772068181816
 30
0.0
 10
4.774617934938558
 20
5.990138888888888
 30
0.0
 10
4.781480434765196
 20
5.988009570952372
 30
0.0
 10
4.781480434765196
 20
5.988009570952372
 30
0.0
 10
4.781480434765196
 20
5.988009570952372
 30
0.0
 10
4.785726267991271
 20
5.995876237420311
 30
0.0
 10
4.783595712489538
 20
6.001145681731638
 30
0.0
 10
4.780341545905078
 20
6.00937207041271
 30
0.0
 10
4.771322101688484
 20
6.012804014770457
 30
0.0
 10
4.771322101688484
 20
6.012804014770457
 30
0.0
 10
4.771322101688484
 20
6.012804014770457
 30
0.0
 10
4.769029046190856
 20
6.005283181627115
 30
0.0
 10
4.771823490564707
 20
5.99772068181816
 30
0.0
  0
HATCH
  5
19A
330
1F
100
AcDbEntity
  8
IUSE
 62
    43
420
 15510365
100
AcDbHatch
 10
0.0
 20
0.0
 30
0.0
210
0.0
220
0.0
230
1.0
  2
SOLID
 70
     1
 71
     0
 91
        1
 92
        1
 93
        1
 72
     4
 94
        3
 73
     0
 74
     1
 95
       17
 96
       13
 40
0.0
 40
0.0
 40
0.0
 40
0.0
 40
1.0
 40
1.0
 40
1.0
 40
2.0
 40
2.0
 40
2.0
 40
3.0
 40
3.0
 40
3.0
 40
4.0
 40
4.0
 40
4.0
 40
4.0
 10
4.771823490564707
 20
5.99772068181816
 10
4.774617934938558
 20
5.990138888888888
 10
4.781480434765196
 20
5.988009570952372
 10
4.781480434765196
 20
5.988009570952372
 10
4.781480434765196
 20
5.988009570952372
 10
4.785726267991271
 20
5.995876237420311
 10
4.783595712489538
 20
6.001145681731638
 10
4.780341545905078
 20
6.00937207041271
 10
4.771322101688484
 20
6.012804014770457
 10
4.771322101688484
 20
6.012804014770457
 10
4.771322101688484
 20
6.012804014770457
 10
4.769029046190856
 20
6.005283181627115
 10
4.771823490564707
 20
5.99772068181816
 97
        0
 97
        0
 75
     2
 76
     1
 98
        0
  0
SPLINE
  5
19B
330
1F
100
AcDbEntity
  8
IUSE
 62
   250
420
  2301728
370
     9
100
AcDbSpline
210
0.0
220
0.0
230
1.0
 70
    11
 71
     3
 72
    11
 73
     7
 74
     0
 42
0.0000000001
 43
0.0000000001
 12
1.0
 22
0.0
 32
0.0
 13
1.0
 23
0.0
 33
0.0
 40
0.0
 40
0.0
 40
0.0
 40
0.0
 40
1.0
 40
1.0
 40
1.0
 40
2.0
 40
2.0
 40
2.0
 40
2.0
 10
4.78393599025872
 20
5.995320681878789
 30
0.0
 10
4.78393599025872
 20
5.974297071298779
 30
0.0
 10
4.76190821303741
 20
5.981622071113734
 30
0.0
 10
4.761894324148872
 20
6.000651237299684
 30
0.0
 10
4.761894324148872
 20
6.022202625644139
 30
0.0
 10
4.78393599025872
 20
6.011494292581321
 30
0.0
 10
4.78393599025872
 20
5.995320681878789
 30
0.0
  0
SPLINE
  5
19C
330
1F
100
AcDbEntity
  8
IUSE
 62
   250
420
  2301728
370
    18
100
AcDbSpline
210
0.0
220
0.0
230
1.0
 70
    11
 71
     3
 72
    17
 73
    13
 74
     0
 42
0.0000000001
 43
0.0000000001
 12
1.0
 22
0.0
 32
0.0
 13
1.0
 23
0.0
 33
0.0
 40
0.0
 40
0.0
 40
0.0
 40
0.0
 40
1.0
 40
1.0
 40
1.0
 40
2.0
 40
2.0
 40
2.0
 40
3.0
 40
3.0
 40
3.0
 40
4.0
 40
4.0
 40
4.0
 40
4.0
 10
4.771863768341468
 20
6.011366514806771
 30
0.0
 10
4.771334601688168
 20
6.009785959291144
 30
0.0
 10
4.770684601704589
 20
6.007906792671949
 30
0.0
 10
4.771063768361677
 20
6.005547070509338
 30
0.0
 10
4.772379046106228
 20
5.996290126298744
 30
0.0
 10
4.775227657145377
 20
5.991272070869955
 30
0.0
 10
4.781480434765196
 20
5.988559570938492
 30
0.0
 10
4.782212379191151
 20
5.990410959780598
 30
0.0
 10
4.78317626805569
 20
5.993977626357163
 30
0.0
 10
4.78317626805569
 20
5.996826237396312
 30
0.0
 10
4.78317626805569
 20
6.003756792776787
 30
0.0
 10
4.777763888888885
 20
6.010192903725308
 30
0.0
 10
4.771863768341468
 20
6.011366514806771
 30
0.0
  0
SPLINE
  5
19D
330
1F
100
AcDbEntity
  8
IUSE
370
     0
100
AcDbSpline
210
0.0
220
0.0
230
1.0
 70
    11
 71
     3
 72
    17
 73
    13
 74
     0
 42
0.0000000001
 43
0.0000000001
 12
1.0
 22
0.0
 32
0.0
 13
1.0
 23
0.0
 33
0.0
 40
0.0
 40
0.0
 40
0.0
 40
0.0
 40
1.0
 40
1.0
 40
1.0
 40
2.0
 40
2.0
 40
2.0
 40
3.0
 40
3.0
 40
3.0
 40
4.0
 40
4.0
 40
4.0
 40
4.0
 10
4.771823490564707
 20
5.820583333333338
 30
0.0
 10
4.774617934938558
 20
5.813001242040122
 30
0.0
 10
4.781480434765196
 20
5.810872075427255
 30
0.0
 10
4.781480434765196
 20
5.810872075427255
 30
0.0
 10
4.781480434765196
 20
5.810872075427255
 30
0.0
 10
4.785726267991271
 20
5.818738741895181
 30
0.0
 10
4.783595712489538
 20
5.824008186206507
 30
0.0
 10
4.780341545905078
 20
5.83223457488758
 30
0.0
 10
4.771322101688484
 20
5.835666666666662
 30
0.0
 10
4.771322101688484
 20
5.835666666666662
 30
0.0
 10
4.771322101688484
 20
5.835666666666662
 30
0.0
 10
4.769029046190856
 20
5.828145686101985
 30
0.0
 10
4.771823490564707
 20
5.820583333333338
 30
0.0
  0
HATCH
  5
19E
330
1F
100
AcDbEntity
  8
IUSE
 62
    43
420
 15510365
100
AcDbHatch
 10
0.0
 20
0.0
 30
0.0
210
0.0
220
0.0
230
1.0
  2
SOLID
 70
     1
 71
     0
 91
        1
 92
        1
 93
        1
 72
     4
 94
        3
 73
     0
 74
     1
 95
       17
 96
       13
 40
0.0
 40
0.0
 40
0.0
 40
0.0
 40
1.0
 40
1.0
 40
1.0
 40
2.0
 40
2.0
 40
2.0
 40
3.0
 40
3.0
 40
3.0
 40
4.0
 40
4.0
 40
4.0
 40
4.0
 10
4.771823490564707
 20
5.820583333333338
 10
4.774617934938558
 20
5.813001242040122
 10
4.781480434765196
 20
5.810872075427255
 10
4.781480434765196
 20
5.810872075427255
 10
4.781480434765196
 20
5.810872075427255
 10
4.785726267991271
 20
5.818738741895181
 10
4.783595712489538
 20
5.824008186206507
 10
4.780341545905078
 20
5.83223457488758
 10
4.771322101688484
 20
5.835666666666662
 10
4.771322101688484
 20
5.835666666666662
 10
4.771322101688484
 20
5.835666666666662
 10
4.769029046190856
 20
5.828145686101985
 10
4.771823490564707
 20
5.820583333333338
 97
        0
 97
        0
 75
     2
 76
     1
 98
        0
  0
SPLINE
  5
19F
330
1F
100
AcDbEntity
  8
IUSE
 62
   250
420
  2301728
370
     9
100
AcDbSpline
210
0.0
220
0.0
230
1.0
 70
    11
 71
     3
 72
    11
 73
     7
 74
     0
 42
0.0000000001
 43
0.0000000001
 12
1.0
 22
0.0
 32
0.0
 13
1.0
 23
0.0
 33
0.0
 40
0.0
 40
0.0
 40
0.0
 40
0.0
 40
1.0
 40
1.0
 40
1.0
 40
2.0
 40
2.0
 40
2.0
 40
2.0
 10
4.78393599025872
 20
5.818183186353672
 30
0.0
 10
4.78393599025872
 20
5.797159575773649
 30
0.0
 10
4.76190821303741
 20
5.804484575588604
 30
0.0
 10
4.761894324148872
 20
5.823513888888884
 30
0.0
 10
4.761894324148872
 20
5.845065130119009
 30
0.0
 10
4.78393599025872
 20
5.83435679705619
 30
0.0
 10
4.78393599025872
 20
5.818183186353672
 30
0.0
  0
SPLINE
  5
1A0
330
1F
100
AcDbEntity
  8
IUSE
 62
   250
420
  2301728
370
    18
100
AcDbSpline
210
0.0
220
0.0
230
1.0
 70
    11
 71
     3
 72
    17
 73
    13
 74
     0
 42
0.0000000001
 43
0.0000000001
 12
1.0
 22
0.0
 32
0.0
 13
1.0
 23
0.0
 33
0.0
 40
0.0
 40
0.0
 40
0.0
 40
0.0
 40
1.0
 40
1.0
 40
1.0
 40
2.0
 40
2.0
 40
2.0
 40
3.0
 40
3.0
 40
3.0
 40
4.0
 40
4.0
 40
4.0
 40
4.0
 10
4.771863768341468
 20
5.834229019281641
 30
0.0
 10
4.771334601688168
 20
5.832648463766014
 30
0.0
 10
4.770684601704589
 20
5.830769297146818
 30
0.0
 10
4.771063768361677
 20
5.828409574984208
 30
0.0
 10
4.772379046106228
 20
5.819152777777782
 30
0.0
 10
4.775227657145377
 20
5.814134575344824
 30
0.0
 10
4.781480434765196
 20
5.811422075413348
 30
0.0
 10
4.782212379191151
 20
5.813273464255468
 30
0.0
 10
4.78317626805569
 20
5.816840130832032
 30
0.0
 10
4.78317626805569
 20
5.819688741871182
 30
0.0
 10
4.78317626805569
 20
5.826619297251656
 30
0.0
 10
4.777763888888885
 20
5.833055555555549
 30
0.0
 10
4.771863768341468
 20
5.834229019281641
 30
0.0
  0
SPLINE
  5
1A1
330
1F
100
AcDbEntity
  8
IUSE
370
     0
100
AcDbSpline
210
0.0
220
0.0
230
1.0
 70
    11
 71
     3
 72
    17
 73
    13
 74
     0
 42
0.0000000001
 43
0.0000000001
 12
1.0
 22
0.0
 32
0.0
 13
1.0
 23
0.0
 33
0.0
 40
0.0
 40
0.0
 40
0.0
 40
0.0
 40
1.0
 40
1.0
 40
1.0
 40
2.0
 40
2.0
 40
2.0
 40
3.0
 40
3.0
 40
3.0
 40
4.0
 40
4.0
 40
4.0
 40
4.0
 10
4.771823490564707
 20
5.6434456907679
 30
0.0
 10
4.774617934938558
 20
5.635863746514992
 30
0.0
 10
4.781480434765196
 20
5.633734579902112
 30
0.0
 10
4.781480434765196
 20
5.633734579902112
 30
0.0
 10
4.781480434765196
 20
5.633734579902112
 30
0.0
 10
4.785726267991271
 20
5.64160124637005
 30
0.0
 10
4.783595712489538
 20
5.646870690681377
 30
0.0
 10
4.780341545905078
 20
5.655097222222227
 30
0.0
 10
4.771322101688484
 20
5.658529023720196
 30
0.0
 10
4.771322101688484
 20
5.658529023720196
 30
0.0
 10
4.771322101688484
 20
5.658529023720196
 30
0.0
 10
4.769029046190856
 20
5.651008190576855
 30
0.0
 10
4.771823490564707
 20
5.6434456907679
 30
0.0
  0
HATCH
  5
1A2
330
1F
100
AcDbEntity
  8
IUSE
 62
    43
420
 15510365
100
AcDbHatch
 10
0.0
 20
0.0
 30
0.0
210
0.0
220
0.0
230
1.0
  2
SOLID
 70
     1
 71
     0
 91
        1
 92
        1
 93
        1
 72
     4
 94
        3
 73
     0
 74
     1
 95
       17
 96
       13
 40
0.0
 40
0.0
 40
0.0
 40
0.0
 40
1.0
 40
1.0
 40
1.0
 40
2.0
 40
2.0
 40
2.0
 40
3.0
 40
3.0
 40
3.0
 40
4.0
 40
4.0
 40
4.0
 40
4.0
 10
4.771823490564707
 20
5.6434456907679
 10
4.774617934938558
 20
5.635863746514992
 10
4.781480434765196
 20
5.633734579902112
 10
4.781480434765196
 20
5.633734579902112
 10
4.781480434765196
 20
5.633734579902112
 10
4.785726267991271
 20
5.64160124637005
 10
4.783595712489538
 20
5.646870690681377
 10
4.780341545905078
 20
5.655097222222227
 10
4.771322101688484
 20
5.658529023720196
 10
4.771322101688484
 20
5.658529023720196
 10
4.771322101688484
 20
5.658529023720196
 10
4.769029046190856
 20
5.651008190576855
 10
4.771823490564707
 20
5.6434456907679
 97
        0
 97
        0
 75
     2
 76
     1
 98
        0
  0
SPLINE
  5
1A3
330
1F
100
AcDbEntity
  8
IUSE
 62
   250
420
  2301728
370
     9
100
AcDbSpline
210
0.0
220
0.0
230
1.0
 70
    11
 71
     3
 72
    11
 73
     7
 74
     0
 42
0.0000000001
 43
0.0000000001
 12
1.0
 22
0.0
 32
0.0
 13
1.0
 23
0.0
 33
0.0
 40
0.0
 40
0.0
 40
0.0
 40
0.0
 40
1.0
 40
1.0
 40
1.0
 40
2.0
 40
2.0
 40
2.0
 40
2.0
 10
4.78393599025872
 20
5.641045690828529
 30
0.0
 10
4.78393599025872
 20
5.620022080248519
 30
0.0
 10
4.76190821303741
 20
5.62734569117462
 30
0.0
 10
4.761894324148872
 20
5.646376246249436
 30
0.0
 10
4.761894324148872
 20
5.667927634593878
 30
0.0
 10
4.78393599025872
 20
5.65721930153106
 30
0.0
 10
4.78393599025872
 20
5.641045690828529
 30
0.0
  0
SPLINE
  5
1A4
330
1F
100
AcDbEntity
  8
IUSE
 62
   250
420
  2301728
370
    18
100
AcDbSpline
210
0.0
220
0.0
230
1.0
 70
    11
 71
     3
 72
    17
 73
    13
 74
     0
 42
0.0000000001
 43
0.0000000001
 12
1.0
 22
0.0
 32
0.0
 13
1.0
 23
0.0
 33
0.0
 40
0.0
 40
0.0
 40
0.0
 40
0.0
 40
1.0
 40
1.0
 40
1.0
 40
2.0
 40
2.0
 40
2.0
 40
3.0
 40
3.0
 40
3.0
 40
4.0
 40
4.0
 40
4.0
 40
4.0
 10
4.771863768341468
 20
5.657090134867657
 30
0.0
 10
4.771334601688168
 20
5.655510968240884
 30
0.0
 10
4.770684601704589
 20
5.653631801621688
 30
0.0
 10
4.771063768361677
 20
5.651272079459077
 30
0.0
 10
4.772379046106228
 20
5.642015135248483
 30
0.0
 10
4.775227657145377
 20
5.636997079819694
 30
0.0
 10
4.781480434765196
 20
5.634284579888218
 30
0.0
 10
4.782212379191151
 20
5.636135968730337
 30
0.0
 10
4.78317626805569
 20
5.639702635306902
 30
0.0
 10
4.78317626805569
 20
5.642551246346051
 30
0.0
 10
4.78317626805569
 20
5.649481801726526
 30
0.0
 10
4.777763888888885
 20
5.655917912675047
 30
0.0
 10
4.771863768341468
 20
5.657090134867657
 30
0.0
  0
SPLINE
  5
1A5
330
1F
100
AcDbEntity
  8
IUSE
370
     0
100
AcDbSpline
210
0.0
220
0.0
230
1.0
 70
    11
 71
     3
 72
    17
 73
    13
 74
     0
 42
0.0000000001
 43
0.0000000001
 12
1.0
 22
0.0
 32
0.0
 13
1.0
 23
0.0
 33
0.0
 40
0.0
 40
0.0
 40
0.0
 40
0.0
 40
1.0
 40
1.0
 40
1.0
 40
2.0
 40
2.0
 40
2.0
 40
3.0
 40
3.0
 40
3.0
 40
4.0
 40
4.0
 40
4.0
 40
4.0
 10
4.771823490564707
 20
5.466308195242769
 30
0.0
 10
4.774617934938558
 20
5.458726250989861
 30
0.0
 10
4.781480434765196
 20
5.456597222222222
 30
0.0
 10
4.781480434765196
 20
5.456597222222222
 30
0.0
 10
4.781480434765196
 20
5.456597222222222
 30
0.0
 10
4.785726267991271
 20
5.46446375084492
 30
0.0
 10
4.783595712489538
 20
5.469726250711978
 30
0.0
 10
4.780341545905078
 20
5.477959583837319
 30
0.0
 10
4.771322101688484
 20
5.481391528195066
 30
0.0
 10
4.771322101688484
 20
5.481391528195066
 30
0.0
 10
4.771322101688484
 20
5.481391528195066
 30
0.0
 10
4.769029046190856
 20
5.47387625060714
 30
0.0
 10
4.771823490564707
 20
5.466308195242769
 30
0.0
  0
HATCH
  5
1A6
330
1F
100
AcDbEntity
  8
IUSE
 62
    43
420
 15510365
100
AcDbHatch
 10
0.0
 20
0.0
 30
0.0
210
0.0
220
0.0
230
1.0
  2
SOLID
 70
     1
 71
     0
 91
        1
 92
        1
 93
        1
 72
     4
 94
        3
 73
     0
 74
     1
 95
       17
 96
       13
 40
0.0
 40
0.0
 40
0.0
 40
0.0
 40
1.0
 40
1.0
 40
1.0
 40
2.0
 40
2.0
 40
2.0
 40
3.0
 40
3.0
 40
3.0
 40
4.0
 40
4.0
 40
4.0
 40
4.0
 10
4.771823490564707
 20
5.466308195242769
 10
4.774617934938558
 20
5.458726250989861
 10
4.781480434765196
 20
5.456597222222222
 10
4.781480434765196
 20
5.456597222222222
 10
4.781480434765196
 20
5.456597222222222
 10
4.785726267991271
 20
5.46446375084492
 10
4.783595712489538
 20
5.469726250711978
 10
4.780341545905078
 20
5.477959583837319
 10
4.771322101688484
 20
5.481391528195066
 10
4.771322101688484
 20
5.481391528195066
 10
4.771322101688484
 20
5.481391528195066
 10
4.769029046190856
 20
5.47387625060714
 10
4.771823490564707
 20
5.466308195242769
 97
        0
 97
        0
 75
     2
 76
     1
 98
        0
  0
SPLINE
  5
1A7
330
1F
100
AcDbEntity
  8
IUSE
 62
   250
420
  2301728
370
     9
100
AcDbSpline
210
0.0
220
0.0
230
1.0
 70
    11
 71
     3
 72
    11
 73
     7
 74
     0
 42
0.0000000001
 43
0.0000000001
 12
1.0
 22
0.0
 32
0.0
 13
1.0
 23
0.0
 33
0.0
 40
0.0
 40
0.0
 40
0.0
 40
0.0
 40
1.0
 40
1.0
 40
1.0
 40
2.0
 40
2.0
 40
2.0
 40
2.0
 10
4.78393599025872
 20
5.463908195303398
 30
0.0
 10
4.78393599025872
 20
5.442884584723388
 30
0.0
 10
4.76190821303741
 20
5.450208333333345
 30
0.0
 10
4.761894324148872
 20
5.469238750724293
 30
0.0
 10
4.761894324148872
 20
5.490790139068748
 30
0.0
 10
4.78393599025872
 20
5.480088750450199
 30
0.0
 10
4.78393599025872
 20
5.463908195303398
 30
0.0
  0
SPLINE
  5
1A8
330
1F
100
AcDbEntity
  8
IUSE
 62
   250
420
  2301728
370
    18
100
AcDbSpline
210
0.0
220
0.0
230
1.0
 70
    11
 71
     3
 72
    17
 73
    13
 74
     0
 42
0.0000000001
 43
0.0000000001
 12
1.0
 22
0.0
 32
0.0
 13
1.0
 23
0.0
 33
0.0
 40
0.0
 40
0.0
 40
0.0
 40
0.0
 40
1.0
 40
1.0
 40
1.0
 40
2.0
 40
2.0
 40
2.0
 40
3.0
 40
3.0
 40
3.0
 40
4.0
 40
4.0
 40
4.0
 40
4.0
 10
4.771863768341468
 20
5.479952639342526
 30
0.0
 10
4.771334601688168
 20
5.478380417160022
 30
0.0
 10
4.770684601704589
 20
5.476494306096558
 30
0.0
 10
4.771063768361677
 20
5.474134583933947
 30
0.0
 10
4.772379046106228
 20
5.464870695279084
 30
0.0
 10
4.775227657145377
 20
5.459852639850295
 30
0.0
 10
4.781480434765196
 20
5.457140139918819
 30
0.0
 10
4.782212379191151
 20
5.458998473205207
 30
0.0
 10
4.78317626805569
 20
5.462565139781772
 30
0.0
 10
4.78317626805569
 20
5.465413750820921
 30
0.0
 10
4.78317626805569
 20
5.472344306201395
 30
0.0
 10
4.777763888888885
 20
5.478787361594186
 30
0.0
 10
4.771863768341468
 20
5.479952639342526
 30
0.0
  0
SPLINE
  5
1A9
330
1F
100
AcDbEntity
  8
IUSE
 62
   250
420
  2301728
370
     9
100
AcDbSpline
210
0.0
220
0.0
230
1.0
 70
    11
 71
     3
 72
    14
 73
    10
 74
     0
 42
0.0000000001
 43
0.0000000001
 12
1.0
 22
0.0
 32
0.0
 13
1.0
 23
0.0
 33
0.0
 40
0.0
 40
0.0
 40
0.0
 40
0.0
 40
1.0
 40
1.0
 40
1.0
 40
2.0
 40
2.0
 40
2.0
 40
3.0
 40
3.0
 40
3.0
 40
3.0
 10
4.351129056747898
 20
6.491909558222788
 30
0.0
 10
4.351847222222229
 20
6.489935947161547
 30
0.0
 10
4.332356834999902
 20
6.481404002932625
 30
0.0
 10
4.332356834999902
 20
6.481404002932625
 30
0.0
 10
4.332356834999902
 20
6.481404002932625
 30
0.0
 10
4.330240168386707
 20
6.487277777777775
 30
0.0
 10
4.330240168386707
 20
6.490919280470027
 30
0.0
 10
4.330227668387023
 20
6.510531779974573
 30
0.0
 10
4.346638888888896
 20
6.504367891241397
 30
0.0
 10
4.351129056747898
 20
6.491909558222788
 30
0.0
  0
SPLINE
  5
1AA
330
1F
100
AcDbEntity
  8
IUSE
 62
   250
420
  2301728
370
    18
100
AcDbSpline
210
0.0
220
0.0
230
1.0
 70
    11
 71
     3
 72
    17
 73
    13
 74
     0
 42
0.0000000001
 43
0.0000000001
 12
1.0
 22
0.0
 32
0.0
 13
1.0
 23
0.0
 33
0.0
 40
0.0
 40
0.0
 40
0.0
 40
0.0
 40
1.0
 40
1.0
 40
1.0
 40
2.0
 40
2.0
 40
2.0
 40
3.0
 40
3.0
 40
3.0
 40
4.0
 40
4.0
 40
4.0
 40
4.0
 10
4.339626279260705
 20
6.501084557991008
 30
0.0
 10
4.339084612607722
 20
6.499510946919649
 30
0.0
 10
4.338908223723289
 20
6.498195669175098
 30
0.0
 10
4.339261001492155
 20
6.495842891456757
 30
0.0
 10
4.339734612591302
 20
6.492512335985339
 30
0.0
 10
4.340847222222211
 20
6.489230391623803
 30
0.0
 10
4.342665168072825
 20
6.487413725003029
 30
0.0
 10
4.343098501395212
 20
6.486979002791789
 30
0.0
 10
4.350436001209851
 20
6.487983169433088
 30
0.0
 10
4.350261001214272
 20
6.489799836053862
 30
0.0
 10
4.349609612341839
 20
6.496310947000488
 30
0.0
 10
4.344820723573926
 20
6.499002613599158
 30
0.0
 10
4.339626279260705
 20
6.501084557991008
 30
0.0
  0
POLYLINE
  5
1AB
330
1F
100
AcDbEntity
  8
IUSE
 62
   250
420
  2301728
370
     9
100
AcDb2dPolyline
 66
     1
 10
0.0
 20
0.0
 30
0.0
  0
VERTEX
  5
1AC
330
1AB
100
AcDbEntity
  8
IUSE
 62
   250
420
  2301728
370
     9
100
AcDbVertex
100
AcDb2dVertex
 10
4.577080439928775
 20
6.063455402379796
 30
0.0
  0
VERTEX
  5
1AD
330
1AB
100
AcDbEntity
  8
IUSE
 62
   250
420
  2301728
370
     9
100
AcDbVertex
100
AcDb2dVertex
 10
4.587904050766459
 20
6.059712346918786
 30
0.0
  0
SEQEND
  5
1AE
330
1AB
100
AcDbEntity
  8
IUSE
 62
   250
420
  2301728
370
     9
  0
POLYLINE
  5
1AF
330
1F
100
AcDbEntity
  8
IUSE
 62
   250
420
  2301728
370
     9
100
AcDb2dPolyline
 66
     1
 10
0.0
 20
0.0
 30
0.0
  0
VERTEX
  5
1B0
330
1AF
100
AcDbEntity
  8
IUSE
 62
   250
420
  2301728
370
     9
100
AcDbVertex
100
AcDb2dVertex
 10
4.577080439928775
 20
5.490790139068748
 30
0.0
  0
VERTEX
  5
1B1
330
1AF
100
AcDbEntity
  8
IUSE
 62
   250
420
  2301728
370
     9
100
AcDbVertex
100
AcDb2dVertex
 10
4.587904050766459
 20
5.487054028052019
 30
0.0
  0
SEQEND
  5
1B2
330
1AF
100
AcDbEntity
  8
IUSE
 62
   250
420
  2301728
370
     9
  0
POLYLINE
  5
1B3
330
1F
100
AcDbEntity
  8
IUSE
 62
   250
420
  2301728
370
     9
100
AcDb2dPolyline
 66
     1
 10
0.0
 20
0.0
 30
0.0
  0
VERTEX
  5
1B4
330
1B3
100
AcDbEntity
  8
IUSE
 62
   250
420
  2301728
370
     9
100
AcDbVertex
100
AcDb2dVertex
 10
4.854044321820967
 20
5.521348471630113
 30
0.0
  0
VERTEX
  5
1B5
330
1B3
100
AcDbEntity
  8
IUSE
 62
   250
420
  2301728
370
     9
100
AcDbVertex
100
AcDb2dVertex
 10
4.867622099255741
 20
5.52657069372041
 30
0.0
  0
SEQEND
  5
1B6
330
1B3
100
AcDbEntity
  8
IUSE
 62
   250
420
  2301728
370
     9
  0
INSERT
  5
1B8
330
1F
100
AcDbEntity
  8
IUSE
100
AcDbBlockReference
  2
block 3
 10
0.0
 20
0.0
 30
0.0
  0
SPLINE
  5
1C4
330
1F
100
AcDbEntity
  8
IUSE
 62
   250
420
  2301728
370
    20
100
AcDbSpline
210
0.0
220
0.0
230
1.0
 70
     8
 71
     3
 72
    71
 73
    67
 74
     0
 42
0.0000000001
 43
0.0000000001
 12
1.0
 22
0.0
 32
0.0
 13
1.0
 23
0.0
 33
0.0
 40
0.0
 40
0.0
 40
0.0
 40
0.0
 40
1.0
 40
1.0
 40
1.0
 40
2.0
 40
2.0
 40
2.0
 40
3.0
 40
3.0
 40
3.0
 40
4.0
 40
4.0
 40
4.0
 40
5.0
 40
5.0
 40
5.0
 40
6.0
 40
6.0
 40
6.0
 40
7.0
 40
7.0
 40
7.0
 40
8.0
 40
8.0
 40
8.0
 40
9.0
 40
9.0
 40
9.0
 40
10.0
 40
10.0
 40
10.0
 40
11.0
 40
11.0
 40
11.0
 40
12.0
 40
12.0
 40
12.0
 40
13.0
 40
13.0
 40
13.0
 40
14.0
 40
14.0
 40
14.0
 40
15.0
 40
15.0
 40
15.0
 40
16.0
 40
16.0
 40
16.0
 40
17.0
 40
17.0
 40
17.0
 40
18.0
 40
18.0
 40
18.0
 40
19.0
 40
19.0
 40
19.0
 40
20.0
 40
20.0
 40
20.0
 40
21.0
 40
21.0
 40
21.0
 40
22.0
 40
22.0
 40
22.0
 40
22.0
 10
4.865206821538979
 20
6.440904003955741
 30
0.0
 10
4.865206821538979
 20
6.440904003955741
 30
0.0
 10
4.867622099255741
 20
5.522874999999999
 30
0.0
 10
4.867622099255741
 20
5.522874999999999
 30
0.0
 10
4.867622099255741
 20
5.522874999999999
 30
0.0
 10
4.697361111111099
 20
5.257988756060917
 30
0.0
 10
4.69137904815246
 20
5.238430555555547
 30
0.0
 10
4.685397103859132
 20
5.218898479270643
 30
0.0
 10
4.661187382248499
 20
5.151787369854901
 30
0.0
 10
4.661187382248499
 20
5.151787369854901
 30
0.0
 10
4.661187382248499
 20
5.151787369854901
 30
0.0
 10
4.661770715567096
 20
5.052395705699078
 30
0.0
 10
4.661770715567096
 20
5.032755428417456
 30
0.0
 10
4.661770715567096
 20
5.021388888888901
 30
0.0
 10
4.638698493927728
 20
5.004137373584854
 30
0.0
 10
4.638698493927728
 20
5.004137373584854
 30
0.0
 10
4.638698493927728
 20
5.004137373584854
 30
0.0
 10
4.638698493927728
 20
4.991441540572244
 30
0.0
 10
4.631048494120983
 20
4.98558181849805
 30
0.0
 10
4.62410404985197
 20
4.980265151965694
 30
0.0
 10
4.616481827822301
 20
4.981730429706456
 30
0.0
 10
4.616481827822301
 20
4.981730429706456
 30
0.0
 10
4.616481827822301
 20
4.981730429706456
 30
0.0
 10
4.581108217604802
 20
4.950913763818284
 30
0.0
 10
4.581108217604802
 20
4.950913763818284
 30
0.0
 10
4.581108217604802
 20
4.950913763818284
 30
0.0
 10
4.57999710652176
 20
4.941691541829035
 30
0.0
 10
4.573716551124865
 20
4.93564154198187
 30
0.0
 10
4.568604051254018
 20
4.93067765321838
 30
0.0
 10
4.561210995885227
 20
4.934176264241109
 30
0.0
 10
4.561210995885227
 20
4.934176264241109
 30
0.0
 10
4.561210995885227
 20
4.934176264241109
 30
0.0
 10
4.511515163807315
 20
4.893147098610926
 30
0.0
 10
4.511515163807315
 20
4.893147098610926
 30
0.0
 10
4.511515163807315
 20
4.893147098610926
 30
0.0
 10
4.475748498044191
 20
4.901815153947508
 30
0.0
 10
4.475748498044191
 20
4.901815153947508
 30
0.0
 10
4.475748498044191
 20
4.901815153947508
 30
0.0
 10
4.489067942152158
 20
4.913140153661415
 30
0.0
 10
4.489067942152158
 20
4.913140153661415
 30
0.0
 10
4.489067942152158
 20
4.913140153661415
 30
0.0
 10
4.489067942152158
 20
5.111192926435958
 30
0.0
 10
4.489067942152158
 20
5.111192926435958
 30
0.0
 10
4.489067942152158
 20
5.111192926435958
 30
0.0
 10
4.576212384395149
 20
5.493495694555955
 30
0.0
 10
4.576212384395149
 20
5.493495694555955
 30
0.0
 10
4.576212384395149
 20
5.493495694555955
 30
0.0
 10
4.576212384395149
 20
5.978420682305719
 30
0.0
 10
4.576212384395149
 20
6.022806792295543
 30
0.0
 10
4.576212384395149
 20
6.067213735618174
 30
0.0
 10
4.576835995490506
 20
6.032280403167331
 30
0.0
 10
4.57739293992088
 20
6.062005402416414
 30
0.0
 10
4.58353599532125
 20
6.103345679149848
 30
0.0
 10
4.597967939401112
 20
6.239915120144259
 30
0.0
 10
4.610487383529289
 20
6.341213728696352
 30
0.0
 10
4.61067766130226
 20
6.342733173102411
 30
0.0
 10
4.614637383424451
 20
6.355577617222378
 30
0.0
 10
4.616413772268465
 20
6.3592928949063
 30
0.0
 10
4.630017938591461
 20
6.387729005299055
 30
0.0
 10
4.672540159739482
 20
6.478616503003043
 30
0.0
 10
4.672540159739482
 20
6.478616503003043
 30
0.0
 10
4.672540159739482
 20
6.478616503003043
 30
0.0
 10
4.689344325981639
 20
6.485099836172594
 30
0.0
 10
4.689344325981639
 20
6.485099836172594
 30
0.0
 10
4.689344325981639
 20
6.485099836172594
 30
0.0
 10
4.787055555555551
 20
6.456834559108857
 30
0.0
 10
4.787055555555551
 20
6.456834559108857
 30
0.0
  0
SPLINE
  5
1C5
330
1F
100
AcDbEntity
  8
IUSE
 62
   250
420
  2301728
370
    20
100
AcDbSpline
210
0.0
220
0.0
230
1.0
 70
     8
 71
     3
 72
    26
 73
    22
 74
     0
 42
0.0000000001
 43
0.0000000001
 12
1.0
 22
0.0
 32
0.0
 13
1.0
 23
0.0
 33
0.0
 40
0.0
 40
0.0
 40
0.0
 40
0.0
 40
1.0
 40
1.0
 40
1.0
 40
2.0
 40
2.0
 40
2.0
 40
3.0
 40
3.0
 40
3.0
 40
4.0
 40
4.0
 40
4.0
 40
5.0
 40
5.0
 40
5.0
 40
6.0
 40
6.0
 40
6.0
 40
7.0
 40
7.0
 40
7.0
 40
7.0
 10
4.353759612237001
 20
6.57335677838748
 30
0.0
 10
4.353759612237001
 20
6.57335677838748
 30
0.0
 10
4.460490165096315
 20
6.546677612394786
 30
0.0
 10
4.460490165096315
 20
6.546677612394786
 30
0.0
 10
4.460490165096315
 20
6.546677612394786
 30
0.0
 10
4.266777777777785
 20
6.449184559302112
 30
0.0
 10
4.266777777777785
 20
6.449184559302112
 30
0.0
 10
4.266777777777785
 20
6.449184559302112
 30
0.0
 10
4.266777777777785
 20
6.580138888888895
 30
0.0
 10
4.266777777777785
 20
6.580138888888895
 30
0.0
 10
4.266777777777785
 20
6.580138888888895
 30
0.0
 10
4.263929058950755
 20
6.597967888876862
 30
0.0
 10
4.274291666666664
 20
6.60171094433786
 30
0.0
 10
4.287841558346675
 20
6.606587333103562
 30
0.0
 10
4.321940168596383
 20
6.61440677735047
 30
0.0
 10
4.321940168596383
 20
6.61440677735047
 30
0.0
 10
4.321940168596383
 20
6.61440677735047
 30
0.0
 10
4.383517944818575
 20
6.60106788879855
 30
0.0
 10
4.383517944818575
 20
6.60106788879855
 30
0.0
 10
4.383517944818575
 20
6.60106788879855
 30
0.0
 10
4.382487389289054
 20
6.590806777946656
 30
0.0
 10
4.382487389289054
 20
6.590806777946656
 30
0.0
  0
SPLINE
  5
1C6
330
1F
100
AcDbEntity
  8
IUSE
 62
   250
420
  2301728
370
    20
100
AcDbSpline
210
0.0
220
0.0
230
1.0
 70
     8
 71
     3
 72
    20
 73
    16
 74
     0
 42
0.0000000001
 43
0.0000000001
 12
1.0
 22
0.0
 32
0.0
 13
1.0
 23
0.0
 33
0.0
 40
0.0
 40
0.0
 40
0.0
 40
0.0
 40
1.0
 40
1.0
 40
1.0
 40
2.0
 40
2.0
 40
2.0
 40
3.0
 40
3.0
 40
3.0
 40
4.0
 40
4.0
 40
4.0
 40
5.0
 40
5.0
 40
5.0
 40
5.0
 10
4.787474879058209
 20
6.446533170480203
 30
0.0
 10
4.787474879058209
 20
6.446533170480203
 30
0.0
 10
4.784627656907913
 20
6.46126233677478
 30
0.0
 10
4.794990156646135
 20
6.465006781124644
 30
0.0
 10
4.808552656303517
 20
6.469881781001491
 30
0.0
 10
4.844305555555567
 20
6.480997058498461
 30
0.0
 10
4.844305555555567
 20
6.480997058498461
 30
0.0
 10
4.844305555555567
 20
6.480997058498461
 30
0.0
 10
4.905870709400611
 20
6.469692892117362
 30
0.0
 10
4.905870709400611
 20
6.469692892117362
 30
0.0
 10
4.905870709400611
 20
6.469692892117362
 30
0.0
 10
4.905870709400611
 20
6.457390114650378
 30
0.0
 10
4.905870709400611
 20
6.457390114650378
 30
0.0
 10
4.905870709400611
 20
6.457390114650378
 30
0.0
 10
4.873738765767889
 20
6.44499428163019
 30
0.0
 10
4.867906821470771
 20
6.443026226124352
 30
0.0
  0
INSERT
  5
1C8
330
1F
100
AcDbEntity
  8
IUSE
100
AcDbBlockReference
  2
block 4
 10
0.0
 20
0.0
 30
0.0
  0
POLYLINE
  5
1E1
330
1F
100
AcDbEntity
  8
IUSE
 62
     7
420
 16777215
370
    13
100
AcDb2dPolyline
 66
     1
 10
0.0
 20
0.0
 30
0.0
  0
VERTEX
  5
1E2
330
1E1
100
AcDbEntity
  8
IUSE
 62
     7
420
 16777215
370
    13
100
AcDbVertex
100
AcDb2dVertex
 10
4.79262904559467
 20
6.024881792243124
 30
0.0
  0
VERTEX
  5
1E3
330
1E1
100
AcDbEntity
  8
IUSE
 62
     7
420
 16777215
370
    13
100
AcDbVertex
100
AcDb2dVertex
 10
4.802544323121967
 20
6.014980403604365
 30
0.0
  0
SEQEND
  5
1E4
330
1E1
100
AcDbEntity
  8
IUSE
 62
     7
420
 16777215
370
    13
  0
SPLINE
  5
1E5
330
1F
100
AcDbEntity
  8
IUSE
 62
     7
420
 16777215
370
    15
100
AcDbSpline
210
0.0
220
0.0
230
1.0
 70
     8
 71
     3
 72
    14
 73
    10
 74
     0
 42
0.0000000001
 43
0.0000000001
 12
1.0
 22
0.0
 32
0.0
 13
1.0
 23
0.0
 33
0.0
 40
0.0
 40
0.0
 40
0.0
 40
0.0
 40
1.0
 40
1.0
 40
1.0
 40
2.0
 40
2.0
 40
2.0
 40
3.0
 40
3.0
 40
3.0
 40
3.0
 10
4.826659600290541
 20
6.116224845491161
 30
0.0
 10
4.824652777777778
 20
6.108574845684416
 30
0.0
 10
4.810872100689367
 20
6.067640124496291
 30
0.0
 10
4.809067934068278
 20
6.060669291339056
 30
0.0
 10
4.807263888888883
 20
6.053690124848698
 30
0.0
 10
4.805242934164905
 20
6.048516513868283
 30
0.0
 10
4.809747100717787
 20
6.043341513999015
 30
0.0
 10
4.814250000000002
 20
6.038160958574331
 30
0.0
 10
4.820542933778395
 20
6.028259569935572
 30
0.0
 10
4.825492933653347
 20
6.026462347758752
 30
0.0
  0
POLYLINE
  5
1E6
330
1F
100
AcDbEntity
  8
IUSE
 62
     7
420
 16777215
370
    15
100
AcDb2dPolyline
 66
     1
 10
0.0
 20
0.0
 30
0.0
  0
VERTEX
  5
1E7
330
1E6
100
AcDbEntity
  8
IUSE
 62
     7
420
 16777215
370
    15
100
AcDbVertex
100
AcDb2dVertex
 10
4.826633211402319
 20
6.001926237267475
 30
0.0
  0
VERTEX
  5
1E8
330
1E6
100
AcDbEntity
  8
IUSE
 62
     7
420
 16777215
370
    15
100
AcDbVertex
100
AcDb2dVertex
 10
4.826172100302856
 20
6.138535956038658
 30
0.0
  0
SEQEND
  5
1E9
330
1E6
100
AcDbEntity
  8
IUSE
 62
     7
420
 16777215
370
    15
  0
SPLINE
  5
1EA
330
1F
100
AcDbEntity
  8
IUSE
 62
     7
420
 16777215
370
    15
100
AcDbSpline
210
0.0
220
0.0
230
1.0
 70
     8
 71
     3
 72
    26
 73
    22
 74
     0
 42
0.0000000001
 43
0.0000000001
 12
1.0
 22
0.0
 32
0.0
 13
1.0
 23
0.0
 33
0.0
 40
0.0
 40
0.0
 40
0.0
 40
0.0
 40
1.0
 40
1.0
 40
1.0
 40
2.0
 40
2.0
 40
2.0
 40
3.0
 40
3.0
 40
3.0
 40
4.0
 40
4.0
 40
4.0
 40
5.0
 40
5.0
 40
5.0
 40
6.0
 40
6.0
 40
6.0
 40
7.0
 40
7.0
 40
7.0
 40
7.0
 10
4.793538767793911
 20
6.139662344899079
 30
0.0
 10
4.797133212147552
 20
6.129306789605127
 30
0.0
 10
4.795341545526147
 20
6.127060956328529
 30
0.0
 10
4.793538767793911
 20
6.117154012134354
 30
0.0
 10
4.791720712284283
 20
6.107252623495596
 30
0.0
 10
4.783188768055374
 20
6.069444444444444
 30
0.0
 10
4.781833333333325
 20
6.062241513521561
 30
0.0
 10
4.780476268123897
 20
6.055040124814594
 30
0.0
 10
4.776420712670793
 20
6.042433180688628
 30
0.0
 10
4.785888888888899
 20
6.032538736494138
 30
0.0
 10
4.795341545526147
 20
6.02263734785538
 30
0.0
 10
4.792181823383745
 20
6.024881792243124
 30
0.0
 10
4.792181823383745
 20
6.024881792243124
 30
0.0
 10
4.792181823383745
 20
6.024881792243124
 30
0.0
 10
4.79262904559467
 20
6.005981792720578
 30
0.0
 10
4.79262904559467
 20
6.002380403922668
 30
0.0
 10
4.79262904559467
 20
5.998779015124758
 30
0.0
 10
4.802544323121967
 20
5.988423459830806
 30
0.0
 10
4.805242934164905
 20
5.98707345986491
 30
0.0
 10
4.807942934096697
 20
5.98572484878788
 30
0.0
 10
4.811088767350561
 20
5.983024848856076
 30
0.0
 10
4.816948489424754
 20
5.990220682007626
 30
0.0
  0
SPLINE
  5
1EB
330
1F
100
AcDbEntity
  8
IUSE
 62
     7
420
 16777215
370
    15
100
AcDbSpline
210
0.0
220
0.0
230
1.0
 70
    11
 71
     3
 72
    38
 73
    34
 74
     0
 42
0.0000000001
 43
0.0000000001
 12
1.0
 22
0.0
 32
0.0
 13
1.0
 23
0.0
 33
0.0
 40
0.0
 40
0.0
 40
0.0
 40
0.0
 40
1.0
 40
1.0
 40
1.0
 40
2.0
 40
2.0
 40
2.0
 40
3.0
 40
3.0
 40
3.0
 40
4.0
 40
4.0
 40
4.0
 40
5.0
 40
5.0
 40
5.0
 40
6.0
 40
6.0
 40
6.0
 40
7.0
 40
7.0
 40
7.0
 40
8.0
 40
8.0
 40
8.0
 40
9.0
 40
9.0
 40
9.0
 40
10.0
 40
10.0
 40
10.0
 40
11.0
 40
11.0
 40
11.0
 40
11.0
 10
4.802544323121967
 20
6.014980403604365
 30
0.0
 10
4.802544323121967
 20
6.014980403604365
 30
0.0
 10
4.80276098978316
 20
6.001477626167697
 30
0.0
 10
4.80276098978316
 20
6.001477626167697
 30
0.0
 10
4.80276098978316
 20
6.001477626167697
 30
0.0
 10
4.812662378421919
 20
5.993156793044565
 30
0.0
 10
4.814019322832084
 20
5.992248459734179
 30
0.0
 10
4.815362378353711
 20
5.991347222222227
 30
0.0
 10
4.815362378353711
 20
5.988423459830806
 30
0.0
 10
4.818522100496112
 20
5.992031793072985
 30
0.0
 10
4.821194444444447
 20
5.995097222222221
 30
0.0
 10
4.826633211402319
 20
6.001477626167697
 30
0.0
 10
4.826633211402319
 20
6.001477626167697
 30
0.0
 10
4.826633211402319
 20
6.001477626167697
 30
0.0
 10
4.825955433641663
 20
6.072373457710051
 30
0.0
 10
4.825955433641663
 20
6.080023457516796
 30
0.0
 10
4.82189987818856
 20
6.070345679983498
 30
0.0
 10
4.818548489384335
 20
6.060269291349161
 30
0.0
 10
4.819458333333336
 20
6.05419845816919
 30
0.0
 10
4.820352656005424
 20
6.048116513878388
 30
0.0
 10
4.817613767185725
 20
6.046265125036269
 30
0.0
 10
4.825723489203079
 20
6.041984569588849
 30
0.0
 10
4.825723489203079
 20
6.041760958483388
 30
0.0
 10
4.826172100302856
 20
6.013630403638469
 30
0.0
 10
4.826172100302856
 20
6.013630403638469
 30
0.0
 10
4.826172100302856
 20
6.013630403638469
 30
0.0
 10
4.820542933778395
 20
6.011602625911918
 30
0.0
 10
4.820542933778395
 20
6.011602625911918
 30
0.0
 10
4.820542933778395
 20
6.011602625911918
 30
0.0
 10
4.814697100592739
 20
6.01173873701959
 30
0.0
 10
4.81176793400007
 20
6.011060959258935
 30
0.0
 10
4.808837378518547
 20
6.010388888888883
 30
0.0
 10
4.802544323121967
 20
6.014980403604365
 30
0.0
 10
4.802544323121967
 20
6.014980403604365
 30
0.0
  0
INSERT
  5
1ED
330
1F
100
AcDbEntity
  8
IUSE
100
AcDbBlockReference
  2
block 6
 10
0.0
 20
0.0
 30
0.0
  0
SPLINE
  5
21D
330
1F
100
AcDbEntity
  8
IUSE
 62
   250
420
  2301728
370
     9
100
AcDbSpline
210
0.0
220
0.0
230
1.0
 70
     8
 71
     3
 72
     8
 73
     4
 74
     0
 42
0.0000000001
 43
0.0000000001
 12
1.0
 22
0.0
 32
0.0
 13
1.0
 23
0.0
 33
0.0
 40
0.0
 40
0.0
 40
0.0
 40
0.0
 40
1.0
 40
1.0
 40
1.0
 40
1.0
 10
4.591145717351234
 20
5.037760983846561
 30
0.0
 10
4.591145717351234
 20
5.037760983846561
 30
0.0
 10
4.603326272599083
 20
5.035387372795412
 30
0.0
 10
4.608941550235007
 20
5.04882765023366
 30
0.0
  0
SPLINE
  5
21E
330
1F
100
AcDbEntity
  8
IUSE
 62
   250
420
  2301728
370
    20
100
AcDbSpline
210
0.0
220
0.0
230
1.0
 70
     8
 71
     3
 72
    11
 73
     7
 74
     0
 42
0.0000000001
 43
0.0000000001
 12
1.0
 22
0.0
 32
0.0
 13
1.0
 23
0.0
 33
0.0
 40
0.0
 40
0.0
 40
0.0
 40
0.0
 40
1.0
 40
1.0
 40
1.0
 40
2.0
 40
2.0
 40
2.0
 40
2.0
 10
4.854573488474267
 20
6.431945670848714
 30
0.0
 10
4.854573488474267
 20
6.431945670848714
 30
0.0
 10
4.851724877435117
 20
6.449774837064991
 30
0.0
 10
4.862087377173339
 20
6.453517892525976
 30
0.0
 10
4.875651265719575
 20
6.458394281291677
 30
0.0
 10
4.904852653870774
 20
6.468681781031793
 30
0.0
 10
4.904852653870774
 20
6.468681781031793
 30
0.0
  0
SPLINE
  5
21F
330
1F
100
AcDbEntity
  8
IUSE
 62
   250
420
  2301728
370
    20
100
AcDbSpline
210
0.0
220
0.0
230
1.0
 70
     8
 71
     3
 72
     8
 73
     4
 74
     0
 42
0.0000000001
 43
0.0000000001
 12
1.0
 22
0.0
 32
0.0
 13
1.0
 23
0.0
 33
0.0
 40
0.0
 40
0.0
 40
0.0
 40
0.0
 40
1.0
 40
1.0
 40
1.0
 40
1.0
 10
4.841227655478077
 20
6.433999999999994
 30
0.0
 10
4.841227655478077
 20
6.433999999999994
 30
0.0
 10
4.831990155711436
 20
6.450208333333332
 30
0.0
 10
4.851494321885386
 20
6.459445670154006
 30
0.0
  0
SPLINE
  5
220
330
1F
100
AcDbEntity
  8
IUSE
 62
   250
420
  2301728
370
    20
100
AcDbSpline
210
0.0
220
0.0
230
1.0
 70
     8
 71
     3
 72
    17
 73
    13
 74
     0
 42
0.0000000001
 43
0.0000000001
 12
1.0
 22
0.0
 32
0.0
 13
1.0
 23
0.0
 33
0.0
 40
0.0
 40
0.0
 40
0.0
 40
0.0
 40
1.0
 40
1.0
 40
1.0
 40
2.0
 40
2.0
 40
2.0
 40
3.0
 40
3.0
 40
3.0
 40
4.0
 40
4.0
 40
4.0
 40
4.0
 10
4.840291666666669
 20
6.432854004159101
 30
0.0
 10
4.840291666666669
 20
6.432854004159101
 30
0.0
 10
4.80325000000001
 20
6.440972222222221
 30
0.0
 10
4.80325000000001
 20
6.440972222222221
 30
0.0
 10
4.80325000000001
 20
6.440972222222221
 30
0.0
 10
4.794026267781596
 20
6.458420670179899
 30
0.0
 10
4.819688767133306
 20
6.461500000000001
 30
0.0
 10
4.819688767133306
 20
6.461500000000001
 30
0.0
 10
4.831990155711436
 20
6.462524836742887
 30
0.0
 10
4.831990155711436
 20
6.462524836742887
 30
0.0
 10
4.831990155711436
 20
6.462524836742887
 30
0.0
 10
4.848415155296506
 20
6.460469281239258
 30
0.0
 10
4.848415155296506
 20
6.460469281239258
 30
0.0
  0
SPLINE
  5
221
330
1F
100
AcDbEntity
  8
IUSE
 62
   250
420
  2301728
370
    20
100
AcDbSpline
210
0.0
220
0.0
230
1.0
 70
     8
 71
     3
 72
    11
 73
     7
 74
     0
 42
0.0000000001
 43
0.0000000001
 12
1.0
 22
0.0
 32
0.0
 13
1.0
 23
0.0
 33
0.0
 40
0.0
 40
0.0
 40
0.0
 40
0.0
 40
1.0
 40
1.0
 40
1.0
 40
2.0
 40
2.0
 40
2.0
 40
2.0
 10
4.838148488889197
 20
6.446105392713232
 30
0.0
 10
4.838148488889197
 20
6.446105392713232
 30
0.0
 10
4.819674878244768
 20
6.449184559302112
 30
0.0
 10
4.819674878244768
 20
6.449184559302112
 30
0.0
 10
4.819674878244768
 20
6.449184559302112
 30
0.0
 10
4.821723489304127
 20
6.459445670154006
 30
0.0
 10
4.841227655478077
 20
6.457390114650378
 30
0.0
  0
SPLINE
  5
222
330
1F
100
AcDbEntity
  8
IUSE
 62
   250
420
  2301728
370
    20
100
AcDbSpline
210
0.0
220
0.0
230
1.0
 70
     8
 71
     3
 72
     8
 73
     4
 74
     0
 42
0.0000000001
 43
0.0000000001
 12
1.0
 22
0.0
 32
0.0
 13
1.0
 23
0.0
 33
0.0
 40
0.0
 40
0.0
 40
0.0
 40
0.0
 40
1.0
 40
1.0
 40
1.0
 40
1.0
 10
4.321845724154324
 20
6.569376222932482
 30
0.0
 10
4.321845724154324
 20
6.569376222932482
 30
0.0
 10
4.312608224387683
 20
6.585584555856358
 30
0.0
 10
4.332112390561633
 20
6.594820666734146
 30
0.0
  0
SPLINE
  5
223
330
1F
100
AcDbEntity
  8
IUSE
 62
   250
420
  2301728
370
    20
100
AcDbSpline
210
0.0
220
0.0
230
1.0
 70
     8
 71
     3
 72
    17
 73
    13
 74
     0
 42
0.0000000001
 43
0.0000000001
 12
1.0
 22
0.0
 32
0.0
 13
1.0
 23
0.0
 33
0.0
 40
0.0
 40
0.0
 40
0.0
 40
0.0
 40
1.0
 40
1.0
 40
1.0
 40
2.0
 40
2.0
 40
2.0
 40
3.0
 40
3.0
 40
3.0
 40
4.0
 40
4.0
 40
4.0
 40
4.0
 10
4.320909613066862
 20
6.568230389628095
 30
0.0
 10
4.320909613066862
 20
6.568230389628095
 30
0.0
 10
4.283867947335946
 20
6.576348444978571
 30
0.0
 10
4.283867947335946
 20
6.576348444978571
 30
0.0
 10
4.283867947335946
 20
6.576348444978571
 30
0.0
 10
4.274644336457842
 20
6.593797055648893
 30
0.0
 10
4.300306835809553
 20
6.596876222237774
 30
0.0
 10
4.300306835809553
 20
6.596876222237774
 30
0.0
 10
4.312608224387683
 20
6.597899833323027
 30
0.0
 10
4.312608224387683
 20
6.597899833323027
 30
0.0
 10
4.312608224387683
 20
6.597899833323027
 30
0.0
 10
4.329033223972752
 20
6.595845666708252
 30
0.0
 10
4.329033223972752
 20
6.595845666708252
 30
0.0
  0
SPLINE
  5
224
330
1F
100
AcDbEntity
  8
IUSE
 62
   250
420
  2301728
370
    20
100
AcDbSpline
210
0.0
220
0.0
230
1.0
 70
     8
 71
     3
 72
    11
 73
     7
 74
     0
 42
0.0000000001
 43
0.0000000001
 12
1.0
 22
0.0
 32
0.0
 13
1.0
 23
0.0
 33
0.0
 40
0.0
 40
0.0
 40
0.0
 40
0.0
 40
1.0
 40
1.0
 40
1.0
 40
2.0
 40
2.0
 40
2.0
 40
2.0
 10
4.318766557565444
 20
6.581481778182225
 30
0.0
 10
4.318766557565444
 20
6.581481778182225
 30
0.0
 10
4.300292946921015
 20
6.584560944771106
 30
0.0
 10
4.300292946921015
 20
6.584560944771106
 30
0.0
 10
4.300292946921015
 20
6.584560944771106
 30
0.0
 10
4.302341557980374
 20
6.594820666734146
 30
0.0
 10
4.321845724154324
 20
6.592766500119372
 30
0.0
  0
SPLINE
  5
225
330
1F
100
AcDbEntity
  8
IUSE
 62
   250
420
  2301728
370
    20
100
AcDbSpline
210
0.0
220
0.0
230
1.0
 70
     8
 71
     3
 72
    17
 73
    13
 74
     0
 42
0.0000000001
 43
0.0000000001
 12
1.0
 22
0.0
 32
0.0
 13
1.0
 23
0.0
 33
0.0
 40
0.0
 40
0.0
 40
0.0
 40
0.0
 40
1.0
 40
1.0
 40
1.0
 40
2.0
 40
2.0
 40
2.0
 40
3.0
 40
3.0
 40
3.0
 40
4.0
 40
4.0
 40
4.0
 40
4.0
 10
4.442002665563349
 20
6.539497057020626
 30
0.0
 10
4.442002665563349
 20
6.539497057020626
 30
0.0
 10
4.349636001230061
 20
6.562072056450334
 30
0.0
 10
4.349636001230061
 20
6.562072056450334
 30
0.0
 10
4.349636001230061
 20
6.562072056450334
 30
0.0
 10
4.337172112656036
 20
6.565151223039227
 30
0.0
 10
4.337172112656036
 20
6.565151223039227
 30
0.0
 10
4.337172112656036
 20
6.573113722838065
 30
0.0
 10
4.336222222222229
 20
6.58711111111111
 30
0.0
 10
4.346937390187122
 20
6.590731777948551
 30
0.0
 10
4.35200961228121
 20
6.592454000127266
 30
0.0
 10
4.382487389289054
 20
6.600042888824444
 30
0.0
 10
4.382487389289054
 20
6.600042888824444
 30
0.0
  0
POLYLINE
  5
226
330
1F
100
AcDbEntity
  8
IUSE
 62
     7
420
 16777215
370
    13
100
AcDb2dPolyline
 66
     1
 10
0.0
 20
0.0
 30
0.0
  0
VERTEX
  5
227
330
226
100
AcDbEntity
  8
IUSE
 62
     7
420
 16777215
370
    13
100
AcDbVertex
100
AcDb2dVertex
 10
4.79262904559467
 20
6.024881792243124
 30
0.0
  0
VERTEX
  5
228
330
226
100
AcDbEntity
  8
IUSE
 62
     7
420
 16777215
370
    13
100
AcDbVertex
100
AcDb2dVertex
 10
4.802544323121967
 20
6.014980403604365
 30
0.0
  0
SEQEND
  5
229
330
226
100
AcDbEntity
  8
IUSE
 62
     7
420
 16777215
370
    13
  0
MTEXT
  5
22B
330
1F
100
AcDbEntity
  8
callouts
 62
   250
420
  2301728
100
AcDbMText
 10
3.686972406175401
 20
3.838554647233751
 30
0.0
 40
0.118
 41
0.0
 46
0.0
 71
     7
 72
     1
  1
\fHelvetica Neue LT Std 55 Roman|b0|i0|c0|p34;\W1;SIMPSON Strong-Tie\H0.068794;®\H0.118; ^C
 73
     1
 44
1.0
  0
MTEXT
  5
22C
330
1F
100
AcDbEntity
  8
callouts
 62
   250
420
  2301728
100
AcDbMText
 10
3.317017979092068
 20
3.638549221886529
 30
0.0
 40
0.118
 41
0.0
 46
0.0
 71
     7
 72
     1
  1
\fHelvetica Neue LT Std 55 Roman|b0|i0|c0|p34;\W1;IUSE Face Fix I-Joist Installation
 73
     1
 44
1.0
  0
MTEXT
  5
22D
330
1F
100
AcDbEntity
  8
callouts
 62
   250
420
  2236191
100
AcDbMText
 10
4.826662275526258
 20
6.888877656724717
 30
0.0
 40
0.118
 41
0.0
 46
0.0
 71
     7
 72
     1
  1
\fHelvetica Neue LT Std 57 Condensed|b0|i0|c0|p34;\W1;IUSE
 73
     1
 44
1.0
  0
MTEXT
  5
22E
330
1F
100
AcDbEntity
  8
callouts
 62
   250
420
  2236191
100
AcDbMText
 10
4.505001068115234
 20
4.467754893832736
 30
0.0
 40
0.118
 41
0.0
 46
0.0
 71
     7
 72
     1
  1
\fHelvetica Neue LT Std 57 Condensed|b0|i0|c0|p34;\W1;I-Joist
 73
     1
 44
1.0
  0
POLYLINE
  5
22F
330
1F
100
AcDbEntity
  8
callouts
 62
   250
420
  2236191
370
    18
100
AcDb2dPolyline
 66
     1
 10
0.0
 20
0.0
 30
0.0
  0
VERTEX
  5
230
330
22F
100
AcDbEntity
  8
callouts
 62
   250
420
  2236191
370
    18
100
AcDbVertex
100
AcDb2dVertex
 10
4.749312598460644
 20
6.94372135662224
 30
0.0
  0
VERTEX
  5
231
330
22F
100
AcDbEntity
  8
callouts
 62
   250
420
  2236191
370
    18
100
AcDbVertex
100
AcDb2dVertex
 10
4.346937390187122
 20
6.590731777948551
 30
0.0
  0
SEQEND
  5
232
330
22F
100
AcDbEntity
  8
callouts
 62
   250
420
  2236191
370
    18
  0
POLYLINE
  5
233
330
1F
100
AcDbEntity
  8
callouts
 62
   250
420
  2236191
370
    18
100
AcDb2dPolyline
 66
     1
 10
0.0
 20
0.0
 30
0.0
  0
VERTEX
  5
234
330
233
100
AcDbEntity
  8
callouts
 62
   250
420
  2236191
370
    18
100
AcDbVertex
100
AcDb2dVertex
 10
4.465725623690408
 20
4.612222800152115
 30
0.0
  0
VERTEX
  5
235
330
233
100
AcDbEntity
  8
callouts
 62
   250
420
  2236191
370
    18
100
AcDbVertex
100
AcDb2dVertex
 10
4.31825836452352
 20
4.789539525297489
 30
0.0
  0
SEQEND
  5
236
330
233
100
AcDbEntity
  8
callouts
 62
   250
420
  2236191
370
    18
  0
ENDSEC
  0
SECTION
  2
OBJECTS
  0
DICTIONARY
  5
C
330
0
100
AcDbDictionary
281
     1
  3
ACAD_GROUP
350
D
  3
ACAD_LAYOUT
350
1A
  3
ACAD_MATERIAL
350
3B
  3
ACAD_MLEADERSTYLE
350
239
  3
ACAD_MLINESTYLE
350
17
  3
ACAD_PLOTSETTINGS
350
19
  3
ACAD_PLOTSTYLENAME
350
E
  3
ACAD_TABLESTYLE
350
238
  3
ACAD_VISUALSTYLE
350
2A
  0
SUN
  5
3F
330
29
100
AcDbSun
 90
        1
290
     0
 63
     7
421
 16777215
 40
1.0
291
     1
 91
  2455826
 92
 54000000
292
     0
 70
     2
 71
   256
280
     1
  0
DICTIONARY
  5
D
102
{ACAD_REACTORS
330
C
102
}
330
C
100
AcDbDictionary
281
     1
  0
DICTIONARY
  5
1A
102
{ACAD_REACTORS
330
C
102
}
330
C
100
AcDbDictionary
281
     1
  3
Layout1
350
1E
  3
Layout2
350
26
  3
Model
350
22
  0
DICTIONARY
  5
3B
102
{ACAD_REACTORS
330
C
102
}
330
C
100
AcDbDictionary
281
     1
  3
ByBlock
350
3D
  3
ByLayer
350
3C
  3
Global
350
3E
  0
DICTIONARY
  5
239
102
{ACAD_REACTORS
330
C
102
}
330
C
100
AcDbDictionary
281
     1
  0
DICTIONARY
  5
17
102
{ACAD_REACTORS
330
C
102
}
330
C
100
AcDbDictionary
281
     1
  3
Standard
350
18
  0
DICTIONARY
  5
19
102
{ACAD_REACTORS
330
C
102
}
330
C
100
AcDbDictionary
281
     1
  0
ACDBDICTIONARYWDFLT
  5
E
102
{ACAD_REACTORS
330
C
102
}
330
C
100
AcDbDictionary
281
     1
  3
Normal
350
F
100
AcDbDictionaryWithDefault
340
F
  0
DICTIONARY
  5
238
102
{ACAD_REACTORS
330
C
102
}
330
C
100
AcDbDictionary
281
     1
  0
DICTIONARY
  5
2A
102
{ACAD_REACTORS
330
C
102
}
330
C
100
AcDbDictionary
281
     1
  3
2dWireframe
350
2F
  3
3D Hidden
350
31
  3
3dWireframe
350
30
  3
Basic
350
32
  3
Brighten
350
36
  3
ColorChange
350
3A
  3
Conceptual
350
34
  3
Dim
350
35
  3
Facepattern
350
39
  3
Flat
350
2B
  3
FlatWithEdges
350
2C
  3
Gouraud
350
2D
  3
GouraudWithEdges
350
2E
  3
Linepattern
350
38
  3
Realistic
350
33
  3
Thicken
350
37
  0
LAYOUT
  5
1E
102
{ACAD_REACTORS
330
1A
102
}
330
1A
100
AcDbPlotSettings
  1

  2
none_device
  4

  6

 40
0.0
 41
0.0
 42
0.0
 43
0.0
 44
0.0
 45
0.0
 46
0.0
 47
0.0
 48
0.0
 49
0.0
140
0.0
141
0.0
142
1.0
143
1.0
 70
   688
 72
     0
 73
     0
 74
     5
  7

 75
    16
 76
     0
 77
     2
 78
   300
147
1.0
148
0.0
149
0.0
100
AcDbLayout
  1
Layout1
 70
     1
 71
     1
 10
0.0
 20
0.0
 11
12.0
 21
9.0
 12
0.0
 22
0.0
 32
0.0
 14
1.000000000000000E+20
 24
1.000000000000000E+20
 34
1.000000000000000E+20
 15
-1.000000000000000E+20
 25
-1.000000000000000E+20
 35
-1.000000000000000E+20
146
0.0
 13
0.0
 23
0.0
 33
0.0
 16
1.0
 26
0.0
 36
0.0
 17
0.0
 27
1.0
 37
0.0
 76
     0
330
1B
  0
LAYOUT
  5
26
102
{ACAD_REACTORS
330
1A
102
}
330
1A
100
AcDbPlotSettings
  1

  2
none_device
  4

  6

 40
0.0
 41
0.0
 42
0.0
 43
0.0
 44
0.0
 45
0.0
 46
0.0
 47
0.0
 48
0.0
 49
0.0
140
0.0
141
0.0
142
1.0
143
1.0
 70
   688
 72
     0
 73
     0
 74
     5
  7

 75
    16
 76
     0
 77
     2
 78
   300
147
1.0
148
0.0
149
0.0
100
AcDbLayout
  1
Layout2
 70
     1
 71
     2
 10
0.0
 20
0.0
 11
0.0
 21
0.0
 12
0.0
 22
0.0
 32
0.0
 14
0.0
 24
0.0
 34
0.0
 15
0.0
 25
0.0
 35
0.0
146
0.0
 13
0.0
 23
0.0
 33
0.0
 16
1.0
 26
0.0
 36
0.0
 17
0.0
 27
1.0
 37
0.0
 76
     0
330
23
  0
LAYOUT
  5
22
102
{ACAD_REACTORS
330
1A
102
}
330
1A
100
AcDbPlotSettings
  1

  2
none_device
  4

  6

 40
0.0
 41
0.0
 42
0.0
 43
0.0
 44
0.0
 45
0.0
 46
0.0
 47
0.0
 48
0.0
 49
0.0
140
0.0
141
0.0
142
1.0
143
1.0
 70
  1712
 72
     0
 73
     0
 74
     0
  7

 75
     0
 76
     0
 77
     2
 78
   300
147
1.0
148
0.0
149
0.0
100
AcDbLayout
  1
Model
 70
     1
 71
     0
 10
0.0
 20
0.0
 11
12.0
 21
9.0
 12
0.0
 22
0.0
 32
0.0
 14
1.000000000000000E+20
 24
1.000000000000000E+20
 34
1.000000000000000E+20
 15
-1.000000000000000E+20
 25
-1.000000000000000E+20
 35
-1.000000000000000E+20
146
0.0
 13
0.0
 23
0.0
 33
0.0
 16
1.0
 26
0.0
 36
0.0
 17
0.0
 27
1.0
 37
0.0
 76
     0
330
1F
331
29
  0
MATERIAL
  5
3D
102
{ACAD_REACTORS
330
3B
102
}
330
3B
100
AcDbMaterial
  1
ByBlock
 72
     1
 94
      127
  0
MATERIAL
  5
3C
102
{ACAD_REACTORS
330
3B
102
}
330
3B
100
AcDbMaterial
  1
ByLayer
 72
     1
 94
      127
  0
MATERIAL
  5
3E
102
{ACAD_REACTORS
330
3B
102
}
330
3B
100
AcDbMaterial
  1
Global
 72
     1
 94
      127
  0
MLINESTYLE
  5
18
102
{ACAD_REACTORS
330
17
102
}
330
17
100
AcDbMlineStyle
  2
Standard
 70
     0
  3

 62
   256
 51
90.0
 52
90.0
 71
     2
 49
0.5
 62
   256
  6
BYLAYER
 49
-0.5
 62
   256
  6
BYLAYER
  0
ACDBPLACEHOLDER
  5
F
102
{ACAD_REACTORS
330
E
102
}
330
E
  0
VISUALSTYLE
  5
2F
102
{ACAD_REACTORS
330
2A
102
}
330
2A
100
AcDbVisualStyle
  2
2dWireframe
 70
     4
177
     2
291
     0
 71
     0
176
     1
 72
     2
176
     1
 73
     0
176
     1
 90
        0
176
     1
 40
-0.6
176
     1
 41
-30.0
176
     1
 62
     5
 63
     7
421
 16777215
176
     1
 74
     1
176
     1
 91
        4
176
     1
 64
     7
176
     1
 65
   257
176
     1
 75
     1
176
     1
175
     1
176
     1
 42
1.0
176
     1
 92
        0
176
     1
 66
   257
176
     1
 43
1.0
176
     1
 76
     1
176
     1
 77
     6
176
     1
 78
     2
176
     1
 67
     7
176
     1
 79
     5
176
     1
170
     0
176
     1
171
     0
176
     1
290
     0
176
     1
 93
        1
176
     1
 44
0.0
176
     1
173
     0
176
     1
  0
VISUALSTYLE
  5
31
102
{ACAD_REACTORS
330
2A
102
}
330
2A
100
AcDbVisualStyle
  2
3D Hidden
 70
     6
177
     2
291
     0
 71
     1
176
     1
 72
     2
176
     1
 73
     2
176
     1
 90
        0
176
     1
 40
-0.6
176
     1
 41
-30.0
176
     1
 62
     5
 63
     7
421
 16777215
176
     1
 74
     2
176
     1
 91
        2
176
     1
 64
     7
176
     1
 65
   257
176
     1
 75
     2
176
     1
175
     1
176
     1
 42
40.0
176
     1
 92
        0
176
     1
 66
   257
176
     1
 43
1.0
176
     1
 76
     1
176
     1
 77
     6
176
     1
 78
     2
176
     1
 67
     7
176
     1
 79
     3
176
     1
170
     0
176
     1
171
     0
176
     1
290
     0
176
     1
 93
        1
176
     1
 44
0.0
176
     1
173
     0
176
     1
  0
VISUALSTYLE
  5
30
102
{ACAD_REACTORS
330
2A
102
}
330
2A
100
AcDbVisualStyle
  2
3dWireframe
 70
     5
177
     2
291
     0
 71
     0
176
     1
 72
     2
176
     1
 73
     0
176
     1
 90
        0
176
     1
 40
-0.6
176
     1
 41
-30.0
176
     1
 62
     5
 63
     7
421
 16777215
176
     1
 74
     1
176
     1
 91
        4
176
     1
 64
     7
176
     1
 65
   257
176
     1
 75
     1
176
     1
175
     1
176
     1
 42
1.0
176
     1
 92
        0
176
     1
 66
   257
176
     1
 43
1.0
176
     1
 76
     1
176
     1
 77
     6
176
     1
 78
     2
176
     1
 67
     7
176
     1
 79
     5
176
     1
170
     0
176
     1
171
     0
176
     1
290
     0
176
     1
 93
        1
176
     1
 44
0.0
176
     1
173
     0
176
     1
  0
VISUALSTYLE
  5
32
102
{ACAD_REACTORS
330
2A
102
}
330
2A
100
AcDbVisualStyle
  2
Basic
 70
     7
177
     2
291
     1
 71
     1
176
     1
 72
     0
176
     1
 73
     1
176
     1
 90
        0
176
     1
 40
-0.6
176
     1
 41
-30.0
176
     1
 62
     5
 63
     7
421
 16777215
176
     1
 74
     0
176
     1
 91
        4
176
     1
 64
     7
176
     1
 65
   257
176
     1
 75
     1
176
     1
175
     1
176
     1
 42
1.0
176
     1
 92
        8
176
     1
 66
     7
176
     1
 43
1.0
176
     1
 76
     1
176
     1
 77
     6
176
     1
 78
     2
176
     1
 67
     7
176
     1
 79
     5
176
     1
170
     0
176
     1
171
     0
176
     1
290
     0
176
     1
 93
        1
176
     1
 44
0.0
176
     1
173
     0
176
     1
  0
VISUALSTYLE
  5
36
102
{ACAD_REACTORS
330
2A
102
}
330
2A
100
AcDbVisualStyle
  2
Brighten
 70
    12
177
     2
291
     1
 71
     2
176
     1
 72
     2
176
     1
 73
     0
176
     1
 90
        0
176
     1
 40
-0.6
176
     1
 41
-30.0
176
     1
 62
     5
 63
     7
421
 16777215
176
     1
 74
     1
176
     1
 91
        4
176
     1
 64
     7
176
     1
 65
   257
176
     1
 75
     1
176
     1
175
     1
176
     1
 42
1.0
176
     1
 92
        8
176
     1
 66
     7
176
     1
 43
1.0
176
     1
 76
     1
176
     1
 77
     6
176
     1
 78
     2
176
     1
 67
     7
176
     1
 79
     5
176
     1
170
     0
176
     1
171
     0
176
     1
290
     0
176
     1
 93
        1
176
     1
 44
50.0
176
     1
173
     0
176
     1
  0
VISUALSTYLE
  5
3A
102
{ACAD_REACTORS
330
2A
102
}
330
2A
100
AcDbVisualStyle
  2
ColorChange
 70
    16
177
     2
291
     1
 71
     2
176
     1
 72
     2
176
     1
 73
     3
176
     1
 90
        0
176
     1
 40
-0.6
176
     1
 41
-30.0
176
     1
 62
     5
 63
     8
421
  8421504
176
     1
 74
     1
176
     1
 91
        4
176
     1
 64
     7
176
     1
 65
   257
176
     1
 75
     1
176
     1
175
     1
176
     1
 42
1.0
176
     1
 92
        8
176
     1
 66
     8
424
  8421504
176
     1
 43
1.0
176
     1
 76
     1
176
     1
 77
     6
176
     1
 78
     2
176
     1
 67
     7
176
     1
 79
     5
176
     1
170
     0
176
     1
171
     0
176
     1
290
     0
176
     1
 93
        1
176
     1
 44
0.0
176
     1
173
     0
176
     1
  0
VISUALSTYLE
  5
34
102
{ACAD_REACTORS
330
2A
102
}
330
2A
100
AcDbVisualStyle
  2
Conceptual
 70
     9
177
     2
291
     0
 71
     3
176
     1
 72
     2
176
     1
 73
     0
176
     1
 90
        0
176
     1
 40
-0.6
176
     1
 41
-30.0
176
     1
 62
     5
 63
     7
421
 16777215
176
     1
 74
     2
176
     1
 91
        2
176
     1
 64
     7
176
     1
 65
   257
176
     1
 75
     1
176
     1
175
     1
176
     1
 42
40.0
176
     1
 92
        8
176
     1
 66
     7
176
     1
 43
1.0
176
     1
 76
     1
176
     1
 77
     6
176
     1
 78
     2
176
     1
 67
     7
176
     1
 79
     3
176
     1
170
     0
176
     1
171
     0
176
     1
290
     0
176
     1
 93
        1
176
     1
 44
0.0
176
     1
173
     0
176
     1
  0
VISUALSTYLE
  5
35
102
{ACAD_REACTORS
330
2A
102
}
330
2A
100
AcDbVisualStyle
  2
Dim
 70
    11
177
     2
291
     1
 71
     2
176
     1
 72
     2
176
     1
 73
     0
176
     1
 90
        0
176
     1
 40
-0.6
176
     1
 41
-30.0
176
     1
 62
     5
 63
     7
421
 16777215
176
     1
 74
     1
176
     1
 91
        4
176
     1
 64
     7
176
     1
 65
   257
176
     1
 75
     1
176
     1
175
     1
176
     1
 42
1.0
176
     1
 92
        8
176
     1
 66
     7
176
     1
 43
1.0
176
     1
 76
     1
176
     1
 77
     6
176
     1
 78
     2
176
     1
 67
     7
176
     1
 79
     5
176
     1
170
     0
176
     1
171
     0
176
     1
290
     0
176
     1
 93
        1
176
     1
 44
-50.0
176
     1
173
     0
176
     1
  0
VISUALSTYLE
  5
39
102
{ACAD_REACTORS
330
2A
102
}
330
2A
100
AcDbVisualStyle
  2
Facepattern
 70
    15
177
     2
291
     1
 71
     2
176
     1
 72
     2
176
     1
 73
     0
176
     1
 90
        0
176
     1
 40
-0.6
176
     1
 41
-30.0
176
     1
 62
     5
 63
     7
421
 16777215
176
     1
 74
     1
176
     1
 91
        4
176
     1
 64
     7
176
     1
 65
   257
176
     1
 75
     1
176
     1
175
     1
176
     1
 42
1.0
176
     1
 92
        8
176
     1
 66
     7
176
     1
 43
1.0
176
     1
 76
     1
176
     1
 77
     6
176
     1
 78
     2
176
     1
 67
     7
176
     1
 79
     5
176
     1
170
     0
176
     1
171
     0
176
     1
290
     0
176
     1
 93
        1
176
     1
 44
0.0
176
     1
173
     0
176
     1
  0
VISUALSTYLE
  5
2B
102
{ACAD_REACTORS
330
2A
102
}
330
2A
100
AcDbVisualStyle
  2
Flat
 70
     0
177
     2
291
     1
 71
     2
176
     1
 72
     1
176
     1
 73
     1
176
     1
 90
        2
176
     1
 40
-0.6
176
     1
 41
30.0
176
     1
 62
     5
 63
     7
421
 16777215
176
     1
 74
     0
176
     1
 91
        4
176
     1
 64
     7
176
     1
 65
   257
176
     1
 75
     1
176
     1
175
     1
176
     1
 42
1.0
176
     1
 92
        8
176
     1
 66
     7
176
     1
 43
1.0
176
     1
 76
     1
176
     1
 77
     6
176
     1
 78
     2
176
     1
 67
     7
176
     1
 79
     5
176
     1
170
     0
176
     1
171
     0
176
     1
290
     0
176
     1
 93
       13
176
     1
 44
0.0
176
     1
173
     0
176
     1
  0
VISUALSTYLE
  5
2C
102
{ACAD_REACTORS
330
2A
102
}
330
2A
100
AcDbVisualStyle
  2
FlatWithEdges
 70
     1
177
     2
291
     1
 71
     2
176
     1
 72
     1
176
     1
 73
     1
176
     1
 90
        2
176
     1
 40
-0.6
176
     1
 41
30.0
176
     1
 62
     5
 63
     7
421
 16777215
176
     1
 74
     1
176
     1
 91
        4
176
     1
 64
     7
176
     1
 65
   257
176
     1
 75
     1
176
     1
175
     1
176
     1
 42
1.0
176
     1
 92
        0
176
     1
 66
   257
176
     1
 43
1.0
176
     1
 76
     1
176
     1
 77
     6
176
     1
 78
     2
176
     1
 67
     7
176
     1
 79
     5
176
     1
170
     0
176
     1
171
     0
176
     1
290
     0
176
     1
 93
       13
176
     1
 44
0.0
176
     1
173
     0
176
     1
  0
VISUALSTYLE
  5
2D
102
{ACAD_REACTORS
330
2A
102
}
330
2A
100
AcDbVisualStyle
  2
Gouraud
 70
     2
177
     2
291
     1
 71
     2
176
     1
 72
     2
176
     1
 73
     1
176
     1
 90
        2
176
     1
 40
-0.6
176
     1
 41
30.0
176
     1
 62
     5
 63
     7
421
 16777215
176
     1
 74
     0
176
     1
 91
        4
176
     1
 64
     7
176
     1
 65
   257
176
     1
 75
     1
176
     1
175
     1
176
     1
 42
1.0
176
     1
 92
        0
176
     1
 66
     7
176
     1
 43
1.0
176
     1
 76
     1
176
     1
 77
     6
176
     1
 78
     2
176
     1
 67
     7
176
     1
 79
     5
176
     1
170
     0
176
     1
171
     0
176
     1
290
     0
176
     1
 93
       13
176
     1
 44
0.0
176
     1
173
     0
176
     1
  0
VISUALSTYLE
  5
2E
102
{ACAD_REACTORS
330
2A
102
}
330
2A
100
AcDbVisualStyle
  2
GouraudWithEdges
 70
     3
177
     2
291
     1
 71
     2
176
     1
 72
     2
176
     1
 73
     1
176
     1
 90
        2
176
     1
 40
-0.6
176
     1
 41
30.0
176
     1
 62
     5
 63
     7
421
 16777215
176
     1
 74
     1
176
     1
 91
        4
176
     1
 64
     7
176
     1
 65
   257
176
     1
 75
     1
176
     1
175
     1
176
     1
 42
1.0
176
     1
 92
        0
176
     1
 66
   257
176
     1
 43
1.0
176
     1
 76
     1
176
     1
 77
     6
176
     1
 78
     2
176
     1
 67
     7
176
     1
 79
     5
176
     1
170
     0
176
     1
171
     0
176
     1
290
     0
176
     1
 93
       13
176
     1
 44
0.0
176
     1
173
     0
176
     1
  0
VISUALSTYLE
  5
38
102
{ACAD_REACTORS
330
2A
102
}
330
2A
100
AcDbVisualStyle
  2
Linepattern
 70
    14
177
     2
291
     1
 71
     2
176
     1
 72
     2
176
     1
 73
     0
176
     1
 90
        0
176
     1
 40
-0.6
176
     1
 41
-30.0
176
     1
 62
     5
 63
     7
421
 16777215
176
     1
 74
     1
176
     1
 91
        4
176
     1
 64
     7
176
     1
 65
   257
176
     1
 75
     7
176
     1
175
     7
176
     1
 42
1.0
176
     1
 92
        8
176
     1
 66
     7
176
     1
 43
1.0
176
     1
 76
     1
176
     1
 77
     6
176
     1
 78
     2
176
     1
 67
     7
176
     1
 79
     5
176
     1
170
     0
176
     1
171
     0
176
     1
290
     0
176
     1
 93
        1
176
     1
 44
0.0
176
     1
173
     0
176
     1
  0
VISUALSTYLE
  5
33
102
{ACAD_REACTORS
330
2A
102
}
330
2A
100
AcDbVisualStyle
  2
Realistic
 70
     8
177
     2
291
     0
 71
     2
176
     1
 72
     2
176
     1
 73
     0
176
     1
 90
        0
176
     1
 40
-0.6
176
     1
 41
-30.0
176
     1
 62
     5
 63
     7
421
 16777215
176
     1
 74
     1
176
     1
 91
        0
176
     1
 64
     7
176
     1
 65
   257
176
     1
 75
     1
176
     1
175
     1
176
     1
 42
1.0
176
     1
 92
        8
176
     1
 66
     8
424
  7895160
176
     1
 43
1.0
176
     1
 76
     1
176
     1
 77
     6
176
     1
 78
     2
176
     1
 67
     7
176
     1
 79
     5
176
     1
170
     0
176
     1
171
     0
176
     1
290
     0
176
     1
 93
       13
176
     1
 44
0.0
176
     1
173
     0
176
     1
  0
VISUALSTYLE
  5
37
102
{ACAD_REACTORS
330
2A
102
}
330
2A
100
AcDbVisualStyle
  2
Thicken
 70
    13
177
     2
291
     1
 71
     2
176
     1
 72
     2
176
     1
 73
     0
176
     1
 90
        0
176
     1
 40
-0.6
176
     1
 41
-30.0
176
     1
 62
     5
 63
     7
421
 16777215
176
     1
 74
     1
176
     1
 91
        4
176
     1
 64
     7
176
     1
 65
   257
176
     1
 75
     1
176
     1
175
     1
176
     1
 42
1.0
176
     1
 92
       12
176
     1
 66
     7
176
     1
 43
1.0
176
     1
 76
     1
176
     1
 77
     6
176
     1
 78
     2
176
     1
 67
     7
176
     1
 79
     5
176
     1
170
     0
176
     1
171
     0
176
     1
290
     0
176
     1
 93
        1
176
     1
 44
0.0
176
     1
173
     0
176
     1
  0
ENDSEC
  0
EOF
