  0
SECTION
  2
HEADER
  9
$ACADVER
  1
AC1024
  9
$ACADMAINTVER
 70
     6
  9
$DWGCODEPAGE
  3
ANSI_1252
  9
$INSBASE
 10
0.0
 20
0.0
 30
0.0
  9
$EXTMIN
 10
1.000000000000000E+20
 20
1.000000000000000E+20
 30
1.000000000000000E+20
  9
$EXTMAX
 10
-1.000000000000000E+20
 20
-1.000000000000000E+20
 30
-1.000000000000000E+20
  9
$LIMMIN
 10
0.0
 20
0.0
  9
$LIMMAX
 10
12.0
 20
9.0
  9
$ORTHOMODE
 70
     0
  9
$REGENMODE
 70
     1
  9
$FILLMODE
 70
     1
  9
$QTEXTMODE
 70
     0
  9
$MIRRTEXT
 70
     1
  9
$LTSCALE
 40
1.0
  9
$ATTMODE
 70
     1
  9
$TEXTSIZE
 40
0.2
  9
$TRACEWID
 40
0.05
  9
$TEXTSTYLE
  7
Standard
  9
$CLAYER
  8
0
  9
$CELTYPE
  6
ByLayer
  9
$CECOLOR
 62
   256
  9
$CELTSCALE
 40
1.0
  9
$DISPSILH
 70
     0
  9
$DIMSCALE
 40
1.0
  9
$DIMASZ
 40
0.18
  9
$DIMEXO
 40
0.0625
  9
$DIMDLI
 40
0.38
  9
$DIMRND
 40
0.0
  9
$DIMDLE
 40
0.0
  9
$DIMEXE
 40
0.18
  9
$DIMTP
 40
0.0
  9
$DIMTM
 40
0.0
  9
$DIMTXT
 40
0.18
  9
$DIMCEN
 40
0.09
  9
$DIMTSZ
 40
0.0
  9
$DIMTOL
 70
     0
  9
$DIMLIM
 70
     0
  9
$DIMTIH
 70
     1
  9
$DIMTOH
 70
     1
  9
$DIMSE1
 70
     0
  9
$DIMSE2
 70
     0
  9
$DIMTAD
 70
     0
  9
$DIMZIN
 70
     0
  9
$DIMBLK
  1

  9
$DIMASO
 70
     1
  9
$DIMSHO
 70
     1
  9
$DIMPOST
  1

  9
$DIMAPOST
  1

  9
$DIMALT
 70
     0
  9
$DIMALTD
 70
     2
  9
$DIMALTF
 40
25.4
  9
$DIMLFAC
 40
1.0
  9
$DIMTOFL
 70
     0
  9
$DIMTVP
 40
0.0
  9
$DIMTIX
 70
     0
  9
$DIMSOXD
 70
     0
  9
$DIMSAH
 70
     0
  9
$DIMBLK1
  1

  9
$DIMBLK2
  1

  9
$DIMSTYLE
  2
Standard
  9
$DIMCLRD
 70
     0
  9
$DIMCLRE
 70
     0
  9
$DIMCLRT
 70
     0
  9
$DIMTFAC
 40
1.0
  9
$DIMGAP
 40
0.09
  9
$DIMJUST
 70
     0
  9
$DIMSD1
 70
     0
  9
$DIMSD2
 70
     0
  9
$DIMTOLJ
 70
     1
  9
$DIMTZIN
 70
     0
  9
$DIMALTZ
 70
     0
  9
$DIMALTTZ
 70
     0
  9
$DIMUPT
 70
     0
  9
$DIMDEC
 70
     4
  9
$DIMTDEC
 70
     4
  9
$DIMALTU
 70
     2
  9
$DIMALTTD
 70
     2
  9
$DIMTXSTY
  7
Standard
  9
$DIMAUNIT
 70
     0
  9
$DIMADEC
 70
     0
  9
$DIMALTRND
 40
0.0
  9
$DIMAZIN
 70
     0
  9
$DIMDSEP
 70
    46
  9
$DIMATFIT
 70
     3
  9
$DIMFRAC
 70
     0
  9
$DIMLDRBLK
  1

  9
$DIMLUNIT
 70
     2
  9
$DIMLWD
 70
    -2
  9
$DIMLWE
 70
    -2
  9
$DIMTMOVE
 70
     0
  9
$DIMFXL
 40
1.0
  9
$DIMFXLON
 70
     0
  9
$DIMJOGANG
 40
0.7853981633974483
  9
$DIMTFILL
 70
     0
  9
$DIMTFILLCLR
 70
     0
  9
$DIMARCSYM
 70
     0
  9
$DIMLTYPE
  6

  9
$DIMLTEX1
  6

  9
$DIMLTEX2
  6

  9
$DIMTXTDIRECTION
 70
     0
  9
$LUNITS
 70
     2
  9
$LUPREC
 70
     4
  9
$SKETCHINC
 40
0.1
  9
$FILLETRAD
 40
0.5
  9
$AUNITS
 70
     0
  9
$AUPREC
 70
     0
  9
$MENU
  1
.
  9
$ELEVATION
 40
0.0
  9
$PELEVATION
 40
0.0
  9
$THICKNESS
 40
0.0
  9
$LIMCHECK
 70
     0
  9
$CHAMFERA
 40
0.5
  9
$CHAMFERB
 40
0.5
  9
$CHAMFERC
 40
1.0
  9
$CHAMFERD
 40
0.0
  9
$SKPOLY
 70
     0
  9
$TDCREATE
 40
2458854.975132049
  9
$TDUCREATE
 40
2458854.433465382
  9
$TDUPDATE
 40
2458854.975132234
  9
$TDUUPDATE
 40
2458854.433465567
  9
$TDINDWG
 40
0.0000000116
  9
$TDUSRTIMER
 40
0.0000000116
  9
$USRTIMER
 70
     1
  9
$ANGBASE
 50
0.0
  9
$ANGDIR
 70
     0
  9
$PDMODE
 70
     0
  9
$PDSIZE
 40
0.0
  9
$PLINEWID
 40
0.0
  9
$SPLFRAME
 70
     0
  9
$SPLINETYPE
 70
     6
  9
$SPLINESEGS
 70
     8
  9
$HANDSEED
  5
364
  9
$SURFTAB1
 70
     6
  9
$SURFTAB2
 70
     6
  9
$SURFTYPE
 70
     6
  9
$SURFU
 70
     6
  9
$SURFV
 70
     6
  9
$UCSBASE
  2

  9
$UCSNAME
  2

  9
$UCSORG
 10
0.0
 20
0.0
 30
0.0
  9
$UCSXDIR
 10
1.0
 20
0.0
 30
0.0
  9
$UCSYDIR
 10
0.0
 20
1.0
 30
0.0
  9
$UCSORTHOREF
  2

  9
$UCSORTHOVIEW
 70
     0
  9
$UCSORGTOP
 10
0.0
 20
0.0
 30
0.0
  9
$UCSORGBOTTOM
 10
0.0
 20
0.0
 30
0.0
  9
$UCSORGLEFT
 10
0.0
 20
0.0
 30
0.0
  9
$UCSORGRIGHT
 10
0.0
 20
0.0
 30
0.0
  9
$UCSORGFRONT
 10
0.0
 20
0.0
 30
0.0
  9
$UCSORGBACK
 10
0.0
 20
0.0
 30
0.0
  9
$PUCSBASE
  2

  9
$PUCSNAME
  2

  9
$PUCSORG
 10
0.0
 20
0.0
 30
0.0
  9
$PUCSXDIR
 10
1.0
 20
0.0
 30
0.0
  9
$PUCSYDIR
 10
0.0
 20
1.0
 30
0.0
  9
$PUCSORTHOREF
  2

  9
$PUCSORTHOVIEW
 70
     0
  9
$PUCSORGTOP
 10
0.0
 20
0.0
 30
0.0
  9
$PUCSORGBOTTOM
 10
0.0
 20
0.0
 30
0.0
  9
$PUCSORGLEFT
 10
0.0
 20
0.0
 30
0.0
  9
$PUCSORGRIGHT
 10
0.0
 20
0.0
 30
0.0
  9
$PUCSORGFRONT
 10
0.0
 20
0.0
 30
0.0
  9
$PUCSORGBACK
 10
0.0
 20
0.0
 30
0.0
  9
$USERI1
 70
     0
  9
$USERI2
 70
     0
  9
$USERI3
 70
     0
  9
$USERI4
 70
     0
  9
$USERI5
 70
     0
  9
$USERR1
 40
0.0
  9
$USERR2
 40
0.0
  9
$USERR3
 40
0.0
  9
$USERR4
 40
0.0
  9
$USERR5
 40
0.0
  9
$WORLDVIEW
 70
     1
  9
$SHADEDGE
 70
     3
  9
$SHADEDIF
 70
    70
  9
$TILEMODE
 70
     1
  9
$MAXACTVP
 70
    64
  9
$PINSBASE
 10
0.0
 20
0.0
 30
0.0
  9
$PLIMCHECK
 70
     0
  9
$PEXTMIN
 10
1.000000000000000E+20
 20
1.000000000000000E+20
 30
1.000000000000000E+20
  9
$PEXTMAX
 10
-1.000000000000000E+20
 20
-1.000000000000000E+20
 30
-1.000000000000000E+20
  9
$PLIMMIN
 10
0.0
 20
0.0
  9
$PLIMMAX
 10
12.0
 20
9.0
  9
$UNITMODE
 70
     0
  9
$VISRETAIN
 70
     1
  9
$PLINEGEN
 70
     0
  9
$PSLTSCALE
 70
     1
  9
$TREEDEPTH
 70
  3020
  9
$CMLSTYLE
  2
Standard
  9
$CMLJUST
 70
     0
  9
$CMLSCALE
 40
1.0
  9
$PROXYGRAPHICS
 70
     1
  9
$MEASUREMENT
 70
     0
  9
$CELWEIGHT
370
    -1
  9
$ENDCAPS
280
     0
  9
$JOINSTYLE
280
     0
  9
$LWDISPLAY
290
     1
  9
$INSUNITS
 70
     0
  9
$HYPERLINKBASE
  1

  9
$STYLESHEET
  1

  9
$XEDIT
290
     1
  9
$CEPSNTYPE
380
     0
  9
$PSTYLEMODE
290
     1
  9
$FINGERPRINTGUID
  2
{C6875E62-3CBB-41D1-82ED-61B850650109}
  9
$VERSIONGUID
  2
{FAEB1C32-E019-11D5-929B-00C0DF256EC4}
  9
$EXTNAMES
290
     1
  9
$PSVPSCALE
 40
0.0
  9
$OLESTARTUP
290
     0
  9
$SORTENTS
280
   127
  9
$INDEXCTL
280
     0
  9
$HIDETEXT
280
     1
  9
$XCLIPFRAME
280
     2
  9
$HALOGAP
280
     0
  9
$OBSCOLOR
 70
   257
  9
$OBSLTYPE
280
     0
  9
$INTERSECTIONDISPLAY
280
     0
  9
$INTERSECTIONCOLOR
 70
   257
  9
$DIMASSOC
280
     2
  9
$PROJECTNAME
  1

  9
$CAMERADISPLAY
290
     0
  9
$LENSLENGTH
 40
50.0
  9
$CAMERAHEIGHT
 40
0.0
  9
$STEPSPERSEC
 40
2.0
  9
$STEPSIZE
 40
6.0
  9
$3DDWFPREC
 40
2.0
  9
$PSOLWIDTH
 40
0.25
  9
$PSOLHEIGHT
 40
4.0
  9
$LOFTANG1
 40
1.570796326794897
  9
$LOFTANG2
 40
1.570796326794897
  9
$LOFTMAG1
 40
0.0
  9
$LOFTMAG2
 40
0.0
  9
$LOFTPARAM
 70
     7
  9
$LOFTNORMALS
280
     1
  9
$LATITUDE
 40
37.795
  9
$LONGITUDE
 40
-122.394
  9
$NORTHDIRECTION
 40
0.0
  9
$TIMEZONE
 70
 -8000
  9
$LIGHTGLYPHDISPLAY
280
     1
  9
$TILEMODELIGHTSYNCH
280
     1
  9
$CMATERIAL
347
3C
  9
$SOLIDHIST
280
     1
  9
$SHOWHIST
280
     1
  9
$DWFFRAME
280
     2
  9
$DGNFRAME
280
     2
  9
$REALWORLDSCALE
290
     1
  9
$INTERFERECOLOR
 62
   256
  9
$CSHADOW
280
     0
  9
$SHADOWPLANELOCATION
 40
0.0
  0
ENDSEC
  0
SECTION
  2
CLASSES
  0
CLASS
  1
ACDBDICTIONARYWDFLT
  2
AcDbDictionaryWithDefault
  3
ObjectDBX Classes
 90
        0
 91
        4
280
     0
281
     0
  0
CLASS
  1
VISUALSTYLE
  2
AcDbVisualStyle
  3
ObjectDBX Classes
 90
     4095
 91
        4
280
     0
281
     0
  0
CLASS
  1
MATERIAL
  2
AcDbMaterial
  3
ObjectDBX Classes
 90
     1153
 91
        4
280
     0
281
     0
  0
CLASS
  1
SUN
  2
AcDbSun
  3
SCENEOE
 90
     1024
 91
        4
280
     0
281
     0
  0
ENDSEC
  0
SECTION
  2
TABLES
  0
TABLE
  2
VPORT
  5
8
330
0
100
AcDbSymbolTable
 70
     1
  0
VPORT
  5
29
330
8
100
AcDbSymbolTableRecord
100
AcDbViewportTableRecord
  2
*Active
 70
     0
 10
0.0
 20
0.0
 11
1.0
 21
1.0
 12
0.0
 22
0.0
 13
0.0
 23
0.0
 14
0.5
 24
0.5
 15
0.5
 25
0.5
 16
0.0
 26
0.0
 36
1.0
 17
304.0545935526479
 27
397.8206899502038
 37
0.0
 40
841.8897637795271
 41
0.7070707070707065
 42
50.0
 43
0.0
 44
0.0
 50
0.0
 51
0.0
 71
     0
 72
   100
 73
     1
 74
     3
 75
     0
 76
     0
 77
     0
 78
     0
281
     0
 65
     1
110
0.0
120
0.0
130
0.0
111
1.0
121
0.0
131
0.0
112
0.0
122
1.0
132
0.0
 79
     0
146
0.0
 60
     3
 61
     5
292
     1
282
     1
141
0.0
142
0.0
 63
   250
361
3F
  0
ENDTAB
  0
TABLE
  2
LTYPE
  5
5
330
0
100
AcDbSymbolTable
 70
     1
  0
LTYPE
  5
14
330
5
100
AcDbSymbolTableRecord
100
AcDbLinetypeTableRecord
  2
ByBlock
 70
     0
  3

 72
    65
 73
     0
 40
0.0
  0
LTYPE
  5
15
330
5
100
AcDbSymbolTableRecord
100
AcDbLinetypeTableRecord
  2
ByLayer
 70
     0
  3

 72
    65
 73
     0
 40
0.0
  0
LTYPE
  5
16
330
5
100
AcDbSymbolTableRecord
100
AcDbLinetypeTableRecord
  2
Continuous
 70
     0
  3
Solid line
 72
    65
 73
     0
 40
0.0
  0
ENDTAB
  0
TABLE
  2
LAYER
  5
2
330
0
100
AcDbSymbolTable
 70
     4
  0
LAYER
  5
10
330
2
100
AcDbSymbolTableRecord
100
AcDbLayerTableRecord
  2
0
 70
     0
 62
     7
  6
Continuous
370
    -3
390
F
347
3E
  0
LAYER
  5
40
330
2
100
AcDbSymbolTableRecord
100
AcDbLayerTableRecord
  2
Woods
 70
     0
 62
     7
  6
Continuous
370
    -3
390
F
347
3E
  0
LAYER
  5
1CF
330
2
100
AcDbSymbolTableRecord
100
AcDbLayerTableRecord
  2
ITSE
 70
     0
 62
     7
  6
Continuous
370
    -3
390
F
347
3E
  0
LAYER
  5
34A
330
2
100
AcDbSymbolTableRecord
100
AcDbLayerTableRecord
  2
callout
 70
     0
 62
     7
  6
Continuous
370
    -3
390
F
347
3E
  0
ENDTAB
  0
TABLE
  2
STYLE
  5
3
330
0
100
AcDbSymbolTable
 70
     1
  0
STYLE
  5
11
330
3
100
AcDbSymbolTableRecord
100
AcDbTextStyleTableRecord
  2
Standard
 70
     0
 40
0.0
 41
1.0
 50
0.0
 71
     0
 42
0.2
  3
txt
  4

  0
ENDTAB
  0
TABLE
  2
VIEW
  5
6
330
0
100
AcDbSymbolTable
 70
     0
  0
ENDTAB
  0
TABLE
  2
UCS
  5
7
330
0
100
AcDbSymbolTable
 70
     0
  0
ENDTAB
  0
TABLE
  2
APPID
  5
9
330
0
100
AcDbSymbolTable
 70
     1
  0
APPID
  5
12
330
9
100
AcDbSymbolTableRecord
100
AcDbRegAppTableRecord
  2
ACAD
 70
     0
  0
ENDTAB
  0
TABLE
  2
DIMSTYLE
  5
A
330
0
100
AcDbSymbolTable
 70
     1
100
AcDbDimStyleTable
  0
DIMSTYLE
105
27
330
A
100
AcDbSymbolTableRecord
100
AcDbDimStyleTableRecord
  2
Standard
 70
     0
178
     0
340
11
  0
ENDTAB
  0
TABLE
  2
BLOCK_RECORD
  5
1
330
0
100
AcDbSymbolTable
 70
    44
  0
BLOCK_RECORD
  5
1F
330
1
100
AcDbSymbolTableRecord
100
AcDbBlockTableRecord
  2
*Model_Space
340
22
 70
     0
280
     1
281
     0
  0
BLOCK_RECORD
  5
1B
330
1
100
AcDbSymbolTableRecord
100
AcDbBlockTableRecord
  2
*Paper_Space
340
1E
 70
     0
280
     1
281
     0
  0
BLOCK_RECORD
  5
23
330
1
100
AcDbSymbolTableRecord
100
AcDbBlockTableRecord
  2
*Paper_Space0
340
26
 70
     0
280
     1
281
     0
  0
BLOCK_RECORD
  5
41
330
1
100
AcDbSymbolTableRecord
100
AcDbBlockTableRecord
  2
block 2
340
0
102
{BLKREFS
331
42
102
}
 70
     0
280
     1
281
     0
  0
BLOCK_RECORD
  5
45
330
1
100
AcDbSymbolTableRecord
100
AcDbBlockTableRecord
  2
block 3
340
0
102
{BLKREFS
331
46
102
}
 70
     0
280
     1
281
     0
  0
BLOCK_RECORD
  5
57
330
1
100
AcDbSymbolTableRecord
100
AcDbBlockTableRecord
  2
block 4
340
0
102
{BLKREFS
331
58
102
}
 70
     0
280
     1
281
     0
  0
BLOCK_RECORD
  5
6E
330
1
100
AcDbSymbolTableRecord
100
AcDbBlockTableRecord
  2
block 5
340
0
102
{BLKREFS
331
6F
102
}
 70
     0
280
     1
281
     0
  0
BLOCK_RECORD
  5
96
330
1
100
AcDbSymbolTableRecord
100
AcDbBlockTableRecord
  2
block 6
340
0
102
{BLKREFS
331
97
102
}
 70
     0
280
     1
281
     0
  0
BLOCK_RECORD
  5
A9
330
1
100
AcDbSymbolTableRecord
100
AcDbBlockTableRecord
  2
block 7
340
0
102
{BLKREFS
331
AA
102
}
 70
     0
280
     1
281
     0
  0
BLOCK_RECORD
  5
AD
330
1
100
AcDbSymbolTableRecord
100
AcDbBlockTableRecord
  2
block 8
340
0
102
{BLKREFS
331
AE
102
}
 70
     0
280
     1
281
     0
  0
BLOCK_RECORD
  5
BD
330
1
100
AcDbSymbolTableRecord
100
AcDbBlockTableRecord
  2
block 9
340
0
102
{BLKREFS
331
BE
102
}
 70
     0
280
     1
281
     0
  0
BLOCK_RECORD
  5
C5
330
1
100
AcDbSymbolTableRecord
100
AcDbBlockTableRecord
  2
block 10
340
0
102
{BLKREFS
331
C6
102
}
 70
     0
280
     1
281
     0
  0
BLOCK_RECORD
  5
CD
330
1
100
AcDbSymbolTableRecord
100
AcDbBlockTableRecord
  2
block 11
340
0
102
{BLKREFS
331
CE
102
}
 70
     0
280
     1
281
     0
  0
BLOCK_RECORD
  5
D5
330
1
100
AcDbSymbolTableRecord
100
AcDbBlockTableRecord
  2
block 12
340
0
102
{BLKREFS
331
D6
102
}
 70
     0
280
     1
281
     0
  0
BLOCK_RECORD
  5
DD
330
1
100
AcDbSymbolTableRecord
100
AcDbBlockTableRecord
  2
block 13
340
0
102
{BLKREFS
331
DE
102
}
 70
     0
280
     1
281
     0
  0
BLOCK_RECORD
  5
F5
330
1
100
AcDbSymbolTableRecord
100
AcDbBlockTableRecord
  2
block 14
340
0
102
{BLKREFS
331
F6
102
}
 70
     0
280
     1
281
     0
  0
BLOCK_RECORD
  5
11D
330
1
100
AcDbSymbolTableRecord
100
AcDbBlockTableRecord
  2
block 15
340
0
102
{BLKREFS
331
11E
102
}
 70
     0
280
     1
281
     0
  0
BLOCK_RECORD
  5
135
330
1
100
AcDbSymbolTableRecord
100
AcDbBlockTableRecord
  2
block 16
340
0
102
{BLKREFS
331
136
102
}
 70
     0
280
     1
281
     0
  0
BLOCK_RECORD
  5
139
330
1
100
AcDbSymbolTableRecord
100
AcDbBlockTableRecord
  2
block 17
340
0
102
{BLKREFS
331
13A
102
}
 70
     0
280
     1
281
     0
  0
BLOCK_RECORD
  5
14B
330
1
100
AcDbSymbolTableRecord
100
AcDbBlockTableRecord
  2
block 18
340
0
102
{BLKREFS
331
14C
102
}
 70
     0
280
     1
281
     0
  0
BLOCK_RECORD
  5
153
330
1
100
AcDbSymbolTableRecord
100
AcDbBlockTableRecord
  2
block 19
340
0
102
{BLKREFS
331
154
102
}
 70
     0
280
     1
281
     0
  0
BLOCK_RECORD
  5
15B
330
1
100
AcDbSymbolTableRecord
100
AcDbBlockTableRecord
  2
block 20
340
0
102
{BLKREFS
331
15C
102
}
 70
     0
280
     1
281
     0
  0
BLOCK_RECORD
  5
163
330
1
100
AcDbSymbolTableRecord
100
AcDbBlockTableRecord
  2
block 21
340
0
102
{BLKREFS
331
164
102
}
 70
     0
280
     1
281
     0
  0
BLOCK_RECORD
  5
16B
330
1
100
AcDbSymbolTableRecord
100
AcDbBlockTableRecord
  2
block 22
340
0
102
{BLKREFS
331
16C
102
}
 70
     0
280
     1
281
     0
  0
BLOCK_RECORD
  5
178
330
1
100
AcDbSymbolTableRecord
100
AcDbBlockTableRecord
  2
block 23
340
0
102
{BLKREFS
331
179
102
}
 70
     0
280
     1
281
     0
  0
BLOCK_RECORD
  5
19A
330
1
100
AcDbSymbolTableRecord
100
AcDbBlockTableRecord
  2
block 24
340
0
102
{BLKREFS
331
19B
102
}
 70
     0
280
     1
281
     0
  0
BLOCK_RECORD
  5
1D0
330
1
100
AcDbSymbolTableRecord
100
AcDbBlockTableRecord
  2
block 25
340
0
102
{BLKREFS
331
1D1
102
}
 70
     0
280
     1
281
     0
  0
BLOCK_RECORD
  5
1D4
330
1
100
AcDbSymbolTableRecord
100
AcDbBlockTableRecord
  2
block 26
340
0
102
{BLKREFS
331
1D5
102
}
 70
     0
280
     1
281
     0
  0
BLOCK_RECORD
  5
1F3
330
1
100
AcDbSymbolTableRecord
100
AcDbBlockTableRecord
  2
block 27
340
0
102
{BLKREFS
331
1F4
102
}
 70
     0
280
     1
281
     0
  0
BLOCK_RECORD
  5
203
330
1
100
AcDbSymbolTableRecord
100
AcDbBlockTableRecord
  2
block 28
340
0
102
{BLKREFS
331
204
102
}
 70
     0
280
     1
281
     0
  0
BLOCK_RECORD
  5
221
330
1
100
AcDbSymbolTableRecord
100
AcDbBlockTableRecord
  2
block 29
340
0
102
{BLKREFS
331
222
102
}
 70
     0
280
     1
281
     0
  0
BLOCK_RECORD
  5
237
330
1
100
AcDbSymbolTableRecord
100
AcDbBlockTableRecord
  2
block 30
340
0
102
{BLKREFS
331
238
102
}
 70
     0
280
     1
281
     0
  0
BLOCK_RECORD
  5
24C
330
1
100
AcDbSymbolTableRecord
100
AcDbBlockTableRecord
  2
block 31
340
0
102
{BLKREFS
331
24D
102
}
 70
     0
280
     1
281
     0
  0
BLOCK_RECORD
  5
25E
330
1
100
AcDbSymbolTableRecord
100
AcDbBlockTableRecord
  2
block 32
340
0
102
{BLKREFS
331
25F
102
}
 70
     0
280
     1
281
     0
  0
BLOCK_RECORD
  5
273
330
1
100
AcDbSymbolTableRecord
100
AcDbBlockTableRecord
  2
block 33
340
0
102
{BLKREFS
331
274
102
}
 70
     0
280
     1
281
     0
  0
BLOCK_RECORD
  5
29E
330
1
100
AcDbSymbolTableRecord
100
AcDbBlockTableRecord
  2
block 34
340
0
102
{BLKREFS
331
29F
102
}
 70
     0
280
     1
281
     0
  0
BLOCK_RECORD
  5
2AB
330
1
100
AcDbSymbolTableRecord
100
AcDbBlockTableRecord
  2
block 35
340
0
102
{BLKREFS
331
2AC
102
}
 70
     0
280
     1
281
     0
  0
BLOCK_RECORD
  5
2B1
330
1
100
AcDbSymbolTableRecord
100
AcDbBlockTableRecord
  2
block 36
340
0
102
{BLKREFS
331
2B2
102
}
 70
     0
280
     1
281
     0
  0
BLOCK_RECORD
  5
2B7
330
1
100
AcDbSymbolTableRecord
100
AcDbBlockTableRecord
  2
block 37
340
0
102
{BLKREFS
331
2B8
102
}
 70
     0
280
     1
281
     0
  0
BLOCK_RECORD
  5
2C5
330
1
100
AcDbSymbolTableRecord
100
AcDbBlockTableRecord
  2
block 38
340
0
102
{BLKREFS
331
2C6
102
}
 70
     0
280
     1
281
     0
  0
BLOCK_RECORD
  5
2DA
330
1
100
AcDbSymbolTableRecord
100
AcDbBlockTableRecord
  2
block 39
340
0
102
{BLKREFS
331
2DB
102
}
 70
     0
280
     1
281
     0
  0
BLOCK_RECORD
  5
2EC
330
1
100
AcDbSymbolTableRecord
100
AcDbBlockTableRecord
  2
block 40
340
0
102
{BLKREFS
331
2ED
102
}
 70
     0
280
     1
281
     0
  0
BLOCK_RECORD
  5
310
330
1
100
AcDbSymbolTableRecord
100
AcDbBlockTableRecord
  2
block 41
340
0
102
{BLKREFS
331
311
102
}
 70
     0
280
     1
281
     0
  0
BLOCK_RECORD
  5
316
330
1
100
AcDbSymbolTableRecord
100
AcDbBlockTableRecord
  2
block 42
340
0
102
{BLKREFS
331
317
102
}
 70
     0
280
     1
281
     0
  0
BLOCK_RECORD
  5
31C
330
1
100
AcDbSymbolTableRecord
100
AcDbBlockTableRecord
  2
block 43
340
0
102
{BLKREFS
331
31D
102
}
 70
     0
280
     1
281
     0
  0
BLOCK_RECORD
  5
32C
330
1
100
AcDbSymbolTableRecord
100
AcDbBlockTableRecord
  2
block 44
340
0
102
{BLKREFS
331
32D
102
}
 70
     0
280
     1
281
     0
  0
ENDTAB
  0
ENDSEC
  0
SECTION
  2
BLOCKS
  0
BLOCK
  5
20
330
1F
100
AcDbEntity
  8
0
100
AcDbBlockBegin
  2
*Model_Space
 70
     0
 10
0.0
 20
0.0
 30
0.0
  3
*Model_Space
  1

  0
ENDBLK
  5
21
330
1F
100
AcDbEntity
  8
0
100
AcDbBlockEnd
  0
BLOCK
  5
1C
330
1B
100
AcDbEntity
 67
     1
  8
0
100
AcDbBlockBegin
  2
*Paper_Space
 70
     0
 10
0.0
 20
0.0
 30
0.0
  3
*Paper_Space
  1

  0
ENDBLK
  5
1D
330
1B
100
AcDbEntity
 67
     1
  8
0
100
AcDbBlockEnd
  0
BLOCK
  5
24
330
23
100
AcDbEntity
  8
0
100
AcDbBlockBegin
  2
*Paper_Space0
 70
     0
 10
0.0
 20
0.0
 30
0.0
  3
*Paper_Space0
  1

  0
ENDBLK
  5
25
330
23
100
AcDbEntity
  8
0
100
AcDbBlockEnd
  0
BLOCK
  5
43
330
41
100
AcDbEntity
  8
0
100
AcDbBlockBegin
  2
block 2
 70
     0
 10
0.0
 20
0.0
 30
0.0
  3
block 2
  1

  0
INSERT
  5
46
330
41
100
AcDbEntity
  8
Woods
100
AcDbBlockReference
  2
block 3
 10
0.0
 20
0.0
 30
0.0
  0
INSERT
  5
58
330
41
100
AcDbEntity
  8
Woods
100
AcDbBlockReference
  2
block 4
 10
0.0
 20
0.0
 30
0.0
  0
POLYLINE
  5
5F
330
41
100
AcDbEntity
  8
Woods
 62
   250
420
  2301728
370
     9
100
AcDb2dPolyline
 66
     1
 10
0.0
 20
0.0
 30
0.0
  0
VERTEX
  5
60
330
5F
100
AcDbEntity
  8
Woods
 62
   250
420
  2301728
370
     9
100
AcDbVertex
100
AcDb2dVertex
 10
186.7883749943858
 20
366.1195620095841
 30
0.0
  0
VERTEX
  5
61
330
5F
100
AcDbEntity
  8
Woods
 62
   250
420
  2301728
370
     9
100
AcDbVertex
100
AcDb2dVertex
 10
187.0322580645143
 20
433.8826290387324
 30
0.0
  0
VERTEX
  5
62
330
5F
100
AcDbEntity
  8
Woods
 62
   250
420
  2301728
370
     9
100
AcDbVertex
100
AcDb2dVertex
 10
189.7558738583975
 20
436.8275441004362
 30
0.0
  0
SEQEND
  5
63
330
5F
100
AcDbEntity
  8
Woods
 62
   250
420
  2301728
370
     9
  0
POLYLINE
  5
64
330
41
100
AcDbEntity
  8
Woods
 62
   250
420
  2301728
370
     9
100
AcDb2dPolyline
 66
     1
 10
0.0
 20
0.0
 30
0.0
  0
VERTEX
  5
65
330
64
100
AcDbEntity
  8
Woods
 62
   250
420
  2301728
370
     9
100
AcDbVertex
100
AcDb2dVertex
 10
188.5370162666168
 20
365.0313374189864
 30
0.0
  0
VERTEX
  5
66
330
64
100
AcDbEntity
  8
Woods
 62
   250
420
  2301728
370
     9
100
AcDbVertex
100
AcDb2dVertex
 10
188.5370162666168
 20
432.9564264484234
 30
0.0
  0
VERTEX
  5
67
330
64
100
AcDbEntity
  8
Woods
 62
   250
420
  2301728
370
     9
100
AcDbVertex
100
AcDb2dVertex
 10
191.6727880217022
 20
435.7931317730818
 30
0.0
  0
SEQEND
  5
68
330
64
100
AcDbEntity
  8
Woods
 62
   250
420
  2301728
370
     9
  0
POLYLINE
  5
69
330
41
100
AcDbEntity
  8
Woods
 62
   250
420
  2301728
370
     9
100
AcDb2dPolyline
 66
     1
 10
0.0
 20
0.0
 30
0.0
  0
VERTEX
  5
6A
330
69
100
AcDbEntity
  8
Woods
 62
   250
420
  2301728
370
     9
100
AcDbVertex
100
AcDb2dVertex
 10
191.5297528861447
 20
363.0273871310492
 30
0.0
  0
VERTEX
  5
6B
330
69
100
AcDbEntity
  8
Woods
 62
   250
420
  2301728
370
     9
100
AcDbVertex
100
AcDb2dVertex
 10
192.3595264889882
 20
430.8992970737254
 30
0.0
  0
VERTEX
  5
6C
330
69
100
AcDbEntity
  8
Woods
 62
   250
420
  2301728
370
     9
100
AcDbVertex
100
AcDb2dVertex
 10
195.0543800904716
 20
433.9683445243963
 30
0.0
  0
SEQEND
  5
6D
330
69
100
AcDbEntity
  8
Woods
 62
   250
420
  2301728
370
     9
  0
INSERT
  5
6F
330
41
100
AcDbEntity
  8
Woods
100
AcDbBlockReference
  2
block 5
 10
0.0
 20
0.0
 30
0.0
  0
INSERT
  5
97
330
41
100
AcDbEntity
  8
Woods
100
AcDbBlockReference
  2
block 6
 10
0.0
 20
0.0
 30
0.0
  0
ENDBLK
  5
44
330
41
100
AcDbEntity
  8
0
100
AcDbBlockEnd
  0
BLOCK
  5
47
330
45
100
AcDbEntity
  8
0
100
AcDbBlockBegin
  2
block 3
 70
     0
 10
0.0
 20
0.0
 30
0.0
  3
block 3
  1

  0
POLYLINE
  5
49
330
45
100
AcDbEntity
  8
Woods
 62
   250
420
  2301728
370
    20
100
AcDb2dPolyline
 66
     1
 10
0.0
 20
0.0
 30
0.0
  0
VERTEX
  5
4A
330
49
100
AcDbEntity
  8
Woods
 62
   250
420
  2301728
370
    20
100
AcDbVertex
100
AcDb2dVertex
 10
214.7354093921012
 20
366.7484023895104
 30
0.0
  0
VERTEX
  5
4B
330
49
100
AcDbEntity
  8
Woods
 62
   250
420
  2301728
370
    20
100
AcDbVertex
100
AcDb2dVertex
 10
198.5914665271193
 20
358.7741935483882
 30
0.0
  0
VERTEX
  5
4C
330
49
100
AcDbEntity
  8
Woods
 62
   250
420
  2301728
370
    20
100
AcDbVertex
100
AcDb2dVertex
 10
185.4255366348534
 20
366.9676914912579
 30
0.0
  0
VERTEX
  5
4D
330
49
100
AcDbEntity
  8
Woods
 62
   250
420
  2301728
370
    20
100
AcDbVertex
100
AcDb2dVertex
 10
185.4255366348534
 20
435.0381562584625
 30
0.0
  0
VERTEX
  5
4E
330
49
100
AcDbEntity
  8
Woods
 62
   250
420
  2301728
370
    20
100
AcDbVertex
100
AcDb2dVertex
 10
188.424998868466
 20
437.5457157964402
 30
0.0
  0
VERTEX
  5
4F
330
49
100
AcDbEntity
  8
Woods
 62
   250
420
  2301728
370
    20
100
AcDbVertex
100
AcDb2dVertex
 10
179.9517590418163
 20
442.2863355313684
 30
0.0
  0
VERTEX
  5
50
330
49
100
AcDbEntity
  8
Woods
 62
   250
420
  2301728
370
    20
100
AcDbVertex
100
AcDb2dVertex
 10
185.4255366348534
 20
446.8022346707412
 30
0.0
  0
VERTEX
  5
51
330
49
100
AcDbEntity
  8
Woods
 62
   250
420
  2301728
370
    20
100
AcDbVertex
100
AcDb2dVertex
 10
185.4255366348534
 20
514.8064516129034
 30
0.0
  0
VERTEX
  5
52
330
49
100
AcDbEntity
  8
Woods
 62
   250
420
  2301728
370
    20
100
AcDbVertex
100
AcDb2dVertex
 10
352.9397419737707
 20
572.9126895640711
 30
0.0
  0
VERTEX
  5
53
330
49
100
AcDbEntity
  8
Woods
 62
   250
420
  2301728
370
    20
100
AcDbVertex
100
AcDb2dVertex
 10
367.6782619058631
 20
568.0955912337977
 30
0.0
  0
VERTEX
  5
54
330
49
100
AcDbEntity
  8
Woods
 62
   250
420
  2301728
370
    20
100
AcDbVertex
100
AcDb2dVertex
 10
214.7354093921012
 20
366.7484023895104
 30
0.0
  0
SEQEND
  5
56
330
49
100
AcDbEntity
  8
Woods
 62
   250
420
  2301728
370
    20
  0
HATCH
  5
55
330
45
100
AcDbEntity
  8
Woods
 62
    43
420
 15510365
100
AcDbHatch
 10
0.0
 20
0.0
 30
0.0
210
0.0
220
0.0
230
1.0
  2
SOLID
 70
     1
 71
     0
 91
        1
 92
        1
 93
       10
 72
     1
 10
214.7354093921012
 20
366.7484023895104
 11
198.5914665271193
 21
358.7741935483882
 72
     1
 10
198.5914665271193
 20
358.7741935483882
 11
185.4255366348534
 21
366.9676914912579
 72
     1
 10
185.4255366348534
 20
366.9676914912579
 11
185.4255366348534
 21
435.0381562584625
 72
     1
 10
185.4255366348534
 20
435.0381562584625
 11
188.424998868466
 21
437.5457157964402
 72
     1
 10
188.424998868466
 20
437.5457157964402
 11
179.9517590418163
 21
442.2863355313684
 72
     1
 10
179.9517590418163
 20
442.2863355313684
 11
185.4255366348534
 21
446.8022346707412
 72
     1
 10
185.4255366348534
 20
446.8022346707412
 11
185.4255366348534
 21
514.8064516129034
 72
     1
 10
185.4255366348534
 20
514.8064516129034
 11
352.9397419737707
 21
572.9126895640711
 72
     1
 10
352.9397419737707
 20
572.9126895640711
 11
367.6782619058631
 21
568.0955912337977
 72
     1
 10
367.6782619058631
 20
568.0955912337977
 11
214.7354093921012
 21
366.7484023895104
 97
        0
 75
     2
 76
     1
 98
        0
  0
ENDBLK
  5
48
330
45
100
AcDbEntity
  8
0
100
AcDbBlockEnd
  0
BLOCK
  5
59
330
57
100
AcDbEntity
  8
0
100
AcDbBlockBegin
  2
block 4
 70
     0
 10
0.0
 20
0.0
 30
0.0
  3
block 4
  1

  0
POLYLINE
  5
5B
330
57
100
AcDbEntity
  8
Woods
 62
   250
420
  2301728
370
    15
100
AcDb2dPolyline
 66
     1
 10
0.0
 20
0.0
 30
0.0
  0
VERTEX
  5
5C
330
5B
100
AcDbEntity
  8
Woods
 62
   250
420
  2301728
370
    15
100
AcDbVertex
100
AcDb2dVertex
 10
185.4255366348534
 20
514.5605612808804
 30
0.0
  0
VERTEX
  5
5D
330
5B
100
AcDbEntity
  8
Woods
 62
   250
420
  2301728
370
    15
100
AcDbVertex
100
AcDb2dVertex
 10
198.5914665271193
 20
508.3570855756207
 30
0.0
  0
SEQEND
  5
5E
330
5B
100
AcDbEntity
  8
Woods
 62
   250
420
  2301728
370
    15
  0
ENDBLK
  5
5A
330
57
100
AcDbEntity
  8
0
100
AcDbBlockEnd
  0
BLOCK
  5
70
330
6E
100
AcDbEntity
  8
0
100
AcDbBlockBegin
  2
block 5
 70
     0
 10
0.0
 20
0.0
 30
0.0
  3
block 5
  1

  0
POLYLINE
  5
72
330
6E
100
AcDbEntity
  8
Woods
 62
   250
420
  2301728
370
     9
100
AcDb2dPolyline
 66
     1
 10
0.0
 20
0.0
 30
0.0
  0
VERTEX
  5
73
330
72
100
AcDbEntity
  8
Woods
 62
   250
420
  2301728
370
     9
100
AcDbVertex
100
AcDb2dVertex
 10
182.1935483870957
 20
440.8709677419383
 30
0.0
  0
VERTEX
  5
74
330
72
100
AcDbEntity
  8
Woods
 62
   250
420
  2301728
370
     9
100
AcDbVertex
100
AcDb2dVertex
 10
187.1784112057412
 20
444.6584442845642
 30
0.0
  0
VERTEX
  5
75
330
72
100
AcDbEntity
  8
Woods
 62
   250
420
  2301728
370
     9
100
AcDbVertex
100
AcDb2dVertex
 10
187.1784112057412
 20
513.6575232968817
 30
0.0
  0
VERTEX
  5
76
330
72
100
AcDbEntity
  8
Woods
 62
   250
420
  2301728
370
     9
100
AcDbVertex
100
AcDb2dVertex
 10
355.2238329948286
 20
572.1666268279241
 30
0.0
  0
SEQEND
  5
77
330
72
100
AcDbEntity
  8
Woods
 62
   250
420
  2301728
370
     9
  0
POLYLINE
  5
78
330
6E
100
AcDbEntity
  8
Woods
 62
   250
420
  2301728
370
     9
100
AcDb2dPolyline
 66
     1
 10
0.0
 20
0.0
 30
0.0
  0
VERTEX
  5
79
330
78
100
AcDbEntity
  8
Woods
 62
   250
420
  2301728
370
     9
100
AcDbVertex
100
AcDb2dVertex
 10
184.064017239587
 20
439.8690956985101
 30
0.0
  0
VERTEX
  5
7A
330
78
100
AcDbEntity
  8
Woods
 62
   250
420
  2301728
370
     9
100
AcDbVertex
100
AcDb2dVertex
 10
189.0288919914237
 20
443.8899315927147
 30
0.0
  0
VERTEX
  5
7B
330
78
100
AcDbEntity
  8
Woods
 62
   250
420
  2301728
370
     9
100
AcDbVertex
100
AcDb2dVertex
 10
189.101939981023
 20
512.7727894723412
 30
0.0
  0
VERTEX
  5
7C
330
78
100
AcDbEntity
  8
Woods
 62
   250
420
  2301728
370
     9
100
AcDbVertex
100
AcDb2dVertex
 10
357.2482324215161
 20
571.5053883039764
 30
0.0
  0
SEQEND
  5
7D
330
78
100
AcDbEntity
  8
Woods
 62
   250
420
  2301728
370
     9
  0
POLYLINE
  5
7E
330
6E
100
AcDbEntity
  8
Woods
 62
   250
420
  2301728
370
     9
100
AcDb2dPolyline
 66
     1
 10
0.0
 20
0.0
 30
0.0
  0
VERTEX
  5
7F
330
7E
100
AcDbEntity
  8
Woods
 62
   250
420
  2301728
370
     9
100
AcDbVertex
100
AcDb2dVertex
 10
185.9344860456258
 20
438.867223679963
 30
0.0
  0
VERTEX
  5
80
330
7E
100
AcDbEntity
  8
Woods
 62
   250
420
  2301728
370
     9
100
AcDbVertex
100
AcDb2dVertex
 10
190.8793727311504
 20
443.1214189199509
 30
0.0
  0
VERTEX
  5
81
330
7E
100
AcDbEntity
  8
Woods
 62
   250
420
  2301728
370
     9
100
AcDbVertex
100
AcDb2dVertex
 10
191.0254687085344
 20
511.8880556697732
 30
0.0
  0
VERTEX
  5
82
330
7E
100
AcDbEntity
  8
Woods
 62
   250
420
  2301728
370
     9
100
AcDbVertex
100
AcDb2dVertex
 10
359.2726317979268
 20
570.8441497964486
 30
0.0
  0
SEQEND
  5
83
330
7E
100
AcDbEntity
  8
Woods
 62
   250
420
  2301728
370
     9
  0
POLYLINE
  5
84
330
6E
100
AcDbEntity
  8
Woods
 62
   250
420
  2301728
370
     9
100
AcDb2dPolyline
 66
     1
 10
0.0
 20
0.0
 30
0.0
  0
VERTEX
  5
85
330
84
100
AcDbEntity
  8
Woods
 62
   250
420
  2301728
370
     9
100
AcDbVertex
100
AcDb2dVertex
 10
187.8049548516628
 20
437.8653516614158
 30
0.0
  0
VERTEX
  5
86
330
84
100
AcDbEntity
  8
Woods
 62
   250
420
  2301728
370
     9
100
AcDbVertex
100
AcDb2dVertex
 10
192.7298534708752
 20
442.352906247188
 30
0.0
  0
VERTEX
  5
87
330
84
100
AcDbEntity
  8
Woods
 62
   250
420
  2301728
370
     9
100
AcDbVertex
100
AcDb2dVertex
 10
192.948997436044
 20
511.0033218672042
 30
0.0
  0
VERTEX
  5
88
330
84
100
AcDbEntity
  8
Woods
 62
   250
420
  2301728
370
     9
100
AcDbVertex
100
AcDb2dVertex
 10
361.2970311743393
 20
570.1829112889209
 30
0.0
  0
SEQEND
  5
89
330
84
100
AcDbEntity
  8
Woods
 62
   250
420
  2301728
370
     9
  0
POLYLINE
  5
8A
330
6E
100
AcDbEntity
  8
Woods
 62
   250
420
  2301728
370
     9
100
AcDb2dPolyline
 66
     1
 10
0.0
 20
0.0
 30
0.0
  0
VERTEX
  5
8B
330
8A
100
AcDbEntity
  8
Woods
 62
   250
420
  2301728
370
     9
100
AcDbVertex
100
AcDb2dVertex
 10
189.6754236577008
 20
436.8634796428696
 30
0.0
  0
VERTEX
  5
8C
330
8A
100
AcDbEntity
  8
Woods
 62
   250
420
  2301728
370
     9
100
AcDbVertex
100
AcDb2dVertex
 10
194.580334210601
 20
441.5843935744251
 30
0.0
  0
VERTEX
  5
8D
330
8A
100
AcDbEntity
  8
Woods
 62
   250
420
  2301728
370
     9
100
AcDbVertex
100
AcDb2dVertex
 10
194.8725261635554
 20
510.1185880646372
 30
0.0
  0
VERTEX
  5
8E
330
8A
100
AcDbEntity
  8
Woods
 62
   250
420
  2301728
370
     9
100
AcDbVertex
100
AcDb2dVertex
 10
363.3214305507499
 20
569.5216727813931
 30
0.0
  0
SEQEND
  5
8F
330
8A
100
AcDbEntity
  8
Woods
 62
   250
420
  2301728
370
     9
  0
POLYLINE
  5
90
330
6E
100
AcDbEntity
  8
Woods
 62
   250
420
  2301728
370
     9
100
AcDb2dPolyline
 66
     1
 10
0.0
 20
0.0
 30
0.0
  0
VERTEX
  5
91
330
90
100
AcDbEntity
  8
Woods
 62
   250
420
  2301728
370
     9
100
AcDbVertex
100
AcDb2dVertex
 10
191.5458925101921
 20
435.8616075994414
 30
0.0
  0
VERTEX
  5
92
330
90
100
AcDbEntity
  8
Woods
 62
   250
420
  2301728
370
     9
100
AcDbVertex
100
AcDb2dVertex
 10
196.4308149962844
 20
440.8158808825756
 30
0.0
  0
VERTEX
  5
93
330
90
100
AcDbEntity
  8
Woods
 62
   250
420
  2301728
370
     9
100
AcDbVertex
100
AcDb2dVertex
 10
196.7960549388381
 20
509.2338542400958
 30
0.0
  0
VERTEX
  5
94
330
90
100
AcDbEntity
  8
Woods
 62
   250
420
  2301728
370
     9
100
AcDbVertex
100
AcDb2dVertex
 10
365.3458299774375
 20
568.8604342574454
 30
0.0
  0
SEQEND
  5
95
330
90
100
AcDbEntity
  8
Woods
 62
   250
420
  2301728
370
     9
  0
ENDBLK
  5
71
330
6E
100
AcDbEntity
  8
0
100
AcDbBlockEnd
  0
BLOCK
  5
98
330
96
100
AcDbEntity
  8
0
100
AcDbBlockBegin
  2
block 6
 70
     0
 10
0.0
 20
0.0
 30
0.0
  3
block 6
  1

  0
POLYLINE
  5
9A
330
96
100
AcDbEntity
  8
Woods
 62
   250
420
  2301728
370
     9
100
AcDb2dPolyline
 66
     1
 10
0.0
 20
0.0
 30
0.0
  0
VERTEX
  5
9B
330
9A
100
AcDbEntity
  8
Woods
 62
   250
420
  2301728
370
     9
100
AcDbVertex
100
AcDb2dVertex
 10
193.2532053032473
 20
362.096331271603
 30
0.0
  0
VERTEX
  5
9C
330
9A
100
AcDbEntity
  8
Woods
 62
   250
420
  2301728
370
     9
100
AcDbVertex
100
AcDb2dVertex
 10
194.0434333588109
 20
429.9930825485444
 30
0.0
  0
VERTEX
  5
9D
330
9A
100
AcDbEntity
  8
Woods
 62
   250
420
  2301728
370
     9
100
AcDbVertex
100
AcDb2dVertex
 10
197.6830129063028
 20
433.4915530458729
 30
0.0
  0
SEQEND
  5
9E
330
9A
100
AcDbEntity
  8
Woods
 62
   250
420
  2301728
370
     9
  0
POLYLINE
  5
9F
330
96
100
AcDbEntity
  8
Woods
 62
   250
420
  2301728
370
     9
100
AcDb2dPolyline
 66
     1
 10
0.0
 20
0.0
 30
0.0
  0
VERTEX
  5
A0
330
9F
100
AcDbEntity
  8
Woods
 62
   250
420
  2301728
370
     9
100
AcDbVertex
100
AcDb2dVertex
 10
195.1650194711838
 20
360.9065599770329
 30
0.0
  0
VERTEX
  5
A1
330
9F
100
AcDbEntity
  8
Woods
 62
   250
420
  2301728
370
     9
100
AcDbVertex
100
AcDb2dVertex
 10
195.6874797825258
 20
428.9965412742731
 30
0.0
  0
VERTEX
  5
A2
330
9F
100
AcDbEntity
  8
Woods
 62
   250
420
  2301728
370
     9
100
AcDbVertex
100
AcDb2dVertex
 10
199.9996314968266
 20
432.8365097275291
 30
0.0
  0
SEQEND
  5
A3
330
9F
100
AcDbEntity
  8
Woods
 62
   250
420
  2301728
370
     9
  0
POLYLINE
  5
A4
330
96
100
AcDbEntity
  8
Woods
 62
   250
420
  2301728
370
     9
100
AcDb2dPolyline
 66
     1
 10
0.0
 20
0.0
 30
0.0
  0
VERTEX
  5
A5
330
A4
100
AcDbEntity
  8
Woods
 62
   250
420
  2301728
370
     9
100
AcDbVertex
100
AcDb2dVertex
 10
197.0768336391211
 20
359.7167886824627
 30
0.0
  0
VERTEX
  5
A6
330
A4
100
AcDbEntity
  8
Woods
 62
   250
420
  2301728
370
     9
100
AcDbVertex
100
AcDb2dVertex
 10
197.3315262062397
 20
428.0000000000027
 30
0.0
  0
VERTEX
  5
A7
330
A4
100
AcDbEntity
  8
Woods
 62
   250
420
  2301728
370
     9
100
AcDbVertex
100
AcDb2dVertex
 10
202.3162500873514
 20
432.1814664091853
 30
0.0
  0
SEQEND
  5
A8
330
A4
100
AcDbEntity
  8
Woods
 62
   250
420
  2301728
370
     9
  0
ENDBLK
  5
99
330
96
100
AcDbEntity
  8
0
100
AcDbBlockEnd
  0
BLOCK
  5
AB
330
A9
100
AcDbEntity
  8
0
100
AcDbBlockBegin
  2
block 7
 70
     0
 10
0.0
 20
0.0
 30
0.0
  3
block 7
  1

  0
INSERT
  5
AE
330
A9
100
AcDbEntity
  8
Woods
100
AcDbBlockReference
  2
block 8
 10
0.0
 20
0.0
 30
0.0
  0
INSERT
  5
BE
330
A9
100
AcDbEntity
  8
Woods
100
AcDbBlockReference
  2
block 9
 10
0.0
 20
0.0
 30
0.0
  0
INSERT
  5
C6
330
A9
100
AcDbEntity
  8
Woods
100
AcDbBlockReference
  2
block 10
 10
0.0
 20
0.0
 30
0.0
  0
INSERT
  5
CE
330
A9
100
AcDbEntity
  8
Woods
100
AcDbBlockReference
  2
block 11
 10
0.0
 20
0.0
 30
0.0
  0
INSERT
  5
D6
330
A9
100
AcDbEntity
  8
Woods
100
AcDbBlockReference
  2
block 12
 10
0.0
 20
0.0
 30
0.0
  0
INSERT
  5
DE
330
A9
100
AcDbEntity
  8
Woods
100
AcDbBlockReference
  2
block 13
 10
0.0
 20
0.0
 30
0.0
  0
POLYLINE
  5
EB
330
A9
100
AcDbEntity
  8
Woods
 62
   250
420
  2301728
370
     9
100
AcDb2dPolyline
 66
     1
 10
0.0
 20
0.0
 30
0.0
  0
VERTEX
  5
EC
330
EB
100
AcDbEntity
  8
Woods
 62
   250
420
  2301728
370
     9
100
AcDbVertex
100
AcDb2dVertex
 10
202.3162500873514
 20
356.6908396608233
 30
0.0
  0
VERTEX
  5
ED
330
EB
100
AcDbEntity
  8
Woods
 62
   250
420
  2301728
370
     9
100
AcDbVertex
100
AcDb2dVertex
 10
202.3162500873514
 20
425.5168147821187
 30
0.0
  0
VERTEX
  5
EE
330
EB
100
AcDbEntity
  8
Woods
 62
   250
420
  2301728
370
     9
100
AcDbVertex
100
AcDb2dVertex
 10
205.6008790395554
 20
428.2722012969434
 30
0.0
  0
SEQEND
  5
EF
330
EB
100
AcDbEntity
  8
Woods
 62
   250
420
  2301728
370
     9
  0
POLYLINE
  5
F0
330
A9
100
AcDbEntity
  8
Woods
 62
   250
420
  2301728
370
     9
100
AcDb2dPolyline
 66
     1
 10
0.0
 20
0.0
 30
0.0
  0
VERTEX
  5
F1
330
F0
100
AcDbEntity
  8
Woods
 62
   250
420
  2301728
370
     9
100
AcDbVertex
100
AcDb2dVertex
 10
204.117385495254
 20
355.405205987674
 30
0.0
  0
VERTEX
  5
F2
330
F0
100
AcDbEntity
  8
Woods
 62
   250
420
  2301728
370
     9
100
AcDbVertex
100
AcDb2dVertex
 10
204.117385495254
 20
424.538101877657
 30
0.0
  0
VERTEX
  5
F3
330
F0
100
AcDbEntity
  8
Woods
 62
   250
420
  2301728
370
     9
100
AcDbVertex
100
AcDb2dVertex
 10
207.63669105192
 20
427.4903275367124
 30
0.0
  0
SEQEND
  5
F4
330
F0
100
AcDbEntity
  8
Woods
 62
   250
420
  2301728
370
     9
  0
INSERT
  5
F6
330
A9
100
AcDbEntity
  8
Woods
100
AcDbBlockReference
  2
block 14
 10
0.0
 20
0.0
 30
0.0
  0
INSERT
  5
11E
330
A9
100
AcDbEntity
  8
Woods
100
AcDbBlockReference
  2
block 15
 10
0.0
 20
0.0
 30
0.0
  0
POLYLINE
  5
130
330
A9
100
AcDbEntity
  8
Woods
 62
   250
420
  2301728
370
     9
100
AcDb2dPolyline
 66
     1
 10
0.0
 20
0.0
 30
0.0
  0
VERTEX
  5
131
330
130
100
AcDbEntity
  8
Woods
 62
   250
420
  2301728
370
     9
100
AcDbVertex
100
AcDb2dVertex
 10
200.4992108549277
 20
357.6879255032691
 30
0.0
  0
VERTEX
  5
132
330
130
100
AcDbEntity
  8
Woods
 62
   250
420
  2301728
370
     9
100
AcDbVertex
100
AcDb2dVertex
 10
200.9032258064517
 20
426.354838709678
 30
0.0
  0
VERTEX
  5
133
330
130
100
AcDbEntity
  8
Woods
 62
   250
420
  2301728
370
     9
100
AcDbVertex
100
AcDb2dVertex
 10
203.5698420212702
 20
429.0897858379794
 30
0.0
  0
SEQEND
  5
134
330
130
100
AcDbEntity
  8
Woods
 62
   250
420
  2301728
370
     9
  0
ENDBLK
  5
AC
330
A9
100
AcDbEntity
  8
0
100
AcDbBlockEnd
  0
BLOCK
  5
AF
330
AD
100
AcDbEntity
  8
0
100
AcDbBlockBegin
  2
block 8
 70
     0
 10
0.0
 20
0.0
 30
0.0
  3
block 8
  1

  0
POLYLINE
  5
B1
330
AD
100
AcDbEntity
  8
Woods
 62
   250
420
  2301728
370
    20
100
AcDb2dPolyline
 66
     1
 10
0.0
 20
0.0
 30
0.0
  0
VERTEX
  5
B2
330
B1
100
AcDbEntity
  8
Woods
 62
   250
420
  2301728
370
    20
100
AcDbVertex
100
AcDb2dVertex
 10
198.5734143118016
 20
358.7027888474404
 30
0.0
  0
VERTEX
  5
B3
330
B1
100
AcDbEntity
  8
Woods
 62
   250
420
  2301728
370
    20
100
AcDbVertex
100
AcDb2dVertex
 10
211.7613357215578
 20
350.6569662330076
 30
0.0
  0
VERTEX
  5
B4
330
B1
100
AcDbEntity
  8
Woods
 62
   250
420
  2301728
370
    20
100
AcDbVertex
100
AcDb2dVertex
 10
296.2993799902815
 20
393.8572839450753
 30
0.0
  0
VERTEX
  5
B5
330
B1
100
AcDbEntity
  8
Woods
 62
   250
420
  2301728
370
    20
100
AcDbVertex
100
AcDb2dVertex
 10
380.632089761446
 20
513.6818929178498
 30
0.0
  0
VERTEX
  5
B6
330
B1
100
AcDbEntity
  8
Woods
 62
   250
420
  2301728
370
    20
100
AcDbVertex
100
AcDb2dVertex
 10
380.632089761446
 20
563.7469983789706
 30
0.0
  0
VERTEX
  5
B7
330
B1
100
AcDbEntity
  8
Woods
 62
   250
420
  2301728
370
    20
100
AcDbVertex
100
AcDb2dVertex
 10
367.3483696864532
 20
568.2063358696059
 30
0.0
  0
SEQEND
  5
B9
330
B1
100
AcDbEntity
  8
Woods
 62
   250
420
  2301728
370
    20
  0
HATCH
  5
B8
330
AD
100
AcDbEntity
  8
Woods
 62
    43
420
 15510365
100
AcDbHatch
 10
0.0
 20
0.0
 30
0.0
210
0.0
220
0.0
230
1.0
  2
SOLID
 70
     1
 71
     0
 91
        1
 92
        1
 93
        6
 72
     1
 10
198.5734143118016
 20
358.7027888474404
 11
211.7613357215578
 21
350.6569662330076
 72
     1
 10
211.7613357215578
 20
350.6569662330076
 11
296.2993799902815
 21
393.8572839450753
 72
     1
 10
296.2993799902815
 20
393.8572839450753
 11
380.632089761446
 21
513.6818929178498
 72
     1
 10
380.632089761446
 20
513.6818929178498
 11
380.632089761446
 21
563.7469983789706
 72
     1
 10
380.632089761446
 20
563.7469983789706
 11
367.3483696864532
 21
568.2063358696059
 72
     1
 10
367.3483696864532
 20
568.2063358696059
 11
198.5734143118016
 21
358.7027888474404
 97
        0
 75
     2
 76
     1
 98
        0
  0
POLYLINE
  5
BA
330
AD
100
AcDbEntity
  8
Woods
 62
   250
420
  2301728
370
    20
100
AcDb2dPolyline
 66
     1
 10
0.0
 20
0.0
 30
0.0
  0
VERTEX
  5
BB
330
BA
100
AcDbEntity
  8
Woods
 62
   250
420
  2301728
370
    20
100
AcDbVertex
100
AcDb2dVertex
 10
198.5734143118016
 20
427.5552175759949
 30
0.0
  0
VERTEX
  5
357
330
BA
100
AcDbEntity
  8
0
100
AcDbVertex
100
AcDb2dVertex
 10
198.5734143118016
 20
427.5552175759949
 30
0.0
  0
SEQEND
  5
BC
330
BA
100
AcDbEntity
  8
Woods
 62
   250
420
  2301728
370
    20
  0
ENDBLK
  5
B0
330
AD
100
AcDbEntity
  8
0
100
AcDbBlockEnd
  0
BLOCK
  5
BF
330
BD
100
AcDbEntity
  8
0
100
AcDbBlockBegin
  2
block 9
 70
     0
 10
0.0
 20
0.0
 30
0.0
  3
block 9
  1

  0
POLYLINE
  5
C1
330
BD
100
AcDbEntity
  8
Woods
 62
   250
420
  2301728
370
    15
100
AcDb2dPolyline
 66
     1
 10
0.0
 20
0.0
 30
0.0
  0
VERTEX
  5
C2
330
C1
100
AcDbEntity
  8
Woods
 62
   250
420
  2301728
370
    15
100
AcDbVertex
100
AcDb2dVertex
 10
198.5734143118016
 20
508.263183007999
 30
0.0
  0
VERTEX
  5
C3
330
C1
100
AcDbEntity
  8
Woods
 62
   250
420
  2301728
370
    15
100
AcDbVertex
100
AcDb2dVertex
 10
211.7613357215578
 20
502.2778752063996
 30
0.0
  0
SEQEND
  5
C4
330
C1
100
AcDbEntity
  8
Woods
 62
   250
420
  2301728
370
    15
  0
ENDBLK
  5
C0
330
BD
100
AcDbEntity
  8
0
100
AcDbBlockEnd
  0
BLOCK
  5
C7
330
C5
100
AcDbEntity
  8
0
100
AcDbBlockBegin
  2
block 10
 70
     0
 10
0.0
 20
0.0
 30
0.0
  3
block 10
  1

  0
POLYLINE
  5
C9
330
C5
100
AcDbEntity
  8
Woods
 62
   250
420
  2301728
370
    15
100
AcDb2dPolyline
 66
     1
 10
0.0
 20
0.0
 30
0.0
  0
VERTEX
  5
CA
330
C9
100
AcDbEntity
  8
Woods
 62
   250
420
  2301728
370
    15
100
AcDbVertex
100
AcDb2dVertex
 10
185.4255366348534
 20
446.8022346707412
 30
0.0
  0
VERTEX
  5
CB
330
C9
100
AcDbEntity
  8
Woods
 62
   250
420
  2301728
370
    15
100
AcDbVertex
100
AcDb2dVertex
 10
211.7613357215578
 20
432.4767986890765
 30
0.0
  0
SEQEND
  5
CC
330
C9
100
AcDbEntity
  8
Woods
 62
   250
420
  2301728
370
    15
  0
ENDBLK
  5
C8
330
C5
100
AcDbEntity
  8
0
100
AcDbBlockEnd
  0
BLOCK
  5
CF
330
CD
100
AcDbEntity
  8
0
100
AcDbBlockBegin
  2
block 11
 70
     0
 10
0.0
 20
0.0
 30
0.0
  3
block 11
  1

  0
POLYLINE
  5
D1
330
CD
100
AcDbEntity
  8
Woods
 62
   250
420
  2301728
370
    15
100
AcDb2dPolyline
 66
     1
 10
0.0
 20
0.0
 30
0.0
  0
VERTEX
  5
D2
330
D1
100
AcDbEntity
  8
Woods
 62
   250
420
  2301728
370
    15
100
AcDbVertex
100
AcDb2dVertex
 10
206.4197467497588
 20
427.8353232330273
 30
0.0
  0
VERTEX
  5
D3
330
D1
100
AcDbEntity
  8
Woods
 62
   250
420
  2301728
370
    15
100
AcDbVertex
100
AcDb2dVertex
 10
188.424998868466
 20
437.5457157964402
 30
0.0
  0
SEQEND
  5
D4
330
D1
100
AcDbEntity
  8
Woods
 62
   250
420
  2301728
370
    15
  0
ENDBLK
  5
D0
330
CD
100
AcDbEntity
  8
0
100
AcDbBlockEnd
  0
BLOCK
  5
D7
330
D5
100
AcDbEntity
  8
0
100
AcDbBlockBegin
  2
block 12
 70
     0
 10
0.0
 20
0.0
 30
0.0
  3
block 12
  1

  0
POLYLINE
  5
D9
330
D5
100
AcDbEntity
  8
Woods
 62
   250
420
  2301728
370
    15
100
AcDb2dPolyline
 66
     1
 10
0.0
 20
0.0
 30
0.0
  0
VERTEX
  5
DA
330
D9
100
AcDbEntity
  8
Woods
 62
   250
420
  2301728
370
    15
100
AcDbVertex
100
AcDb2dVertex
 10
185.4255366348534
 20
434.6309062475393
 30
0.0
  0
VERTEX
  5
DB
330
D9
100
AcDbEntity
  8
Woods
 62
   250
420
  2301728
370
    15
100
AcDbVertex
100
AcDb2dVertex
 10
211.7613357215578
 20
420.4579824995972
 30
0.0
  0
SEQEND
  5
DC
330
D9
100
AcDbEntity
  8
Woods
 62
   250
420
  2301728
370
    15
  0
ENDBLK
  5
D8
330
D5
100
AcDbEntity
  8
0
100
AcDbBlockEnd
  0
BLOCK
  5
DF
330
DD
100
AcDbEntity
  8
0
100
AcDbBlockBegin
  2
block 13
 70
     0
 10
0.0
 20
0.0
 30
0.0
  3
block 13
  1

  0
POLYLINE
  5
E1
330
DD
100
AcDbEntity
  8
Woods
 62
   250
420
  2301728
370
    15
100
AcDb2dPolyline
 66
     1
 10
0.0
 20
0.0
 30
0.0
  0
VERTEX
  5
E2
330
E1
100
AcDbEntity
  8
Woods
 62
   250
420
  2301728
370
    15
100
AcDbVertex
100
AcDb2dVertex
 10
211.7613357215578
 20
350.6569662330076
 30
0.0
  0
VERTEX
  5
E3
330
E1
100
AcDbEntity
  8
Woods
 62
   250
420
  2301728
370
    15
100
AcDbVertex
100
AcDb2dVertex
 10
211.7613357215578
 20
420.4579824995972
 30
0.0
  0
VERTEX
  5
E4
330
E1
100
AcDbEntity
  8
Woods
 62
   250
420
  2301728
370
    15
100
AcDbVertex
100
AcDb2dVertex
 10
217.0482170279274
 20
425.1134963764016
 30
0.0
  0
VERTEX
  5
E5
330
E1
100
AcDbEntity
  8
Woods
 62
   250
420
  2301728
370
    15
100
AcDbVertex
100
AcDb2dVertex
 10
206.4197467497588
 20
427.8353232330273
 30
0.0
  0
VERTEX
  5
E6
330
E1
100
AcDbEntity
  8
Woods
 62
   250
420
  2301728
370
    15
100
AcDbVertex
100
AcDb2dVertex
 10
211.7613357215578
 20
432.4767986890765
 30
0.0
  0
VERTEX
  5
E7
330
E1
100
AcDbEntity
  8
Woods
 62
   250
420
  2301728
370
    15
100
AcDbVertex
100
AcDb2dVertex
 10
211.7613357215578
 20
502.2778752063996
 30
0.0
  0
VERTEX
  5
E8
330
E1
100
AcDbEntity
  8
Woods
 62
   250
420
  2301728
370
    15
100
AcDbVertex
100
AcDb2dVertex
 10
265.9581351880606
 20
522.0055316614671
 30
0.0
  0
VERTEX
  5
E9
330
E1
100
AcDbEntity
  8
Woods
 62
   250
420
  2301728
370
    15
100
AcDbVertex
100
AcDb2dVertex
 10
380.632089761446
 20
563.7469983789706
 30
0.0
  0
SEQEND
  5
EA
330
E1
100
AcDbEntity
  8
Woods
 62
   250
420
  2301728
370
    15
  0
ENDBLK
  5
E0
330
DD
100
AcDbEntity
  8
0
100
AcDbBlockEnd
  0
BLOCK
  5
F7
330
F5
100
AcDbEntity
  8
0
100
AcDbBlockBegin
  2
block 14
 70
     0
 10
0.0
 20
0.0
 30
0.0
  3
block 14
  1

  0
POLYLINE
  5
F9
330
F5
100
AcDbEntity
  8
Woods
 62
   250
420
  2301728
370
     9
100
AcDb2dPolyline
 66
     1
 10
0.0
 20
0.0
 30
0.0
  0
VERTEX
  5
FA
330
F9
100
AcDbEntity
  8
Woods
 62
   250
420
  2301728
370
     9
100
AcDbVertex
100
AcDb2dVertex
 10
194.9515620078191
 20
433.8826290387324
 30
0.0
  0
VERTEX
  5
FB
330
F9
100
AcDbEntity
  8
Woods
 62
   250
420
  2301728
370
     9
100
AcDbVertex
100
AcDb2dVertex
 10
200.4445610712783
 20
438.4619313397261
 30
0.0
  0
VERTEX
  5
FC
330
F9
100
AcDbEntity
  8
Woods
 62
   250
420
  2301728
370
     9
100
AcDbVertex
100
AcDb2dVertex
 10
200.4445610712783
 20
507.4610723458418
 30
0.0
  0
VERTEX
  5
FD
330
F9
100
AcDbEntity
  8
Woods
 62
   250
420
  2301728
370
     9
100
AcDbVertex
100
AcDb2dVertex
 10
369.2678977844116
 20
567.5619542817449
 30
0.0
  0
SEQEND
  5
FE
330
F9
100
AcDbEntity
  8
Woods
 62
   250
420
  2301728
370
     9
  0
POLYLINE
  5
FF
330
F5
100
AcDbEntity
  8
Woods
 62
   250
420
  2301728
370
     9
100
AcDb2dPolyline
 66
     1
 10
0.0
 20
0.0
 30
0.0
  0
VERTEX
  5
100
330
FF
100
AcDbEntity
  8
Woods
 62
   250
420
  2301728
370
     9
100
AcDbVertex
100
AcDb2dVertex
 10
196.8751028332481
 20
432.8642229362922
 30
0.0
  0
VERTEX
  5
101
330
FF
100
AcDbEntity
  8
Woods
 62
   250
420
  2301728
370
     9
100
AcDbVertex
100
AcDb2dVertex
 10
202.3681018967072
 20
437.4435241170368
 30
0.0
  0
VERTEX
  5
102
330
FF
100
AcDbEntity
  8
Woods
 62
   250
420
  2301728
370
     9
100
AcDbVertex
100
AcDb2dVertex
 10
202.3681018967072
 20
506.5763370524382
 30
0.0
  0
VERTEX
  5
103
330
FF
100
AcDbEntity
  8
Woods
 62
   250
420
  2301728
370
     9
100
AcDbVertex
100
AcDb2dVertex
 10
371.121957463678
 20
566.9395521519546
 30
0.0
  0
SEQEND
  5
104
330
FF
100
AcDbEntity
  8
Woods
 62
   250
420
  2301728
370
     9
  0
POLYLINE
  5
105
330
F5
100
AcDbEntity
  8
Woods
 62
   250
420
  2301728
370
     9
100
AcDb2dPolyline
 66
     1
 10
0.0
 20
0.0
 30
0.0
  0
VERTEX
  5
106
330
105
100
AcDbEntity
  8
Woods
 62
   250
420
  2301728
370
     9
100
AcDbVertex
100
AcDb2dVertex
 10
198.7986436109059
 20
431.8458168591442
 30
0.0
  0
VERTEX
  5
107
330
105
100
AcDbEntity
  8
Woods
 62
   250
420
  2301728
370
     9
100
AcDbVertex
100
AcDb2dVertex
 10
204.291642674365
 20
436.4251169196395
 30
0.0
  0
VERTEX
  5
108
330
105
100
AcDbEntity
  8
Woods
 62
   250
420
  2301728
370
     9
100
AcDbVertex
100
AcDb2dVertex
 10
204.291642674365
 20
505.6916017810072
 30
0.0
  0
VERTEX
  5
109
330
105
100
AcDbEntity
  8
Woods
 62
   250
420
  2301728
370
     9
100
AcDbVertex
100
AcDb2dVertex
 10
372.9760170969003
 20
566.3171500376211
 30
0.0
  0
SEQEND
  5
10A
330
105
100
AcDbEntity
  8
Woods
 62
   250
420
  2301728
370
     9
  0
POLYLINE
  5
10B
330
F5
100
AcDbEntity
  8
Woods
 62
   250
420
  2301728
370
     9
100
AcDb2dPolyline
 66
     1
 10
0.0
 20
0.0
 30
0.0
  0
VERTEX
  5
10C
330
10B
100
AcDbEntity
  8
Woods
 62
   250
420
  2301728
370
     9
100
AcDbVertex
100
AcDb2dVertex
 10
200.7221843885636
 20
430.8274107819962
 30
0.0
  0
VERTEX
  5
10D
330
10B
100
AcDbEntity
  8
Woods
 62
   250
420
  2301728
370
     9
100
AcDbVertex
100
AcDb2dVertex
 10
206.2151834520228
 20
435.4067097222423
 30
0.0
  0
VERTEX
  5
10E
330
10B
100
AcDbEntity
  8
Woods
 62
   250
420
  2301728
370
     9
100
AcDbVertex
100
AcDb2dVertex
 10
206.2151834520228
 20
504.8068665095761
 30
0.0
  0
VERTEX
  5
10F
330
10B
100
AcDbEntity
  8
Woods
 62
   250
420
  2301728
370
     9
100
AcDbVertex
100
AcDb2dVertex
 10
374.8300767301207
 20
565.6947479232877
 30
0.0
  0
SEQEND
  5
110
330
10B
100
AcDbEntity
  8
Woods
 62
   250
420
  2301728
370
     9
  0
POLYLINE
  5
111
330
F5
100
AcDbEntity
  8
Woods
 62
   250
420
  2301728
370
     9
100
AcDb2dPolyline
 66
     1
 10
0.0
 20
0.0
 30
0.0
  0
VERTEX
  5
112
330
111
100
AcDbEntity
  8
Woods
 62
   250
420
  2301728
370
     9
100
AcDbVertex
100
AcDb2dVertex
 10
202.6457251662196
 20
429.809004704849
 30
0.0
  0
VERTEX
  5
113
330
111
100
AcDbEntity
  8
Woods
 62
   250
420
  2301728
370
     9
100
AcDbVertex
100
AcDb2dVertex
 10
208.1387242296796
 20
434.3883025248442
 30
0.0
  0
VERTEX
  5
114
330
111
100
AcDbEntity
  8
Woods
 62
   250
420
  2301728
370
     9
100
AcDbVertex
100
AcDb2dVertex
 10
208.1387242296796
 20
503.922131238146
 30
0.0
  0
VERTEX
  5
115
330
111
100
AcDbEntity
  8
Woods
 62
   250
420
  2301728
370
     9
100
AcDbVertex
100
AcDb2dVertex
 10
376.684136363343
 20
565.0723458089551
 30
0.0
  0
SEQEND
  5
116
330
111
100
AcDbEntity
  8
Woods
 62
   250
420
  2301728
370
     9
  0
POLYLINE
  5
117
330
F5
100
AcDbEntity
  8
Woods
 62
   250
420
  2301728
370
     9
100
AcDb2dPolyline
 66
     1
 10
0.0
 20
0.0
 30
0.0
  0
VERTEX
  5
118
330
117
100
AcDbEntity
  8
Woods
 62
   250
420
  2301728
370
     9
100
AcDbVertex
100
AcDb2dVertex
 10
204.5692659916494
 20
428.7905986024089
 30
0.0
  0
VERTEX
  5
119
330
117
100
AcDbEntity
  8
Woods
 62
   250
420
  2301728
370
     9
100
AcDbVertex
100
AcDb2dVertex
 10
210.0622650551086
 20
433.3698953021549
 30
0.0
  0
VERTEX
  5
11A
330
117
100
AcDbEntity
  8
Woods
 62
   250
420
  2301728
370
     9
100
AcDbVertex
100
AcDb2dVertex
 10
210.0622650551086
 20
503.0373959447425
 30
0.0
  0
VERTEX
  5
11B
330
117
100
AcDbEntity
  8
Woods
 62
   250
420
  2301728
370
     9
100
AcDbVertex
100
AcDb2dVertex
 10
378.5381960426093
 20
564.4499436791639
 30
0.0
  0
SEQEND
  5
11C
330
117
100
AcDbEntity
  8
Woods
 62
   250
420
  2301728
370
     9
  0
ENDBLK
  5
F8
330
F5
100
AcDbEntity
  8
0
100
AcDbBlockEnd
  0
BLOCK
  5
11F
330
11D
100
AcDbEntity
  8
0
100
AcDbBlockBegin
  2
block 15
 70
     0
 10
0.0
 20
0.0
 30
0.0
  3
block 15
  1

  0
POLYLINE
  5
121
330
11D
100
AcDbEntity
  8
Woods
 62
   250
420
  2301728
370
     9
100
AcDb2dPolyline
 66
     1
 10
0.0
 20
0.0
 30
0.0
  0
VERTEX
  5
122
330
121
100
AcDbEntity
  8
Woods
 62
   250
420
  2301728
370
     9
100
AcDbVertex
100
AcDb2dVertex
 10
205.8900223065166
 20
354.4334821682241
 30
0.0
  0
VERTEX
  5
123
330
121
100
AcDbEntity
  8
Woods
 62
   250
420
  2301728
370
     9
100
AcDbVertex
100
AcDb2dVertex
 10
205.8900223065166
 20
423.5664383089397
 30
0.0
  0
VERTEX
  5
124
330
121
100
AcDbEntity
  8
Woods
 62
   250
420
  2301728
370
     9
100
AcDbVertex
100
AcDb2dVertex
 10
209.8831396263367
 20
426.9160831114668
 30
0.0
  0
SEQEND
  5
125
330
121
100
AcDbEntity
  8
Woods
 62
   250
420
  2301728
370
     9
  0
POLYLINE
  5
126
330
11D
100
AcDbEntity
  8
Woods
 62
   250
420
  2301728
370
     9
100
AcDb2dPolyline
 66
     1
 10
0.0
 20
0.0
 30
0.0
  0
VERTEX
  5
127
330
126
100
AcDbEntity
  8
Woods
 62
   250
420
  2301728
370
     9
100
AcDbVertex
100
AcDb2dVertex
 10
207.9346008005105
 20
353.1028447331664
 30
0.0
  0
VERTEX
  5
128
330
126
100
AcDbEntity
  8
Woods
 62
   250
420
  2301728
370
     9
100
AcDbVertex
100
AcDb2dVertex
 10
207.9346008005105
 20
422.4456541764112
 30
0.0
  0
VERTEX
  5
129
330
126
100
AcDbEntity
  8
Woods
 62
   250
420
  2301728
370
     9
100
AcDbVertex
100
AcDb2dVertex
 10
212.5136866226912
 20
426.2585943344229
 30
0.0
  0
SEQEND
  5
12A
330
126
100
AcDbEntity
  8
Woods
 62
   250
420
  2301728
370
     9
  0
POLYLINE
  5
12B
330
11D
100
AcDbEntity
  8
Woods
 62
   250
420
  2301728
370
     9
100
AcDb2dPolyline
 66
     1
 10
0.0
 20
0.0
 30
0.0
  0
VERTEX
  5
12C
330
12B
100
AcDbEntity
  8
Woods
 62
   250
420
  2301728
370
     9
100
AcDbVertex
100
AcDb2dVertex
 10
209.9791792945043
 20
351.7722072981123
 30
0.0
  0
VERTEX
  5
12D
330
12B
100
AcDbEntity
  8
Woods
 62
   250
420
  2301728
370
     9
100
AcDbVertex
100
AcDb2dVertex
 10
209.9791792945043
 20
421.3248700438844
 30
0.0
  0
VERTEX
  5
12E
330
12B
100
AcDbEntity
  8
Woods
 62
   250
420
  2301728
370
     9
100
AcDbVertex
100
AcDb2dVertex
 10
215.1442336190457
 20
425.601105557379
 30
0.0
  0
SEQEND
  5
12F
330
12B
100
AcDbEntity
  8
Woods
 62
   250
420
  2301728
370
     9
  0
ENDBLK
  5
120
330
11D
100
AcDbEntity
  8
0
100
AcDbBlockEnd
  0
BLOCK
  5
137
330
135
100
AcDbEntity
  8
0
100
AcDbBlockBegin
  2
block 16
 70
     0
 10
0.0
 20
0.0
 30
0.0
  3
block 16
  1

  0
INSERT
  5
13A
330
135
100
AcDbEntity
  8
Woods
100
AcDbBlockReference
  2
block 17
 10
0.0
 20
0.0
 30
0.0
  0
INSERT
  5
14C
330
135
100
AcDbEntity
  8
Woods
100
AcDbBlockReference
  2
block 18
 10
0.0
 20
0.0
 30
0.0
  0
INSERT
  5
154
330
135
100
AcDbEntity
  8
Woods
100
AcDbBlockReference
  2
block 19
 10
0.0
 20
0.0
 30
0.0
  0
INSERT
  5
15C
330
135
100
AcDbEntity
  8
Woods
100
AcDbBlockReference
  2
block 20
 10
0.0
 20
0.0
 30
0.0
  0
INSERT
  5
164
330
135
100
AcDbEntity
  8
Woods
100
AcDbBlockReference
  2
block 21
 10
0.0
 20
0.0
 30
0.0
  0
INSERT
  5
16C
330
135
100
AcDbEntity
  8
Woods
100
AcDbBlockReference
  2
block 22
 10
0.0
 20
0.0
 30
0.0
  0
INSERT
  5
179
330
135
100
AcDbEntity
  8
Woods
100
AcDbBlockReference
  2
block 23
 10
0.0
 20
0.0
 30
0.0
  0
INSERT
  5
19B
330
135
100
AcDbEntity
  8
Woods
100
AcDbBlockReference
  2
block 24
 10
0.0
 20
0.0
 30
0.0
  0
ENDBLK
  5
138
330
135
100
AcDbEntity
  8
0
100
AcDbBlockEnd
  0
BLOCK
  5
13B
330
139
100
AcDbEntity
  8
0
100
AcDbBlockBegin
  2
block 17
 70
     0
 10
0.0
 20
0.0
 30
0.0
  3
block 17
  1

  0
POLYLINE
  5
13D
330
139
100
AcDbEntity
  8
Woods
 62
   250
420
  2301728
370
    20
100
AcDb2dPolyline
 66
     1
 10
0.0
 20
0.0
 30
0.0
  0
VERTEX
  5
13E
330
13D
100
AcDbEntity
  8
Woods
 62
   250
420
  2301728
370
    20
100
AcDbVertex
100
AcDb2dVertex
 10
295.9469132030936
 20
533.2879031432894
 30
0.0
  0
VERTEX
  5
13F
330
13D
100
AcDbEntity
  8
Woods
 62
   250
420
  2301728
370
    20
100
AcDbVertex
100
AcDb2dVertex
 10
311.3781501491594
 20
538.8989333924055
 30
0.0
  0
VERTEX
  5
140
330
13D
100
AcDbEntity
  8
Woods
 62
   250
420
  2301728
370
    20
100
AcDbVertex
100
AcDb2dVertex
 10
407.1733810933729
 20
504.0176151175247
 30
0.0
  0
VERTEX
  5
141
330
13D
100
AcDbEntity
  8
Woods
 62
   250
420
  2301728
370
    20
100
AcDbVertex
100
AcDb2dVertex
 10
407.1733810933729
 20
436.4998003723931
 30
0.0
  0
VERTEX
  5
142
330
13D
100
AcDbEntity
  8
Woods
 62
   250
420
  2301728
370
    20
100
AcDbVertex
100
AcDb2dVertex
 10
414.2659768633421
 20
430.9205825102226
 30
0.0
  0
VERTEX
  5
143
330
13D
100
AcDbEntity
  8
Woods
 62
   250
420
  2301728
370
    20
100
AcDbVertex
100
AcDb2dVertex
 10
403.238345480022
 20
424.9763657084286
 30
0.0
  0
VERTEX
  5
144
330
13D
100
AcDbEntity
  8
Woods
 62
   250
420
  2301728
370
    20
100
AcDbVertex
100
AcDb2dVertex
 10
407.1733810933729
 20
421.8809292397582
 30
0.0
  0
VERTEX
  5
145
330
13D
100
AcDbEntity
  8
Woods
 62
   250
420
  2301728
370
    20
100
AcDbVertex
100
AcDb2dVertex
 10
407.1733810933729
 20
352.9387819876101
 30
0.0
  0
VERTEX
  5
146
330
13D
100
AcDbEntity
  8
Woods
 62
   250
420
  2301728
370
    20
100
AcDbVertex
100
AcDb2dVertex
 10
391.8771660396305
 20
343.3366829435872
 30
0.0
  0
VERTEX
  5
147
330
13D
100
AcDbEntity
  8
Woods
 62
   250
420
  2301728
370
    20
100
AcDbVertex
100
AcDb2dVertex
 10
295.9469132030936
 20
394.0435792110584
 30
0.0
  0
VERTEX
  5
148
330
13D
100
AcDbEntity
  8
Woods
 62
   250
420
  2301728
370
    20
100
AcDbVertex
100
AcDb2dVertex
 10
295.9469132030936
 20
533.2879031432894
 30
0.0
  0
SEQEND
  5
14A
330
13D
100
AcDbEntity
  8
Woods
 62
   250
420
  2301728
370
    20
  0
HATCH
  5
149
330
139
100
AcDbEntity
  8
Woods
 62
    43
420
 15510365
100
AcDbHatch
 10
0.0
 20
0.0
 30
0.0
210
0.0
220
0.0
230
1.0
  2
SOLID
 70
     1
 71
     0
 91
        1
 92
        1
 93
       10
 72
     1
 10
295.9469132030936
 20
533.2879031432894
 11
311.3781501491594
 21
538.8989333924055
 72
     1
 10
311.3781501491594
 20
538.8989333924055
 11
407.1733810933729
 21
504.0176151175247
 72
     1
 10
407.1733810933729
 20
504.0176151175247
 11
407.1733810933729
 21
436.4998003723931
 72
     1
 10
407.1733810933729
 20
436.4998003723931
 11
414.2659768633421
 21
430.9205825102226
 72
     1
 10
414.2659768633421
 20
430.9205825102226
 11
403.238345480022
 21
424.9763657084286
 72
     1
 10
403.238345480022
 20
424.9763657084286
 11
407.1733810933729
 21
421.8809292397582
 72
     1
 10
407.1733810933729
 20
421.8809292397582
 11
407.1733810933729
 21
352.9387819876101
 72
     1
 10
407.1733810933729
 20
352.9387819876101
 11
391.8771660396305
 21
343.3366829435872
 72
     1
 10
391.8771660396305
 20
343.3366829435872
 11
295.9469132030936
 21
394.0435792110584
 72
     1
 10
295.9469132030936
 20
394.0435792110584
 11
295.9469132030936
 21
533.2879031432894
 97
        0
 75
     2
 76
     1
 98
        0
  0
ENDBLK
  5
13C
330
139
100
AcDbEntity
  8
0
100
AcDbBlockEnd
  0
BLOCK
  5
14D
330
14B
100
AcDbEntity
  8
0
100
AcDbBlockBegin
  2
block 18
 70
     0
 10
0.0
 20
0.0
 30
0.0
  3
block 18
  1

  0
POLYLINE
  5
14F
330
14B
100
AcDbEntity
  8
Woods
 62
   250
420
  2301728
370
    15
100
AcDb2dPolyline
 66
     1
 10
0.0
 20
0.0
 30
0.0
  0
VERTEX
  5
150
330
14F
100
AcDbEntity
  8
Woods
 62
   250
420
  2301728
370
    15
100
AcDbVertex
100
AcDb2dVertex
 10
391.8771660396305
 20
428.4442773899709
 30
0.0
  0
VERTEX
  5
151
330
14F
100
AcDbEntity
  8
Woods
 62
   250
420
  2301728
370
    15
100
AcDbVertex
100
AcDb2dVertex
 10
407.1733810933729
 20
436.4998003723931
 30
0.0
  0
SEQEND
  5
152
330
14F
100
AcDbEntity
  8
Woods
 62
   250
420
  2301728
370
    15
  0
ENDBLK
  5
14E
330
14B
100
AcDbEntity
  8
0
100
AcDbBlockEnd
  0
BLOCK
  5
155
330
153
100
AcDbEntity
  8
0
100
AcDbBlockBegin
  2
block 19
 70
     0
 10
0.0
 20
0.0
 30
0.0
  3
block 19
  1

  0
POLYLINE
  5
157
330
153
100
AcDbEntity
  8
Woods
 62
   250
420
  2301728
370
    15
100
AcDb2dPolyline
 66
     1
 10
0.0
 20
0.0
 30
0.0
  0
VERTEX
  5
158
330
157
100
AcDbEntity
  8
Woods
 62
   250
420
  2301728
370
    15
100
AcDbVertex
100
AcDb2dVertex
 10
414.2659768633421
 20
430.9205825102226
 30
0.0
  0
VERTEX
  5
159
330
157
100
AcDbEntity
  8
Woods
 62
   250
420
  2301728
370
    15
100
AcDbVertex
100
AcDb2dVertex
 10
398.9927775895485
 20
422.6878621224796
 30
0.0
  0
SEQEND
  5
15A
330
157
100
AcDbEntity
  8
Woods
 62
   250
420
  2301728
370
    15
  0
ENDBLK
  5
156
330
153
100
AcDbEntity
  8
0
100
AcDbBlockEnd
  0
BLOCK
  5
15D
330
15B
100
AcDbEntity
  8
0
100
AcDbBlockBegin
  2
block 20
 70
     0
 10
0.0
 20
0.0
 30
0.0
  3
block 20
  1

  0
POLYLINE
  5
15F
330
15B
100
AcDbEntity
  8
Woods
 62
   250
420
  2301728
370
    15
100
AcDb2dPolyline
 66
     1
 10
0.0
 20
0.0
 30
0.0
  0
VERTEX
  5
160
330
15F
100
AcDbEntity
  8
Woods
 62
   250
420
  2301728
370
    15
100
AcDbVertex
100
AcDb2dVertex
 10
391.8771660396305
 20
497.1800004489896
 30
0.0
  0
VERTEX
  5
161
330
15F
100
AcDbEntity
  8
Woods
 62
   250
420
  2301728
370
    15
100
AcDbVertex
100
AcDb2dVertex
 10
407.1733810933729
 20
504.0176151175247
 30
0.0
  0
SEQEND
  5
162
330
15F
100
AcDbEntity
  8
Woods
 62
   250
420
  2301728
370
    15
  0
ENDBLK
  5
15E
330
15B
100
AcDbEntity
  8
0
100
AcDbBlockEnd
  0
BLOCK
  5
165
330
163
100
AcDbEntity
  8
0
100
AcDbBlockBegin
  2
block 21
 70
     0
 10
0.0
 20
0.0
 30
0.0
  3
block 21
  1

  0
POLYLINE
  5
167
330
163
100
AcDbEntity
  8
Woods
 62
   250
420
  2301728
370
    15
100
AcDb2dPolyline
 66
     1
 10
0.0
 20
0.0
 30
0.0
  0
VERTEX
  5
168
330
167
100
AcDbEntity
  8
Woods
 62
   250
420
  2301728
370
    15
100
AcDbVertex
100
AcDb2dVertex
 10
391.8771660396305
 20
413.4966730765154
 30
0.0
  0
VERTEX
  5
169
330
167
100
AcDbEntity
  8
Woods
 62
   250
420
  2301728
370
    15
100
AcDbVertex
100
AcDb2dVertex
 10
407.1733810933729
 20
421.8809292397582
 30
0.0
  0
SEQEND
  5
16A
330
167
100
AcDbEntity
  8
Woods
 62
   250
420
  2301728
370
    15
  0
ENDBLK
  5
166
330
163
100
AcDbEntity
  8
0
100
AcDbBlockEnd
  0
BLOCK
  5
16D
330
16B
100
AcDbEntity
  8
0
100
AcDbBlockBegin
  2
block 22
 70
     0
 10
0.0
 20
0.0
 30
0.0
  3
block 22
  1

  0
POLYLINE
  5
16F
330
16B
100
AcDbEntity
  8
Woods
 62
   250
420
  2301728
370
    15
100
AcDb2dPolyline
 66
     1
 10
0.0
 20
0.0
 30
0.0
  0
VERTEX
  5
170
330
16F
100
AcDbEntity
  8
Woods
 62
   250
420
  2301728
370
    15
100
AcDbVertex
100
AcDb2dVertex
 10
295.9469132030936
 20
533.2879031432894
 30
0.0
  0
VERTEX
  5
171
330
16F
100
AcDbEntity
  8
Woods
 62
   250
420
  2301728
370
    15
100
AcDbVertex
100
AcDb2dVertex
 10
391.8771660396305
 20
497.1800004489896
 30
0.0
  0
VERTEX
  5
172
330
16F
100
AcDbEntity
  8
Woods
 62
   250
420
  2301728
370
    15
100
AcDbVertex
100
AcDb2dVertex
 10
391.8771660396305
 20
428.4442773899709
 30
0.0
  0
VERTEX
  5
173
330
16F
100
AcDbEntity
  8
Woods
 62
   250
420
  2301728
370
    15
100
AcDbVertex
100
AcDb2dVertex
 10
398.9927775895485
 20
422.6878621224796
 30
0.0
  0
VERTEX
  5
174
330
16F
100
AcDbEntity
  8
Woods
 62
   250
420
  2301728
370
    15
100
AcDbVertex
100
AcDb2dVertex
 10
385.8831218817686
 20
418.2117749281124
 30
0.0
  0
VERTEX
  5
175
330
16F
100
AcDbEntity
  8
Woods
 62
   250
420
  2301728
370
    15
100
AcDbVertex
100
AcDb2dVertex
 10
391.8771660396305
 20
413.4966730765154
 30
0.0
  0
VERTEX
  5
176
330
16F
100
AcDbEntity
  8
Woods
 62
   250
420
  2301728
370
    15
100
AcDbVertex
100
AcDb2dVertex
 10
391.8771660396305
 20
343.3366829435872
 30
0.0
  0
SEQEND
  5
177
330
16F
100
AcDbEntity
  8
Woods
 62
   250
420
  2301728
370
    15
  0
ENDBLK
  5
16E
330
16B
100
AcDbEntity
  8
0
100
AcDbBlockEnd
  0
BLOCK
  5
17A
330
178
100
AcDbEntity
  8
0
100
AcDbBlockBegin
  2
block 23
 70
     0
 10
0.0
 20
0.0
 30
0.0
  3
block 23
  1

  0
POLYLINE
  5
17C
330
178
100
AcDbEntity
  8
Woods
 62
   250
420
  2301728
370
     9
100
AcDb2dPolyline
 66
     1
 10
0.0
 20
0.0
 30
0.0
  0
VERTEX
  5
17D
330
17C
100
AcDbEntity
  8
Woods
 62
   250
420
  2301728
370
     9
100
AcDbVertex
100
AcDb2dVertex
 10
401.2862217355905
 20
423.8981788440278
 30
0.0
  0
VERTEX
  5
17E
330
17C
100
AcDbEntity
  8
Woods
 62
   250
420
  2301728
370
     9
100
AcDbVertex
100
AcDb2dVertex
 10
405.2255351509739
 20
420.7565851316158
 30
0.0
  0
VERTEX
  5
17F
330
17C
100
AcDbEntity
  8
Woods
 62
   250
420
  2301728
370
     9
100
AcDbVertex
100
AcDb2dVertex
 10
405.2255351509739
 20
351.7309992070805
 30
0.0
  0
SEQEND
  5
180
330
17C
100
AcDbEntity
  8
Woods
 62
   250
420
  2301728
370
     9
  0
POLYLINE
  5
181
330
178
100
AcDbEntity
  8
Woods
 62
   250
420
  2301728
370
     9
100
AcDb2dPolyline
 66
     1
 10
0.0
 20
0.0
 30
0.0
  0
VERTEX
  5
182
330
181
100
AcDbEntity
  8
Woods
 62
   250
420
  2301728
370
     9
100
AcDbVertex
100
AcDb2dVertex
 10
399.0372426303948
 20
422.6679793806388
 30
0.0
  0
VERTEX
  5
183
330
181
100
AcDbEntity
  8
Woods
 62
   250
420
  2301728
370
     9
100
AcDbVertex
100
AcDb2dVertex
 10
402.9765560457781
 20
419.5263856682268
 30
0.0
  0
VERTEX
  5
184
330
181
100
AcDbEntity
  8
Woods
 62
   250
420
  2301728
370
     9
100
AcDbVertex
100
AcDb2dVertex
 10
402.9765560457781
 20
350.3127537962209
 30
0.0
  0
SEQEND
  5
185
330
181
100
AcDbEntity
  8
Woods
 62
   250
420
  2301728
370
     9
  0
POLYLINE
  5
186
330
178
100
AcDbEntity
  8
Woods
 62
   250
420
  2301728
370
     9
100
AcDb2dPolyline
 66
     1
 10
0.0
 20
0.0
 30
0.0
  0
VERTEX
  5
187
330
186
100
AcDbEntity
  8
Woods
 62
   250
420
  2301728
370
     9
100
AcDbVertex
100
AcDb2dVertex
 10
396.351626464213
 20
421.7860894038713
 30
0.0
  0
VERTEX
  5
188
330
186
100
AcDbEntity
  8
Woods
 62
   250
420
  2301728
370
     9
100
AcDbVertex
100
AcDb2dVertex
 10
400.727637191314
 20
418.2961862048378
 30
0.0
  0
VERTEX
  5
189
330
186
100
AcDbEntity
  8
Woods
 62
   250
420
  2301728
370
     9
100
AcDbVertex
100
AcDb2dVertex
 10
400.727637191314
 20
348.8944515448638
 30
0.0
  0
SEQEND
  5
18A
330
186
100
AcDbEntity
  8
Woods
 62
   250
420
  2301728
370
     9
  0
POLYLINE
  5
18B
330
178
100
AcDbEntity
  8
Woods
 62
   250
420
  2301728
370
     9
100
AcDb2dPolyline
 66
     1
 10
0.0
 20
0.0
 30
0.0
  0
VERTEX
  5
18C
330
18B
100
AcDbEntity
  8
Woods
 62
   250
420
  2301728
370
     9
100
AcDbVertex
100
AcDb2dVertex
 10
393.6968056720507
 20
420.879617128101
 30
0.0
  0
VERTEX
  5
18D
330
18B
100
AcDbEntity
  8
Woods
 62
   250
420
  2301728
370
     9
100
AcDbVertex
100
AcDb2dVertex
 10
398.4787183368462
 20
417.0660469921813
 30
0.0
  0
VERTEX
  5
18E
330
18B
100
AcDbEntity
  8
Woods
 62
   250
420
  2301728
370
     9
100
AcDbVertex
100
AcDb2dVertex
 10
398.4787183368462
 20
347.4761492935104
 30
0.0
  0
SEQEND
  5
18F
330
18B
100
AcDbEntity
  8
Woods
 62
   250
420
  2301728
370
     9
  0
POLYLINE
  5
190
330
178
100
AcDbEntity
  8
Woods
 62
   250
420
  2301728
370
     9
100
AcDb2dPolyline
 66
     1
 10
0.0
 20
0.0
 30
0.0
  0
VERTEX
  5
191
330
190
100
AcDbEntity
  8
Woods
 62
   250
420
  2301728
370
     9
100
AcDbVertex
100
AcDb2dVertex
 10
391.0419101300904
 20
419.9731448523298
 30
0.0
  0
VERTEX
  5
192
330
190
100
AcDbEntity
  8
Woods
 62
   250
420
  2301728
370
     9
100
AcDbVertex
100
AcDb2dVertex
 10
396.2297994823821
 20
415.8358475287923
 30
0.0
  0
VERTEX
  5
193
330
190
100
AcDbEntity
  8
Woods
 62
   250
420
  2301728
370
     9
100
AcDbVertex
100
AcDb2dVertex
 10
396.2297994823821
 20
346.0579072928849
 30
0.0
  0
SEQEND
  5
194
330
190
100
AcDbEntity
  8
Woods
 62
   250
420
  2301728
370
     9
  0
POLYLINE
  5
195
330
178
100
AcDbEntity
  8
Woods
 62
   250
420
  2301728
370
     9
100
AcDb2dPolyline
 66
     1
 10
0.0
 20
0.0
 30
0.0
  0
VERTEX
  5
196
330
195
100
AcDbEntity
  8
Woods
 62
   250
420
  2301728
370
     9
100
AcDbVertex
100
AcDb2dVertex
 10
388.3870820883967
 20
419.0666725765604
 30
0.0
  0
VERTEX
  5
197
330
195
100
AcDbEntity
  8
Woods
 62
   250
420
  2301728
370
     9
100
AcDbVertex
100
AcDb2dVertex
 10
393.9808203771863
 20
414.6057083161368
 30
0.0
  0
VERTEX
  5
198
330
195
100
AcDbEntity
  8
Woods
 62
   250
420
  2301728
370
     9
100
AcDbVertex
100
AcDb2dVertex
 10
393.9808203771863
 20
344.6396050415315
 30
0.0
  0
SEQEND
  5
199
330
195
100
AcDbEntity
  8
Woods
 62
   250
420
  2301728
370
     9
  0
ENDBLK
  5
17B
330
178
100
AcDbEntity
  8
0
100
AcDbBlockEnd
  0
BLOCK
  5
19C
330
19A
100
AcDbEntity
  8
0
100
AcDbBlockBegin
  2
block 24
 70
     0
 10
0.0
 20
0.0
 30
0.0
  3
block 24
  1

  0
POLYLINE
  5
19E
330
19A
100
AcDbEntity
  8
Woods
 62
   250
420
  2301728
370
     9
100
AcDb2dPolyline
 66
     1
 10
0.0
 20
0.0
 30
0.0
  0
VERTEX
  5
19F
330
19E
100
AcDbEntity
  8
Woods
 62
   250
420
  2301728
370
     9
100
AcDbVertex
100
AcDb2dVertex
 10
309.2723267852198
 20
538.0985707754689
 30
0.0
  0
VERTEX
  5
1A0
330
19E
100
AcDbEntity
  8
Woods
 62
   250
420
  2301728
370
     9
100
AcDbVertex
100
AcDb2dVertex
 10
405.2445743825556
 20
503.1117453490824
 30
0.0
  0
VERTEX
  5
1A1
330
19E
100
AcDbEntity
  8
Woods
 62
   250
420
  2301728
370
     9
100
AcDbVertex
100
AcDb2dVertex
 10
405.2445743825556
 20
435.547959294785
 30
0.0
  0
VERTEX
  5
1A2
330
19E
100
AcDbEntity
  8
Woods
 62
   250
420
  2301728
370
     9
100
AcDbVertex
100
AcDb2dVertex
 10
412.2528268448259
 20
429.8783653333339
 30
0.0
  0
SEQEND
  5
1A3
330
19E
100
AcDbEntity
  8
Woods
 62
   250
420
  2301728
370
     9
  0
POLYLINE
  5
1A4
330
19A
100
AcDbEntity
  8
Woods
 62
   250
420
  2301728
370
     9
100
AcDb2dPolyline
 66
     1
 10
0.0
 20
0.0
 30
0.0
  0
VERTEX
  5
1A5
330
1A4
100
AcDbEntity
  8
Woods
 62
   250
420
  2301728
370
     9
100
AcDbVertex
100
AcDb2dVertex
 10
307.087972583533
 20
537.3092724895332
 30
0.0
  0
VERTEX
  5
1A6
330
1A4
100
AcDbEntity
  8
Woods
 62
   250
420
  2301728
370
     9
100
AcDbVertex
100
AcDb2dVertex
 10
403.0243709942843
 20
502.1145836553633
 30
0.0
  0
VERTEX
  5
1A7
330
1A4
100
AcDbEntity
  8
Woods
 62
   250
420
  2301728
370
     9
100
AcDbVertex
100
AcDb2dVertex
 10
403.0243709942843
 20
434.3443062863553
 30
0.0
  0
VERTEX
  5
1A8
330
1A4
100
AcDbEntity
  8
Woods
 62
   250
420
  2301728
370
     9
100
AcDbVertex
100
AcDb2dVertex
 10
410.0326219128983
 20
428.6747123249042
 30
0.0
  0
SEQEND
  5
1A9
330
1A4
100
AcDbEntity
  8
Woods
 62
   250
420
  2301728
370
     9
  0
POLYLINE
  5
1AA
330
19A
100
AcDbEntity
  8
Woods
 62
   250
420
  2301728
370
     9
100
AcDb2dPolyline
 66
     1
 10
0.0
 20
0.0
 30
0.0
  0
VERTEX
  5
1AB
330
1AA
100
AcDbEntity
  8
Woods
 62
   250
420
  2301728
370
     9
100
AcDbVertex
100
AcDb2dVertex
 10
304.9036184360921
 20
536.5199742231989
 30
0.0
  0
VERTEX
  5
1AC
330
1AA
100
AcDbEntity
  8
Woods
 62
   250
420
  2301728
370
     9
100
AcDbVertex
100
AcDb2dVertex
 10
400.8041676611538
 20
501.1174219864079
 30
0.0
  0
VERTEX
  5
1AD
330
1AA
100
AcDbEntity
  8
Woods
 62
   250
420
  2301728
370
     9
100
AcDbVertex
100
AcDb2dVertex
 10
400.8041676611538
 20
433.140653307818
 30
0.0
  0
VERTEX
  5
1AE
330
1AA
100
AcDbEntity
  8
Woods
 62
   250
420
  2301728
370
     9
100
AcDbVertex
100
AcDb2dVertex
 10
407.8124170361079
 20
427.4710593463669
 30
0.0
  0
SEQEND
  5
1AF
330
1AA
100
AcDbEntity
  8
Woods
 62
   250
420
  2301728
370
     9
  0
POLYLINE
  5
1B0
330
19A
100
AcDbEntity
  8
Woods
 62
   250
420
  2301728
370
     9
100
AcDb2dPolyline
 66
     1
 10
0.0
 20
0.0
 30
0.0
  0
VERTEX
  5
1B1
330
1B0
100
AcDbEntity
  8
Woods
 62
   250
420
  2301728
370
     9
100
AcDbVertex
100
AcDb2dVertex
 10
302.7192642886521
 20
535.7306759568655
 30
0.0
  0
VERTEX
  5
1B2
330
1B0
100
AcDbEntity
  8
Woods
 62
   250
420
  2301728
370
     9
100
AcDbVertex
100
AcDb2dVertex
 10
398.5839643280233
 20
500.1202603174515
 30
0.0
  0
VERTEX
  5
1B3
330
1B0
100
AcDbEntity
  8
Woods
 62
   250
420
  2301728
370
     9
100
AcDbVertex
100
AcDb2dVertex
 10
398.5839643280233
 20
431.9370003292825
 30
0.0
  0
VERTEX
  5
1B4
330
1B0
100
AcDbEntity
  8
Woods
 62
   250
420
  2301728
370
     9
100
AcDbVertex
100
AcDb2dVertex
 10
405.5922121593176
 20
426.2674063678314
 30
0.0
  0
SEQEND
  5
1B5
330
1B0
100
AcDbEntity
  8
Woods
 62
   250
420
  2301728
370
     9
  0
POLYLINE
  5
1B6
330
19A
100
AcDbEntity
  8
Woods
 62
   250
420
  2301728
370
     9
100
AcDb2dPolyline
 66
     1
 10
0.0
 20
0.0
 30
0.0
  0
VERTEX
  5
1B7
330
1B6
100
AcDbEntity
  8
Woods
 62
   250
420
  2301728
370
     9
100
AcDbVertex
100
AcDb2dVertex
 10
300.534910141213
 20
534.9413776905321
 30
0.0
  0
VERTEX
  5
1B8
330
1B6
100
AcDbEntity
  8
Woods
 62
   250
420
  2301728
370
     9
100
AcDbVertex
100
AcDb2dVertex
 10
396.3637609948928
 20
499.1230986484979
 30
0.0
  0
VERTEX
  5
1B9
330
1B6
100
AcDbEntity
  8
Woods
 62
   250
420
  2301728
370
     9
100
AcDbVertex
100
AcDb2dVertex
 10
396.3637609948928
 20
430.7333473507442
 30
0.0
  0
VERTEX
  5
1BA
330
1B6
100
AcDbEntity
  8
Woods
 62
   250
420
  2301728
370
     9
100
AcDbVertex
100
AcDb2dVertex
 10
403.3720072825272
 20
425.0637533892941
 30
0.0
  0
SEQEND
  5
1BB
330
1B6
100
AcDbEntity
  8
Woods
 62
   250
420
  2301728
370
     9
  0
POLYLINE
  5
1BC
330
19A
100
AcDbEntity
  8
Woods
 62
   250
420
  2301728
370
     9
100
AcDb2dPolyline
 66
     1
 10
0.0
 20
0.0
 30
0.0
  0
VERTEX
  5
1BD
330
1BC
100
AcDbEntity
  8
Woods
 62
   250
420
  2301728
370
     9
100
AcDbVertex
100
AcDb2dVertex
 10
298.3505559395244
 20
534.1520794045955
 30
0.0
  0
VERTEX
  5
1BE
330
1BC
100
AcDbEntity
  8
Woods
 62
   250
420
  2301728
370
     9
100
AcDbVertex
100
AcDb2dVertex
 10
394.1435576066215
 20
498.1259369547788
 30
0.0
  0
VERTEX
  5
1BF
330
1BC
100
AcDbEntity
  8
Woods
 62
   250
420
  2301728
370
     9
100
AcDbVertex
100
AcDb2dVertex
 10
394.1435576066215
 20
429.5296943423145
 30
0.0
  0
VERTEX
  5
1C0
330
1BC
100
AcDbEntity
  8
Woods
 62
   250
420
  2301728
370
     9
100
AcDbVertex
100
AcDb2dVertex
 10
401.151802350596
 20
423.8601003808644
 30
0.0
  0
SEQEND
  5
1C1
330
1BC
100
AcDbEntity
  8
Woods
 62
   250
420
  2301728
370
     9
  0
ENDBLK
  5
19D
330
19A
100
AcDbEntity
  8
0
100
AcDbBlockEnd
  0
BLOCK
  5
1D2
330
1D0
100
AcDbEntity
  8
0
100
AcDbBlockBegin
  2
block 25
 70
     0
 10
0.0
 20
0.0
 30
0.0
  3
block 25
  1

  0
INSERT
  5
1D5
330
1D0
100
AcDbEntity
  8
ITSE
100
AcDbBlockReference
  2
block 26
 10
0.0
 20
0.0
 30
0.0
  0
SPLINE
  5
1DC
330
1D0
100
AcDbEntity
  8
ITSE
 62
   250
420
  2301728
370
    25
100
AcDbSpline
210
0.0
220
0.0
230
1.0
 70
     8
 71
     3
 72
    29
 73
    25
 74
     0
 42
0.0000000001
 43
0.0000000001
 12
1.0
 22
0.0
 32
0.0
 13
1.0
 23
0.0
 33
0.0
 40
0.0
 40
0.0
 40
0.0
 40
0.0
 40
1.0
 40
1.0
 40
1.0
 40
2.0
 40
2.0
 40
2.0
 40
3.0
 40
3.0
 40
3.0
 40
4.0
 40
4.0
 40
4.0
 40
5.0
 40
5.0
 40
5.0
 40
6.0
 40
6.0
 40
6.0
 40
7.0
 40
7.0
 40
7.0
 40
8.0
 40
8.0
 40
8.0
 40
8.0
 10
300.1075344918281
 20
525.157681921929
 30
0.0
 10
300.1075344918281
 20
525.157681921929
 30
0.0
 10
299.863393837808
 20
523.4963205035901
 30
0.0
 10
300.4949023558129
 20
522.6164299175216
 30
0.0
 10
300.4949023558129
 20
522.6164299175216
 30
0.0
 10
303.2270403142466
 20
517.4509473054386
 30
0.0
 10
303.2270403142466
 20
517.4509473054386
 30
0.0
 10
303.2270403142466
 20
517.4509473054386
 30
0.0
 10
307.3117021329654
 20
499.1092930074628
 30
0.0
 10
307.3117021329654
 20
499.1092930074628
 30
0.0
 10
307.3117021329654
 20
499.1092930074628
 30
0.0
 10
309.6638834754922
 20
430.5226416735304
 30
0.0
 10
309.6638834754922
 20
430.5226416735304
 30
0.0
 10
309.6638834754922
 20
430.5226416735304
 30
0.0
 10
324.5018648034093
 20
379.0419312120721
 30
0.0
 10
324.5018648034093
 20
379.0419312120721
 30
0.0
 10
324.5018648034093
 20
379.0419312120721
 30
0.0
 10
323.6116595287858
 20
378.7111860470814
 30
0.0
 10
323.6116595287858
 20
378.7111860470814
 30
0.0
 10
323.6116595287858
 20
378.7111860470814
 30
0.0
 10
323.9372782318023
 20
377.9704619598851
 30
0.0
 10
323.9372782318023
 20
377.9704619598851
 30
0.0
 10
323.9372782318023
 20
377.9704619598851
 30
0.0
 10
324.4338462238265
 20
376.6351694891018
 30
0.0
 10
325.7794225008602
 20
376.8318746171972
 30
0.0
  0
POLYLINE
  5
1DD
330
1D0
100
AcDbEntity
  8
ITSE
 62
   250
420
  2301728
370
    25
100
AcDb2dPolyline
 66
     1
 10
0.0
 20
0.0
 30
0.0
  0
VERTEX
  5
1DE
330
1DD
100
AcDbEntity
  8
ITSE
 62
   250
420
  2301728
370
    25
100
AcDbVertex
100
AcDb2dVertex
 10
309.8245798405569
 20
430.2270356647932
 30
0.0
  0
VERTEX
  5
1DF
330
1DD
100
AcDbEntity
  8
ITSE
 62
   250
420
  2301728
370
    25
100
AcDbVertex
100
AcDb2dVertex
 10
311.0094906348331
 20
430.718446312545
 30
0.0
  0
SEQEND
  5
1E0
330
1DD
100
AcDbEntity
  8
ITSE
 62
   250
420
  2301728
370
    25
  0
POLYLINE
  5
1E1
330
1D0
100
AcDbEntity
  8
ITSE
 62
   250
420
  2301728
370
    30
100
AcDb2dPolyline
 66
     1
 10
0.0
 20
0.0
 30
0.0
  0
VERTEX
  5
1E2
330
1E1
100
AcDbEntity
  8
ITSE
 62
   250
420
  2301728
370
    30
100
AcDbVertex
100
AcDb2dVertex
 10
324.6522464799091
 20
379.0470885563482
 30
0.0
  0
VERTEX
  5
1E3
330
1E1
100
AcDbEntity
  8
ITSE
 62
   250
420
  2301728
370
    30
100
AcDbVertex
100
AcDb2dVertex
 10
326.1370201381214
 20
379.5487830103521
 30
0.0
  0
SEQEND
  5
1E4
330
1E1
100
AcDbEntity
  8
ITSE
 62
   250
420
  2301728
370
    30
  0
POLYLINE
  5
1E5
330
1D0
100
AcDbEntity
  8
ITSE
 62
   250
420
  2301728
370
    25
100
AcDb2dPolyline
 66
     1
 10
0.0
 20
0.0
 30
0.0
  0
VERTEX
  5
1E6
330
1E5
100
AcDbEntity
  8
ITSE
 62
   250
420
  2301728
370
    25
100
AcDbVertex
100
AcDb2dVertex
 10
307.3117021329654
 20
499.1092930074628
 30
0.0
  0
VERTEX
  5
1E7
330
1E5
100
AcDbEntity
  8
ITSE
 62
   250
420
  2301728
370
    25
100
AcDbVertex
100
AcDb2dVertex
 10
308.6572784100044
 20
499.3059981355582
 30
0.0
  0
SEQEND
  5
1E8
330
1E5
100
AcDbEntity
  8
ITSE
 62
   250
420
  2301728
370
    25
  0
POLYLINE
  5
1E9
330
1D0
100
AcDbEntity
  8
ITSE
 62
   250
420
  2301728
370
    25
100
AcDb2dPolyline
 66
     1
 10
0.0
 20
0.0
 30
0.0
  0
VERTEX
  5
1EA
330
1E9
100
AcDbEntity
  8
ITSE
 62
   250
420
  2301728
370
    25
100
AcDbVertex
100
AcDb2dVertex
 10
303.2270403142466
 20
517.4509473054386
 30
0.0
  0
VERTEX
  5
1EB
330
1E9
100
AcDbEntity
  8
ITSE
 62
   250
420
  2301728
370
    25
100
AcDbVertex
100
AcDb2dVertex
 10
304.7169558755804
 20
517.802710327478
 30
0.0
  0
SEQEND
  5
1EC
330
1E9
100
AcDbEntity
  8
ITSE
 62
   250
420
  2301728
370
    25
  0
SPLINE
  5
1ED
330
1D0
100
AcDbEntity
  8
ITSE
 62
   250
420
  2301728
370
    25
100
AcDbSpline
210
0.0
220
0.0
230
1.0
 70
     8
 71
     3
 72
    23
 73
    19
 74
     0
 42
0.0000000001
 43
0.0000000001
 12
1.0
 22
0.0
 32
0.0
 13
1.0
 23
0.0
 33
0.0
 40
0.0
 40
0.0
 40
0.0
 40
0.0
 40
1.0
 40
1.0
 40
1.0
 40
2.0
 40
2.0
 40
2.0
 40
3.0
 40
3.0
 40
3.0
 40
4.0
 40
4.0
 40
4.0
 40
5.0
 40
5.0
 40
5.0
 40
6.0
 40
6.0
 40
6.0
 40
6.0
 10
277.2943325316846
 20
520.0176692724908
 30
0.0
 10
277.2943325316846
 20
520.0176692724908
 30
0.0
 10
277.7347280692611
 20
520.3334389726433
 30
0.0
 10
278.5260170220918
 20
519.1583617400784
 30
0.0
 10
278.5260170220918
 20
519.1583617400784
 30
0.0
 10
287.3407116743456
 20
498.7250535894909
 30
0.0
 10
287.3407116743456
 20
498.7250535894909
 30
0.0
 10
287.3407116743456
 20
498.7250535894909
 30
0.0
 10
289.6826246517721
 20
430.4378148749483
 30
0.0
 10
289.6826246517721
 20
430.4378148749483
 30
0.0
 10
289.6826246517721
 20
430.4378148749483
 30
0.0
 10
289.6197325341673
 20
427.8815719645509
 30
0.0
 10
291.2443770362261
 20
424.3310964369193
 30
0.0
 10
291.2443770362261
 20
424.3310964369193
 30
0.0
 10
303.2514993343138
 20
402.8055089540821
 30
0.0
 10
303.2514993343138
 20
402.8055089540821
 30
0.0
 10
303.2514993343138
 20
402.8055089540821
 30
0.0
 10
304.0633713408024
 20
401.0302557491141
 30
0.0
 10
304.2343515121174
 20
400.4347868764471
 30
0.0
  0
POLYLINE
  5
1EE
330
1D0
100
AcDbEntity
  8
ITSE
 62
   250
420
  2301728
370
    25
100
AcDb2dPolyline
 66
     1
 10
0.0
 20
0.0
 30
0.0
  0
VERTEX
  5
1EF
330
1EE
100
AcDbEntity
  8
ITSE
 62
   250
420
  2301728
370
    25
100
AcDbVertex
100
AcDb2dVertex
 10
285.9642376550992
 20
499.4292877868083
 30
0.0
  0
VERTEX
  5
1F0
330
1EE
100
AcDbEntity
  8
ITSE
 62
   250
420
  2301728
370
    25
100
AcDbVertex
100
AcDb2dVertex
 10
287.3407116743456
 20
498.7250535894909
 30
0.0
  0
SEQEND
  5
1F1
330
1EE
100
AcDbEntity
  8
ITSE
 62
   250
420
  2301728
370
    25
  0
SPLINE
  5
1F2
330
1D0
100
AcDbEntity
  8
ITSE
 62
   250
420
  2301728
370
    25
100
AcDbSpline
210
0.0
220
0.0
230
1.0
 70
     8
 71
     3
 72
    14
 73
    10
 74
     0
 42
0.0000000001
 43
0.0000000001
 12
1.0
 22
0.0
 32
0.0
 13
1.0
 23
0.0
 33
0.0
 40
0.0
 40
0.0
 40
0.0
 40
0.0
 40
1.0
 40
1.0
 40
1.0
 40
2.0
 40
2.0
 40
2.0
 40
3.0
 40
3.0
 40
3.0
 40
3.0
 10
254.0271332293914
 20
532.4759444044576
 30
0.0
 10
254.0271332293914
 20
532.4759444044576
 30
0.0
 10
273.4762001007675
 20
526.1975636343759
 30
0.0
 10
273.4762001007675
 20
526.1975636343759
 30
0.0
 10
273.4762001007675
 20
526.1975636343759
 30
0.0
 10
274.0768263177069
 20
526.218162129182
 30
0.0
 10
274.1282916724249
 20
524.7174970759052
 30
0.0
 10
274.1282916724249
 20
524.7174970759052
 30
0.0
 10
274.2157966724772
 20
522.1659612652475
 30
0.0
 10
274.2157966724772
 20
522.1659612652475
 30
0.0
  0
INSERT
  5
1F4
330
1D0
100
AcDbEntity
  8
ITSE
100
AcDbBlockReference
  2
block 27
 10
0.0
 20
0.0
 30
0.0
  0
INSERT
  5
204
330
1D0
100
AcDbEntity
  8
ITSE
100
AcDbBlockReference
  2
block 28
 10
0.0
 20
0.0
 30
0.0
  0
SPLINE
  5
20C
330
1D0
100
AcDbEntity
  8
ITSE
 62
   250
420
  2301728
370
    25
100
AcDbSpline
210
0.0
220
0.0
230
1.0
 70
     8
 71
     3
 72
    11
 73
     7
 74
     0
 42
0.0000000001
 43
0.0000000001
 12
1.0
 22
0.0
 32
0.0
 13
1.0
 23
0.0
 33
0.0
 40
0.0
 40
0.0
 40
0.0
 40
0.0
 40
1.0
 40
1.0
 40
1.0
 40
2.0
 40
2.0
 40
2.0
 40
2.0
 10
315.2387652282232
 20
540.786368340091
 30
0.0
 10
315.2387652282232
 20
540.786368340091
 30
0.0
 10
316.3245271305732
 20
540.2502861112243
 30
0.0
 10
316.5552582603468
 20
538.9102259522479
 30
0.0
 10
316.5552582603468
 20
538.9102259522479
 30
0.0
 10
316.6547975206886
 20
537.2612100731185
 30
0.0
 10
316.6547975206886
 20
537.2612100731185
 30
0.0
  0
SPLINE
  5
20D
330
1D0
100
AcDbEntity
  8
ITSE
 62
   250
420
  2301728
370
    25
100
AcDbSpline
210
0.0
220
0.0
230
1.0
 70
     8
 71
     3
 72
    11
 73
     7
 74
     0
 42
0.0000000001
 43
0.0000000001
 12
1.0
 22
0.0
 32
0.0
 13
1.0
 23
0.0
 33
0.0
 40
0.0
 40
0.0
 40
0.0
 40
0.0
 40
1.0
 40
1.0
 40
1.0
 40
2.0
 40
2.0
 40
2.0
 40
2.0
 10
322.4690971584987
 20
535.6565680075882
 30
0.0
 10
322.4690971584987
 20
535.6565680075882
 30
0.0
 10
322.1433619187774
 20
541.0528566766825
 30
0.0
 10
322.1433619187774
 20
541.0528566766825
 30
0.0
 10
322.1433619187774
 20
541.0528566766825
 30
0.0
 10
321.7353166290068
 20
542.8330915698534
 30
0.0
 10
320.3681390113288
 20
543.0516014717787
 30
0.0
  0
SPLINE
  5
20E
330
1D0
100
AcDbEntity
  8
ITSE
 62
   250
420
  2301728
370
    15
100
AcDbSpline
210
0.0
220
0.0
230
1.0
 70
     8
 71
     3
 72
     8
 73
     4
 74
     0
 42
0.0000000001
 43
0.0000000001
 12
1.0
 22
0.0
 32
0.0
 13
1.0
 23
0.0
 33
0.0
 40
0.0
 40
0.0
 40
0.0
 40
0.0
 40
1.0
 40
1.0
 40
1.0
 40
1.0
 10
318.6779545348709
 20
541.1442601688395
 30
0.0
 10
318.6779545348709
 20
541.1442601688395
 30
0.0
 10
318.9865148535064
 20
541.0121417733535
 30
0.0
 10
319.0317377626234
 20
540.2629570297968
 30
0.0
  0
POLYLINE
  5
20F
330
1D0
100
AcDbEntity
  8
ITSE
 62
   250
420
  2301728
370
    15
100
AcDb2dPolyline
 66
     1
 10
0.0
 20
0.0
 30
0.0
  0
VERTEX
  5
210
330
20F
100
AcDbEntity
  8
ITSE
 62
   250
420
  2301728
370
    15
100
AcDbVertex
100
AcDb2dVertex
 10
317.2581525034584
 20
541.5182808757745
 30
0.0
  0
VERTEX
  5
358
330
20F
100
AcDbEntity
  8
0
100
AcDbVertex
100
AcDb2dVertex
 10
317.2581525034584
 20
541.5182808757745
 30
0.0
  0
SEQEND
  5
211
330
20F
100
AcDbEntity
  8
ITSE
 62
   250
420
  2301728
370
    15
  0
POLYLINE
  5
212
330
1D0
100
AcDbEntity
  8
ITSE
 62
   250
420
  2301728
370
    15
100
AcDb2dPolyline
 66
     1
 10
0.0
 20
0.0
 30
0.0
  0
VERTEX
  5
213
330
212
100
AcDbEntity
  8
ITSE
 62
   250
420
  2301728
370
    15
100
AcDbVertex
100
AcDb2dVertex
 10
325.0360536268909
 20
540.4751018705647
 30
0.0
  0
VERTEX
  5
214
330
212
100
AcDbEntity
  8
ITSE
 62
   250
420
  2301728
370
    15
100
AcDbVertex
100
AcDb2dVertex
 10
325.2622496062759
 20
536.7278290805962
 30
0.0
  0
SEQEND
  5
215
330
212
100
AcDbEntity
  8
ITSE
 62
   250
420
  2301728
370
    15
  0
SPLINE
  5
216
330
1D0
100
AcDbEntity
  8
ITSE
 62
   250
420
  2301728
370
    15
100
AcDbSpline
210
0.0
220
0.0
230
1.0
 70
     8
 71
     3
 72
     8
 73
     4
 74
     0
 42
0.0000000001
 43
0.0000000001
 12
1.0
 22
0.0
 32
0.0
 13
1.0
 23
0.0
 33
0.0
 40
0.0
 40
0.0
 40
0.0
 40
0.0
 40
1.0
 40
1.0
 40
1.0
 40
1.0
 10
324.6008637338073
 20
542.7050274861549
 30
0.0
 10
324.6008637338073
 20
542.7050274861549
 30
0.0
 10
324.90942405245
 20
542.5729090906698
 30
0.0
 10
324.9546469615652
 20
541.8237243471131
 30
0.0
  0
POLYLINE
  5
217
330
1D0
100
AcDbEntity
  8
ITSE
 62
   250
420
  2301728
370
    15
100
AcDb2dPolyline
 66
     1
 10
0.0
 20
0.0
 30
0.0
  0
VERTEX
  5
218
330
217
100
AcDbEntity
  8
ITSE
 62
   250
420
  2301728
370
    15
100
AcDbVertex
100
AcDb2dVertex
 10
317.7475246655667
 20
544.4814608711949
 30
0.0
  0
VERTEX
  5
219
330
217
100
AcDbEntity
  8
ITSE
 62
   250
420
  2301728
370
    15
100
AcDbVertex
100
AcDb2dVertex
 10
323.3596908418931
 20
543.0268251900052
 30
0.0
  0
SEQEND
  5
21A
330
217
100
AcDbEntity
  8
ITSE
 62
   250
420
  2301728
370
    15
  0
POLYLINE
  5
21B
330
1D0
100
AcDbEntity
  8
ITSE
 62
   250
420
  2301728
370
    15
100
AcDb2dPolyline
 66
     1
 10
0.0
 20
0.0
 30
0.0
  0
VERTEX
  5
21C
330
21B
100
AcDbEntity
  8
ITSE
 62
   250
420
  2301728
370
    15
100
AcDbVertex
100
AcDb2dVertex
 10
316.5099129394803
 20
544.802582700474
 30
0.0
  0
VERTEX
  5
359
330
21B
100
AcDbEntity
  8
0
100
AcDbVertex
100
AcDb2dVertex
 10
316.5099129394803
 20
544.802582700474
 30
0.0
  0
SEQEND
  5
21D
330
21B
100
AcDbEntity
  8
ITSE
 62
   250
420
  2301728
370
    15
  0
POLYLINE
  5
21E
330
1D0
100
AcDbEntity
  8
ITSE
 62
   250
420
  2301728
370
    15
100
AcDb2dPolyline
 66
     1
 10
0.0
 20
0.0
 30
0.0
  0
VERTEX
  5
21F
330
21E
100
AcDbEntity
  8
ITSE
 62
   250
420
  2301728
370
    15
100
AcDbVertex
100
AcDb2dVertex
 10
331.3706564256099
 20
539.8019075599568
 30
0.0
  0
VERTEX
  5
35A
330
21E
100
AcDbEntity
  8
0
100
AcDbVertex
100
AcDb2dVertex
 10
331.3706564256099
 20
539.8019075599568
 30
0.0
  0
SEQEND
  5
220
330
21E
100
AcDbEntity
  8
ITSE
 62
   250
420
  2301728
370
    15
  0
INSERT
  5
222
330
1D0
100
AcDbEntity
  8
ITSE
100
AcDbBlockReference
  2
block 29
 10
0.0
 20
0.0
 30
0.0
  0
INSERT
  5
238
330
1D0
100
AcDbEntity
  8
ITSE
100
AcDbBlockReference
  2
block 30
 10
0.0
 20
0.0
 30
0.0
  0
INSERT
  5
24D
330
1D0
100
AcDbEntity
  8
ITSE
100
AcDbBlockReference
  2
block 31
 10
0.0
 20
0.0
 30
0.0
  0
INSERT
  5
25F
330
1D0
100
AcDbEntity
  8
ITSE
100
AcDbBlockReference
  2
block 32
 10
0.0
 20
0.0
 30
0.0
  0
SPLINE
  5
271
330
1D0
100
AcDbEntity
  8
ITSE
 62
   250
420
  2301728
370
    15
100
AcDbSpline
210
0.0
220
0.0
230
1.0
 70
    11
 71
     3
 72
    17
 73
    13
 74
     0
 42
0.0000000001
 43
0.0000000001
 12
1.0
 22
0.0
 32
0.0
 13
1.0
 23
0.0
 33
0.0
 40
0.0
 40
0.0
 40
0.0
 40
0.0
 40
1.0
 40
1.0
 40
1.0
 40
2.0
 40
2.0
 40
2.0
 40
3.0
 40
3.0
 40
3.0
 40
4.0
 40
4.0
 40
4.0
 40
4.0
 10
293.5082353791004
 20
516.4211946106061
 30
0.0
 10
293.3917711465683
 20
515.490138461988
 30
0.0
 10
292.7179047652653
 20
514.8080866211367
 30
0.0
 10
292.0034253086933
 20
514.8975392171951
 30
0.0
 10
291.2885980094106
 20
514.9866192646969
 30
0.0
 10
290.80414154956
 20
515.8138539214933
 30
0.0
 10
290.9204904038461
 20
516.7454470421253
 30
0.0
 10
291.0369546363772
 20
517.6765031907435
 30
0.0
 10
291.7108055765293
 20
518.3590052761356
 30
0.0
 10
292.4252850331031
 20
518.2695526800799
 30
0.0
 10
293.1401123323885
 20
518.1804726325772
 30
0.0
 10
293.6245979058012
 20
517.3527882001345
 30
0.0
 10
293.5082353791004
 20
516.4211946106061
 30
0.0
  0
SPLINE
  5
272
330
1D0
100
AcDbEntity
  8
ITSE
 62
   250
420
  2301728
370
    25
100
AcDbSpline
210
0.0
220
0.0
230
1.0
 70
    11
 71
     3
 72
    23
 73
    19
 74
     0
 42
0.0000000001
 43
0.0000000001
 12
1.0
 22
0.0
 32
0.0
 13
1.0
 23
0.0
 33
0.0
 40
0.0
 40
0.0
 40
0.0
 40
0.0
 40
1.0
 40
1.0
 40
1.0
 40
2.0
 40
2.0
 40
2.0
 40
3.0
 40
3.0
 40
3.0
 40
4.0
 40
4.0
 40
4.0
 40
5.0
 40
5.0
 40
5.0
 40
6.0
 40
6.0
 40
6.0
 40
6.0
 10
292.4252850331031
 20
518.2695526800799
 30
0.0
 10
292.3722390974472
 20
518.2760277114176
 30
0.0
 10
292.0250421484052
 20
518.3865508254912
 30
0.0
 10
291.8885099259533
 20
518.4034266038962
 30
0.0
 10
291.1740277632134
 20
518.4929581084871
 30
0.0
 10
290.5001795297003
 20
517.8103771008
 30
0.0
 10
290.3837156787549
 20
516.8793098255701
 30
0.0
 10
290.2673569362814
 20
515.9478065206404
 30
0.0
 10
290.7517301471789
 20
515.1205690088173
 30
0.0
 10
291.4666474953738
 20
515.0314920495448
 30
0.0
 10
291.5197033609111
 20
515.0249272039364
 30
0.0
 10
291.8668003311614
 20
514.9144908159033
 30
0.0
 10
292.0034253086933
 20
514.8975392171951
 30
0.0
 10
292.7179047652653
 20
514.8080866211367
 30
0.0
 10
293.3917711465683
 20
515.490138461988
 30
0.0
 10
293.5082353791004
 20
516.4211946106061
 30
0.0
 10
293.6245979058012
 20
517.3527882001345
 30
0.0
 10
293.1401123323885
 20
518.1804726325772
 30
0.0
 10
292.4252850331031
 20
518.2695526800799
 30
0.0
  0
INSERT
  5
274
330
1D0
100
AcDbEntity
  8
ITSE
100
AcDbBlockReference
  2
block 33
 10
0.0
 20
0.0
 30
0.0
  0
POLYLINE
  5
279
330
1D0
100
AcDbEntity
  8
ITSE
 62
   250
420
  2301728
370
    15
100
AcDb2dPolyline
 66
     1
 10
0.0
 20
0.0
 30
0.0
  0
VERTEX
  5
27A
330
279
100
AcDbEntity
  8
ITSE
 62
   250
420
  2301728
370
    15
100
AcDbVertex
100
AcDb2dVertex
 10
332.8230069360052
 20
545.3861339152809
 30
0.0
  0
VERTEX
  5
27B
330
279
100
AcDbEntity
  8
ITSE
 62
   250
420
  2301728
370
    15
100
AcDbVertex
100
AcDb2dVertex
 10
334.8675538199022
 20
545.9793822918227
 30
0.0
  0
SEQEND
  5
27C
330
279
100
AcDbEntity
  8
ITSE
 62
   250
420
  2301728
370
    15
  0
POLYLINE
  5
27D
330
1D0
100
AcDbEntity
  8
ITSE
 62
   250
420
  2301728
370
    15
100
AcDb2dPolyline
 66
     1
 10
0.0
 20
0.0
 30
0.0
  0
VERTEX
  5
27E
330
27D
100
AcDbEntity
  8
ITSE
 62
   250
420
  2301728
370
    15
100
AcDbVertex
100
AcDb2dVertex
 10
327.5071324495348
 20
543.8448584179332
 30
0.0
  0
VERTEX
  5
27F
330
27D
100
AcDbEntity
  8
ITSE
 62
   250
420
  2301728
370
    15
100
AcDbVertex
100
AcDb2dVertex
 10
328.7789122726845
 20
544.2138171982424
 30
0.0
  0
SEQEND
  5
280
330
27D
100
AcDbEntity
  8
ITSE
 62
   250
420
  2301728
370
    15
  0
POLYLINE
  5
281
330
1D0
100
AcDbEntity
  8
ITSE
 62
   250
420
  2301728
370
    15
100
AcDb2dPolyline
 66
     1
 10
0.0
 20
0.0
 30
0.0
  0
VERTEX
  5
282
330
281
100
AcDbEntity
  8
ITSE
 62
   250
420
  2301728
370
    15
100
AcDbVertex
100
AcDb2dVertex
 10
321.6411085866694
 20
542.1447242864397
 30
0.0
  0
VERTEX
  5
283
330
281
100
AcDbEntity
  8
ITSE
 62
   250
420
  2301728
370
    15
100
AcDbVertex
100
AcDb2dVertex
 10
323.1780187822242
 20
542.5896236096241
 30
0.0
  0
SEQEND
  5
284
330
281
100
AcDbEntity
  8
ITSE
 62
   250
420
  2301728
370
    15
  0
POLYLINE
  5
285
330
1D0
100
AcDbEntity
  8
ITSE
 62
   250
420
  2301728
370
    15
100
AcDb2dPolyline
 66
     1
 10
0.0
 20
0.0
 30
0.0
  0
VERTEX
  5
286
330
285
100
AcDbEntity
  8
ITSE
 62
   250
420
  2301728
370
    15
100
AcDbVertex
100
AcDb2dVertex
 10
316.773131964308
 20
540.7335687705154
 30
0.0
  0
VERTEX
  5
287
330
285
100
AcDbEntity
  8
ITSE
 62
   250
420
  2301728
370
    15
100
AcDbVertex
100
AcDb2dVertex
 10
317.7451747793948
 20
541.0152006710878
 30
0.0
  0
SEQEND
  5
288
330
285
100
AcDbEntity
  8
ITSE
 62
   250
420
  2301728
370
    15
  0
POLYLINE
  5
289
330
1D0
100
AcDbEntity
  8
ITSE
 62
   250
420
  2301728
370
    15
100
AcDb2dPolyline
 66
     1
 10
0.0
 20
0.0
 30
0.0
  0
VERTEX
  5
28A
330
289
100
AcDbEntity
  8
ITSE
 62
   250
420
  2301728
370
    15
100
AcDbVertex
100
AcDb2dVertex
 10
292.4468085106391
 20
531.2659059259695
 30
0.0
  0
VERTEX
  5
28B
330
289
100
AcDbEntity
  8
ITSE
 62
   250
420
  2301728
370
    15
100
AcDbVertex
100
AcDb2dVertex
 10
294.1608342657746
 20
531.8277333562601
 30
0.0
  0
SEQEND
  5
28C
330
289
100
AcDbEntity
  8
ITSE
 62
   250
420
  2301728
370
    15
  0
POLYLINE
  5
28D
330
1D0
100
AcDbEntity
  8
ITSE
 62
   250
420
  2301728
370
    15
100
AcDb2dPolyline
 66
     1
 10
0.0
 20
0.0
 30
0.0
  0
VERTEX
  5
28E
330
28D
100
AcDbEntity
  8
ITSE
 62
   250
420
  2301728
370
    15
100
AcDbVertex
100
AcDb2dVertex
 10
287.3462190205846
 20
529.7039485934001
 30
0.0
  0
VERTEX
  5
28F
330
28D
100
AcDbEntity
  8
ITSE
 62
   250
420
  2301728
370
    15
100
AcDbVertex
100
AcDb2dVertex
 10
288.6627362641402
 20
530.1912200097659
 30
0.0
  0
SEQEND
  5
290
330
28D
100
AcDbEntity
  8
ITSE
 62
   250
420
  2301728
370
    15
  0
POLYLINE
  5
291
330
1D0
100
AcDbEntity
  8
ITSE
 62
   250
420
  2301728
370
    15
100
AcDb2dPolyline
 66
     1
 10
0.0
 20
0.0
 30
0.0
  0
VERTEX
  5
292
330
291
100
AcDbEntity
  8
ITSE
 62
   250
420
  2301728
370
    15
100
AcDbVertex
100
AcDb2dVertex
 10
281.4673564976429
 20
527.7245021118952
 30
0.0
  0
VERTEX
  5
293
330
291
100
AcDbEntity
  8
ITSE
 62
   250
420
  2301728
370
    15
100
AcDbVertex
100
AcDb2dVertex
 10
283.4479900364076
 20
528.5357997683432
 30
0.0
  0
SEQEND
  5
294
330
291
100
AcDbEntity
  8
ITSE
 62
   250
420
  2301728
370
    15
  0
POLYLINE
  5
295
330
1D0
100
AcDbEntity
  8
ITSE
 62
   250
420
  2301728
370
    15
100
AcDb2dPolyline
 66
     1
 10
0.0
 20
0.0
 30
0.0
  0
VERTEX
  5
296
330
295
100
AcDbEntity
  8
ITSE
 62
   250
420
  2301728
370
    15
100
AcDbVertex
100
AcDb2dVertex
 10
274.7659574468089
 20
525.4042553191484
 30
0.0
  0
VERTEX
  5
297
330
295
100
AcDbEntity
  8
ITSE
 62
   250
420
  2301728
370
    15
100
AcDbVertex
100
AcDb2dVertex
 10
276.9080784054731
 20
526.297872340424
 30
0.0
  0
SEQEND
  5
298
330
295
100
AcDbEntity
  8
ITSE
 62
   250
420
  2301728
370
    15
  0
SPLINE
  5
299
330
1D0
100
AcDbEntity
  8
ITSE
 62
   250
420
  2301728
370
    20
100
AcDbSpline
210
0.0
220
0.0
230
1.0
 70
     8
 71
     3
 72
     8
 73
     4
 74
     0
 42
0.0000000001
 43
0.0000000001
 12
1.0
 22
0.0
 32
0.0
 13
1.0
 23
0.0
 33
0.0
 40
0.0
 40
0.0
 40
0.0
 40
0.0
 40
1.0
 40
1.0
 40
1.0
 40
1.0
 10
272.5932160899174
 20
534.4101634954404
 30
0.0
 10
271.7678279933634
 20
534.7412750320518
 30
0.0
 10
270.1881611878862
 20
535.5211999981802
 30
0.0
 10
268.9108460914922
 20
534.2838765017168
 30
0.0
  0
SPLINE
  5
29A
330
1D0
100
AcDbEntity
  8
ITSE
 62
   250
420
  2301728
370
    20
100
AcDbSpline
210
0.0
220
0.0
230
1.0
 70
     8
 71
     3
 72
     8
 73
     4
 74
     0
 42
0.0000000001
 43
0.0000000001
 12
1.0
 22
0.0
 32
0.0
 13
1.0
 23
0.0
 33
0.0
 40
0.0
 40
0.0
 40
0.0
 40
0.0
 40
1.0
 40
1.0
 40
1.0
 40
1.0
 10
278.5902497234574
 20
535.9801366507745
 30
0.0
 10
277.7648616269016
 20
536.3112481873868
 30
0.0
 10
276.1851948214271
 20
537.0911731535152
 30
0.0
 10
274.9078797250304
 20
535.8538496570509
 30
0.0
  0
SPLINE
  5
29B
330
1D0
100
AcDbEntity
  8
ITSE
370
     0
100
AcDbSpline
210
0.0
220
0.0
230
1.0
 70
    11
 71
     3
 72
    17
 73
    13
 74
     0
 42
0.0000000001
 43
0.0000000001
 12
1.0
 22
0.0
 32
0.0
 13
1.0
 23
0.0
 33
0.0
 40
0.0
 40
0.0
 40
0.0
 40
0.0
 40
1.0
 40
1.0
 40
1.0
 40
2.0
 40
2.0
 40
2.0
 40
3.0
 40
3.0
 40
3.0
 40
4.0
 40
4.0
 40
4.0
 40
4.0
 10
301.3710036229622
 20
464.6563662274157
 30
0.0
 10
302.5802644760297
 20
464.6978378660151
 30
0.0
 10
303.6069684549348
 20
463.3148380408884
 30
0.0
 10
303.6609982535347
 20
461.7393970273542
 30
0.0
 10
303.7151367494243
 20
460.1607865375299
 30
0.0
 10
303.1552881313764
 20
458.7749932944944
 30
0.0
 10
301.5717022954468
 20
458.8042452093287
 30
0.0
 10
300.0420265423554
 20
458.8344997843824
 30
0.0
 10
299.3425041073433
 20
460.0108269649554
 30
0.0
 10
299.2883656114554
 20
461.5894374547788
 30
0.0
 10
299.2343358128537
 20
463.1648784683121
 30
0.0
 10
300.1638557540864
 20
464.6149670536743
 30
0.0
 10
301.3710036229622
 20
464.6563662274157
 30
0.0
  0
SPLINE
  5
29C
330
1D0
100
AcDbEntity
  8
ITSE
 62
   250
420
  2301728
370
    20
100
AcDbSpline
210
0.0
220
0.0
230
1.0
 70
    11
 71
     3
 72
    17
 73
    13
 74
     0
 42
0.0000000001
 43
0.0000000001
 12
1.0
 22
0.0
 32
0.0
 13
1.0
 23
0.0
 33
0.0
 40
0.0
 40
0.0
 40
0.0
 40
0.0
 40
1.0
 40
1.0
 40
1.0
 40
2.0
 40
2.0
 40
2.0
 40
3.0
 40
3.0
 40
3.0
 40
4.0
 40
4.0
 40
4.0
 40
4.0
 10
299.2861805558214
 20
461.1720123926298
 30
0.0
 10
299.3413419017652
 20
459.5635768808743
 30
0.0
 10
300.311439617828
 20
458.8065070531638
 30
0.0
 10
301.6113474927288
 20
458.8510874341982
 30
0.0
 10
302.9093536818591
 20
458.89560259686
 30
0.0
 10
303.6001238254912
 20
459.7756665274555
 30
0.0
 10
303.5448197395908
 20
461.3882641569062
 30
0.0
 10
303.4896957216242
 20
462.9956112317423
 30
0.0
 10
302.7200164009528
 20
464.4164397173654
 30
0.0
 10
301.4220102118234
 20
464.3719245547036
 30
0.0
 10
300.1221023369226
 20
464.3273441736692
 30
0.0
 10
299.2309851685441
 20
462.7814405068302
 30
0.0
 10
299.2861805558214
 20
461.1720123926298
 30
0.0
  0
SPLINE
  5
29D
330
1D0
100
AcDbEntity
  8
ITSE
 62
   250
420
  2301728
370
    13
100
AcDbSpline
210
0.0
220
0.0
230
1.0
 70
     8
 71
     3
 72
    11
 73
     7
 74
     0
 42
0.0000000001
 43
0.0000000001
 12
1.0
 22
0.0
 32
0.0
 13
1.0
 23
0.0
 33
0.0
 40
0.0
 40
0.0
 40
0.0
 40
0.0
 40
1.0
 40
1.0
 40
1.0
 40
2.0
 40
2.0
 40
2.0
 40
2.0
 10
299.3173560335545
 20
460.2629746484181
 30
0.0
 10
299.3725525163809
 20
458.6535145893931
 30
0.0
 10
300.3426792183873
 20
457.8955995680062
 30
0.0
 10
301.6425870932871
 20
457.9401799490388
 30
0.0
 10
302.9405932824175
 20
457.9846951117024
 30
0.0
 10
303.631299301891
 20
458.8666288222093
 30
0.0
 10
303.5760654918158
 20
460.4771772969116
 30
0.0
  0
INSERT
  5
29F
330
1D0
100
AcDbEntity
  8
ITSE
100
AcDbBlockReference
  2
block 34
 10
0.0
 20
0.0
 30
0.0
  0
INSERT
  5
2AC
330
1D0
100
AcDbEntity
  8
ITSE
100
AcDbBlockReference
  2
block 35
 10
0.0
 20
0.0
 30
0.0
  0
INSERT
  5
2B2
330
1D0
100
AcDbEntity
  8
ITSE
100
AcDbBlockReference
  2
block 36
 10
0.0
 20
0.0
 30
0.0
  0
INSERT
  5
2B8
330
1D0
100
AcDbEntity
  8
ITSE
100
AcDbBlockReference
  2
block 37
 10
0.0
 20
0.0
 30
0.0
  0
INSERT
  5
31D
330
1D0
100
AcDbEntity
  8
ITSE
100
AcDbBlockReference
  2
block 43
 10
0.0
 20
0.0
 30
0.0
  0
INSERT
  5
32D
330
1D0
100
AcDbEntity
  8
ITSE
100
AcDbBlockReference
  2
block 44
 10
0.0
 20
0.0
 30
0.0
  0
ENDBLK
  5
1D3
330
1D0
100
AcDbEntity
  8
0
100
AcDbBlockEnd
  0
BLOCK
  5
1D6
330
1D4
100
AcDbEntity
  8
0
100
AcDbBlockBegin
  2
block 26
 70
     0
 10
0.0
 20
0.0
 30
0.0
  3
block 26
  1

  0
SPLINE
  5
1D8
330
1D4
100
AcDbEntity
  8
ITSE
370
     0
100
AcDbSpline
210
0.0
220
0.0
230
1.0
 70
    11
 71
     3
 72
    95
 73
    91
 74
     0
 42
0.0000000001
 43
0.0000000001
 12
1.0
 22
0.0
 32
0.0
 13
1.0
 23
0.0
 33
0.0
 40
0.0
 40
0.0
 40
0.0
 40
0.0
 40
1.0
 40
1.0
 40
1.0
 40
2.0
 40
2.0
 40
2.0
 40
3.0
 40
3.0
 40
3.0
 40
4.0
 40
4.0
 40
4.0
 40
5.0
 40
5.0
 40
5.0
 40
6.0
 40
6.0
 40
6.0
 40
7.0
 40
7.0
 40
7.0
 40
8.0
 40
8.0
 40
8.0
 40
9.0
 40
9.0
 40
9.0
 40
10.0
 40
10.0
 40
10.0
 40
11.0
 40
11.0
 40
11.0
 40
12.0
 40
12.0
 40
12.0
 40
13.0
 40
13.0
 40
13.0
 40
14.0
 40
14.0
 40
14.0
 40
15.0
 40
15.0
 40
15.0
 40
16.0
 40
16.0
 40
16.0
 40
17.0
 40
17.0
 40
17.0
 40
18.0
 40
18.0
 40
18.0
 40
19.0
 40
19.0
 40
19.0
 40
20.0
 40
20.0
 40
20.0
 40
21.0
 40
21.0
 40
21.0
 40
22.0
 40
22.0
 40
22.0
 40
23.0
 40
23.0
 40
23.0
 40
24.0
 40
24.0
 40
24.0
 40
25.0
 40
25.0
 40
25.0
 40
26.0
 40
26.0
 40
26.0
 40
27.0
 40
27.0
 40
27.0
 40
28.0
 40
28.0
 40
28.0
 40
29.0
 40
29.0
 40
29.0
 40
30.0
 40
30.0
 40
30.0
 40
30.0
 10
296.666920922029
 20
529.0966528290301
 30
0.0
 10
296.666920922029
 20
529.0966528290301
 30
0.0
 10
296.615455567312
 20
530.5973178823087
 30
0.0
 10
296.615455567312
 20
530.5973178823087
 30
0.0
 10
296.615455567312
 20
530.5973178823087
 30
0.0
 10
296.4397837374154
 20
531.3427336280893
 30
0.0
 10
295.5238535060098
 20
531.7620958674706
 30
0.0
 10
295.5238535060098
 20
531.7620958674706
 30
0.0
 10
272.5932160899174
 20
539.0790307990101
 30
0.0
 10
272.5932160899174
 20
539.0790307990101
 30
0.0
 10
272.5932160899174
 20
539.0790307990101
 30
0.0
 10
254.0271332293914
 20
532.4759444044576
 30
0.0
 10
254.0271332293914
 20
532.4759444044576
 30
0.0
 10
254.0271332293914
 20
532.4759444044576
 30
0.0
 10
254.0785985841076
 20
530.9752793511807
 30
0.0
 10
254.0785985841076
 20
530.9752793511807
 30
0.0
 10
254.0785985841076
 20
530.9752793511807
 30
0.0
 10
272.466961136387
 20
524.9607372408436
 30
0.0
 10
272.466961136387
 20
524.9607372408436
 30
0.0
 10
272.466961136387
 20
524.9607372408436
 30
0.0
 10
272.9274894830787
 20
524.6763155274421
 30
0.0
 10
272.9429306336087
 20
524.2260709870061
 30
0.0
 10
272.9429306336087
 20
524.2260709870061
 30
0.0
 10
272.9892540851979
 20
522.87533736569
 30
0.0
 10
272.9892540851979
 20
522.87533736569
 30
0.0
 10
272.9892540851979
 20
522.87533736569
 30
0.0
 10
277.2943325316846
 20
520.0176692724908
 30
0.0
 10
277.2943325316846
 20
520.0176692724908
 30
0.0
 10
277.2943325316846
 20
520.0176692724908
 30
0.0
 10
285.9642376550992
 20
499.4292877868083
 30
0.0
 10
285.9642376550992
 20
499.4292877868083
 30
0.0
 10
285.9642376550992
 20
499.4292877868083
 30
0.0
 10
288.3061351913739
 20
431.1424993168084
 30
0.0
 10
288.3061351913739
 20
431.1424993168084
 30
0.0
 10
288.3061351913739
 20
431.1424993168084
 30
0.0
 10
288.4554202346981
 20
426.7895350998579
 30
0.0
 10
290.3850540626654
 20
423.0998621910512
 30
0.0
 10
290.3850540626654
 20
423.0998621910512
 30
0.0
 10
302.5374315752861
 20
401.7289132399192
 30
0.0
 10
302.5374315752861
 20
401.7289132399192
 30
0.0
 10
302.5374315752861
 20
401.7289132399192
 30
0.0
 10
303.6285679508946
 20
400.5645700581463
 30
0.0
 10
304.2343515121174
 20
400.4347868764471
 30
0.0
 10
304.2343515121174
 20
400.4347868764471
 30
0.0
 10
306.485151043802
 20
391.7967117603257
 30
0.0
 10
306.3233580455581
 20
387.7341962078353
 30
0.0
 10
306.3233580455581
 20
387.7341962078353
 30
0.0
 10
306.05863433788
 20
386.6730107618969
 30
0.0
 10
307.4350929159791
 20
385.9692268091167
 30
0.0
 10
307.4350929159791
 20
385.9692268091167
 30
0.0
 10
309.1267324132568
 20
384.2414541089911
 30
0.0
 10
309.1267324132568
 20
384.2414541089911
 30
0.0
 10
309.1267324132568
 20
384.2414541089911
 30
0.0
 10
312.7008182068948
 20
383.0966682359103
 30
0.0
 10
312.7008182068948
 20
383.0966682359103
 30
0.0
 10
312.7008182068948
 20
383.0966682359103
 30
0.0
 10
315.4167926182054
 20
381.1160402196238
 30
0.0
 10
315.4167926182054
 20
381.1160402196238
 30
0.0
 10
315.4167926182054
 20
381.1160402196238
 30
0.0
 10
324.2792076921251
 20
376.7804247036311
 30
0.0
 10
324.2792076921251
 20
376.7804247036311
 30
0.0
 10
324.2792076921251
 20
376.7804247036311
 30
0.0
 10
324.9004324038742
 20
376.2003969814978
 30
0.0
 10
326.9652337842163
 20
377.3233161472526
 30
0.0
 10
326.9652337842163
 20
377.3233161472526
 30
0.0
 10
325.5887752061226
 20
378.0271001000292
 30
0.0
 10
325.5887752061226
 20
378.0271001000292
 30
0.0
 10
325.5887752061226
 20
378.0271001000292
 30
0.0
 10
325.3920700780254
 20
379.3726763770646
 30
0.0
 10
325.3920700780254
 20
379.3726763770646
 30
0.0
 10
325.3920700780254
 20
379.3726763770646
 30
0.0
 10
325.8371572741889
 20
379.5384992040981
 30
0.0
 10
325.8371572741889
 20
379.5384992040981
 30
0.0
 10
325.8371572741889
 20
379.5384992040981
 30
0.0
 10
311.0094906348331
 20
430.718446312545
 30
0.0
 10
311.0094906348331
 20
430.718446312545
 30
0.0
 10
311.0094906348331
 20
430.718446312545
 30
0.0
 10
308.6572784100044
 20
499.3059981355582
 30
0.0
 10
308.6572784100044
 20
499.3059981355582
 30
0.0
 10
308.6572784100044
 20
499.3059981355582
 30
0.0
 10
304.7169558755804
 20
517.802710327478
 30
0.0
 10
304.7169558755804
 20
517.802710327478
 30
0.0
 10
304.7169558755804
 20
517.802710327478
 30
0.0
 10
301.3542098882217
 20
523.8481144079269
 30
0.0
 10
301.3542098882217
 20
523.8481144079269
 30
0.0
 10
301.3542098882217
 20
523.8481144079269
 30
0.0
 10
300.2518583349774
 20
525.3131900604103
 30
0.0
 10
299.4914671243532
 20
525.5873279675588
 30
0.0
 10
299.4914671243532
 20
525.5873279675588
 30
0.0
 10
296.666920922029
 20
529.0966528290301
 30
0.0
 10
296.666920922029
 20
529.0966528290301
 30
0.0
  0
HATCH
  5
1D9
330
1D4
100
AcDbEntity
  8
ITSE
 62
   254
420
 13358815
100
AcDbHatch
 10
0.0
 20
0.0
 30
0.0
210
0.0
220
0.0
230
1.0
  2
SOLID
 70
     1
 71
     0
 91
        1
 92
        1
 93
        1
 72
     4
 94
        3
 73
     0
 74
     1
 95
       95
 96
       91
 40
0.0
 40
0.0
 40
0.0
 40
0.0
 40
1.0
 40
1.0
 40
1.0
 40
2.0
 40
2.0
 40
2.0
 40
3.0
 40
3.0
 40
3.0
 40
4.0
 40
4.0
 40
4.0
 40
5.0
 40
5.0
 40
5.0
 40
6.0
 40
6.0
 40
6.0
 40
7.0
 40
7.0
 40
7.0
 40
8.0
 40
8.0
 40
8.0
 40
9.0
 40
9.0
 40
9.0
 40
10.0
 40
10.0
 40
10.0
 40
11.0
 40
11.0
 40
11.0
 40
12.0
 40
12.0
 40
12.0
 40
13.0
 40
13.0
 40
13.0
 40
14.0
 40
14.0
 40
14.0
 40
15.0
 40
15.0
 40
15.0
 40
16.0
 40
16.0
 40
16.0
 40
17.0
 40
17.0
 40
17.0
 40
18.0
 40
18.0
 40
18.0
 40
19.0
 40
19.0
 40
19.0
 40
20.0
 40
20.0
 40
20.0
 40
21.0
 40
21.0
 40
21.0
 40
22.0
 40
22.0
 40
22.0
 40
23.0
 40
23.0
 40
23.0
 40
24.0
 40
24.0
 40
24.0
 40
25.0
 40
25.0
 40
25.0
 40
26.0
 40
26.0
 40
26.0
 40
27.0
 40
27.0
 40
27.0
 40
28.0
 40
28.0
 40
28.0
 40
29.0
 40
29.0
 40
29.0
 40
30.0
 40
30.0
 40
30.0
 40
30.0
 10
296.666920922029
 20
529.0966528290301
 10
296.666920922029
 20
529.0966528290301
 10
296.615455567312
 20
530.5973178823087
 10
296.615455567312
 20
530.5973178823087
 10
296.615455567312
 20
530.5973178823087
 10
296.4397837374154
 20
531.3427336280893
 10
295.5238535060098
 20
531.7620958674706
 10
295.5238535060098
 20
531.7620958674706
 10
272.5932160899174
 20
539.0790307990101
 10
272.5932160899174
 20
539.0790307990101
 10
272.5932160899174
 20
539.0790307990101
 10
254.0271332293914
 20
532.4759444044576
 10
254.0271332293914
 20
532.4759444044576
 10
254.0271332293914
 20
532.4759444044576
 10
254.0785985841076
 20
530.9752793511807
 10
254.0785985841076
 20
530.9752793511807
 10
254.0785985841076
 20
530.9752793511807
 10
272.466961136387
 20
524.9607372408436
 10
272.466961136387
 20
524.9607372408436
 10
272.466961136387
 20
524.9607372408436
 10
272.9274894830787
 20
524.6763155274421
 10
272.9429306336087
 20
524.2260709870061
 10
272.9429306336087
 20
524.2260709870061
 10
272.9892540851979
 20
522.87533736569
 10
272.9892540851979
 20
522.87533736569
 10
272.9892540851979
 20
522.87533736569
 10
277.2943325316846
 20
520.0176692724908
 10
277.2943325316846
 20
520.0176692724908
 10
277.2943325316846
 20
520.0176692724908
 10
285.9642376550992
 20
499.4292877868083
 10
285.9642376550992
 20
499.4292877868083
 10
285.9642376550992
 20
499.4292877868083
 10
288.3061351913739
 20
431.1424993168084
 10
288.3061351913739
 20
431.1424993168084
 10
288.3061351913739
 20
431.1424993168084
 10
288.4554202346981
 20
426.7895350998579
 10
290.3850540626654
 20
423.0998621910512
 10
290.3850540626654
 20
423.0998621910512
 10
302.5374315752861
 20
401.7289132399192
 10
302.5374315752861
 20
401.7289132399192
 10
302.5374315752861
 20
401.7289132399192
 10
303.6285679508946
 20
400.5645700581463
 10
304.2343515121174
 20
400.4347868764471
 10
304.2343515121174
 20
400.4347868764471
 10
306.485151043802
 20
391.7967117603257
 10
306.3233580455581
 20
387.7341962078353
 10
306.3233580455581
 20
387.7341962078353
 10
306.05863433788
 20
386.6730107618969
 10
307.4350929159791
 20
385.9692268091167
 10
307.4350929159791
 20
385.9692268091167
 10
309.1267324132568
 20
384.2414541089911
 10
309.1267324132568
 20
384.2414541089911
 10
309.1267324132568
 20
384.2414541089911
 10
312.7008182068948
 20
383.0966682359103
 10
312.7008182068948
 20
383.0966682359103
 10
312.7008182068948
 20
383.0966682359103
 10
315.4167926182054
 20
381.1160402196238
 10
315.4167926182054
 20
381.1160402196238
 10
315.4167926182054
 20
381.1160402196238
 10
324.2792076921251
 20
376.7804247036311
 10
324.2792076921251
 20
376.7804247036311
 10
324.2792076921251
 20
376.7804247036311
 10
324.9004324038742
 20
376.2003969814978
 10
326.9652337842163
 20
377.3233161472526
 10
326.9652337842163
 20
377.3233161472526
 10
325.5887752061226
 20
378.0271001000292
 10
325.5887752061226
 20
378.0271001000292
 10
325.5887752061226
 20
378.0271001000292
 10
325.3920700780254
 20
379.3726763770646
 10
325.3920700780254
 20
379.3726763770646
 10
325.3920700780254
 20
379.3726763770646
 10
325.8371572741889
 20
379.5384992040981
 10
325.8371572741889
 20
379.5384992040981
 10
325.8371572741889
 20
379.5384992040981
 10
311.0094906348331
 20
430.718446312545
 10
311.0094906348331
 20
430.718446312545
 10
311.0094906348331
 20
430.718446312545
 10
308.6572784100044
 20
499.3059981355582
 10
308.6572784100044
 20
499.3059981355582
 10
308.6572784100044
 20
499.3059981355582
 10
304.7169558755804
 20
517.802710327478
 10
304.7169558755804
 20
517.802710327478
 10
304.7169558755804
 20
517.802710327478
 10
301.3542098882217
 20
523.8481144079269
 10
301.3542098882217
 20
523.8481144079269
 10
301.3542098882217
 20
523.8481144079269
 10
300.2518583349774
 20
525.3131900604103
 10
299.4914671243532
 20
525.5873279675588
 10
299.4914671243532
 20
525.5873279675588
 10
296.666920922029
 20
529.0966528290301
 10
296.666920922029
 20
529.0966528290301
 97
        0
 97
        0
 75
     2
 76
     1
 98
        0
  0
SPLINE
  5
1DA
330
1D4
100
AcDbEntity
  8
ITSE
370
     0
100
AcDbSpline
210
0.0
220
0.0
230
1.0
 70
     8
 71
     3
 72
    26
 73
    22
 74
     0
 42
0.0000000001
 43
0.0000000001
 12
1.0
 22
0.0
 32
0.0
 13
1.0
 23
0.0
 33
0.0
 40
0.0
 40
0.0
 40
0.0
 40
0.0
 40
1.0
 40
1.0
 40
1.0
 40
2.0
 40
2.0
 40
2.0
 40
3.0
 40
3.0
 40
3.0
 40
4.0
 40
4.0
 40
4.0
 40
5.0
 40
5.0
 40
5.0
 40
6.0
 40
6.0
 40
6.0
 40
7.0
 40
7.0
 40
7.0
 40
7.0
 10
314.1122844192651
 20
539.5146756709573
 30
0.0
 10
314.1122844192651
 20
539.5146756709573
 30
0.0
 10
315.179968015811
 20
539.2780874632272
 30
0.0
 10
315.2161517720251
 20
538.6786497302337
 30
0.0
 10
315.2161517720251
 20
538.6786497302337
 30
0.0
 10
315.2704409786438
 20
537.779268285386
 30
0.0
 10
315.2704409786438
 20
537.779268285386
 30
0.0
 10
315.2704409786438
 20
537.779268285386
 30
0.0
 10
331.561559686108
 20
532.2978723404249
 30
0.0
 10
331.561559686108
 20
532.2978723404249
 30
0.0
 10
331.561559686108
 20
532.2978723404249
 30
0.0
 10
334.4569453416043
 20
538.9374199302229
 30
0.0
 10
334.4569453416043
 20
538.9374199302229
 30
0.0
 10
334.4569453416043
 20
538.9374199302229
 30
0.0
 10
337.1062078567684
 20
542.4073856058512
 30
0.0
 10
337.1062078567684
 20
542.4073856058512
 30
0.0
 10
337.1062078567684
 20
542.4073856058512
 30
0.0
 10
336.9343010840057
 20
545.2552769509639
 30
0.0
 10
336.9343010840057
 20
545.2552769509639
 30
0.0
 10
336.9343010840057
 20
545.2552769509639
 30
0.0
 10
336.7108374888412
 20
546.4450318302388
 30
0.0
 10
335.1943625513195
 20
546.6545297238627
 30
0.0
  0
HATCH
  5
1DB
330
1D4
100
AcDbEntity
  8
ITSE
 62
   254
420
 13358815
100
AcDbHatch
 10
0.0
 20
0.0
 30
0.0
210
0.0
220
0.0
230
1.0
  2
SOLID
 70
     1
 71
     0
 91
        1
 92
        1
 93
        2
 72
     4
 94
        3
 73
     0
 74
     0
 95
       26
 96
       22
 40
0.0
 40
0.0
 40
0.0
 40
0.0
 40
1.0
 40
1.0
 40
1.0
 40
2.0
 40
2.0
 40
2.0
 40
3.0
 40
3.0
 40
3.0
 40
4.0
 40
4.0
 40
4.0
 40
5.0
 40
5.0
 40
5.0
 40
6.0
 40
6.0
 40
6.0
 40
7.0
 40
7.0
 40
7.0
 40
7.0
 10
314.1122844192651
 20
539.5146756709573
 10
314.1122844192651
 20
539.5146756709573
 10
315.179968015811
 20
539.2780874632272
 10
315.2161517720251
 20
538.6786497302337
 10
315.2161517720251
 20
538.6786497302337
 10
315.2704409786438
 20
537.779268285386
 10
315.2704409786438
 20
537.779268285386
 10
315.2704409786438
 20
537.779268285386
 10
331.561559686108
 20
532.2978723404249
 10
331.561559686108
 20
532.2978723404249
 10
331.561559686108
 20
532.2978723404249
 10
334.4569453416043
 20
538.9374199302229
 10
334.4569453416043
 20
538.9374199302229
 10
334.4569453416043
 20
538.9374199302229
 10
337.1062078567684
 20
542.4073856058512
 10
337.1062078567684
 20
542.4073856058512
 10
337.1062078567684
 20
542.4073856058512
 10
336.9343010840057
 20
545.2552769509639
 10
336.9343010840057
 20
545.2552769509639
 10
336.9343010840057
 20
545.2552769509639
 10
336.7108374888412
 20
546.4450318302388
 10
335.1943625513195
 20
546.6545297238627
 97
        0
 72
     1
 10
335.1943625513195
 20
546.6545297238627
 11
314.1122844192651
 21
539.5146756709573
 97
        0
 75
     2
 76
     1
 98
        0
  0
ENDBLK
  5
1D7
330
1D4
100
AcDbEntity
  8
0
100
AcDbBlockEnd
  0
BLOCK
  5
1F5
330
1F3
100
AcDbEntity
  8
0
100
AcDbBlockBegin
  2
block 27
 70
     0
 10
0.0
 20
0.0
 30
0.0
  3
block 27
  1

  0
POLYLINE
  5
1F7
330
1F3
100
AcDbEntity
  8
ITSE
 62
   250
420
  2301728
370
    15
100
AcDb2dPolyline
 66
     1
 10
0.0
 20
0.0
 30
0.0
  0
VERTEX
  5
1F8
330
1F7
100
AcDbEntity
  8
ITSE
 62
   250
420
  2301728
370
    15
100
AcDbVertex
100
AcDb2dVertex
 10
303.5894298481489
 20
406.1221739574021
 30
0.0
  0
VERTEX
  5
1F9
330
1F7
100
AcDbEntity
  8
ITSE
 62
   250
420
  2301728
370
    15
100
AcDbVertex
100
AcDb2dVertex
 10
303.651194450269
 20
404.3211957956519
 30
0.0
  0
SEQEND
  5
1FA
330
1F7
100
AcDbEntity
  8
ITSE
 62
   250
420
  2301728
370
    15
  0
POLYLINE
  5
1FB
330
1F3
100
AcDbEntity
  8
ITSE
 62
   250
420
  2301728
370
    15
100
AcDb2dPolyline
 66
     1
 10
0.0
 20
0.0
 30
0.0
  0
VERTEX
  5
1FC
330
1FB
100
AcDbEntity
  8
ITSE
 62
   250
420
  2301728
370
    15
100
AcDbVertex
100
AcDb2dVertex
 10
299.7239694302343
 20
518.8341409878358
 30
0.0
  0
VERTEX
  5
1FD
330
1FB
100
AcDbEntity
  8
ITSE
 62
   250
420
  2301728
370
    15
100
AcDbVertex
100
AcDb2dVertex
 10
303.5379490522819
 20
407.6232892552207
 30
0.0
  0
SEQEND
  5
1FE
330
1FB
100
AcDbEntity
  8
ITSE
 62
   250
420
  2301728
370
    15
  0
POLYLINE
  5
1FF
330
1F3
100
AcDbEntity
  8
ITSE
 62
   250
420
  2301728
370
    15
100
AcDb2dPolyline
 66
     1
 10
0.0
 20
0.0
 30
0.0
  0
VERTEX
  5
200
330
1FF
100
AcDbEntity
  8
ITSE
 62
   250
420
  2301728
370
    15
100
AcDbVertex
100
AcDb2dVertex
 10
299.6261960650791
 20
521.685089417887
 30
0.0
  0
VERTEX
  5
201
330
1FF
100
AcDbEntity
  8
ITSE
 62
   250
420
  2301728
370
    15
100
AcDbVertex
100
AcDb2dVertex
 10
299.6776614197943
 20
520.1844243646092
 30
0.0
  0
SEQEND
  5
202
330
1FF
100
AcDbEntity
  8
ITSE
 62
   250
420
  2301728
370
    15
  0
ENDBLK
  5
1F6
330
1F3
100
AcDbEntity
  8
0
100
AcDbBlockEnd
  0
BLOCK
  5
205
330
203
100
AcDbEntity
  8
0
100
AcDbBlockBegin
  2
block 28
 70
     0
 10
0.0
 20
0.0
 30
0.0
  3
block 28
  1

  0
SPLINE
  5
207
330
203
100
AcDbEntity
  8
ITSE
 62
   250
420
  2301728
370
    30
100
AcDbSpline
210
0.0
220
0.0
230
1.0
 70
    11
 71
     3
 72
   101
 73
    97
 74
     0
 42
0.0000000001
 43
0.0000000001
 12
1.0
 22
0.0
 32
0.0
 13
1.0
 23
0.0
 33
0.0
 40
0.0
 40
0.0
 40
0.0
 40
0.0
 40
1.0
 40
1.0
 40
1.0
 40
2.0
 40
2.0
 40
2.0
 40
3.0
 40
3.0
 40
3.0
 40
4.0
 40
4.0
 40
4.0
 40
5.0
 40
5.0
 40
5.0
 40
6.0
 40
6.0
 40
6.0
 40
7.0
 40
7.0
 40
7.0
 40
8.0
 40
8.0
 40
8.0
 40
9.0
 40
9.0
 40
9.0
 40
10.0
 40
10.0
 40
10.0
 40
11.0
 40
11.0
 40
11.0
 40
12.0
 40
12.0
 40
12.0
 40
13.0
 40
13.0
 40
13.0
 40
14.0
 40
14.0
 40
14.0
 40
15.0
 40
15.0
 40
15.0
 40
16.0
 40
16.0
 40
16.0
 40
17.0
 40
17.0
 40
17.0
 40
18.0
 40
18.0
 40
18.0
 40
19.0
 40
19.0
 40
19.0
 40
20.0
 40
20.0
 40
20.0
 40
21.0
 40
21.0
 40
21.0
 40
22.0
 40
22.0
 40
22.0
 40
23.0
 40
23.0
 40
23.0
 40
24.0
 40
24.0
 40
24.0
 40
25.0
 40
25.0
 40
25.0
 40
26.0
 40
26.0
 40
26.0
 40
27.0
 40
27.0
 40
27.0
 40
28.0
 40
28.0
 40
28.0
 40
29.0
 40
29.0
 40
29.0
 40
30.0
 40
30.0
 40
30.0
 40
31.0
 40
31.0
 40
31.0
 40
32.0
 40
32.0
 40
32.0
 40
32.0
 10
296.666920922029
 20
529.0966528290301
 30
0.0
 10
296.666920922029
 20
529.0966528290301
 30
0.0
 10
296.615455567312
 20
530.5973178823087
 30
0.0
 10
296.615455567312
 20
530.5973178823087
 30
0.0
 10
296.615455567312
 20
530.5973178823087
 30
0.0
 10
296.4397837374154
 20
531.3427336280893
 30
0.0
 10
295.5238535060098
 20
531.7620958674706
 30
0.0
 10
295.5238535060098
 20
531.7620958674706
 30
0.0
 10
272.7264303787924
 20
539.3617021276605
 30
0.0
 10
272.7264303787924
 20
539.3617021276605
 30
0.0
 10
272.7264303787924
 20
539.3617021276605
 30
0.0
 10
254.0271332293914
 20
532.4759444044576
 30
0.0
 10
254.0271332293914
 20
532.4759444044576
 30
0.0
 10
254.0271332293914
 20
532.4759444044576
 30
0.0
 10
253.9295818712308
 20
531.0147715138501
 30
0.0
 10
253.9295818712308
 20
531.0147715138501
 30
0.0
 10
253.9295818712308
 20
531.0147715138501
 30
0.0
 10
272.466961136387
 20
524.9607372408436
 30
0.0
 10
272.466961136387
 20
524.9607372408436
 30
0.0
 10
272.466961136387
 20
524.9607372408436
 30
0.0
 10
272.9274894830787
 20
524.6763155274421
 30
0.0
 10
272.9429306336087
 20
524.2260709870061
 30
0.0
 10
272.9429306336087
 20
524.2260709870061
 30
0.0
 10
272.9892540851979
 20
522.87533736569
 30
0.0
 10
272.9892540851979
 20
522.87533736569
 30
0.0
 10
272.9892540851979
 20
522.87533736569
 30
0.0
 10
277.2943325316846
 20
520.0176692724908
 30
0.0
 10
277.2943325316846
 20
520.0176692724908
 30
0.0
 10
277.2943325316846
 20
520.0176692724908
 30
0.0
 10
285.9642376550992
 20
499.4292877868083
 30
0.0
 10
285.9642376550992
 20
499.4292877868083
 30
0.0
 10
285.9642376550992
 20
499.4292877868083
 30
0.0
 10
288.3061351913739
 20
431.1424993168084
 30
0.0
 10
288.3061351913739
 20
431.1424993168084
 30
0.0
 10
288.3061351913739
 20
431.1424993168084
 30
0.0
 10
288.4554202346981
 20
426.7895350998579
 30
0.0
 10
290.3850540626654
 20
423.0998621910512
 30
0.0
 10
290.3850540626654
 20
423.0998621910512
 30
0.0
 10
302.5374315752861
 20
401.7289132399192
 30
0.0
 10
302.5374315752861
 20
401.7289132399192
 30
0.0
 10
302.5374315752861
 20
401.7289132399192
 30
0.0
 10
303.6285679508946
 20
400.5645700581463
 30
0.0
 10
304.2343515121174
 20
400.4347868764471
 30
0.0
 10
304.2343515121174
 20
400.4347868764471
 30
0.0
 10
306.485151043802
 20
391.7967117603257
 30
0.0
 10
306.3233580455581
 20
387.7341962078353
 30
0.0
 10
306.3233580455581
 20
387.7341962078353
 30
0.0
 10
306.05863433788
 20
386.6730107618969
 30
0.0
 10
307.4350929159791
 20
385.9692268091167
 30
0.0
 10
307.4350929159791
 20
385.9692268091167
 30
0.0
 10
308.3276271655577
 20
384.142881088339
 30
0.0
 10
309.1213755221634
 20
383.6138072097583
 30
0.0
 10
309.9151238787708
 20
383.084733331194
 30
0.0
 10
310.7061351103403
 20
384.1848079632018
 30
0.0
 10
310.7061351103403
 20
384.1848079632018
 30
0.0
 10
310.7061351103403
 20
384.1848079632018
 30
0.0
 10
313.8965220125301
 20
382.444387773292
 30
0.0
 10
313.8965220125301
 20
382.444387773292
 30
0.0
 10
313.8965220125301
 20
382.444387773292
 30
0.0
 10
313.7339936400203
 20
381.5895353789201
 30
0.0
 10
314.9308261451843
 20
380.9366392467455
 30
0.0
 10
316.1276586503518
 20
380.2837431145726
 30
0.0
 10
316.8624302255503
 20
380.8264254774913
 30
0.0
 10
316.8624302255503
 20
380.8264254774913
 30
0.0
 10
316.8624302255503
 20
380.8264254774913
 30
0.0
 10
324.2792076921251
 20
376.7804247036311
 30
0.0
 10
324.2792076921251
 20
376.7804247036311
 30
0.0
 10
324.2792076921251
 20
376.7804247036311
 30
0.0
 10
324.9004324038742
 20
376.2003969814978
 30
0.0
 10
326.9652337842163
 20
377.3233161472526
 30
0.0
 10
326.9652337842163
 20
377.3233161472526
 30
0.0
 10
325.5887752061226
 20
378.0271001000292
 30
0.0
 10
325.5887752061226
 20
378.0271001000292
 30
0.0
 10
325.5887752061226
 20
378.0271001000292
 30
0.0
 10
325.3920700780254
 20
379.3726763770646
 30
0.0
 10
325.3920700780254
 20
379.3726763770646
 30
0.0
 10
325.3920700780254
 20
379.3726763770646
 30
0.0
 10
325.8371572741889
 20
379.5384992040981
 30
0.0
 10
325.8371572741889
 20
379.5384992040981
 30
0.0
 10
325.8371572741889
 20
379.5384992040981
 30
0.0
 10
311.0094906348331
 20
430.718446312545
 30
0.0
 10
311.0094906348331
 20
430.718446312545
 30
0.0
 10
311.0094906348331
 20
430.718446312545
 30
0.0
 10
308.6572784100044
 20
499.3059981355582
 30
0.0
 10
308.6572784100044
 20
499.3059981355582
 30
0.0
 10
308.6572784100044
 20
499.3059981355582
 30
0.0
 10
304.7169558755804
 20
517.802710327478
 30
0.0
 10
304.7169558755804
 20
517.802710327478
 30
0.0
 10
304.7169558755804
 20
517.802710327478
 30
0.0
 10
301.3542098882217
 20
523.8481144079269
 30
0.0
 10
301.3542098882217
 20
523.8481144079269
 30
0.0
 10
301.3542098882217
 20
523.8481144079269
 30
0.0
 10
300.2518583349774
 20
525.3131900604103
 30
0.0
 10
299.4914671243532
 20
525.5873279675588
 30
0.0
 10
299.4914671243532
 20
525.5873279675588
 30
0.0
 10
296.666920922029
 20
529.0966528290301
 30
0.0
 10
296.666920922029
 20
529.0966528290301
 30
0.0
  0
SPLINE
  5
208
330
203
100
AcDbEntity
  8
ITSE
 62
   250
420
  2301728
370
    30
100
AcDbSpline
210
0.0
220
0.0
230
1.0
 70
     8
 71
     3
 72
    20
 73
    16
 74
     0
 42
0.0000000001
 43
0.0000000001
 12
1.0
 22
0.0
 32
0.0
 13
1.0
 23
0.0
 33
0.0
 40
0.0
 40
0.0
 40
0.0
 40
0.0
 40
1.0
 40
1.0
 40
1.0
 40
2.0
 40
2.0
 40
2.0
 40
3.0
 40
3.0
 40
3.0
 40
4.0
 40
4.0
 40
4.0
 40
5.0
 40
5.0
 40
5.0
 40
5.0
 10
312.7978625129472
 20
539.0790307990101
 30
0.0
 10
312.7978625129472
 20
539.0790307990101
 30
0.0
 10
331.957446808512
 20
531.7553191489351
 30
0.0
 10
331.957446808512
 20
531.7553191489351
 30
0.0
 10
331.957446808512
 20
531.7553191489351
 30
0.0
 10
334.4569453416043
 20
538.9374199302229
 30
0.0
 10
334.4569453416043
 20
538.9374199302229
 30
0.0
 10
334.4569453416043
 20
538.9374199302229
 30
0.0
 10
337.1062078567684
 20
542.4073856058512
 30
0.0
 10
337.1062078567684
 20
542.4073856058512
 30
0.0
 10
337.1062078567684
 20
542.4073856058512
 30
0.0
 10
336.9343010840057
 20
545.2552769509639
 30
0.0
 10
336.9343010840057
 20
545.2552769509639
 30
0.0
 10
336.9343010840057
 20
545.2552769509639
 30
0.0
 10
336.7108374888412
 20
546.4450318302388
 30
0.0
 10
335.1943625513195
 20
546.6545297238627
 30
0.0
  0
POLYLINE
  5
209
330
203
100
AcDbEntity
  8
ITSE
 62
   250
420
  2301728
370
    30
100
AcDb2dPolyline
 66
     1
 10
0.0
 20
0.0
 30
0.0
  0
VERTEX
  5
20A
330
209
100
AcDbEntity
  8
ITSE
 62
   250
420
  2301728
370
    30
100
AcDbVertex
100
AcDb2dVertex
 10
314.1122844192651
 20
539.5146756709573
 30
0.0
  0
VERTEX
  5
35B
330
209
100
AcDbEntity
  8
0
100
AcDbVertex
100
AcDb2dVertex
 10
314.1122844192651
 20
539.5146756709573
 30
0.0
  0
SEQEND
  5
20B
330
209
100
AcDbEntity
  8
ITSE
 62
   250
420
  2301728
370
    30
  0
ENDBLK
  5
206
330
203
100
AcDbEntity
  8
0
100
AcDbBlockEnd
  0
BLOCK
  5
223
330
221
100
AcDbEntity
  8
0
100
AcDbBlockBegin
  2
block 29
 70
     0
 10
0.0
 20
0.0
 30
0.0
  3
block 29
  1

  0
POLYLINE
  5
225
330
221
100
AcDbEntity
  8
ITSE
 62
   250
420
  2301728
370
    15
100
AcDb2dPolyline
 66
     1
 10
0.0
 20
0.0
 30
0.0
  0
VERTEX
  5
226
330
225
100
AcDbEntity
  8
ITSE
 62
   250
420
  2301728
370
    15
100
AcDbVertex
100
AcDb2dVertex
 10
322.7174900879072
 20
546.1305754208888
 30
0.0
  0
VERTEX
  5
227
330
225
100
AcDbEntity
  8
ITSE
 62
   250
420
  2301728
370
    15
100
AcDbVertex
100
AcDb2dVertex
 10
318.2890790233905
 20
547.2216866587978
 30
0.0
  0
VERTEX
  5
228
330
225
100
AcDbEntity
  8
ITSE
 62
   250
420
  2301728
370
    15
100
AcDbVertex
100
AcDb2dVertex
 10
317.0890889435923
 20
547.5177051824412
 30
0.0
  0
SEQEND
  5
229
330
225
100
AcDbEntity
  8
ITSE
 62
   250
420
  2301728
370
    15
  0
POLYLINE
  5
22A
330
221
100
AcDbEntity
  8
ITSE
 62
   250
420
  2301728
370
    15
100
AcDb2dPolyline
 66
     1
 10
0.0
 20
0.0
 30
0.0
  0
VERTEX
  5
22B
330
22A
100
AcDbEntity
  8
ITSE
 62
   250
420
  2301728
370
    15
100
AcDbVertex
100
AcDb2dVertex
 10
328.982919617014
 20
544.5875561196217
 30
0.0
  0
VERTEX
  5
22C
330
22A
100
AcDbEntity
  8
ITSE
 62
   250
420
  2301728
370
    15
100
AcDbVertex
100
AcDb2dVertex
 10
324.2851345176587
 20
545.7448080195445
 30
0.0
  0
SEQEND
  5
22D
330
22A
100
AcDbEntity
  8
ITSE
 62
   250
420
  2301728
370
    15
  0
SPLINE
  5
22E
330
221
100
AcDbEntity
  8
ITSE
 62
   250
420
  2301728
370
    15
100
AcDbSpline
210
0.0
220
0.0
230
1.0
 70
     8
 71
     3
 72
     8
 73
     4
 74
     0
 42
0.0000000001
 43
0.0000000001
 12
1.0
 22
0.0
 32
0.0
 13
1.0
 23
0.0
 33
0.0
 40
0.0
 40
0.0
 40
0.0
 40
0.0
 40
1.0
 40
1.0
 40
1.0
 40
1.0
 10
330.1957253976452
 20
543.49452972989
 30
0.0
 10
330.15050248853
 20
544.2437144734458
 30
0.0
 10
329.8419421698891
 20
544.3758328689319
 30
0.0
 10
329.8419421698891
 20
544.3758328689319
 30
0.0
  0
POLYLINE
  5
22F
330
221
100
AcDbEntity
  8
ITSE
 62
   250
420
  2301728
370
    15
100
AcDb2dPolyline
 66
     1
 10
0.0
 20
0.0
 30
0.0
  0
VERTEX
  5
230
330
22F
100
AcDbEntity
  8
ITSE
 62
   250
420
  2301728
370
    15
100
AcDbVertex
100
AcDb2dVertex
 10
330.3495267199996
 20
540.9465820966334
 30
0.0
  0
VERTEX
  5
231
330
22F
100
AcDbEntity
  8
ITSE
 62
   250
420
  2301728
370
    15
100
AcDbVertex
100
AcDb2dVertex
 10
330.2590537571687
 20
542.4454012744709
 30
0.0
  0
SEQEND
  5
232
330
22F
100
AcDbEntity
  8
ITSE
 62
   250
420
  2301728
370
    15
  0
SPLINE
  5
233
330
221
100
AcDbEntity
  8
ITSE
 62
   250
420
  2301728
370
    25
100
AcDbSpline
210
0.0
220
0.0
230
1.0
 70
     8
 71
     3
 72
    20
 73
    16
 74
     0
 42
0.0000000001
 43
0.0000000001
 12
1.0
 22
0.0
 32
0.0
 13
1.0
 23
0.0
 33
0.0
 40
0.0
 40
0.0
 40
0.0
 40
0.0
 40
1.0
 40
1.0
 40
1.0
 40
2.0
 40
2.0
 40
2.0
 40
3.0
 40
3.0
 40
3.0
 40
4.0
 40
4.0
 40
4.0
 40
5.0
 40
5.0
 40
5.0
 40
5.0
 10
321.5317069612174
 20
548.6885326603915
 30
0.0
 10
321.5317069612174
 20
548.6885326603915
 30
0.0
 10
331.532126646347
 20
546.2831741718692
 30
0.0
 10
331.532126646347
 20
546.2831741718692
 30
0.0
 10
332.8993042640304
 20
546.0646642699439
 30
0.0
 10
333.3073495538047
 20
544.2844293767748
 30
0.0
 10
333.3073495538047
 20
544.2844293767748
 30
0.0
 10
333.3073495538047
 20
544.2844293767748
 30
0.0
 10
333.4611780207615
 20
541.7360320527941
 30
0.0
 10
333.4611780207615
 20
541.7360320527941
 30
0.0
 10
333.4611780207615
 20
541.7360320527941
 30
0.0
 10
333.3528310876573
 20
539.879222542887
 30
0.0
 10
332.3043992241564
 20
539.7101446560237
 30
0.0
 10
331.9316101637305
 20
539.6501817269054
 30
0.0
 10
331.623756919269
 20
539.6973123731741
 30
0.0
 10
331.3706564256099
 20
539.8019075599568
 30
0.0
  0
POLYLINE
  5
234
330
221
100
AcDbEntity
  8
ITSE
 62
   250
420
  2301728
370
    25
100
AcDb2dPolyline
 66
     1
 10
0.0
 20
0.0
 30
0.0
  0
VERTEX
  5
235
330
234
100
AcDbEntity
  8
ITSE
 62
   250
420
  2301728
370
    25
100
AcDbVertex
100
AcDb2dVertex
 10
317.0890889435923
 20
547.5177051824412
 30
0.0
  0
VERTEX
  5
35C
330
234
100
AcDbEntity
  8
0
100
AcDbVertex
100
AcDb2dVertex
 10
317.0890889435923
 20
547.5177051824412
 30
0.0
  0
SEQEND
  5
236
330
234
100
AcDbEntity
  8
ITSE
 62
   250
420
  2301728
370
    25
  0
ENDBLK
  5
224
330
221
100
AcDbEntity
  8
0
100
AcDbBlockEnd
  0
BLOCK
  5
239
330
237
100
AcDbEntity
  8
0
100
AcDbBlockBegin
  2
block 30
 70
     0
 10
0.0
 20
0.0
 30
0.0
  3
block 30
  1

  0
POLYLINE
  5
23B
330
237
100
AcDbEntity
  8
ITSE
 62
   250
420
  2301728
370
    15
100
AcDb2dPolyline
 66
     1
 10
0.0
 20
0.0
 30
0.0
  0
VERTEX
  5
23C
330
23B
100
AcDbEntity
  8
ITSE
 62
   250
420
  2301728
370
    15
100
AcDbVertex
100
AcDb2dVertex
 10
283.1314425914534
 20
532.1748163278662
 30
0.0
  0
VERTEX
  5
23D
330
23B
100
AcDbEntity
  8
ITSE
 62
   250
420
  2301728
370
    15
100
AcDbVertex
100
AcDb2dVertex
 10
274.9178016316264
 20
534.8376757999722
 30
0.0
  0
SEQEND
  5
23E
330
23B
100
AcDbEntity
  8
ITSE
 62
   250
420
  2301728
370
    15
  0
POLYLINE
  5
23F
330
237
100
AcDbEntity
  8
ITSE
 62
   250
420
  2301728
370
    15
100
AcDb2dPolyline
 66
     1
 10
0.0
 20
0.0
 30
0.0
  0
VERTEX
  5
240
330
23F
100
AcDbEntity
  8
ITSE
 62
   250
420
  2301728
370
    15
100
AcDbVertex
100
AcDb2dVertex
 10
289.5202556727327
 20
530.016808757865
 30
0.0
  0
VERTEX
  5
241
330
23F
100
AcDbEntity
  8
ITSE
 62
   250
420
  2301728
370
    15
100
AcDbVertex
100
AcDb2dVertex
 10
284.7299227596923
 20
531.6348849138203
 30
0.0
  0
SEQEND
  5
242
330
23F
100
AcDbEntity
  8
ITSE
 62
   250
420
  2301728
370
    15
  0
SPLINE
  5
243
330
237
100
AcDbEntity
  8
ITSE
 62
   250
420
  2301728
370
    15
100
AcDbSpline
210
0.0
220
0.0
230
1.0
 70
     8
 71
     3
 72
     8
 73
     4
 74
     0
 42
0.0000000001
 43
0.0000000001
 12
1.0
 22
0.0
 32
0.0
 13
1.0
 23
0.0
 33
0.0
 40
0.0
 40
0.0
 40
0.0
 40
0.0
 40
1.0
 40
1.0
 40
1.0
 40
1.0
 10
290.7171375043763
 20
528.7737807700214
 30
0.0
 10
290.6902668142247
 20
529.5572963192917
 30
0.0
 10
290.3713182900401
 20
529.7039485934001
 30
0.0
 10
290.3713182900401
 20
529.7039485934001
 30
0.0
  0
POLYLINE
  5
244
330
237
100
AcDbEntity
  8
ITSE
 62
   250
420
  2301728
370
    15
100
AcDb2dPolyline
 66
     1
 10
0.0
 20
0.0
 30
0.0
  0
VERTEX
  5
245
330
244
100
AcDbEntity
  8
ITSE
 62
   250
420
  2301728
370
    15
100
AcDbVertex
100
AcDb2dVertex
 10
291.1675171424231
 20
522.2895148753905
 30
0.0
  0
VERTEX
  5
246
330
244
100
AcDbEntity
  8
ITSE
 62
   250
420
  2301728
370
    15
100
AcDbVertex
100
AcDb2dVertex
 10
290.9825105414648
 20
527.6840748121904
 30
0.0
  0
SEQEND
  5
247
330
244
100
AcDbEntity
  8
ITSE
 62
   250
420
  2301728
370
    15
  0
SPLINE
  5
248
330
237
100
AcDbEntity
  8
ITSE
 62
   250
420
  2301728
370
    25
100
AcDbSpline
210
0.0
220
0.0
230
1.0
 70
     8
 71
     3
 72
    20
 73
    16
 74
     0
 42
0.0000000001
 43
0.0000000001
 12
1.0
 22
0.0
 32
0.0
 13
1.0
 23
0.0
 33
0.0
 40
0.0
 40
0.0
 40
0.0
 40
0.0
 40
1.0
 40
1.0
 40
1.0
 40
2.0
 40
2.0
 40
2.0
 40
3.0
 40
3.0
 40
3.0
 40
4.0
 40
4.0
 40
4.0
 40
5.0
 40
5.0
 40
5.0
 40
5.0
 10
277.6410217339808
 20
536.4017064184418
 30
0.0
 10
277.6410217339808
 20
536.4017064184418
 30
0.0
 10
292.323469870048
 20
531.5590283733472
 30
0.0
 10
292.323469870048
 20
531.5590283733472
 30
0.0
 10
293.7282236635583
 20
531.2105232446702
 30
0.0
 10
293.9964399203054
 20
529.320249847292
 30
0.0
 10
293.9964399203054
 20
529.320249847292
 30
0.0
 10
293.9964399203054
 20
529.320249847292
 30
0.0
 10
294.1812633827703
 20
523.9310299988192
 30
0.0
 10
294.1812633827703
 20
523.9310299988192
 30
0.0
 10
294.1812633827703
 20
523.9310299988192
 30
0.0
 10
294.3633867119343
 20
522.3692131565849
 30
0.0
 10
292.9175782012044
 20
521.8459556894923
 30
0.0
 10
292.546234100434
 20
521.7117818907554
 30
0.0
 10
292.2056322206099
 20
521.8510201057506
 30
0.0
 10
291.9440636738973
 20
521.967545112394
 30
0.0
  0
POLYLINE
  5
249
330
237
100
AcDbEntity
  8
ITSE
 62
   250
420
  2301728
370
    25
100
AcDb2dPolyline
 66
     1
 10
0.0
 20
0.0
 30
0.0
  0
VERTEX
  5
24A
330
249
100
AcDbEntity
  8
ITSE
 62
   250
420
  2301728
370
    25
100
AcDbVertex
100
AcDb2dVertex
 10
277.3924020351405
 20
534.113853571097
 30
0.0
  0
VERTEX
  5
35D
330
249
100
AcDbEntity
  8
0
100
AcDbVertex
100
AcDb2dVertex
 10
277.3924020351405
 20
534.113853571097
 30
0.0
  0
SEQEND
  5
24B
330
249
100
AcDbEntity
  8
ITSE
 62
   250
420
  2301728
370
    25
  0
ENDBLK
  5
23A
330
237
100
AcDbEntity
  8
0
100
AcDbBlockEnd
  0
BLOCK
  5
24E
330
24C
100
AcDbEntity
  8
0
100
AcDbBlockBegin
  2
block 31
 70
     0
 10
0.0
 20
0.0
 30
0.0
  3
block 31
  1

  0
POLYLINE
  5
250
330
24C
100
AcDbEntity
  8
ITSE
 62
   250
420
  2301728
370
    15
100
AcDb2dPolyline
 66
     1
 10
0.0
 20
0.0
 30
0.0
  0
VERTEX
  5
251
330
250
100
AcDbEntity
  8
ITSE
 62
   250
420
  2301728
370
    15
100
AcDbVertex
100
AcDb2dVertex
 10
278.0126081706449
 20
530.3537599850315
 30
0.0
  0
VERTEX
  5
252
330
250
100
AcDbEntity
  8
ITSE
 62
   250
420
  2301728
370
    15
100
AcDbVertex
100
AcDb2dVertex
 10
268.9441412155802
 20
533.3130325341936
 30
0.0
  0
SEQEND
  5
253
330
250
100
AcDbEntity
  8
ITSE
 62
   250
420
  2301728
370
    15
  0
POLYLINE
  5
254
330
24C
100
AcDbEntity
  8
ITSE
 62
   250
420
  2301728
370
    15
100
AcDb2dPolyline
 66
     1
 10
0.0
 20
0.0
 30
0.0
  0
VERTEX
  5
255
330
254
100
AcDbEntity
  8
ITSE
 62
   250
420
  2301728
370
    15
100
AcDbVertex
100
AcDb2dVertex
 10
284.2484763444372
 20
528.2653356644669
 30
0.0
  0
VERTEX
  5
256
330
254
100
AcDbEntity
  8
ITSE
 62
   250
420
  2301728
370
    15
100
AcDbVertex
100
AcDb2dVertex
 10
279.4581275978817
 20
529.8838735057725
 30
0.0
  0
SEQEND
  5
257
330
254
100
AcDbEntity
  8
ITSE
 62
   250
420
  2301728
370
    15
  0
SPLINE
  5
258
330
24C
100
AcDbEntity
  8
ITSE
 62
   250
420
  2301728
370
    15
100
AcDbSpline
210
0.0
220
0.0
230
1.0
 70
     8
 71
     3
 72
     8
 73
     4
 74
     0
 42
0.0000000001
 43
0.0000000001
 12
1.0
 22
0.0
 32
0.0
 13
1.0
 23
0.0
 33
0.0
 40
0.0
 40
0.0
 40
0.0
 40
0.0
 40
1.0
 40
1.0
 40
1.0
 40
1.0
 10
285.606197732026
 20
527.0432401482576
 30
0.0
 10
285.5793270418744
 20
527.8267556975243
 30
0.0
 10
285.1000638140431
 20
527.9529442739213
 30
0.0
 10
285.1000638140431
 20
527.9529442739213
 30
0.0
  0
POLYLINE
  5
259
330
24C
100
AcDbEntity
  8
ITSE
 62
   250
420
  2301728
370
    15
100
AcDb2dPolyline
 66
     1
 10
0.0
 20
0.0
 30
0.0
  0
VERTEX
  5
25A
330
259
100
AcDbEntity
  8
ITSE
 62
   250
420
  2301728
370
    15
100
AcDbVertex
100
AcDb2dVertex
 10
285.9549667680294
 20
521.0454809563234
 30
0.0
  0
VERTEX
  5
25B
330
259
100
AcDbEntity
  8
ITSE
 62
   250
420
  2301728
370
    15
100
AcDbVertex
100
AcDb2dVertex
 10
285.7898668983325
 20
525.859585631586
 30
0.0
  0
SEQEND
  5
25C
330
259
100
AcDbEntity
  8
ITSE
 62
   250
420
  2301728
370
    15
  0
SPLINE
  5
25D
330
24C
100
AcDbEntity
  8
ITSE
 62
   250
420
  2301728
370
    25
100
AcDbSpline
210
0.0
220
0.0
230
1.0
 70
     8
 71
     3
 72
    20
 73
    16
 74
     0
 42
0.0000000001
 43
0.0000000001
 12
1.0
 22
0.0
 32
0.0
 13
1.0
 23
0.0
 33
0.0
 40
0.0
 40
0.0
 40
0.0
 40
0.0
 40
1.0
 40
1.0
 40
1.0
 40
2.0
 40
2.0
 40
2.0
 40
3.0
 40
3.0
 40
3.0
 40
4.0
 40
4.0
 40
4.0
 40
5.0
 40
5.0
 40
5.0
 40
5.0
 10
270.9237786694221
 20
535.031745485956
 30
0.0
 10
270.9237786694221
 20
535.031745485956
 30
0.0
 10
287.0521099039879
 20
529.80847121018
 30
0.0
 10
287.0521099039879
 20
529.80847121018
 30
0.0
 10
288.4556308068577
 20
529.459112406108
 30
0.0
 10
288.7237292206264
 20
527.5696463606737
 30
0.0
 10
288.7237292206264
 20
527.5696463606737
 30
0.0
 10
288.7237292206264
 20
527.5696463606737
 30
0.0
 10
288.895294846744
 20
522.5670083553705
 30
0.0
 10
288.895294846744
 20
522.5670083553705
 30
0.0
 10
288.895294846744
 20
522.5670083553705
 30
0.0
 10
289.1541282783164
 20
521.2081462963815
 30
0.0
 10
287.6321468703991
 20
520.4820426243323
 30
0.0
 10
287.2765386522797
 20
520.3122672603477
 30
0.0
 10
286.921011329976
 20
520.4871348346605
 30
0.0
 10
286.6595704139954
 20
520.6027626702144
 30
0.0
  0
ENDBLK
  5
24F
330
24C
100
AcDbEntity
  8
0
100
AcDbBlockEnd
  0
BLOCK
  5
260
330
25E
100
AcDbEntity
  8
0
100
AcDbBlockBegin
  2
block 32
 70
     0
 10
0.0
 20
0.0
 30
0.0
  3
block 32
  1

  0
POLYLINE
  5
262
330
25E
100
AcDbEntity
  8
ITSE
 62
   250
420
  2301728
370
    15
100
AcDb2dPolyline
 66
     1
 10
0.0
 20
0.0
 30
0.0
  0
VERTEX
  5
263
330
262
100
AcDbEntity
  8
ITSE
 62
   250
420
  2301728
370
    15
100
AcDbVertex
100
AcDb2dVertex
 10
271.1280433476868
 20
529.0756442217098
 30
0.0
  0
VERTEX
  5
264
330
262
100
AcDbEntity
  8
ITSE
 62
   250
420
  2301728
370
    15
100
AcDbVertex
100
AcDb2dVertex
 10
266.6124398246211
 20
530.6010869754973
 30
0.0
  0
VERTEX
  5
265
330
262
100
AcDbEntity
  8
ITSE
 62
   250
420
  2301728
370
    15
100
AcDbVertex
100
AcDb2dVertex
 10
265.3889997031492
 20
531.0147715138501
 30
0.0
  0
SEQEND
  5
266
330
262
100
AcDbEntity
  8
ITSE
 62
   250
420
  2301728
370
    15
  0
POLYLINE
  5
267
330
25E
100
AcDbEntity
  8
ITSE
 62
   250
420
  2301728
370
    15
100
AcDb2dPolyline
 66
     1
 10
0.0
 20
0.0
 30
0.0
  0
VERTEX
  5
268
330
267
100
AcDbEntity
  8
ITSE
 62
   250
420
  2301728
370
    15
100
AcDbVertex
100
AcDb2dVertex
 10
277.5168873112734
 20
526.9167361626296
 30
0.0
  0
VERTEX
  5
269
330
267
100
AcDbEntity
  8
ITSE
 62
   250
420
  2301728
370
    15
100
AcDbVertex
100
AcDb2dVertex
 10
272.7264303787924
 20
528.5357997683432
 30
0.0
  0
SEQEND
  5
26A
330
267
100
AcDbEntity
  8
ITSE
 62
   250
420
  2301728
370
    15
  0
SPLINE
  5
26B
330
25E
100
AcDbEntity
  8
ITSE
 62
   250
420
  2301728
370
    15
100
AcDbSpline
210
0.0
220
0.0
230
1.0
 70
     8
 71
     3
 72
     8
 73
     4
 74
     0
 42
0.0000000001
 43
0.0000000001
 12
1.0
 22
0.0
 32
0.0
 13
1.0
 23
0.0
 33
0.0
 40
0.0
 40
0.0
 40
0.0
 40
0.0
 40
1.0
 40
1.0
 40
1.0
 40
1.0
 10
278.7137228194661
 20
525.6750589084077
 30
0.0
 10
278.6868517398925
 20
526.4585858127239
 30
0.0
 10
278.367919046279
 20
526.6047764872437
 30
0.0
 10
278.367919046279
 20
526.6047764872437
 30
0.0
  0
POLYLINE
  5
26C
330
25E
100
AcDbEntity
  8
ITSE
 62
   250
420
  2301728
370
    15
100
AcDb2dPolyline
 66
     1
 10
0.0
 20
0.0
 30
0.0
  0
VERTEX
  5
26D
330
26C
100
AcDbEntity
  8
ITSE
 62
   250
420
  2301728
370
    15
100
AcDbVertex
100
AcDb2dVertex
 10
278.8917086510019
 20
520.4852157831065
 30
0.0
  0
VERTEX
  5
26E
330
26C
100
AcDbEntity
  8
ITSE
 62
   250
420
  2301728
370
    15
100
AcDbVertex
100
AcDb2dVertex
 10
278.751374520918
 20
524.5771826210039
 30
0.0
  0
SEQEND
  5
26F
330
26C
100
AcDbEntity
  8
ITSE
 62
   250
420
  2301728
370
    15
  0
SPLINE
  5
270
330
25E
100
AcDbEntity
  8
ITSE
 62
   250
420
  2301728
370
    25
100
AcDbSpline
210
0.0
220
0.0
230
1.0
 70
     8
 71
     3
 72
    26
 73
    22
 74
     0
 42
0.0000000001
 43
0.0000000001
 12
1.0
 22
0.0
 32
0.0
 13
1.0
 23
0.0
 33
0.0
 40
0.0
 40
0.0
 40
0.0
 40
0.0
 40
1.0
 40
1.0
 40
1.0
 40
2.0
 40
2.0
 40
2.0
 40
3.0
 40
3.0
 40
3.0
 40
4.0
 40
4.0
 40
4.0
 40
5.0
 40
5.0
 40
5.0
 40
6.0
 40
6.0
 40
6.0
 40
7.0
 40
7.0
 40
7.0
 40
7.0
 10
265.3889997031492
 20
531.0147715138501
 30
0.0
 10
265.3889997031492
 20
531.0147715138501
 30
0.0
 10
264.8861914580584
 20
531.3122581626831
 30
0.0
 10
265.2553495398897
 20
531.9596985314201
 30
0.0
 10
265.2553495398897
 20
531.9596985314201
 30
0.0
 10
266.0696181575786
 20
533.1955181644416
 30
0.0
 10
270.1178846410858
 20
531.8430125730338
 30
0.0
 10
270.1178846410858
 20
531.8430125730338
 30
0.0
 10
280.3200149178065
 20
528.4590429632972
 30
0.0
 10
280.3200149178065
 20
528.4590429632972
 30
0.0
 10
281.7239428651155
 20
528.1109602862925
 30
0.0
 10
281.9925749908516
 20
526.2215125445273
 30
0.0
 10
281.9925749908516
 20
526.2215125445273
 30
0.0
 10
281.9925749908516
 20
526.2215125445273
 30
0.0
 10
282.1639396570408
 20
521.2247342781657
 30
0.0
 10
282.1639396570408
 20
521.2247342781657
 30
0.0
 10
282.1639396570408
 20
521.2247342781657
 30
0.0
 10
282.0580180970701
 20
519.6024620740118
 30
0.0
 10
280.8997702604029
 20
519.1406350656762
 30
0.0
 10
280.5337060788343
 20
518.9946517510034
 30
0.0
 10
280.1886566961166
 20
519.1452772555813
 30
0.0
 10
279.9272021602865
 20
519.2609158733812
 30
0.0
  0
ENDBLK
  5
261
330
25E
100
AcDbEntity
  8
0
100
AcDbBlockEnd
  0
BLOCK
  5
275
330
273
100
AcDbEntity
  8
0
100
AcDbBlockBegin
  2
block 33
 70
     0
 10
0.0
 20
0.0
 30
0.0
  3
block 33
  1

  0
SPLINE
  5
277
330
273
100
AcDbEntity
  8
ITSE
 62
   250
420
  2301728
370
    15
100
AcDbSpline
210
0.0
220
0.0
230
1.0
 70
    11
 71
     3
 72
    17
 73
    13
 74
     0
 42
0.0000000001
 43
0.0000000001
 12
1.0
 22
0.0
 32
0.0
 13
1.0
 23
0.0
 33
0.0
 40
0.0
 40
0.0
 40
0.0
 40
0.0
 40
1.0
 40
1.0
 40
1.0
 40
2.0
 40
2.0
 40
2.0
 40
3.0
 40
3.0
 40
3.0
 40
4.0
 40
4.0
 40
4.0
 40
4.0
 10
332.7265927490935
 20
536.9659121251916
 30
0.0
 10
332.6381522859701
 20
536.0786762593552
 30
0.0
 10
332.0145301057273
 20
535.4143168685678
 30
0.0
 10
331.3343732698213
 20
535.4816699643343
 30
0.0
 10
330.6524448156306
 20
535.548464790967
 30
0.0
 10
330.1720180688499
 20
536.3221088079454
 30
0.0
 10
330.2604230706584
 20
537.2097938624865
 30
0.0
 10
330.3487869945984
 20
538.096664044805
 30
0.0
 10
330.9715454423349
 20
538.7618739567542
 30
0.0
 10
331.6526016596836
 20
538.6945751501917
 30
0.0
 10
332.3327639245108
 20
538.6271321162785
 30
0.0
 10
332.8131224488261
 20
537.8531229178025
 30
0.0
 10
332.7265927490935
 20
536.9659121251916
 30
0.0
  0
SPLINE
  5
278
330
273
100
AcDbEntity
  8
ITSE
 62
   250
420
  2301728
370
    25
100
AcDbSpline
210
0.0
220
0.0
230
1.0
 70
    11
 71
     3
 72
    23
 73
    19
 74
     0
 42
0.0000000001
 43
0.0000000001
 12
1.0
 22
0.0
 32
0.0
 13
1.0
 23
0.0
 33
0.0
 40
0.0
 40
0.0
 40
0.0
 40
0.0
 40
1.0
 40
1.0
 40
1.0
 40
2.0
 40
2.0
 40
2.0
 40
3.0
 40
3.0
 40
3.0
 40
4.0
 40
4.0
 40
4.0
 40
5.0
 40
5.0
 40
5.0
 40
6.0
 40
6.0
 40
6.0
 40
6.0
 10
331.6526016596836
 20
538.6945751501917
 30
0.0
 10
331.601128986742
 20
538.6994115088919
 30
0.0
 10
331.269184591989
 20
538.7957270867801
 30
0.0
 10
331.1380078949824
 20
538.8080284407897
 30
0.0
 10
330.4577611209279
 20
538.8753761076359
 30
0.0
 10
329.8341660852857
 20
538.2105670261262
 30
0.0
 10
329.7466333203283
 20
537.3233859515149
 30
0.0
 10
329.6591952253366
 20
536.4361319160807
 30
0.0
 10
330.1395273021426
 20
535.6625608599225
 30
0.0
 10
330.8205618038119
 20
535.59562180594
 30
0.0
 10
330.872034476748
 20
535.5907854472398
 30
0.0
 10
331.204005320591
 20
535.4940317009732
 30
0.0
 10
331.3343732698213
 20
535.4816699643343
 30
0.0
 10
332.0145301057273
 20
535.4143168685678
 30
0.0
 10
332.6381522859701
 20
536.0786762593552
 30
0.0
 10
332.7265927490935
 20
536.9659121251916
 30
0.0
 10
332.8131224488261
 20
537.8531229178025
 30
0.0
 10
332.3327639245108
 20
538.6271321162785
 30
0.0
 10
331.6526016596836
 20
538.6945751501917
 30
0.0
  0
ENDBLK
  5
276
330
273
100
AcDbEntity
  8
0
100
AcDbBlockEnd
  0
BLOCK
  5
2A0
330
29E
100
AcDbEntity
  8
0
100
AcDbBlockBegin
  2
block 34
 70
     0
 10
0.0
 20
0.0
 30
0.0
  3
block 34
  1

  0
SPLINE
  5
2A2
330
29E
100
AcDbEntity
  8
ITSE
370
     0
100
AcDbSpline
210
0.0
220
0.0
230
1.0
 70
     8
 71
     3
 72
    23
 73
    19
 74
     0
 42
0.0000000001
 43
0.0000000001
 12
1.0
 22
0.0
 32
0.0
 13
1.0
 23
0.0
 33
0.0
 40
0.0
 40
0.0
 40
0.0
 40
0.0
 40
1.0
 40
1.0
 40
1.0
 40
2.0
 40
2.0
 40
2.0
 40
3.0
 40
3.0
 40
3.0
 40
4.0
 40
4.0
 40
4.0
 40
5.0
 40
5.0
 40
5.0
 40
6.0
 40
6.0
 40
6.0
 40
6.0
 10
292.4024850076667
 20
484.4657072562077
 30
0.0
 10
292.4024850076667
 20
484.4657072562077
 30
0.0
 10
292.3504431579931
 20
484.1758284389743
 30
0.0
 10
292.2547667827039
 20
484.0732988122381
 30
0.0
 10
292.07781410802
 20
483.8719723912927
 30
0.0
 10
291.9242405968726
 20
483.5330960622668
 30
0.0
 10
291.6927442974193
 20
483.2937245396743
 30
0.0
 10
291.5854929254228
 20
483.4108396519359
 30
0.0
 10
291.4765488654139
 20
483.5156269910221
 30
0.0
 10
291.4008850780428
 20
483.6122804881352
 30
0.0
 10
291.2406524403359
 20
483.8246786561285
 30
0.0
 10
291.1395657426174
 20
484.3665470091601
 30
0.0
 10
291.1448339378394
 20
484.212933058403
 30
0.0
 10
291.1525876777141
 20
483.9868437498608
 30
0.0
 10
291.0974564132612
 20
485.5944021231144
 30
0.0
 10
291.0351549220441
 20
485.8442508262779
 30
0.0
 10
291.0351549220441
 20
485.8442508262779
 30
0.0
 10
292.3448102266757
 20
486.1474313746003
 30
0.0
 10
292.3448102266757
 20
486.1474313746003
 30
0.0
  0
SPLINE
  5
2A3
330
29E
100
AcDbEntity
  8
ITSE
370
     0
100
AcDbSpline
210
0.0
220
0.0
230
1.0
 70
    11
 71
     3
 72
    17
 73
    13
 74
     0
 42
0.0000000001
 43
0.0000000001
 12
1.0
 22
0.0
 32
0.0
 13
1.0
 23
0.0
 33
0.0
 40
0.0
 40
0.0
 40
0.0
 40
0.0
 40
1.0
 40
1.0
 40
1.0
 40
2.0
 40
2.0
 40
2.0
 40
3.0
 40
3.0
 40
3.0
 40
4.0
 40
4.0
 40
4.0
 40
4.0
 10
291.6417706478678
 20
490.5598829868704
 30
0.0
 10
291.6417706478678
 20
490.5598829868704
 30
0.0
 10
291.0573564745782
 20
489.6504971587019
 30
0.0
 10
291.0573564745782
 20
489.6504971587019
 30
0.0
 10
291.1299496154861
 20
489.5816954247384
 30
0.0
 10
290.9476362979694
 20
492.8497995939188
 30
0.0
 10
290.9479925099204
 20
492.8394129012258
 30
0.0
 10
291.264782432705
 20
492.2812159591967
 30
0.0
 10
291.5044911055757
 20
491.6759506563922
 30
0.0
 10
291.6107038300452
 20
491.4657523446231
 30
0.0
 10
291.8217249033514
 20
491.0369580068864
 30
0.0
 10
291.7891976125911
 20
490.7208821468039
 30
0.0
 10
291.6417706478678
 20
490.5598829868704
 30
0.0
  0
HATCH
  5
2A4
330
29E
100
AcDbEntity
  8
ITSE
 62
   254
420
 13358815
100
AcDbHatch
 10
0.0
 20
0.0
 30
0.0
210
0.0
220
0.0
230
1.0
  2
SOLID
 70
     1
 71
     0
 91
        1
 92
        1
 93
        2
 72
     4
 94
        3
 73
     0
 74
     0
 95
       17
 96
       13
 40
0.0
 40
0.0
 40
0.0
 40
0.0
 40
1.0
 40
1.0
 40
1.0
 40
2.0
 40
2.0
 40
2.0
 40
3.0
 40
3.0
 40
3.0
 40
4.0
 40
4.0
 40
4.0
 40
4.0
 10
291.6417706478678
 20
490.5598829868704
 10
291.6417706478678
 20
490.5598829868704
 10
291.0573564745782
 20
489.6504971587019
 10
291.0573564745782
 20
489.6504971587019
 10
291.1299496154861
 20
489.5816954247384
 10
290.9476362979694
 20
492.8497995939188
 10
290.9479925099204
 20
492.8394129012258
 10
291.264782432705
 20
492.2812159591967
 10
291.5044911055757
 20
491.6759506563922
 10
291.6107038300452
 20
491.4657523446231
 10
291.8217249033514
 20
491.0369580068864
 10
291.7891976125911
 20
490.7208821468039
 10
291.6417706478678
 20
490.5598829868704
 97
        0
 72
     1
 10
291.6417706478678
 20
490.5598829868704
 11
291.6417706478678
 21
490.5598829868704
 97
        0
 75
     2
 76
     1
 98
        0
  0
SPLINE
  5
2A5
330
29E
100
AcDbEntity
  8
ITSE
 62
   250
420
  2301728
370
    20
100
AcDbSpline
210
0.0
220
0.0
230
1.0
 70
    11
 71
     3
 72
    17
 73
    13
 74
     0
 42
0.0000000001
 43
0.0000000001
 12
1.0
 22
0.0
 32
0.0
 13
1.0
 23
0.0
 33
0.0
 40
0.0
 40
0.0
 40
0.0
 40
0.0
 40
1.0
 40
1.0
 40
1.0
 40
2.0
 40
2.0
 40
2.0
 40
3.0
 40
3.0
 40
3.0
 40
4.0
 40
4.0
 40
4.0
 40
4.0
 10
291.5867746256854
 20
490.479512982708
 30
0.0
 10
291.5867746256854
 20
490.479512982708
 30
0.0
 10
290.9074947086574
 20
489.5666621839682
 30
0.0
 10
290.9074947086574
 20
489.5666621839682
 30
0.0
 10
290.9452008374092
 20
489.6083607819191
 30
0.0
 10
290.8286239565141
 20
491.8664341785088
 30
0.0
 10
290.7981223634488
 20
492.7558222928183
 30
0.0
 10
291.114700988308
 20
492.1976180899455
 30
0.0
 10
291.4492910314566
 20
491.5953621073249
 30
0.0
 10
291.5557089407857
 20
491.3853493058068
 30
0.0
 10
291.7667288811645
 20
490.9565880027239
 30
0.0
 10
291.7361044084564
 20
490.6405443453086
 30
0.0
 10
291.5867746256854
 20
490.479512982708
 30
0.0
  0
SPLINE
  5
2A6
330
29E
100
AcDbEntity
  8
ITSE
 62
   250
420
  2301728
370
    15
100
AcDbSpline
210
0.0
220
0.0
230
1.0
 70
     8
 71
     3
 72
    14
 73
    10
 74
     0
 42
0.0000000001
 43
0.0000000001
 12
1.0
 22
0.0
 32
0.0
 13
1.0
 23
0.0
 33
0.0
 40
0.0
 40
0.0
 40
0.0
 40
0.0
 40
1.0
 40
1.0
 40
1.0
 40
2.0
 40
2.0
 40
2.0
 40
3.0
 40
3.0
 40
3.0
 40
3.0
 10
290.8028621505537
 20
494.3632853694708
 30
0.0
 10
290.8028621505537
 20
494.3632853694708
 30
0.0
 10
292.4373561200046
 20
491.764637870393
 30
0.0
 10
292.5656040595359
 20
491.4540758196872
 30
0.0
 10
292.6920479100281
 20
491.141270283546
 30
0.0
 10
292.7839905521178
 20
490.7488306859022
 30
0.0
 10
292.6366565426406
 20
490.4679206547589
 30
0.0
 10
292.4914946158942
 20
490.1860273805705
 30
0.0
 10
291.0159740533236
 20
488.1492101592994
 30
0.0
 10
291.0159740533236
 20
488.1492101592994
 30
0.0
  0
SPLINE
  5
2A7
330
29E
100
AcDbEntity
  8
ITSE
 62
   250
420
  2301728
370
    20
100
AcDbSpline
210
0.0
220
0.0
230
1.0
 70
     8
 71
     3
 72
    32
 73
    28
 74
     0
 42
0.0000000001
 43
0.0000000001
 12
1.0
 22
0.0
 32
0.0
 13
1.0
 23
0.0
 33
0.0
 40
0.0
 40
0.0
 40
0.0
 40
0.0
 40
1.0
 40
1.0
 40
1.0
 40
2.0
 40
2.0
 40
2.0
 40
3.0
 40
3.0
 40
3.0
 40
4.0
 40
4.0
 40
4.0
 40
5.0
 40
5.0
 40
5.0
 40
6.0
 40
6.0
 40
6.0
 40
7.0
 40
7.0
 40
7.0
 40
8.0
 40
8.0
 40
8.0
 40
9.0
 40
9.0
 40
9.0
 40
9.0
 10
293.1442347636603
 20
494.8205926159526
 30
0.0
 10
293.1442347636603
 20
494.8205926159526
 30
0.0
 10
294.8064985431947
 20
491.534913685191
 30
0.0
 10
294.9347693491027
 20
491.2243524108344
 30
0.0
 10
295.0654391677144
 20
490.9116918122554
 30
0.0
 10
295.1531558414172
 20
490.5191072848957
 30
0.0
 10
295.0078261188446
 20
490.2414391948978
 30
0.0
 10
294.8605645742246
 20
489.9584161795619
 30
0.0
 10
292.5738258542551
 20
486.3351003696826
 30
0.0
 10
292.5738258542551
 20
486.3351003696826
 30
0.0
 10
292.5738258542551
 20
486.3351003696826
 30
0.0
 10
291.0871085482449
 20
486.0133332731948
 30
0.0
 10
291.0871085482449
 20
486.0133332731948
 30
0.0
 10
291.0871085482449
 20
486.0133332731948
 30
0.0
 10
290.962483484358
 20
489.6472434865491
 30
0.0
 10
290.962483484358
 20
489.6472434865491
 30
0.0
 10
290.962483484358
 20
489.6472434865491
 30
0.0
 10
291.6399776593844
 20
490.5566482922104
 30
0.0
 10
291.6399776593844
 20
490.5566482922104
 30
0.0
 10
291.7891976125911
 20
490.7208821468039
 30
0.0
 10
291.8217249033514
 20
491.0369580068864
 30
0.0
 10
291.608802144272
 20
491.4656871262514
 30
0.0
 10
291.5064652562114
 20
491.6739028905731
 30
0.0
 10
291.1752199662924
 20
492.1169456451289
 30
0.0
 10
290.8586329614491
 20
492.6753941978932
 30
0.0
 10
290.8586329614491
 20
492.6753941978932
 30
0.0
 10
290.8007491663629
 20
494.3632129046118
 30
0.0
 10
290.8007491663629
 20
494.3632129046118
 30
0.0
  0
SPLINE
  5
2A8
330
29E
100
AcDbEntity
  8
ITSE
 62
   250
420
  2301728
370
    15
100
AcDbSpline
210
0.0
220
0.0
230
1.0
 70
    11
 71
     3
 72
    32
 73
    28
 74
     0
 42
0.0000000001
 43
0.0000000001
 12
1.0
 22
0.0
 32
0.0
 13
1.0
 23
0.0
 33
0.0
 40
0.0
 40
0.0
 40
0.0
 40
0.0
 40
1.0
 40
1.0
 40
1.0
 40
2.0
 40
2.0
 40
2.0
 40
3.0
 40
3.0
 40
3.0
 40
4.0
 40
4.0
 40
4.0
 40
5.0
 40
5.0
 40
5.0
 40
6.0
 40
6.0
 40
6.0
 40
7.0
 40
7.0
 40
7.0
 40
8.0
 40
8.0
 40
8.0
 40
9.0
 40
9.0
 40
9.0
 40
9.0
 10
293.5950519545877
 20
487.7635830289219
 30
0.0
 10
293.5950519545877
 20
487.7635830289219
 30
0.0
 10
293.7137276535796
 20
484.3031488177257
 30
0.0
 10
293.7137276535796
 20
484.3031488177257
 30
0.0
 10
293.7137276535796
 20
484.3031488177257
 30
0.0
 10
293.6597188760261
 20
484.0089387171802
 30
0.0
 10
293.5661303771622
 20
483.9065464637888
 30
0.0
 10
293.2732857168257
 20
483.587644810269
 30
0.0
 10
292.7095450661609
 20
482.9205217109557
 30
0.0
 10
292.5559893150048
 20
482.7593454186353
 30
0.0
 10
292.4602164934149
 20
482.6589608423565
 30
0.0
 10
292.2133615065977
 20
482.5720110290267
 30
0.0
 10
292.0792276164393
 20
482.7451103307194
 30
0.0
 10
291.9645732087747
 20
482.8992038166671
 30
0.0
 10
291.537189783292
 20
483.3141985191642
 30
0.0
 10
291.3317641299982
 20
483.5798374426286
 30
0.0
 10
291.1736372301866
 20
483.7925193684005
 30
0.0
 10
291.1594544734298
 20
483.9655014591926
 30
0.0
 10
291.154150045777
 20
484.1201719020464
 30
0.0
 10
291.154150045777
 20
484.1201719020464
 30
0.0
 10
291.0919813153987
 20
485.9329339358355
 30
0.0
 10
291.0919813153987
 20
485.9329339358355
 30
0.0
 10
291.0919813153987
 20
485.9329339358355
 30
0.0
 10
292.5765856369826
 20
486.2546285742992
 30
0.0
 10
292.5765856369826
 20
486.2546285742992
 30
0.0
 10
292.5765856369826
 20
486.2546285742992
 30
0.0
 10
293.0627297066567
 20
486.8403621769712
 30
0.0
 10
293.5950519545877
 20
487.7635830289219
 30
0.0
  0
SPLINE
  5
2A9
330
29E
100
AcDbEntity
  8
ITSE
 62
   250
420
  2301728
370
    20
100
AcDbSpline
210
0.0
220
0.0
230
1.0
 70
    11
 71
     3
 72
    26
 73
    22
 74
     0
 42
0.0000000001
 43
0.0000000001
 12
1.0
 22
0.0
 32
0.0
 13
1.0
 23
0.0
 33
0.0
 40
0.0
 40
0.0
 40
0.0
 40
0.0
 40
1.0
 40
1.0
 40
1.0
 40
2.0
 40
2.0
 40
2.0
 40
3.0
 40
3.0
 40
3.0
 40
4.0
 40
4.0
 40
4.0
 40
5.0
 40
5.0
 40
5.0
 40
6.0
 40
6.0
 40
6.0
 40
7.0
 40
7.0
 40
7.0
 40
7.0
 10
292.4024850076667
 20
484.4657072562077
 30
0.0
 10
292.4024850076667
 20
484.4657072562077
 30
0.0
 10
292.3504431579931
 20
484.1758284389743
 30
0.0
 10
292.2547667827039
 20
484.0732988122381
 30
0.0
 10
292.07781410802
 20
483.8719723912927
 30
0.0
 10
291.9186535562721
 20
483.6960071434678
 30
0.0
 10
291.6872224751914
 20
483.4547339351029
 30
0.0
 10
291.5798975122398
 20
483.5739948671089
 30
0.0
 10
291.4765488654139
 20
483.5156269910221
 30
0.0
 10
291.4008850780428
 20
483.6122804881352
 30
0.0
 10
291.2406524403359
 20
483.8246786561285
 30
0.0
 10
291.1395657426174
 20
484.3665470091601
 30
0.0
 10
291.1448339378394
 20
484.212933058403
 30
0.0
 10
291.1525876777141
 20
483.9868437498608
 30
0.0
 10
291.0974564132612
 20
485.5944021231144
 30
0.0
 10
291.109856312657
 20
486.0162288778602
 30
0.0
 10
291.109856312657
 20
486.0162288778602
 30
0.0
 10
292.3591695416562
 20
486.3339065291721
 30
0.0
 10
292.3591695416562
 20
486.3339065291721
 30
0.0
 10
292.3591695416562
 20
486.3339065291721
 30
0.0
 10
292.4024850076667
 20
484.4657072562077
 30
0.0
 10
292.4024850076667
 20
484.4657072562077
 30
0.0
  0
SPLINE
  5
2AA
330
29E
100
AcDbEntity
  8
ITSE
 62
   250
420
  2301728
370
    20
100
AcDbSpline
210
0.0
220
0.0
230
1.0
 70
    11
 71
     3
 72
    17
 73
    13
 74
     0
 42
0.0000000001
 43
0.0000000001
 12
1.0
 22
0.0
 32
0.0
 13
1.0
 23
0.0
 33
0.0
 40
0.0
 40
0.0
 40
0.0
 40
0.0
 40
1.0
 40
1.0
 40
1.0
 40
2.0
 40
2.0
 40
2.0
 40
3.0
 40
3.0
 40
3.0
 40
4.0
 40
4.0
 40
4.0
 40
4.0
 10
291.6417706478678
 20
490.5598829868704
 30
0.0
 10
291.6417706478678
 20
490.5598829868704
 30
0.0
 10
291.0573564745782
 20
489.6504971587019
 30
0.0
 10
291.0573564745782
 20
489.6504971587019
 30
0.0
 10
291.1299496154861
 20
489.5816954247384
 30
0.0
 10
290.9476362979694
 20
492.8497995939188
 30
0.0
 10
290.9479925099204
 20
492.8394129012258
 30
0.0
 10
291.264782432705
 20
492.2812159591967
 30
0.0
 10
291.5044911055757
 20
491.6759506563922
 30
0.0
 10
291.6107038300452
 20
491.4657523446231
 30
0.0
 10
291.8217249033514
 20
491.0369580068864
 30
0.0
 10
291.7891976125911
 20
490.7208821468039
 30
0.0
 10
291.6417706478678
 20
490.5598829868704
 30
0.0
  0
ENDBLK
  5
2A1
330
29E
100
AcDbEntity
  8
0
100
AcDbBlockEnd
  0
BLOCK
  5
2AD
330
2AB
100
AcDbEntity
  8
0
100
AcDbBlockBegin
  2
block 35
 70
     0
 10
0.0
 20
0.0
 30
0.0
  3
block 35
  1

  0
SPLINE
  5
2AF
330
2AB
100
AcDbEntity
  8
ITSE
 62
   250
420
  2301728
370
    13
100
AcDbSpline
210
0.0
220
0.0
230
1.0
 70
    11
 71
     3
 72
    11
 73
     7
 74
     0
 42
0.0000000001
 43
0.0000000001
 12
1.0
 22
0.0
 32
0.0
 13
1.0
 23
0.0
 33
0.0
 40
0.0
 40
0.0
 40
0.0
 40
0.0
 40
1.0
 40
1.0
 40
1.0
 40
2.0
 40
2.0
 40
2.0
 40
2.0
 10
272.5897541649647
 20
535.8191517587948
 30
0.0
 10
275.218033814961
 20
535.9565792578151
 30
0.0
 10
274.8434364626646
 20
537.476108005947
 30
0.0
 10
272.4399659556921
 20
537.3635869131595
 30
0.0
 10
269.6079200288741
 20
537.2323373669924
 30
0.0
 10
270.5756748030462
 20
535.7119671061992
 30
0.0
 10
272.5897541649647
 20
535.8191517587948
 30
0.0
  0
SPLINE
  5
2B0
330
2AB
100
AcDbEntity
  8
ITSE
 62
   250
420
  2301728
370
    18
100
AcDbSpline
210
0.0
220
0.0
230
1.0
 70
     8
 71
     3
 72
    11
 73
     7
 74
     0
 42
0.0000000001
 43
0.0000000001
 12
1.0
 22
0.0
 32
0.0
 13
1.0
 23
0.0
 33
0.0
 40
0.0
 40
0.0
 40
0.0
 40
0.0
 40
1.0
 40
1.0
 40
1.0
 40
2.0
 40
2.0
 40
2.0
 40
2.0
 10
273.5244045134568
 20
536.1384420744635
 30
0.0
 10
273.2451221205629
 20
536.2495519222948
 30
0.0
 10
273.096011444979
 20
536.2551860233561
 30
0.0
 10
272.6447073771797
 20
536.2397085363027
 30
0.0
 10
272.2258931410406
 20
536.2253452890363
 30
0.0
 10
271.976523389455
 20
536.1904177359984
 30
0.0
 10
271.7049739409204
 20
536.076044646341
 30
0.0
  0
ENDBLK
  5
2AE
330
2AB
100
AcDbEntity
  8
0
100
AcDbBlockEnd
  0
BLOCK
  5
2B3
330
2B1
100
AcDbEntity
  8
0
100
AcDbBlockBegin
  2
block 36
 70
     0
 10
0.0
 20
0.0
 30
0.0
  3
block 36
  1

  0
SPLINE
  5
2B5
330
2B1
100
AcDbEntity
  8
ITSE
 62
   250
420
  2301728
370
    13
100
AcDbSpline
210
0.0
220
0.0
230
1.0
 70
    11
 71
     3
 72
    11
 73
     7
 74
     0
 42
0.0000000001
 43
0.0000000001
 12
1.0
 22
0.0
 32
0.0
 13
1.0
 23
0.0
 33
0.0
 40
0.0
 40
0.0
 40
0.0
 40
0.0
 40
1.0
 40
1.0
 40
1.0
 40
2.0
 40
2.0
 40
2.0
 40
2.0
 10
260.8878052237542
 20
532.7731680259785
 30
0.0
 10
263.5160848737487
 20
532.9105955250016
 30
0.0
 10
263.1414875214568
 20
534.4301242731326
 30
0.0
 10
260.7380170144806
 20
534.3176031803459
 30
0.0
 10
257.9059710876654
 20
534.1863536341771
 30
0.0
 10
258.8737258618385
 20
532.6659833733866
 30
0.0
 10
260.8878052237542
 20
532.7731680259785
 30
0.0
  0
SPLINE
  5
2B6
330
2B1
100
AcDbEntity
  8
ITSE
 62
   250
420
  2301728
370
    18
100
AcDbSpline
210
0.0
220
0.0
230
1.0
 70
     8
 71
     3
 72
    11
 73
     7
 74
     0
 42
0.0000000001
 43
0.0000000001
 12
1.0
 22
0.0
 32
0.0
 13
1.0
 23
0.0
 33
0.0
 40
0.0
 40
0.0
 40
0.0
 40
0.0
 40
1.0
 40
1.0
 40
1.0
 40
2.0
 40
2.0
 40
2.0
 40
2.0
 10
261.8224555722491
 20
533.092458341649
 30
0.0
 10
261.5431731793524
 20
533.2035681894804
 30
0.0
 10
261.3940625037694
 20
533.2092022905417
 30
0.0
 10
260.9427584359728
 20
533.1937248034874
 30
0.0
 10
260.5239441998283
 20
533.1793615562201
 30
0.0
 10
260.2745744482481
 20
533.1444340031821
 30
0.0
 10
260.0030249997117
 20
533.0300609135265
 30
0.0
  0
ENDBLK
  5
2B4
330
2B1
100
AcDbEntity
  8
0
100
AcDbBlockEnd
  0
BLOCK
  5
2B9
330
2B7
100
AcDbEntity
  8
0
100
AcDbBlockBegin
  2
block 37
 70
     0
 10
0.0
 20
0.0
 30
0.0
  3
block 37
  1

  0
SPLINE
  5
2BB
330
2B7
100
AcDbEntity
  8
ITSE
370
     0
100
AcDbSpline
210
0.0
220
0.0
230
1.0
 70
     8
 71
     3
 72
    38
 73
    34
 74
     0
 42
0.0000000001
 43
0.0000000001
 12
1.0
 22
0.0
 32
0.0
 13
1.0
 23
0.0
 33
0.0
 40
0.0
 40
0.0
 40
0.0
 40
0.0
 40
1.0
 40
1.0
 40
1.0
 40
2.0
 40
2.0
 40
2.0
 40
3.0
 40
3.0
 40
3.0
 40
4.0
 40
4.0
 40
4.0
 40
5.0
 40
5.0
 40
5.0
 40
6.0
 40
6.0
 40
6.0
 40
7.0
 40
7.0
 40
7.0
 40
8.0
 40
8.0
 40
8.0
 40
9.0
 40
9.0
 40
9.0
 40
10.0
 40
10.0
 40
10.0
 40
11.0
 40
11.0
 40
11.0
 40
11.0
 10
334.5425531914898
 20
540.1487408968324
 30
0.0
 10
334.5425531914898
 20
540.1487408968324
 30
0.0
 10
336.1203391196614
 20
543.4003755867452
 30
0.0
 10
336.1203391196614
 20
543.4003755867452
 30
0.0
 10
336.1203391196614
 20
543.4003755867452
 30
0.0
 10
336.2659574468089
 20
545.1661820695845
 30
0.0
 10
336.2659574468089
 20
545.1661820695845
 30
0.0
 10
336.2659574468089
 20
545.1661820695845
 30
0.0
 10
336.5966129760764
 20
546.0822855952465
 30
0.0
 10
335.6700869279139
 20
546.4776871110507
 30
0.0
 10
335.6700869279139
 20
546.4776871110507
 30
0.0
 10
313.6302095201518
 20
553.3191489361707
 30
0.0
 10
313.6302095201518
 20
553.3191489361707
 30
0.0
 10
313.6302095201518
 20
553.3191489361707
 30
0.0
 10
293.480252732912
 20
546.2841782316973
 30
0.0
 10
293.480252732912
 20
546.2841782316973
 30
0.0
 10
293.480252732912
 20
546.2841782316973
 30
0.0
 10
293.5707256957448
 20
544.7853590538571
 30
0.0
 10
293.5707256957448
 20
544.7853590538571
 30
0.0
 10
293.5707256957448
 20
544.7853590538571
 30
0.0
 10
312.7978625129472
 20
539.0790307990101
 30
0.0
 10
312.7978625129472
 20
539.0790307990101
 30
0.0
 10
312.7978625129472
 20
539.0790307990101
 30
0.0
 10
313.6229524279806
 20
538.8664385617512
 30
0.0
 10
313.6500970312936
 20
538.4167478393265
 30
0.0
 10
313.6500970312936
 20
538.4167478393265
 30
0.0
 10
315.6143592290173
 20
538.0259184515944
 30
0.0
 10
315.6143592290173
 20
538.0259184515944
 30
0.0
 10
315.6143592290173
 20
538.0259184515944
 30
0.0
 10
320.7496895782569
 20
536.9638912467881
 30
0.0
 10
320.7496895782569
 20
536.9638912467881
 30
0.0
 10
320.7496895782569
 20
536.9638912467881
 30
0.0
 10
332.0851063829796
 20
534.1520794045955
 30
0.0
 10
332.0851063829796
 20
534.1520794045955
 30
0.0
  0
HATCH
  5
2BC
330
2B7
100
AcDbEntity
  8
ITSE
 62
   254
420
 13358815
100
AcDbHatch
 10
0.0
 20
0.0
 30
0.0
210
0.0
220
0.0
230
1.0
  2
SOLID
 70
     1
 71
     0
 91
        1
 92
        1
 93
        2
 72
     4
 94
        3
 73
     0
 74
     0
 95
       38
 96
       34
 40
0.0
 40
0.0
 40
0.0
 40
0.0
 40
1.0
 40
1.0
 40
1.0
 40
2.0
 40
2.0
 40
2.0
 40
3.0
 40
3.0
 40
3.0
 40
4.0
 40
4.0
 40
4.0
 40
5.0
 40
5.0
 40
5.0
 40
6.0
 40
6.0
 40
6.0
 40
7.0
 40
7.0
 40
7.0
 40
8.0
 40
8.0
 40
8.0
 40
9.0
 40
9.0
 40
9.0
 40
10.0
 40
10.0
 40
10.0
 40
11.0
 40
11.0
 40
11.0
 40
11.0
 10
334.5425531914898
 20
540.1487408968324
 10
334.5425531914898
 20
540.1487408968324
 10
336.1203391196614
 20
543.4003755867452
 10
336.1203391196614
 20
543.4003755867452
 10
336.1203391196614
 20
543.4003755867452
 10
336.2659574468089
 20
545.1661820695845
 10
336.2659574468089
 20
545.1661820695845
 10
336.2659574468089
 20
545.1661820695845
 10
336.5966129760764
 20
546.0822855952465
 10
335.6700869279139
 20
546.4776871110507
 10
335.6700869279139
 20
546.4776871110507
 10
313.6302095201518
 20
553.3191489361707
 10
313.6302095201518
 20
553.3191489361707
 10
313.6302095201518
 20
553.3191489361707
 10
293.480252732912
 20
546.2841782316973
 10
293.480252732912
 20
546.2841782316973
 10
293.480252732912
 20
546.2841782316973
 10
293.5707256957448
 20
544.7853590538571
 10
293.5707256957448
 20
544.7853590538571
 10
293.5707256957448
 20
544.7853590538571
 10
312.7978625129472
 20
539.0790307990101
 10
312.7978625129472
 20
539.0790307990101
 10
312.7978625129472
 20
539.0790307990101
 10
313.6229524279806
 20
538.8664385617512
 10
313.6500970312936
 20
538.4167478393265
 10
313.6500970312936
 20
538.4167478393265
 10
315.6143592290173
 20
538.0259184515944
 10
315.6143592290173
 20
538.0259184515944
 10
315.6143592290173
 20
538.0259184515944
 10
320.7496895782569
 20
536.9638912467881
 10
320.7496895782569
 20
536.9638912467881
 10
320.7496895782569
 20
536.9638912467881
 10
332.0851063829796
 20
534.1520794045955
 10
332.0851063829796
 20
534.1520794045955
 97
        0
 72
     1
 10
332.0851063829796
 20
534.1520794045955
 11
334.5425531914898
 21
540.1487408968324
 97
        0
 75
     2
 76
     1
 98
        0
  0
POLYLINE
  5
2BD
330
2B7
100
AcDbEntity
  8
ITSE
 62
   250
420
  2301728
370
    25
100
AcDb2dPolyline
 66
     1
 10
0.0
 20
0.0
 30
0.0
  0
VERTEX
  5
2BE
330
2BD
100
AcDbEntity
  8
ITSE
 62
   250
420
  2301728
370
    25
100
AcDbVertex
100
AcDb2dVertex
 10
333.9264799528682
 20
534.0276135652839
 30
0.0
  0
VERTEX
  5
35E
330
2BD
100
AcDbEntity
  8
0
100
AcDbVertex
100
AcDb2dVertex
 10
333.9264799528682
 20
534.0276135652839
 30
0.0
  0
SEQEND
  5
2BF
330
2BD
100
AcDbEntity
  8
ITSE
 62
   250
420
  2301728
370
    25
  0
POLYLINE
  5
2C0
330
2B7
100
AcDbEntity
  8
ITSE
 62
   250
420
  2301728
370
    25
100
AcDb2dPolyline
 66
     1
 10
0.0
 20
0.0
 30
0.0
  0
VERTEX
  5
2C1
330
2C0
100
AcDbEntity
  8
ITSE
 62
   250
420
  2301728
370
    25
100
AcDbVertex
100
AcDb2dVertex
 10
319.2488945891073
 20
536.6654312504015
 30
0.0
  0
VERTEX
  5
35F
330
2C0
100
AcDbEntity
  8
0
100
AcDbVertex
100
AcDb2dVertex
 10
319.2488945891073
 20
536.6654312504015
 30
0.0
  0
SEQEND
  5
2C2
330
2C0
100
AcDbEntity
  8
ITSE
 62
   250
420
  2301728
370
    25
  0
SPLINE
  5
2C3
330
2B7
100
AcDbEntity
  8
ITSE
 62
   250
420
  2301728
370
    25
100
AcDbSpline
210
0.0
220
0.0
230
1.0
 70
     8
 71
     3
 72
    11
 73
     7
 74
     0
 42
0.0000000001
 43
0.0000000001
 12
1.0
 22
0.0
 32
0.0
 13
1.0
 23
0.0
 33
0.0
 40
0.0
 40
0.0
 40
0.0
 40
0.0
 40
1.0
 40
1.0
 40
1.0
 40
2.0
 40
2.0
 40
2.0
 40
2.0
 10
293.2585849067909
 20
546.4942176084651
 30
0.0
 10
293.2585849067909
 20
546.4942176084651
 30
0.0
 10
313.7745963113393
 20
540.34168431524
 30
0.0
 10
313.7745963113393
 20
540.34168431524
 30
0.0
 10
313.7745963113393
 20
540.34168431524
 30
0.0
 10
314.3744837350496
 20
540.3778952160555
 30
0.0
 10
314.4649566978824
 20
538.8790760382162
 30
0.0
  0
SPLINE
  5
2C4
330
2B7
100
AcDbEntity
  8
ITSE
 62
   250
420
  2301728
370
    30
100
AcDbSpline
210
0.0
220
0.0
230
1.0
 70
     8
 71
     3
 72
    20
 73
    16
 74
     0
 42
0.0000000001
 43
0.0000000001
 12
1.0
 22
0.0
 32
0.0
 13
1.0
 23
0.0
 33
0.0
 40
0.0
 40
0.0
 40
0.0
 40
0.0
 40
1.0
 40
1.0
 40
1.0
 40
2.0
 40
2.0
 40
2.0
 40
3.0
 40
3.0
 40
3.0
 40
4.0
 40
4.0
 40
4.0
 40
5.0
 40
5.0
 40
5.0
 40
5.0
 10
336.79161004036
 20
545.3416903138677
 30
0.0
 10
336.79161004036
 20
545.3416903138677
 30
0.0
 10
336.5966129760764
 20
546.0822855952465
 30
0.0
 10
335.6700869279139
 20
546.4776871110507
 30
0.0
 10
335.6700869279139
 20
546.4776871110507
 30
0.0
 10
313.6302095201518
 20
553.5842870891265
 30
0.0
 10
313.6302095201518
 20
553.5842870891265
 30
0.0
 10
313.6302095201518
 20
553.5842870891265
 30
0.0
 10
293.2585849067909
 20
546.4942176084651
 30
0.0
 10
293.2585849067909
 20
546.4942176084651
 30
0.0
 10
293.2585849067909
 20
546.4942176084651
 30
0.0
 10
293.3490578696237
 20
544.9953984306248
 30
0.0
 10
293.3490578696237
 20
544.9953984306248
 30
0.0
 10
293.3490578696237
 20
544.9953984306248
 30
0.0
 10
312.7978625129472
 20
539.0790307990101
 30
0.0
 10
312.7978625129472
 20
539.0790307990101
 30
0.0
  0
INSERT
  5
2C6
330
2B7
100
AcDbEntity
  8
ITSE
100
AcDbBlockReference
  2
block 38
 10
0.0
 20
0.0
 30
0.0
  0
INSERT
  5
2DB
330
2B7
100
AcDbEntity
  8
ITSE
100
AcDbBlockReference
  2
block 39
 10
0.0
 20
0.0
 30
0.0
  0
INSERT
  5
2ED
330
2B7
100
AcDbEntity
  8
ITSE
100
AcDbBlockReference
  2
block 40
 10
0.0
 20
0.0
 30
0.0
  0
POLYLINE
  5
2FE
330
2B7
100
AcDbEntity
  8
ITSE
 62
   250
420
  2301728
370
    15
100
AcDb2dPolyline
 66
     1
 10
0.0
 20
0.0
 30
0.0
  0
VERTEX
  5
2FF
330
2FE
100
AcDbEntity
  8
ITSE
 62
   250
420
  2301728
370
    15
100
AcDbVertex
100
AcDb2dVertex
 10
333.6527851970586
 20
545.5347686427776
 30
0.0
  0
VERTEX
  5
300
330
2FE
100
AcDbEntity
  8
ITSE
 62
   250
420
  2301728
370
    15
100
AcDbVertex
100
AcDb2dVertex
 10
335.0146935232533
 20
545.9299289797118
 30
0.0
  0
SEQEND
  5
301
330
2FE
100
AcDbEntity
  8
ITSE
 62
   250
420
  2301728
370
    15
  0
POLYLINE
  5
302
330
2B7
100
AcDbEntity
  8
ITSE
 62
   250
420
  2301728
370
    15
100
AcDb2dPolyline
 66
     1
 10
0.0
 20
0.0
 30
0.0
  0
VERTEX
  5
303
330
302
100
AcDbEntity
  8
ITSE
 62
   250
420
  2301728
370
    15
100
AcDbVertex
100
AcDb2dVertex
 10
328.0623415400278
 20
543.9139138111323
 30
0.0
  0
VERTEX
  5
304
330
302
100
AcDbEntity
  8
ITSE
 62
   250
420
  2301728
370
    15
100
AcDbVertex
100
AcDb2dVertex
 10
329.2327546101096
 20
544.2529350789473
 30
0.0
  0
SEQEND
  5
305
330
302
100
AcDbEntity
  8
ITSE
 62
   250
420
  2301728
370
    15
  0
POLYLINE
  5
306
330
2B7
100
AcDbEntity
  8
ITSE
 62
   250
420
  2301728
370
    15
100
AcDb2dPolyline
 66
     1
 10
0.0
 20
0.0
 30
0.0
  0
VERTEX
  5
307
330
306
100
AcDbEntity
  8
ITSE
 62
   250
420
  2301728
370
    15
100
AcDbVertex
100
AcDb2dVertex
 10
321.7233419136937
 20
542.0759175816929
 30
0.0
  0
VERTEX
  5
308
330
306
100
AcDbEntity
  8
ITSE
 62
   250
420
  2301728
370
    15
100
AcDbVertex
100
AcDb2dVertex
 10
323.1809053607376
 20
542.4984368906335
 30
0.0
  0
SEQEND
  5
309
330
306
100
AcDbEntity
  8
ITSE
 62
   250
420
  2301728
370
    15
  0
POLYLINE
  5
30A
330
2B7
100
AcDbEntity
  8
ITSE
 62
   250
420
  2301728
370
    15
100
AcDb2dPolyline
 66
     1
 10
0.0
 20
0.0
 30
0.0
  0
VERTEX
  5
30B
330
30A
100
AcDbEntity
  8
ITSE
 62
   250
420
  2301728
370
    15
100
AcDbVertex
100
AcDb2dVertex
 10
315.0763288620165
 20
540.1487408968324
 30
0.0
  0
VERTEX
  5
30C
330
30A
100
AcDbEntity
  8
ITSE
 62
   250
420
  2301728
370
    15
100
AcDbVertex
100
AcDb2dVertex
 10
317.1966660609269
 20
540.7633650248135
 30
0.0
  0
SEQEND
  5
30D
330
30A
100
AcDbEntity
  8
ITSE
 62
   250
420
  2301728
370
    15
  0
SPLINE
  5
30E
330
2B7
100
AcDbEntity
  8
ITSE
 62
   250
420
  2301728
370
    20
100
AcDbSpline
210
0.0
220
0.0
230
1.0
 70
     8
 71
     3
 72
     8
 73
     4
 74
     0
 42
0.0000000001
 43
0.0000000001
 12
1.0
 22
0.0
 32
0.0
 13
1.0
 23
0.0
 33
0.0
 40
0.0
 40
0.0
 40
0.0
 40
0.0
 40
1.0
 40
1.0
 40
1.0
 40
1.0
 10
312.6783410624266
 20
548.5285446212765
 30
0.0
 10
311.8446215009571
 20
548.83807984131
 30
0.0
 10
310.2452068622388
 20
549.5766615785387
 30
0.0
 10
309.0005005200037
 20
548.306539768645
 30
0.0
  0
SPLINE
  5
30F
330
2B7
100
AcDbEntity
  8
ITSE
 62
   250
420
  2301728
370
    20
100
AcDbSpline
210
0.0
220
0.0
230
1.0
 70
     8
 71
     3
 72
     8
 73
     4
 74
     0
 42
0.0000000001
 43
0.0000000001
 12
1.0
 22
0.0
 32
0.0
 13
1.0
 23
0.0
 33
0.0
 40
0.0
 40
0.0
 40
0.0
 40
0.0
 40
1.0
 40
1.0
 40
1.0
 40
1.0
 10
318.6325191727246
 20
550.2539405587686
 30
0.0
 10
317.798799611257
 20
550.5634757787993
 30
0.0
 10
316.1993849725386
 20
551.3020575160281
 30
0.0
 10
314.9546786302999
 20
550.0319357061353
 30
0.0
  0
INSERT
  5
311
330
2B7
100
AcDbEntity
  8
ITSE
100
AcDbBlockReference
  2
block 41
 10
0.0
 20
0.0
 30
0.0
  0
INSERT
  5
317
330
2B7
100
AcDbEntity
  8
ITSE
100
AcDbBlockReference
  2
block 42
 10
0.0
 20
0.0
 30
0.0
  0
ENDBLK
  5
2BA
330
2B7
100
AcDbEntity
  8
0
100
AcDbBlockEnd
  0
BLOCK
  5
2C7
330
2C5
100
AcDbEntity
  8
0
100
AcDbBlockBegin
  2
block 38
 70
     0
 10
0.0
 20
0.0
 30
0.0
  3
block 38
  1

  0
POLYLINE
  5
2C9
330
2C5
100
AcDbEntity
  8
ITSE
 62
   250
420
  2301728
370
    15
100
AcDb2dPolyline
 66
     1
 10
0.0
 20
0.0
 30
0.0
  0
VERTEX
  5
2CA
330
2C9
100
AcDbEntity
  8
ITSE
 62
   250
420
  2301728
370
    15
100
AcDbVertex
100
AcDb2dVertex
 10
323.2711341593495
 20
546.568001542706
 30
0.0
  0
VERTEX
  5
2CB
330
2C9
100
AcDbEntity
  8
ITSE
 62
   250
420
  2301728
370
    15
100
AcDbVertex
100
AcDb2dVertex
 10
314.991022930526
 20
549.0163635305189
 30
0.0
  0
SEQEND
  5
2CC
330
2C9
100
AcDbEntity
  8
ITSE
 62
   250
420
  2301728
370
    15
  0
POLYLINE
  5
2CD
330
2C5
100
AcDbEntity
  8
ITSE
 62
   250
420
  2301728
370
    15
100
AcDb2dPolyline
 66
     1
 10
0.0
 20
0.0
 30
0.0
  0
VERTEX
  5
2CE
330
2CD
100
AcDbEntity
  8
ITSE
 62
   250
420
  2301728
370
    15
100
AcDbVertex
100
AcDb2dVertex
 10
329.7139059027431
 20
544.5768658059242
 30
0.0
  0
VERTEX
  5
2CF
330
2CD
100
AcDbEntity
  8
ITSE
 62
   250
420
  2301728
370
    15
100
AcDbVertex
100
AcDb2dVertex
 10
324.883114731052
 20
546.0698214381409
 30
0.0
  0
SEQEND
  5
2D0
330
2CD
100
AcDbEntity
  8
ITSE
 62
   250
420
  2301728
370
    15
  0
SPLINE
  5
2D1
330
2C5
100
AcDbEntity
  8
ITSE
 62
   250
420
  2301728
370
    15
100
AcDbSpline
210
0.0
220
0.0
230
1.0
 70
     8
 71
     3
 72
     8
 73
     4
 74
     0
 42
0.0000000001
 43
0.0000000001
 12
1.0
 22
0.0
 32
0.0
 13
1.0
 23
0.0
 33
0.0
 40
0.0
 40
0.0
 40
0.0
 40
0.0
 40
1.0
 40
1.0
 40
1.0
 40
1.0
 10
330.9427080835703
 20
543.3653832852624
 30
0.0
 10
330.8954710448907
 20
544.1479350804248
 30
0.0
 10
330.5728166724766
 20
544.286243455239
 30
0.0
 10
330.5728166724766
 20
544.286243455239
 30
0.0
  0
POLYLINE
  5
2D2
330
2C5
100
AcDbEntity
  8
ITSE
 62
   250
420
  2301728
370
    15
100
AcDb2dPolyline
 66
     1
 10
0.0
 20
0.0
 30
0.0
  0
VERTEX
  5
2D3
330
2D2
100
AcDbEntity
  8
ITSE
 62
   250
420
  2301728
370
    15
100
AcDbVertex
100
AcDb2dVertex
 10
331.561559686108
 20
536.8950224989785
 30
0.0
  0
VERTEX
  5
2D4
330
2D2
100
AcDbEntity
  8
ITSE
 62
   250
420
  2301728
370
    15
100
AcDbVertex
100
AcDb2dVertex
 10
331.2363293360067
 20
542.2829469206335
 30
0.0
  0
SEQEND
  5
2D5
330
2D2
100
AcDbEntity
  8
ITSE
 62
   250
420
  2301728
370
    15
  0
SPLINE
  5
2D6
330
2C5
100
AcDbEntity
  8
ITSE
 62
   250
420
  2301728
370
    25
100
AcDbSpline
210
0.0
220
0.0
230
1.0
 70
     8
 71
     3
 72
    14
 73
    10
 74
     0
 42
0.0000000001
 43
0.0000000001
 12
1.0
 22
0.0
 32
0.0
 13
1.0
 23
0.0
 33
0.0
 40
0.0
 40
0.0
 40
0.0
 40
0.0
 40
1.0
 40
1.0
 40
1.0
 40
2.0
 40
2.0
 40
2.0
 40
3.0
 40
3.0
 40
3.0
 40
3.0
 10
317.6726492203998
 20
550.6506829432456
 30
0.0
 10
317.6726492203998
 20
550.6506829432456
 30
0.0
 10
332.4760664326059
 20
546.1914618500341
 30
0.0
 10
332.4760664326059
 20
546.1914618500341
 30
0.0
 10
333.8894080776663
 20
545.8796054096101
 30
0.0
 10
334.2066904610529
 20
543.9969462884728
 30
0.0
 10
334.2066904610529
 20
543.9969462884728
 30
0.0
 10
334.2066904610529
 20
543.9969462884728
 30
0.0
 10
334.1595744680853
 20
539.5146756709573
 30
0.0
 10
334.1595744680853
 20
539.5146756709573
 30
0.0
  0
POLYLINE
  5
2D7
330
2C5
100
AcDbEntity
  8
ITSE
 62
   250
420
  2301728
370
    25
100
AcDb2dPolyline
 66
     1
 10
0.0
 20
0.0
 30
0.0
  0
VERTEX
  5
2D8
330
2D7
100
AcDbEntity
  8
ITSE
 62
   250
420
  2301728
370
    25
100
AcDbVertex
100
AcDb2dVertex
 10
317.48360954895
 20
548.3571384356401
 30
0.0
  0
VERTEX
  5
360
330
2D7
100
AcDbEntity
  8
0
100
AcDbVertex
100
AcDb2dVertex
 10
317.48360954895
 20
548.3571384356401
 30
0.0
  0
SEQEND
  5
2D9
330
2D7
100
AcDbEntity
  8
ITSE
 62
   250
420
  2301728
370
    25
  0
ENDBLK
  5
2C8
330
2C5
100
AcDbEntity
  8
0
100
AcDbBlockEnd
  0
BLOCK
  5
2DC
330
2DA
100
AcDbEntity
  8
0
100
AcDbBlockBegin
  2
block 39
 70
     0
 10
0.0
 20
0.0
 30
0.0
  3
block 39
  1

  0
POLYLINE
  5
2DE
330
2DA
100
AcDbEntity
  8
ITSE
 62
   250
420
  2301728
370
    15
100
AcDb2dPolyline
 66
     1
 10
0.0
 20
0.0
 30
0.0
  0
VERTEX
  5
2DF
330
2DE
100
AcDbEntity
  8
ITSE
 62
   250
420
  2301728
370
    15
100
AcDbVertex
100
AcDb2dVertex
 10
318.2013877175777
 20
544.6144450301981
 30
0.0
  0
VERTEX
  5
2E0
330
2DE
100
AcDbEntity
  8
ITSE
 62
   250
420
  2301728
370
    15
100
AcDbVertex
100
AcDb2dVertex
 10
309.0590313227258
 20
547.3368899763518
 30
0.0
  0
SEQEND
  5
2E1
330
2DE
100
AcDbEntity
  8
ITSE
 62
   250
420
  2301728
370
    15
  0
POLYLINE
  5
2E2
330
2DA
100
AcDbEntity
  8
ITSE
 62
   250
420
  2301728
370
    15
100
AcDb2dPolyline
 66
     1
 10
0.0
 20
0.0
 30
0.0
  0
VERTEX
  5
2E3
330
2E2
100
AcDbEntity
  8
ITSE
 62
   250
420
  2301728
370
    15
100
AcDbVertex
100
AcDb2dVertex
 10
324.4894567555384
 20
542.6888916558337
 30
0.0
  0
VERTEX
  5
2E4
330
2E2
100
AcDbEntity
  8
ITSE
 62
   250
420
  2301728
370
    15
100
AcDbVertex
100
AcDb2dVertex
 10
319.6586377494914
 20
544.1823084055068
 30
0.0
  0
SEQEND
  5
2E5
330
2E2
100
AcDbEntity
  8
ITSE
 62
   250
420
  2301728
370
    15
  0
SPLINE
  5
2E6
330
2DA
100
AcDbEntity
  8
ITSE
 62
   250
420
  2301728
370
    15
100
AcDbSpline
210
0.0
220
0.0
230
1.0
 70
     8
 71
     3
 72
     8
 73
     4
 74
     0
 42
0.0000000001
 43
0.0000000001
 12
1.0
 22
0.0
 32
0.0
 13
1.0
 23
0.0
 33
0.0
 40
0.0
 40
0.0
 40
0.0
 40
0.0
 40
1.0
 40
1.0
 40
1.0
 40
1.0
 10
325.8784997458479
 20
541.5025171837051
 30
0.0
 10
325.8312627071664
 20
542.2850689788684
 30
0.0
 10
325.3488800095365
 20
542.3987515693971
 30
0.0
 10
325.3488800095365
 20
542.3987515693971
 30
0.0
  0
POLYLINE
  5
2E7
330
2DA
100
AcDbEntity
  8
ITSE
 62
   250
420
  2301728
370
    15
100
AcDb2dPolyline
 66
     1
 10
0.0
 20
0.0
 30
0.0
  0
VERTEX
  5
2E8
330
2E7
100
AcDbEntity
  8
ITSE
 62
   250
420
  2301728
370
    15
100
AcDbVertex
100
AcDb2dVertex
 10
326.3831234324771
 20
535.5158561694334
 30
0.0
  0
VERTEX
  5
2E9
330
2E7
100
AcDbEntity
  8
ITSE
 62
   250
420
  2301728
370
    15
100
AcDbVertex
100
AcDb2dVertex
 10
326.0928879049643
 20
540.3240393117394
 30
0.0
  0
SEQEND
  5
2EA
330
2E7
100
AcDbEntity
  8
ITSE
 62
   250
420
  2301728
370
    15
  0
SPLINE
  5
2EB
330
2DA
100
AcDbEntity
  8
ITSE
 62
   250
420
  2301728
370
    25
100
AcDbSpline
210
0.0
220
0.0
230
1.0
 70
     8
 71
     3
 72
    20
 73
    16
 74
     0
 42
0.0000000001
 43
0.0000000001
 12
1.0
 22
0.0
 32
0.0
 13
1.0
 23
0.0
 33
0.0
 40
0.0
 40
0.0
 40
0.0
 40
0.0
 40
1.0
 40
1.0
 40
1.0
 40
2.0
 40
2.0
 40
2.0
 40
3.0
 40
3.0
 40
3.0
 40
4.0
 40
4.0
 40
4.0
 40
5.0
 40
5.0
 40
5.0
 40
5.0
 10
310.9933039004391
 20
549.1065024351446
 30
0.0
 10
310.9933039004391
 20
549.1065024351446
 30
0.0
 10
327.2520126869149
 20
544.3044142259942
 30
0.0
 10
327.2520126869149
 20
544.3044142259942
 30
0.0
 10
328.6641440582353
 20
543.991672337379
 30
0.0
 10
328.9812876431897
 20
542.1098172306201
 30
0.0
 10
328.9812876431897
 20
542.1098172306201
 30
0.0
 10
328.9812876431897
 20
542.1098172306201
 30
0.0
 10
329.2828895771672
 20
537.1133326614854
 30
0.0
 10
329.2828895771672
 20
537.1133326614854
 30
0.0
 10
329.2828895771672
 20
537.1133326614854
 30
0.0
 10
329.5769728793257
 20
535.7616611584745
 30
0.0
 10
328.0743886235268
 20
534.9962237000009
 30
0.0
 10
327.7233157019673
 20
534.8172581090184
 30
0.0
 10
327.3633611590667
 20
534.9828210049054
 30
0.0
 10
327.0990017413424
 20
535.0916109270784
 30
0.0
  0
ENDBLK
  5
2DD
330
2DA
100
AcDbEntity
  8
0
100
AcDbBlockEnd
  0
BLOCK
  5
2EE
330
2EC
100
AcDbEntity
  8
0
100
AcDbBlockBegin
  2
block 40
 70
     0
 10
0.0
 20
0.0
 30
0.0
  3
block 40
  1

  0
POLYLINE
  5
2F0
330
2EC
100
AcDbEntity
  8
ITSE
 62
   250
420
  2301728
370
    15
100
AcDb2dPolyline
 66
     1
 10
0.0
 20
0.0
 30
0.0
  0
VERTEX
  5
2F1
330
2F0
100
AcDbEntity
  8
ITSE
 62
   250
420
  2301728
370
    15
100
AcDbVertex
100
AcDb2dVertex
 10
311.3523887789288
 20
543.1577274033616
 30
0.0
  0
VERTEX
  5
2F2
330
2F0
100
AcDbEntity
  8
ITSE
 62
   250
420
  2301728
370
    15
100
AcDbVertex
100
AcDb2dVertex
 10
306.7986430313231
 20
544.5652253389853
 30
0.0
  0
VERTEX
  5
2F3
330
2F0
100
AcDbEntity
  8
ITSE
 62
   250
420
  2301728
370
    15
100
AcDbVertex
100
AcDb2dVertex
 10
305.5648587396117
 20
544.9469542344414
 30
0.0
  0
SEQEND
  5
2F4
330
2F0
100
AcDbEntity
  8
ITSE
 62
   250
420
  2301728
370
    15
  0
POLYLINE
  5
2F5
330
2EC
100
AcDbEntity
  8
ITSE
 62
   250
420
  2301728
370
    15
100
AcDb2dPolyline
 66
     1
 10
0.0
 20
0.0
 30
0.0
  0
VERTEX
  5
2F6
330
2F5
100
AcDbEntity
  8
ITSE
 62
   250
420
  2301728
370
    15
100
AcDbVertex
100
AcDb2dVertex
 10
317.7952148115328
 20
541.1656922851371
 30
0.0
  0
VERTEX
  5
2F7
330
2F5
100
AcDbEntity
  8
ITSE
 62
   250
420
  2301728
370
    15
100
AcDbVertex
100
AcDb2dVertex
 10
312.9642739835708
 20
542.6596318080228
 30
0.0
  0
SEQEND
  5
2F8
330
2F5
100
AcDbEntity
  8
ITSE
 62
   250
420
  2301728
370
    15
  0
SPLINE
  5
2F9
330
2EC
100
AcDbEntity
  8
ITSE
 62
   250
420
  2301728
370
    15
100
AcDbSpline
210
0.0
220
0.0
230
1.0
 70
     8
 71
     3
 72
     8
 73
     4
 74
     0
 42
0.0000000001
 43
0.0000000001
 12
1.0
 22
0.0
 32
0.0
 13
1.0
 23
0.0
 33
0.0
 40
0.0
 40
0.0
 40
0.0
 40
0.0
 40
1.0
 40
1.0
 40
1.0
 40
1.0
 10
319.0239355585509
 20
539.9555588366411
 30
0.0
 10
318.9766978352927
 20
540.7381219728877
 30
0.0
 10
318.654071292056
 20
540.8759693158972
 30
0.0
 10
318.654071292056
 20
540.8759693158972
 30
0.0
  0
POLYLINE
  5
2FA
330
2EC
100
AcDbEntity
  8
ITSE
 62
   250
420
  2301728
370
    15
100
AcDb2dPolyline
 66
     1
 10
0.0
 20
0.0
 30
0.0
  0
VERTEX
  5
2FB
330
2FA
100
AcDbEntity
  8
ITSE
 62
   250
420
  2301728
370
    15
100
AcDbVertex
100
AcDb2dVertex
 10
319.0901249592625
 20
538.8590329790823
 30
0.0
  0
VERTEX
  5
361
330
2FA
100
AcDbEntity
  8
0
100
AcDbVertex
100
AcDb2dVertex
 10
319.0901249592625
 20
538.8590329790823
 30
0.0
  0
SEQEND
  5
2FC
330
2FA
100
AcDbEntity
  8
ITSE
 62
   250
420
  2301728
370
    15
  0
SPLINE
  5
2FD
330
2EC
100
AcDbEntity
  8
ITSE
 62
   250
420
  2301728
370
    25
100
AcDbSpline
210
0.0
220
0.0
230
1.0
 70
     8
 71
     3
 72
    20
 73
    16
 74
     0
 42
0.0000000001
 43
0.0000000001
 12
1.0
 22
0.0
 32
0.0
 13
1.0
 23
0.0
 33
0.0
 40
0.0
 40
0.0
 40
0.0
 40
0.0
 40
1.0
 40
1.0
 40
1.0
 40
2.0
 40
2.0
 40
2.0
 40
3.0
 40
3.0
 40
3.0
 40
4.0
 40
4.0
 40
4.0
 40
5.0
 40
5.0
 40
5.0
 40
5.0
 10
305.5648587396117
 20
544.9469542344414
 30
0.0
 10
305.5648587396117
 20
544.9469542344414
 30
0.0
 10
305.0544843561147
 20
545.2312646743412
 30
0.0
 10
305.4066808109437
 20
545.8880860942527
 30
0.0
 10
305.4066808109437
 20
545.8880860942527
 30
0.0
 10
306.1885363808087
 20
547.1446629581924
 30
0.0
 10
310.2706058819385
 20
545.8978905313934
 30
0.0
 10
310.2706058819385
 20
545.8978905313934
 30
0.0
 10
320.5572865126342
 20
542.7803732331422
 30
0.0
 10
320.5572865126342
 20
542.7803732331422
 30
0.0
 10
321.9697916048699
 20
542.4689176252714
 30
0.0
 10
322.2874682453075
 20
540.5870946952473
 30
0.0
 10
322.2874682453075
 20
540.5870946952473
 30
0.0
 10
322.2874682453075
 20
540.5870946952473
 30
0.0
 10
322.5887169039561
 20
535.5964626573523
 30
0.0
 10
322.5887169039561
 20
535.5964626573523
 30
0.0
  0
ENDBLK
  5
2EF
330
2EC
100
AcDbEntity
  8
0
100
AcDbBlockEnd
  0
BLOCK
  5
312
330
310
100
AcDbEntity
  8
0
100
AcDbBlockBegin
  2
block 41
 70
     0
 10
0.0
 20
0.0
 30
0.0
  3
block 41
  1

  0
SPLINE
  5
314
330
310
100
AcDbEntity
  8
ITSE
 62
   250
420
  2301728
370
    13
100
AcDbSpline
210
0.0
220
0.0
230
1.0
 70
    11
 71
     3
 72
    11
 73
     7
 74
     0
 42
0.0000000001
 43
0.0000000001
 12
1.0
 22
0.0
 32
0.0
 13
1.0
 23
0.0
 33
0.0
 40
0.0
 40
0.0
 40
0.0
 40
0.0
 40
1.0
 40
1.0
 40
1.0
 40
2.0
 40
2.0
 40
2.0
 40
2.0
 10
312.6382393632975
 20
549.93696634964
 30
0.0
 10
315.2620563306864
 20
550.1426961669458
 30
0.0
 10
314.8480700974706
 20
551.6519695654579
 30
0.0
 10
312.4483385499625
 20
551.4769839257651
 30
0.0
 10
309.6206635591079
 20
551.2721310002817
 30
0.0
 10
310.6276284973646
 20
549.7774415188351
 30
0.0
 10
312.6382393632975
 20
549.93696634964
 30
0.0
  0
SPLINE
  5
315
330
310
100
AcDbEntity
  8
ITSE
 62
   250
420
  2301728
370
    18
100
AcDbSpline
210
0.0
220
0.0
230
1.0
 70
     8
 71
     3
 72
    11
 73
     7
 74
     0
 42
0.0000000001
 43
0.0000000001
 12
1.0
 22
0.0
 32
0.0
 13
1.0
 23
0.0
 33
0.0
 40
0.0
 40
0.0
 40
0.0
 40
0.0
 40
1.0
 40
1.0
 40
1.0
 40
2.0
 40
2.0
 40
2.0
 40
2.0
 10
313.5642704303173
 20
550.2804544026185
 30
0.0
 10
313.2821930604368
 20
550.3842638948045
 30
0.0
 10
313.1329862971197
 20
550.3860184456298
 30
0.0
 10
312.6822373505911
 20
550.3588099649205
 30
0.0
 10
312.2639382719899
 20
550.3335602499783
 30
0.0
 10
312.0155611511109
 20
550.2921596124215
 30
0.0
 10
311.7470778270017
 20
550.1707635197617
 30
0.0
  0
ENDBLK
  5
313
330
310
100
AcDbEntity
  8
0
100
AcDbBlockEnd
  0
BLOCK
  5
318
330
316
100
AcDbEntity
  8
0
100
AcDbBlockBegin
  2
block 42
 70
     0
 10
0.0
 20
0.0
 30
0.0
  3
block 42
  1

  0
SPLINE
  5
31A
330
316
100
AcDbEntity
  8
ITSE
 62
   250
420
  2301728
370
    13
100
AcDbSpline
210
0.0
220
0.0
230
1.0
 70
    11
 71
     3
 72
    11
 73
     7
 74
     0
 42
0.0000000001
 43
0.0000000001
 12
1.0
 22
0.0
 32
0.0
 13
1.0
 23
0.0
 33
0.0
 40
0.0
 40
0.0
 40
0.0
 40
0.0
 40
1.0
 40
1.0
 40
1.0
 40
2.0
 40
2.0
 40
2.0
 40
2.0
 10
301.0194591662676
 20
546.5877018548235
 30
0.0
 10
303.6432761336473
 20
546.7934316721312
 30
0.0
 10
303.2292899004369
 20
548.302705070646
 30
0.0
 10
300.8295583529234
 20
548.1277194309514
 30
0.0
 10
298.0018833620734
 20
547.9228665054661
 30
0.0
 10
299.008848300331
 20
546.4281770240195
 30
0.0
 10
301.0194591662676
 20
546.5877018548235
 30
0.0
  0
SPLINE
  5
31B
330
316
100
AcDbEntity
  8
ITSE
 62
   250
420
  2301728
370
    18
100
AcDbSpline
210
0.0
220
0.0
230
1.0
 70
     8
 71
     3
 72
    11
 73
     7
 74
     0
 42
0.0000000001
 43
0.0000000001
 12
1.0
 22
0.0
 32
0.0
 13
1.0
 23
0.0
 33
0.0
 40
0.0
 40
0.0
 40
0.0
 40
0.0
 40
1.0
 40
1.0
 40
1.0
 40
2.0
 40
2.0
 40
2.0
 40
2.0
 10
301.9454902332827
 20
546.9311899078039
 30
0.0
 10
301.6634128633978
 20
547.0349993999889
 30
0.0
 10
301.5142061000879
 20
547.036753950817
 30
0.0
 10
301.0634571535593
 20
547.0095454701077
 30
0.0
 10
300.6451580749481
 20
546.9842957551646
 30
0.0
 10
300.3967809540754
 20
546.9428951176051
 30
0.0
 10
300.1282976299672
 20
546.8214990249462
 30
0.0
  0
ENDBLK
  5
319
330
316
100
AcDbEntity
  8
0
100
AcDbBlockEnd
  0
BLOCK
  5
31E
330
31C
100
AcDbEntity
  8
0
100
AcDbBlockBegin
  2
block 43
 70
     0
 10
0.0
 20
0.0
 30
0.0
  3
block 43
  1

  0
SPLINE
  5
320
330
31C
100
AcDbEntity
  8
ITSE
370
     0
100
AcDbSpline
210
0.0
220
0.0
230
1.0
 70
    11
 71
     3
 72
    14
 73
    10
 74
     0
 42
0.0000000001
 43
0.0000000001
 12
1.0
 22
0.0
 32
0.0
 13
1.0
 23
0.0
 33
0.0
 40
0.0
 40
0.0
 40
0.0
 40
0.0
 40
1.0
 40
1.0
 40
1.0
 40
2.0
 40
2.0
 40
2.0
 40
3.0
 40
3.0
 40
3.0
 40
3.0
 10
307.3162999335837
 20
463.8098997616844
 30
0.0
 10
307.1869169703059
 20
463.3633294692263
 30
0.0
 10
305.1504673420432
 20
464.7356048398306
 30
0.0
 10
305.1040105648462
 20
465.0045801364722
 30
0.0
 10
305.0596305394101
 20
465.2746843900695
 30
0.0
 10
306.0331175731808
 20
466.5839097391963
 30
0.0
 10
306.4289891263597
 20
466.3660538166396
 30
0.0
 10
306.4289891263597
 20
466.3660538166396
 30
0.0
 10
307.4432861493897
 20
464.2585033269825
 30
0.0
 10
307.3162999335837
 20
463.8098997616844
 30
0.0
  0
SPLINE
  5
321
330
31C
100
AcDbEntity
  8
ITSE
370
     0
100
AcDbSpline
210
0.0
220
0.0
230
1.0
 70
    11
 71
     3
 72
    14
 73
    10
 74
     0
 42
0.0000000001
 43
0.0000000001
 12
1.0
 22
0.0
 32
0.0
 13
1.0
 23
0.0
 33
0.0
 40
0.0
 40
0.0
 40
0.0
 40
0.0
 40
1.0
 40
1.0
 40
1.0
 40
2.0
 40
2.0
 40
2.0
 40
3.0
 40
3.0
 40
3.0
 40
3.0
 10
308.2086249563745
 20
437.7908237201527
 30
0.0
 10
308.0792782255267
 20
437.3431969356043
 30
0.0
 10
306.0427996113212
 20
438.7163174998841
 30
0.0
 10
305.9963428341234
 20
438.985292796523
 30
0.0
 10
305.951955562201
 20
439.2556083485424
 30
0.0
 10
306.9254860748879
 20
440.5635659071504
 30
0.0
 10
307.3213938604949
 20
440.3446534924997
 30
0.0
 10
307.3213938604949
 20
440.3446534924997
 30
0.0
 10
308.3356184186669
 20
438.2392159870333
 30
0.0
 10
308.2086249563745
 20
437.7908237201527
 30
0.0
  0
SPLINE
  5
322
330
31C
100
AcDbEntity
  8
ITSE
370
     0
100
AcDbSpline
210
0.0
220
0.0
230
1.0
 70
    11
 71
     3
 72
    14
 73
    10
 74
     0
 42
0.0000000001
 43
0.0000000001
 12
1.0
 22
0.0
 32
0.0
 13
1.0
 23
0.0
 33
0.0
 40
0.0
 40
0.0
 40
0.0
 40
0.0
 40
1.0
 40
1.0
 40
1.0
 40
2.0
 40
2.0
 40
2.0
 40
3.0
 40
3.0
 40
3.0
 40
3.0
 10
296.1775220560958
 20
419.6372558390667
 30
0.0
 10
296.3080040560098
 20
419.1450185136982
 30
0.0
 10
298.3093047944812
 20
419.9449709482997
 30
0.0
 10
298.3498354469593
 20
420.2065636816051
 30
0.0
 10
298.3926831355684
 20
420.4684474246742
 30
0.0
 10
297.4219230113622
 20
422.0837404611448
 30
0.0
 10
297.0353673325244
 20
421.9744412124091
 30
0.0
 10
297.0353673325244
 20
421.9744412124091
 30
0.0
 10
296.0491687666963
 20
420.1297777155642
 30
0.0
 10
296.1775220560958
 20
419.6372558390667
 30
0.0
  0
SPLINE
  5
323
330
31C
100
AcDbEntity
  8
ITSE
370
     0
100
AcDbSpline
210
0.0
220
0.0
230
1.0
 70
    11
 71
     3
 72
    14
 73
    10
 74
     0
 42
0.0000000001
 43
0.0000000001
 12
1.0
 22
0.0
 32
0.0
 13
1.0
 23
0.0
 33
0.0
 40
0.0
 40
0.0
 40
0.0
 40
0.0
 40
1.0
 40
1.0
 40
1.0
 40
2.0
 40
2.0
 40
2.0
 40
3.0
 40
3.0
 40
3.0
 40
3.0
 10
307.7656606815544
 20
450.7071051824169
 30
0.0
 10
307.6362777186623
 20
450.2605348788056
 30
0.0
 10
305.5998001910048
 20
451.6336237606683
 30
0.0
 10
305.5533423257748
 20
451.9026307829654
 30
0.0
 10
305.5089912860476
 20
452.1718898497147
 30
0.0
 10
306.4824855651987
 20
453.4809039326092
 30
0.0
 10
306.8783944401785
 20
453.2619597532839
 30
0.0
 10
306.8783944401785
 20
453.2619597532839
 30
0.0
 10
307.8926552307803
 20
451.1554657557217
 30
0.0
 10
307.7656606815544
 20
450.7071051824169
 30
0.0
  0
SPLINE
  5
324
330
31C
100
AcDbEntity
  8
ITSE
 62
   250
420
  2301728
370
     9
100
AcDbSpline
210
0.0
220
0.0
230
1.0
 70
     8
 71
     3
 72
    20
 73
    16
 74
     0
 42
0.0000000001
 43
0.0000000001
 12
1.0
 22
0.0
 32
0.0
 13
1.0
 23
0.0
 33
0.0
 40
0.0
 40
0.0
 40
0.0
 40
0.0
 40
1.0
 40
1.0
 40
1.0
 40
2.0
 40
2.0
 40
2.0
 40
3.0
 40
3.0
 40
3.0
 40
4.0
 40
4.0
 40
4.0
 40
5.0
 40
5.0
 40
5.0
 40
5.0
 10
305.275840242547
 20
465.5951887762967
 30
0.0
 10
304.9568097599549
 20
465.2009245649333
 30
0.0
 10
304.8321396635383
 20
464.9808711236892
 30
0.0
 10
304.6906042266719
 20
464.7714512727616
 30
0.0
 10
304.4329178046783
 20
464.3896566578123
 30
0.0
 10
304.6738711505677
 20
463.933151538281
 30
0.0
 10
304.9921501118488
 20
463.7448217725087
 30
0.0
 10
305.4792826299881
 20
463.4566567976053
 30
0.0
 10
306.5666647726557
 20
462.7772275772613
 30
0.0
 10
306.8613130496087
 20
462.6179154845559
 30
0.0
 10
307.3749978529995
 20
462.3389114817583
 30
0.0
 10
307.623693108595
 20
462.797823923559
 30
0.0
 10
307.5094376605339
 20
463.298053930991
 30
0.0
 10
307.4560457102816
 20
463.5286808877318
 30
0.0
 10
307.4075213192664
 20
463.7345763483354
 30
0.0
 10
307.3620625488584
 20
463.9189350363258
 30
0.0
  0
SPLINE
  5
325
330
31C
100
AcDbEntity
  8
ITSE
 62
   250
420
  2301728
370
    15
100
AcDbSpline
210
0.0
220
0.0
230
1.0
 70
    11
 71
     3
 72
    23
 73
    19
 74
     0
 42
0.0000000001
 43
0.0000000001
 12
1.0
 22
0.0
 32
0.0
 13
1.0
 23
0.0
 33
0.0
 40
0.0
 40
0.0
 40
0.0
 40
0.0
 40
1.0
 40
1.0
 40
1.0
 40
2.0
 40
2.0
 40
2.0
 40
3.0
 40
3.0
 40
3.0
 40
4.0
 40
4.0
 40
4.0
 40
5.0
 40
5.0
 40
5.0
 40
6.0
 40
6.0
 40
6.0
 40
6.0
 10
306.0827888004242
 20
466.282889547695
 30
0.0
 10
306.3754540214359
 20
466.4219701425291
 30
0.0
 10
306.5995651502526
 20
466.2159936336384
 30
0.0
 10
306.7489404067655
 20
465.6539912321759
 30
0.0
 10
306.8605074106326
 20
465.2321528781613
 30
0.0
 10
307.2318228423046
 20
464.1025336891098
 30
0.0
 10
307.3690292946576
 20
463.5369086447454
 30
0.0
 10
306.6904550663567
 20
463.8618431798441
 30
0.0
 10
305.9363437845368
 20
464.409273111004
 30
0.0
 10
305.5507606355204
 20
464.6293857971414
 30
0.0
 10
305.1630923890134
 20
464.848612877393
 30
0.0
 10
305.2309199421907
 20
465.2765393736518
 30
0.0
 10
305.1992949990026
 20
465.2980903175703
 30
0.0
 10
305.2195882114356
 20
465.4280735577722
 30
0.0
 10
305.5563734623083
 20
465.8474540092939
 30
0.0
 10
305.3782509619869
 20
465.6192210080626
 30
0.0
 10
305.1646889958092
 20
465.3455592992741
 30
0.0
 10
305.7858312923008
 20
466.1455977937549
 30
0.0
 10
306.0827888004242
 20
466.282889547695
 30
0.0
  0
SPLINE
  5
326
330
31C
100
AcDbEntity
  8
ITSE
 62
   250
420
  2301728
370
     9
100
AcDbSpline
210
0.0
220
0.0
230
1.0
 70
     8
 71
     3
 72
    20
 73
    16
 74
     0
 42
0.0000000001
 43
0.0000000001
 12
1.0
 22
0.0
 32
0.0
 13
1.0
 23
0.0
 33
0.0
 40
0.0
 40
0.0
 40
0.0
 40
0.0
 40
1.0
 40
1.0
 40
1.0
 40
2.0
 40
2.0
 40
2.0
 40
3.0
 40
3.0
 40
3.0
 40
4.0
 40
4.0
 40
4.0
 40
5.0
 40
5.0
 40
5.0
 40
5.0
 10
306.1681725118251
 20
439.5759014363493
 30
0.0
 10
305.8491337057303
 20
439.1818799278299
 30
0.0
 10
305.7244719328146
 20
438.9615837837409
 30
0.0
 10
305.5829727283781
 20
438.7511074407175
 30
0.0
 10
305.3252417511403
 20
438.3706120006909
 30
0.0
 10
305.566203419844
 20
437.9138641983327
 30
0.0
 10
305.8844824036687
 20
437.7255337752576
 30
0.0
 10
306.3716065772878
 20
437.4376121160358
 30
0.0
 10
307.4589970419329
 20
436.757940237314
 30
0.0
 10
307.7536453414268
 20
436.5986274873048
 30
0.0
 10
308.2673228757903
 20
436.3198354402284
 30
0.0
 10
308.5160181313877
 20
436.778747882031
 30
0.0
 10
308.401769952352
 20
437.2787659337419
 30
0.0
 10
308.348377979557
 20
437.5093935477844
 30
0.0
 10
308.2998474402721
 20
437.7154682842074
 30
0.0
 10
308.2543948181356
 20
437.8996476963785
 30
0.0
  0
SPLINE
  5
327
330
31C
100
AcDbEntity
  8
ITSE
 62
   250
420
  2301728
370
    15
100
AcDbSpline
210
0.0
220
0.0
230
1.0
 70
    11
 71
     3
 72
    23
 73
    19
 74
     0
 42
0.0000000001
 43
0.0000000001
 12
1.0
 22
0.0
 32
0.0
 13
1.0
 23
0.0
 33
0.0
 40
0.0
 40
0.0
 40
0.0
 40
0.0
 40
1.0
 40
1.0
 40
1.0
 40
2.0
 40
2.0
 40
2.0
 40
3.0
 40
3.0
 40
3.0
 40
4.0
 40
4.0
 40
4.0
 40
5.0
 40
5.0
 40
5.0
 40
6.0
 40
6.0
 40
6.0
 40
6.0
 10
306.9751210696995
 20
440.2636022077504
 30
0.0
 10
307.2677790442267
 20
440.402894101001
 30
0.0
 10
307.4918974195316
 20
440.1967062936874
 30
0.0
 10
307.6412726985836
 20
439.6347032349267
 30
0.0
 10
307.7528396799098
 20
439.212865538213
 30
0.0
 10
308.1241551115818
 20
438.0832463491633
 30
0.0
 10
308.2613905498783
 20
437.5167761111225
 30
0.0
 10
307.582787335632
 20
437.8425558398949
 30
0.0
 10
306.828676053814
 20
438.3899857710567
 30
0.0
 10
306.4430856583112
 20
438.6103097556133
 30
0.0
 10
306.0554909759103
 20
438.8273917990209
 30
0.0
 10
306.1232522114678
 20
439.2572520337044
 30
0.0
 10
306.0916189447016
 20
439.2790456827088
 30
0.0
 10
306.1119205032537
 20
439.4087855605212
 30
0.0
 10
306.4486984850973
 20
439.8283779677658
 30
0.0
 10
306.2705759847759
 20
439.6001449665318
 30
0.0
 10
306.0570212650873
 20
439.3262719593267
 30
0.0
 10
306.6781574154429
 20
440.1264896673874
 30
0.0
 10
306.9751210696995
 20
440.2636022077504
 30
0.0
  0
SPLINE
  5
328
330
31C
100
AcDbEntity
  8
ITSE
 62
   250
420
  2301728
370
     9
100
AcDbSpline
210
0.0
220
0.0
230
1.0
 70
     8
 71
     3
 72
    20
 73
    16
 74
     0
 42
0.0000000001
 43
0.0000000001
 12
1.0
 22
0.0
 32
0.0
 13
1.0
 23
0.0
 33
0.0
 40
0.0
 40
0.0
 40
0.0
 40
0.0
 40
1.0
 40
1.0
 40
1.0
 40
2.0
 40
2.0
 40
2.0
 40
3.0
 40
3.0
 40
3.0
 40
4.0
 40
4.0
 40
4.0
 40
5.0
 40
5.0
 40
5.0
 40
5.0
 10
298.1748066356377
 20
420.856568116742
 30
0.0
 10
298.4953244754288
 20
420.3623861989145
 30
0.0
 10
298.6178498338677
 20
420.1021545378253
 30
0.0
 10
298.7587582446085
 20
419.8487191443855
 30
0.0
 10
299.0122143398257
 20
419.3854192520466
 30
0.0
 10
298.7799538923364
 20
418.9901114299219
 30
0.0
 10
298.4673406108759
 20
418.8905406338872
 30
0.0
 10
297.9911789605394
 20
418.7409360845459
 30
0.0
 10
296.9214651225702
 20
418.3685252251125
 30
0.0
 10
296.6327681029288
 20
418.2926217072882
 30
0.0
 10
296.1270801435903
 20
418.1595629480844
 30
0.0
 10
295.8811793779487
 20
418.6986441808704
 30
0.0
 10
295.9889298365542
 20
419.1721543021904
 30
0.0
 10
296.0413792718364
 20
419.3939618723653
 30
0.0
 10
296.0863479701211
 20
419.5878311964334
 30
0.0
 10
296.1299221465169
 20
419.7606785980006
 30
0.0
  0
SPLINE
  5
329
330
31C
100
AcDbEntity
  8
ITSE
 62
   250
420
  2301728
370
    15
100
AcDbSpline
210
0.0
220
0.0
230
1.0
 70
    11
 71
     3
 72
    23
 73
    19
 74
     0
 42
0.0000000001
 43
0.0000000001
 12
1.0
 22
0.0
 32
0.0
 13
1.0
 23
0.0
 33
0.0
 40
0.0
 40
0.0
 40
0.0
 40
0.0
 40
1.0
 40
1.0
 40
1.0
 40
2.0
 40
2.0
 40
2.0
 40
3.0
 40
3.0
 40
3.0
 40
4.0
 40
4.0
 40
4.0
 40
5.0
 40
5.0
 40
5.0
 40
6.0
 40
6.0
 40
6.0
 40
6.0
 10
297.3784780925544
 20
421.7899236578032
 30
0.0
 10
297.0875878338284
 20
422.0185415036594
 30
0.0
 10
296.8694012124088
 20
421.8735532772098
 30
0.0
 10
296.7242271227087
 20
421.3439381218977
 30
0.0
 10
296.6179367654922
 20
420.9518927132549
 30
0.0
 10
296.1820814796256
 20
419.7448780489649
 30
0.0
 10
296.0517273704463
 20
419.2094247372206
 30
0.0
 10
296.7185975807542
 20
419.3429650683329
 30
0.0
 10
297.6199092235202
 20
419.6848495853892
 30
0.0
 10
297.9984234120966
 20
419.794899829697
 30
0.0
 10
298.376890496862
 20
419.9049794145349
 30
0.0
 10
298.3094482352362
 20
420.3602425062218
 30
0.0
 10
298.3400888066772
 20
420.3735630479568
 30
0.0
 10
298.3210102983594
 20
420.5104142593973
 30
0.0
 10
297.8987993748215
 20
421.1940394168932
 30
0.0
 10
298.0757699057258
 20
420.9130394323629
 30
0.0
 10
298.2899391945757
 20
420.5713319276574
 30
0.0
 10
297.6711574932378
 20
421.5653245437579
 30
0.0
 10
297.3784780925544
 20
421.7899236578032
 30
0.0
  0
SPLINE
  5
32A
330
31C
100
AcDbEntity
  8
ITSE
 62
   250
420
  2301728
370
     9
100
AcDbSpline
210
0.0
220
0.0
230
1.0
 70
     8
 71
     3
 72
    20
 73
    16
 74
     0
 42
0.0000000001
 43
0.0000000001
 12
1.0
 22
0.0
 32
0.0
 13
1.0
 23
0.0
 33
0.0
 40
0.0
 40
0.0
 40
0.0
 40
0.0
 40
1.0
 40
1.0
 40
1.0
 40
2.0
 40
2.0
 40
2.0
 40
3.0
 40
3.0
 40
3.0
 40
4.0
 40
4.0
 40
4.0
 40
5.0
 40
5.0
 40
5.0
 40
5.0
 10
305.7252093239376
 20
452.4921512050378
 30
0.0
 10
305.4061426089147
 20
452.098943485772
 30
0.0
 10
305.2814725124981
 20
451.8788900445234
 30
0.0
 10
305.1399722202204
 20
451.6684454216065
 30
0.0
 10
304.8823158720115
 20
451.285773892876
 30
0.0
 10
305.1232391448402
 20
450.8301456659874
 30
0.0
 10
305.4415202915352
 20
450.6417521763015
 30
0.0
 10
305.9286154789497
 20
450.3546757184431
 30
0.0
 10
307.0160338540463
 20
449.6741900059997
 30
0.0
 10
307.3107556931209
 20
449.5127329342076
 30
0.0
 10
307.8243234554757
 20
449.2371417010154
 30
0.0
 10
308.0730248715099
 20
449.6958745121901
 30
0.0
 10
307.9588730581345
 20
450.193082662463
 30
0.0
 10
307.9053785592405
 20
450.4266998085686
 30
0.0
 10
307.8568914988737
 20
450.6315067544756
 30
0.0
 10
307.8114968486243
 20
450.8139957792928
 30
0.0
  0
SPLINE
  5
32B
330
31C
100
AcDbEntity
  8
ITSE
 62
   250
420
  2301728
370
    15
100
AcDbSpline
210
0.0
220
0.0
230
1.0
 70
    11
 71
     3
 72
    23
 73
    19
 74
     0
 42
0.0000000001
 43
0.0000000001
 12
1.0
 22
0.0
 32
0.0
 13
1.0
 23
0.0
 33
0.0
 40
0.0
 40
0.0
 40
0.0
 40
0.0
 40
1.0
 40
1.0
 40
1.0
 40
2.0
 40
2.0
 40
2.0
 40
3.0
 40
3.0
 40
3.0
 40
4.0
 40
4.0
 40
4.0
 40
5.0
 40
5.0
 40
5.0
 40
6.0
 40
6.0
 40
6.0
 40
6.0
 10
306.5321578818148
 20
453.1798519764361
 30
0.0
 10
306.8248147671202
 20
453.3191756299884
 30
0.0
 10
307.0489342316432
 20
453.1129560623776
 30
0.0
 10
307.1983830529098
 20
452.5488086051237
 30
0.0
 10
307.3098402595933
 20
452.1301717989991
 30
0.0
 10
307.6811556912635
 20
451.0005526099467
 30
0.0
 10
307.8183911295619
 20
450.4340823719031
 30
0.0
 10
307.1398603801772
 20
450.7577491164884
 30
0.0
 10
306.3856766334993
 20
451.3072920318427
 30
0.0
 10
306.0001213827309
 20
451.5265912400819
 30
0.0
 10
305.6125277880228
 20
451.7436415677075
 30
0.0
 10
305.6802879353181
 20
452.1735335347757
 30
0.0
 10
305.6486640803932
 20
452.1950527463114
 30
0.0
 10
305.6689583925709
 20
452.3250039192872
 30
0.0
 10
306.005706311269
 20
452.7454729301289
 30
0.0
 10
305.8275765644612
 20
452.5174512273188
 30
0.0
 10
305.6140580771998
 20
452.2425217280161
 30
0.0
 10
306.2351942275563
 20
453.042739436075
 30
0.0
 10
306.5321578818148
 20
453.1798519764361
 30
0.0
  0
ENDBLK
  5
31F
330
31C
100
AcDbEntity
  8
0
100
AcDbBlockEnd
  0
BLOCK
  5
32E
330
32C
100
AcDbEntity
  8
0
100
AcDbBlockBegin
  2
block 44
 70
     0
 10
0.0
 20
0.0
 30
0.0
  3
block 44
  1

  0
SPLINE
  5
330
330
32C
100
AcDbEntity
  8
ITSE
 62
   250
420
  2301728
370
    15
100
AcDbSpline
210
0.0
220
0.0
230
1.0
 70
     8
 71
     3
 72
    11
 73
     7
 74
     0
 42
0.0000000001
 43
0.0000000001
 12
1.0
 22
0.0
 32
0.0
 13
1.0
 23
0.0
 33
0.0
 40
0.0
 40
0.0
 40
0.0
 40
0.0
 40
1.0
 40
1.0
 40
1.0
 40
2.0
 40
2.0
 40
2.0
 40
2.0
 10
308.5401958618368
 20
386.2938492005178
 30
0.0
 10
308.5401958618368
 20
386.2938492005178
 30
0.0
 10
307.4502538159122
 20
418.0751892385524
 30
0.0
 10
307.4502538159122
 20
418.0751892385524
 30
0.0
 10
307.4011009022979
 20
419.5084264159677
 30
0.0
 10
308.2693269184747
 20
419.9699695539748
 30
0.0
 10
308.9512331463484
 20
419.3073088304709
 30
0.0
  0
POLYLINE
  5
331
330
32C
100
AcDbEntity
  8
ITSE
 62
   250
420
  2301728
370
     9
100
AcDb2dPolyline
 66
     1
 10
0.0
 20
0.0
 30
0.0
  0
VERTEX
  5
332
330
331
100
AcDbEntity
  8
ITSE
 62
   250
420
  2301728
370
     9
100
AcDbVertex
100
AcDb2dVertex
 10
309.4098462748589
 20
417.6177571175476
 30
0.0
  0
VERTEX
  5
333
330
331
100
AcDbEntity
  8
ITSE
 62
   250
420
  2301728
370
     9
100
AcDbVertex
100
AcDb2dVertex
 10
310.4912229744914
 20
386.0861718110009
 30
0.0
  0
SEQEND
  5
334
330
331
100
AcDbEntity
  8
ITSE
 62
   250
420
  2301728
370
     9
  0
SPLINE
  5
335
330
32C
100
AcDbEntity
  8
ITSE
 62
   250
420
  2301728
370
    15
100
AcDbSpline
210
0.0
220
0.0
230
1.0
 70
     8
 71
     3
 72
    11
 73
     7
 74
     0
 42
0.0000000001
 43
0.0000000001
 12
1.0
 22
0.0
 32
0.0
 13
1.0
 23
0.0
 33
0.0
 40
0.0
 40
0.0
 40
0.0
 40
0.0
 40
1.0
 40
1.0
 40
1.0
 40
2.0
 40
2.0
 40
2.0
 40
2.0
 10
314.1093772042987
 20
382.4516876487232
 30
0.0
 10
314.1093772042987
 20
382.4516876487232
 30
0.0
 10
313.4638978744388
 20
401.2730535612363
 30
0.0
 10
313.4638978744388
 20
401.2730535612363
 30
0.0
 10
313.4147511589399
 20
402.7061100093879
 30
0.0
 10
314.2810765599734
 20
403.1675573606271
 30
0.0
 10
314.9606279100444
 20
402.5050274234545
 30
0.0
  0
POLYLINE
  5
336
330
32C
100
AcDbEntity
  8
ITSE
 62
   250
420
  2301728
370
     9
100
AcDb2dPolyline
 66
     1
 10
0.0
 20
0.0
 30
0.0
  0
VERTEX
  5
337
330
336
100
AcDbEntity
  8
ITSE
 62
   250
420
  2301728
370
     9
100
AcDbVertex
100
AcDb2dVertex
 10
315.4299815977283
 20
400.6256633613884
 30
0.0
  0
VERTEX
  5
338
330
336
100
AcDbEntity
  8
ITSE
 62
   250
420
  2301728
370
     9
100
AcDbVertex
100
AcDb2dVertex
 10
316.0492421207073
 20
382.568804901377
 30
0.0
  0
SEQEND
  5
339
330
336
100
AcDbEntity
  8
ITSE
 62
   250
420
  2301728
370
     9
  0
SPLINE
  5
33A
330
32C
100
AcDbEntity
  8
ITSE
 62
   250
420
  2301728
370
     9
100
AcDbSpline
210
0.0
220
0.0
230
1.0
 70
     8
 71
     3
 72
     8
 73
     4
 74
     0
 42
0.0000000001
 43
0.0000000001
 12
1.0
 22
0.0
 32
0.0
 13
1.0
 23
0.0
 33
0.0
 40
0.0
 40
0.0
 40
0.0
 40
0.0
 40
1.0
 40
1.0
 40
1.0
 40
1.0
 10
310.954007194221
 20
383.6766573700024
 30
0.0
 10
310.954007194221
 20
383.6766573700024
 30
0.0
 10
310.6035401888239
 20
384.0756737930133
 30
0.0
 10
310.6035808147335
 20
384.9195658553817
 30
0.0
  0
SPLINE
  5
33B
330
32C
100
AcDbEntity
  8
ITSE
 62
   250
420
  2301728
370
     9
100
AcDbSpline
210
0.0
220
0.0
230
1.0
 70
     8
 71
     3
 72
     8
 73
     4
 74
     0
 42
0.0000000001
 43
0.0000000001
 12
1.0
 22
0.0
 32
0.0
 13
1.0
 23
0.0
 33
0.0
 40
0.0
 40
0.0
 40
0.0
 40
0.0
 40
1.0
 40
1.0
 40
1.0
 40
1.0
 10
316.4534631953484
 20
380.3618181173497
 30
0.0
 10
316.4534631953484
 20
380.3618181173497
 30
0.0
 10
316.1009417939658
 20
380.7597361112075
 30
0.0
 10
316.1030658070249
 20
381.6038812568659
 30
0.0
  0
SPLINE
  5
33C
330
32C
100
AcDbEntity
  8
ITSE
 62
   250
420
  2301728
370
    20
100
AcDbSpline
210
0.0
220
0.0
230
1.0
 70
     8
 71
     3
 72
    20
 73
    16
 74
     0
 42
0.0000000001
 43
0.0000000001
 12
1.0
 22
0.0
 32
0.0
 13
1.0
 23
0.0
 33
0.0
 40
0.0
 40
0.0
 40
0.0
 40
0.0
 40
1.0
 40
1.0
 40
1.0
 40
2.0
 40
2.0
 40
2.0
 40
3.0
 40
3.0
 40
3.0
 40
4.0
 40
4.0
 40
4.0
 40
5.0
 40
5.0
 40
5.0
 40
5.0
 10
307.3275030577115
 20
386.0285101526788
 30
0.0
 10
307.3275030577115
 20
386.0285101526788
 30
0.0
 10
307.8317291494459
 20
384.3774602275862
 30
0.0
 10
309.1213755221634
 20
383.6138072097583
 30
0.0
 10
309.9654155489861
 20
383.1140161606163
 30
0.0
 10
310.8161254869447
 20
383.7184690388476
 30
0.0
 10
310.8161254869447
 20
383.7184690388476
 30
0.0
 10
310.8161254869447
 20
383.7184690388476
 30
0.0
 10
313.8965220125301
 20
382.444387773292
 30
0.0
 10
313.8965220125301
 20
382.444387773292
 30
0.0
 10
313.8965220125301
 20
382.444387773292
 30
0.0
 10
314.0303713858484
 20
381.318894400767
 30
0.0
 10
314.7787606999227
 20
380.6422246025722
 30
0.0
 10
315.3714724264082
 20
380.1068178644564
 30
0.0
 10
316.780495937257
 20
380.544521063568
 30
0.0
 10
316.780495937257
 20
380.544521063568
 30
0.0
  0
SPLINE
  5
33D
330
32C
100
AcDbEntity
  8
ITSE
 62
   250
420
  2301728
370
     9
100
AcDbSpline
210
0.0
220
0.0
230
1.0
 70
    11
 71
     3
 72
    20
 73
    16
 74
     0
 42
0.0000000001
 43
0.0000000001
 12
1.0
 22
0.0
 32
0.0
 13
1.0
 23
0.0
 33
0.0
 40
0.0
 40
0.0
 40
0.0
 40
0.0
 40
1.0
 40
1.0
 40
1.0
 40
2.0
 40
2.0
 40
2.0
 40
3.0
 40
3.0
 40
3.0
 40
4.0
 40
4.0
 40
4.0
 40
5.0
 40
5.0
 40
5.0
 40
5.0
 10
319.8520582849997
 20
388.1251601971762
 30
0.0
 10
319.8520582849997
 20
388.1251601971762
 30
0.0
 10
320.1102884152733
 20
387.9482779962691
 30
0.0
 10
320.2866793440971
 20
387.8013788927456
 30
0.0
 10
320.1974153557767
 20
387.0917508097136
 30
0.0
 10
319.4140538875545
 20
386.2591031182419
 30
0.0
 10
318.5249334965447
 20
386.7028989409828
 30
0.0
 10
316.9569284286717
 20
387.4868500314824
 30
0.0
 10
316.77468190734
 20
389.6673605759097
 30
0.0
 10
317.5152997770547
 20
389.8218037207753
 30
0.0
 10
317.5335337928082
 20
389.8884616919386
 30
0.0
 10
317.7390740852188
 20
389.6818482902399
 30
0.0
 10
318.0113971484043
 20
389.5134881860504
 30
0.0
 10
317.3313937761141
 20
389.2193873621873
 30
0.0
 10
318.4770270835415
 20
387.4397663484124
 30
0.0
 10
319.8520582849997
 20
388.1251601971762
 30
0.0
  0
POLYLINE
  5
33E
330
32C
100
AcDbEntity
  8
ITSE
 62
   250
420
  2301728
370
    15
100
AcDb2dPolyline
 66
     1
 10
0.0
 20
0.0
 30
0.0
  0
VERTEX
  5
33F
330
33E
100
AcDbEntity
  8
ITSE
 62
   250
420
  2301728
370
    15
100
AcDbVertex
100
AcDb2dVertex
 10
317.5450291306279
 20
389.793841359422
 30
0.0
  0
VERTEX
  5
340
330
33E
100
AcDbEntity
  8
ITSE
 62
   250
420
  2301728
370
    15
100
AcDbVertex
100
AcDb2dVertex
 10
320.2331442391769
 20
387.8572952186314
 30
0.0
  0
SEQEND
  5
341
330
33E
100
AcDbEntity
  8
ITSE
 62
   250
420
  2301728
370
    15
  0
SPLINE
  5
342
330
32C
100
AcDbEntity
  8
ITSE
 62
   250
420
  2301728
370
     9
100
AcDbSpline
210
0.0
220
0.0
230
1.0
 70
     8
 71
     3
 72
     8
 73
     4
 74
     0
 42
0.0000000001
 43
0.0000000001
 12
1.0
 22
0.0
 32
0.0
 13
1.0
 23
0.0
 33
0.0
 40
0.0
 40
0.0
 40
0.0
 40
0.0
 40
1.0
 40
1.0
 40
1.0
 40
1.0
 10
318.3370692261124
 20
389.2322692716571
 30
0.0
 10
318.3370692261124
 20
389.2322692716571
 30
0.0
 10
318.3799378307285
 20
388.2845283425268
 30
0.0
 10
318.9970892175934
 20
387.9987689034897
 30
0.0
  0
SPLINE
  5
343
330
32C
100
AcDbEntity
  8
ITSE
 62
   250
420
  2301728
370
     9
100
AcDbSpline
210
0.0
220
0.0
230
1.0
 70
     8
 71
     3
 72
    11
 73
     7
 74
     0
 42
0.0000000001
 43
0.0000000001
 12
1.0
 22
0.0
 32
0.0
 13
1.0
 23
0.0
 33
0.0
 40
0.0
 40
0.0
 40
0.0
 40
0.0
 40
1.0
 40
1.0
 40
1.0
 40
2.0
 40
2.0
 40
2.0
 40
2.0
 10
320.2142195128181
 20
387.6874086444295
 30
0.0
 10
320.2142195128181
 20
387.6874086444295
 30
0.0
 10
319.1426145638816
 20
386.8273172379886
 30
0.0
 10
317.7931978480337
 20
387.9802985392835
 30
0.0
 10
316.5778569112117
 20
389.022191768121
 30
0.0
 10
317.4738128220324
 20
389.8224963937355
 30
0.0
 10
317.4738128220324
 20
389.8224963937355
 30
0.0
  0
SPLINE
  5
344
330
32C
100
AcDbEntity
  8
ITSE
 62
   250
420
  2301728
370
     9
100
AcDbSpline
210
0.0
220
0.0
230
1.0
 70
    11
 71
     3
 72
    17
 73
    13
 74
     0
 42
0.0000000001
 43
0.0000000001
 12
1.0
 22
0.0
 32
0.0
 13
1.0
 23
0.0
 33
0.0
 40
0.0
 40
0.0
 40
0.0
 40
0.0
 40
1.0
 40
1.0
 40
1.0
 40
2.0
 40
2.0
 40
2.0
 40
3.0
 40
3.0
 40
3.0
 40
4.0
 40
4.0
 40
4.0
 40
4.0
 10
312.2521216472906
 20
390.8240617914089
 30
0.0
 10
312.2521216472906
 20
390.8240617914089
 30
0.0
 10
313.1208719106853
 20
388.685741008625
 30
0.0
 10
313.1208719106853
 20
388.685741008625
 30
0.0
 10
313.1208719106853
 20
388.685741008625
 30
0.0
 10
312.3355204269192
 20
388.3922582068699
 30
0.0
 10
311.6988038673971
 20
388.822890935091
 30
0.0
 10
311.0601556099755
 20
389.2543335606169
 30
0.0
 10
310.8186366995578
 20
390.152952383798
 30
0.0
 10
310.8186366995578
 20
390.152952383798
 30
0.0
 10
310.8186366995578
 20
390.152952383798
 30
0.0
 10
312.2521216472906
 20
390.8240617914089
 30
0.0
 10
312.2521216472906
 20
390.8240617914089
 30
0.0
  0
SPLINE
  5
345
330
32C
100
AcDbEntity
  8
ITSE
 62
   250
420
  2301728
370
    13
100
AcDbSpline
210
0.0
220
0.0
230
1.0
 70
     8
 71
     3
 72
    11
 73
     7
 74
     0
 42
0.0000000001
 43
0.0000000001
 12
1.0
 22
0.0
 32
0.0
 13
1.0
 23
0.0
 33
0.0
 40
0.0
 40
0.0
 40
0.0
 40
0.0
 40
1.0
 40
1.0
 40
1.0
 40
2.0
 40
2.0
 40
2.0
 40
2.0
 10
312.5195992747977
 20
390.069792046379
 30
0.0
 10
312.5195992747977
 20
390.069792046379
 30
0.0
 10
311.6254144364902
 20
390.1239262721101
 30
0.0
 10
311.6254144364902
 20
390.1239262721101
 30
0.0
 10
311.6254144364902
 20
390.1239262721101
 30
0.0
 10
311.8593498448645
 20
389.0824947115507
 30
0.0
 10
312.8738065468169
 20
389.2587804619725
 30
0.0
  0
POLYLINE
  5
346
330
32C
100
AcDbEntity
  8
ITSE
 62
   250
420
  2301728
370
     9
100
AcDb2dPolyline
 66
     1
 10
0.0
 20
0.0
 30
0.0
  0
VERTEX
  5
347
330
346
100
AcDbEntity
  8
ITSE
 62
   250
420
  2301728
370
     9
100
AcDbVertex
100
AcDb2dVertex
 10
310.873092108186
 20
390.0702011586709
 30
0.0
  0
VERTEX
  5
348
330
346
100
AcDbEntity
  8
ITSE
 62
   250
420
  2301728
370
     9
100
AcDbVertex
100
AcDb2dVertex
 10
311.6396423202277
 20
390.0675080915917
 30
0.0
  0
SEQEND
  5
349
330
346
100
AcDbEntity
  8
ITSE
 62
   250
420
  2301728
370
     9
  0
ENDBLK
  5
32F
330
32C
100
AcDbEntity
  8
0
100
AcDbBlockEnd
  0
ENDSEC
  0
SECTION
  2
ENTITIES
  0
INSERT
  5
42
330
1F
100
AcDbEntity
  8
Woods
100
AcDbBlockReference
  2
block 2
 10
0.0
 20
0.0
 30
0.0
  0
INSERT
  5
AA
330
1F
100
AcDbEntity
  8
Woods
100
AcDbBlockReference
  2
block 7
 10
0.0
 20
0.0
 30
0.0
  0
INSERT
  5
136
330
1F
100
AcDbEntity
  8
Woods
100
AcDbBlockReference
  2
block 16
 10
0.0
 20
0.0
 30
0.0
  0
POLYLINE
  5
1C2
330
1F
100
AcDbEntity
  8
Woods
 62
   250
420
  2301728
370
     9
100
AcDb2dPolyline
 66
     1
 10
0.0
 20
0.0
 30
0.0
  0
VERTEX
  5
1C3
330
1C2
100
AcDbEntity
  8
Woods
 62
   250
420
  2301728
370
     9
100
AcDbVertex
100
AcDb2dVertex
 10
367.1693548387102
 20
568.0564516129034
 30
0.0
  0
VERTEX
  5
1C4
330
1C2
100
AcDbEntity
  8
Woods
 62
   250
420
  2301728
370
     9
100
AcDbVertex
100
AcDb2dVertex
 10
199.0322580645161
 20
508.263183007999
 30
0.0
  0
VERTEX
  5
1C5
330
1C2
100
AcDbEntity
  8
Woods
 62
   250
420
  2301728
370
     9
100
AcDbVertex
100
AcDb2dVertex
 10
198.5200482208074
 20
439.6794362768833
 30
0.0
  0
VERTEX
  5
1C6
330
1C2
100
AcDbEntity
  8
Woods
 62
   250
420
  2301728
370
     9
100
AcDbVertex
100
AcDb2dVertex
 10
193.544394738853
 20
434.7831684177881
 30
0.0
  0
VERTEX
  5
1C7
330
1C2
100
AcDbEntity
  8
Woods
 62
   250
420
  2301728
370
     9
100
AcDbVertex
100
AcDb2dVertex
 10
190.4516129032254
 20
431.6463398117357
 30
0.0
  0
VERTEX
  5
1C8
330
1C2
100
AcDbEntity
  8
Woods
 62
   250
420
  2301728
370
     9
100
AcDbVertex
100
AcDb2dVertex
 10
190.1049021441604
 20
364.0556015752263
 30
0.0
  0
SEQEND
  5
1C9
330
1C2
100
AcDbEntity
  8
Woods
 62
   250
420
  2301728
370
     9
  0
POLYLINE
  5
1CA
330
1F
100
AcDbEntity
  8
Woods
 62
   250
420
  2301728
370
     9
100
AcDb2dPolyline
 66
     1
 10
0.0
 20
0.0
 30
0.0
  0
VERTEX
  5
1CB
330
1CA
100
AcDbEntity
  8
Woods
 62
   250
420
  2301728
370
     9
100
AcDbVertex
100
AcDb2dVertex
 10
202.3162500873514
 20
430.0496673148391
 30
0.0
  0
VERTEX
  5
1CC
330
1CA
100
AcDbEntity
  8
Woods
 62
   250
420
  2301728
370
     9
100
AcDbVertex
100
AcDb2dVertex
 10
199.1898366640062
 20
427.223484353306
 30
0.0
  0
VERTEX
  5
1CD
330
1CA
100
AcDbEntity
  8
Woods
 62
   250
420
  2301728
370
     9
100
AcDbVertex
100
AcDb2dVertex
 10
198.7361878611746
 20
358.6034822877573
 30
0.0
  0
SEQEND
  5
1CE
330
1CA
100
AcDbEntity
  8
Woods
 62
   250
420
  2301728
370
     9
  0
INSERT
  5
1D1
330
1F
100
AcDbEntity
  8
ITSE
100
AcDbBlockReference
  2
block 25
 10
0.0
 20
0.0
 30
0.0
  0
MTEXT
  5
34B
330
1F
100
AcDbEntity
  8
callout
 62
   250
420
  2301728
100
AcDbMText
 10
245.9829635620117
 20
313.2745151519775
 30
0.0
 40
8.495999999999999
 41
0.0
 46
0.0
 71
     7
 72
     1
  1
\fHelvetica Neue LT Std 55 Roman|b0|i0|c0|p34;\W1;SIMPSON Strong-Tie\H4.95317;®\H8.496; ^C
 73
     1
 44
1.0
  0
MTEXT
  5
34C
330
1F
100
AcDbEntity
  8
callout
 62
   250
420
  2301728
100
AcDbMText
 10
227.4522018432617
 20
298.8741245269775
 30
0.0
 40
8.495999999999999
 41
0.0
 46
0.0
 71
     7
 72
     1
  1
\fHelvetica Neue LT Std 55 Roman|b0|i0|c0|p34;\W1;ITSE Top Fix Joist Installation 
 73
     1
 44
1.0
  0
MTEXT
  5
34D
330
1F
100
AcDbEntity
  8
callout
 62
   250
420
  2236191
100
AcDbMText
 10
219.8740386962891
 20
555.0729064941406
 30
0.0
 40
8.495999999999999
 41
0.0
 46
0.0
 71
     7
 72
     1
  1
\fHelvetica Neue LT Std 57 Condensed|b0|i0|c0|p34;\W1;ITSE
 73
     1
 44
1.0
  0
POLYLINE
  5
34E
330
1F
100
AcDbEntity
  8
callout
 62
   250
420
  2236191
370
    18
100
AcDb2dPolyline
 66
     1
 10
0.0
 20
0.0
 30
0.0
  0
VERTEX
  5
34F
330
34E
100
AcDbEntity
  8
callout
 62
   250
420
  2236191
370
    18
100
AcDbVertex
100
AcDb2dVertex
 10
232.9489939120958
 20
551.2005359324394
 30
0.0
  0
VERTEX
  5
350
330
34E
100
AcDbEntity
  8
callout
 62
   250
420
  2236191
370
    18
100
AcDbVertex
100
AcDb2dVertex
 10
258.0635935928394
 20
534.803392364568
 30
0.0
  0
SEQEND
  5
351
330
34E
100
AcDbEntity
  8
callout
 62
   250
420
  2236191
370
    18
  0
MTEXT
  5
352
330
1F
100
AcDbEntity
  8
callout
 62
   250
420
  2236191
100
AcDbMText
 10
304.8789672851562
 20
347.9109115600586
 30
0.0
 40
8.495999999999999
 41
0.0
 46
0.0
 71
     7
 72
     1
  1
\fHelvetica Neue LT Std 57 Condensed|b0|i0|c0|p34;\W1;Joist
 73
     1
 44
1.0
  0
POLYLINE
  5
353
330
1F
100
AcDbEntity
  8
callout
 62
   250
420
  2236191
370
    18
100
AcDb2dPolyline
 66
     1
 10
0.0
 20
0.0
 30
0.0
  0
VERTEX
  5
354
330
353
100
AcDbEntity
  8
callout
 62
   250
420
  2236191
370
    18
100
AcDbVertex
100
AcDb2dVertex
 10
331.2078051785538
 20
351.9491913039601
 30
0.0
  0
VERTEX
  5
355
330
353
100
AcDbEntity
  8
callout
 62
   250
420
  2236191
370
    18
100
AcDbVertex
100
AcDb2dVertex
 10
349.6237061894335
 20
366.6910242324957
 30
0.0
  0
SEQEND
  5
356
330
353
100
AcDbEntity
  8
callout
 62
   250
420
  2236191
370
    18
  0
ENDSEC
  0
SECTION
  2
OBJECTS
  0
DICTIONARY
  5
C
330
0
100
AcDbDictionary
281
     1
  3
ACAD_GROUP
350
D
  3
ACAD_LAYOUT
350
1A
  3
ACAD_MATERIAL
350
3B
  3
ACAD_MLEADERSTYLE
350
363
  3
ACAD_MLINESTYLE
350
17
  3
ACAD_PLOTSETTINGS
350
19
  3
ACAD_PLOTSTYLENAME
350
E
  3
ACAD_TABLESTYLE
350
362
  3
ACAD_VISUALSTYLE
350
2A
  0
SUN
  5
3F
330
29
100
AcDbSun
 90
        1
290
     0
 63
     7
421
 16777215
 40
1.0
291
     1
 91
  2455826
 92
 54000000
292
     0
 70
     2
 71
   256
280
     1
  0
DICTIONARY
  5
D
102
{ACAD_REACTORS
330
C
102
}
330
C
100
AcDbDictionary
281
     1
  0
DICTIONARY
  5
1A
102
{ACAD_REACTORS
330
C
102
}
330
C
100
AcDbDictionary
281
     1
  3
Layout1
350
1E
  3
Layout2
350
26
  3
Model
350
22
  0
DICTIONARY
  5
3B
102
{ACAD_REACTORS
330
C
102
}
330
C
100
AcDbDictionary
281
     1
  3
ByBlock
350
3D
  3
ByLayer
350
3C
  3
Global
350
3E
  0
DICTIONARY
  5
363
102
{ACAD_REACTORS
330
C
102
}
330
C
100
AcDbDictionary
281
     1
  0
DICTIONARY
  5
17
102
{ACAD_REACTORS
330
C
102
}
330
C
100
AcDbDictionary
281
     1
  3
Standard
350
18
  0
DICTIONARY
  5
19
102
{ACAD_REACTORS
330
C
102
}
330
C
100
AcDbDictionary
281
     1
  0
ACDBDICTIONARYWDFLT
  5
E
102
{ACAD_REACTORS
330
C
102
}
330
C
100
AcDbDictionary
281
     1
  3
Normal
350
F
100
AcDbDictionaryWithDefault
340
F
  0
DICTIONARY
  5
362
102
{ACAD_REACTORS
330
C
102
}
330
C
100
AcDbDictionary
281
     1
  0
DICTIONARY
  5
2A
102
{ACAD_REACTORS
330
C
102
}
330
C
100
AcDbDictionary
281
     1
  3
2dWireframe
350
2F
  3
3D Hidden
350
31
  3
3dWireframe
350
30
  3
Basic
350
32
  3
Brighten
350
36
  3
ColorChange
350
3A
  3
Conceptual
350
34
  3
Dim
350
35
  3
Facepattern
350
39
  3
Flat
350
2B
  3
FlatWithEdges
350
2C
  3
Gouraud
350
2D
  3
GouraudWithEdges
350
2E
  3
Linepattern
350
38
  3
Realistic
350
33
  3
Thicken
350
37
  0
LAYOUT
  5
1E
102
{ACAD_REACTORS
330
1A
102
}
330
1A
100
AcDbPlotSettings
  1

  2
none_device
  4

  6

 40
0.0
 41
0.0
 42
0.0
 43
0.0
 44
0.0
 45
0.0
 46
0.0
 47
0.0
 48
0.0
 49
0.0
140
0.0
141
0.0
142
1.0
143
1.0
 70
   688
 72
     0
 73
     0
 74
     5
  7

 75
    16
 76
     0
 77
     2
 78
   300
147
1.0
148
0.0
149
0.0
100
AcDbLayout
  1
Layout1
 70
     1
 71
     1
 10
0.0
 20
0.0
 11
12.0
 21
9.0
 12
0.0
 22
0.0
 32
0.0
 14
1.000000000000000E+20
 24
1.000000000000000E+20
 34
1.000000000000000E+20
 15
-1.000000000000000E+20
 25
-1.000000000000000E+20
 35
-1.000000000000000E+20
146
0.0
 13
0.0
 23
0.0
 33
0.0
 16
1.0
 26
0.0
 36
0.0
 17
0.0
 27
1.0
 37
0.0
 76
     0
330
1B
  0
LAYOUT
  5
26
102
{ACAD_REACTORS
330
1A
102
}
330
1A
100
AcDbPlotSettings
  1

  2
none_device
  4

  6

 40
0.0
 41
0.0
 42
0.0
 43
0.0
 44
0.0
 45
0.0
 46
0.0
 47
0.0
 48
0.0
 49
0.0
140
0.0
141
0.0
142
1.0
143
1.0
 70
   688
 72
     0
 73
     0
 74
     5
  7

 75
    16
 76
     0
 77
     2
 78
   300
147
1.0
148
0.0
149
0.0
100
AcDbLayout
  1
Layout2
 70
     1
 71
     2
 10
0.0
 20
0.0
 11
0.0
 21
0.0
 12
0.0
 22
0.0
 32
0.0
 14
0.0
 24
0.0
 34
0.0
 15
0.0
 25
0.0
 35
0.0
146
0.0
 13
0.0
 23
0.0
 33
0.0
 16
1.0
 26
0.0
 36
0.0
 17
0.0
 27
1.0
 37
0.0
 76
     0
330
23
  0
LAYOUT
  5
22
102
{ACAD_REACTORS
330
1A
102
}
330
1A
100
AcDbPlotSettings
  1

  2
none_device
  4

  6

 40
0.0
 41
0.0
 42
0.0
 43
0.0
 44
0.0
 45
0.0
 46
0.0
 47
0.0
 48
0.0
 49
0.0
140
0.0
141
0.0
142
1.0
143
1.0
 70
  1712
 72
     0
 73
     0
 74
     0
  7

 75
     0
 76
     0
 77
     2
 78
   300
147
1.0
148
0.0
149
0.0
100
AcDbLayout
  1
Model
 70
     1
 71
     0
 10
0.0
 20
0.0
 11
12.0
 21
9.0
 12
0.0
 22
0.0
 32
0.0
 14
1.000000000000000E+20
 24
1.000000000000000E+20
 34
1.000000000000000E+20
 15
-1.000000000000000E+20
 25
-1.000000000000000E+20
 35
-1.000000000000000E+20
146
0.0
 13
0.0
 23
0.0
 33
0.0
 16
1.0
 26
0.0
 36
0.0
 17
0.0
 27
1.0
 37
0.0
 76
     0
330
1F
331
29
  0
MATERIAL
  5
3D
102
{ACAD_REACTORS
330
3B
102
}
330
3B
100
AcDbMaterial
  1
ByBlock
 72
     1
 94
      127
  0
MATERIAL
  5
3C
102
{ACAD_REACTORS
330
3B
102
}
330
3B
100
AcDbMaterial
  1
ByLayer
 72
     1
 94
      127
  0
MATERIAL
  5
3E
102
{ACAD_REACTORS
330
3B
102
}
330
3B
100
AcDbMaterial
  1
Global
 72
     1
 94
      127
  0
MLINESTYLE
  5
18
102
{ACAD_REACTORS
330
17
102
}
330
17
100
AcDbMlineStyle
  2
Standard
 70
     0
  3

 62
   256
 51
90.0
 52
90.0
 71
     2
 49
0.5
 62
   256
  6
BYLAYER
 49
-0.5
 62
   256
  6
BYLAYER
  0
ACDBPLACEHOLDER
  5
F
102
{ACAD_REACTORS
330
E
102
}
330
E
  0
VISUALSTYLE
  5
2F
102
{ACAD_REACTORS
330
2A
102
}
330
2A
100
AcDbVisualStyle
  2
2dWireframe
 70
     4
177
     2
291
     0
 71
     0
176
     1
 72
     2
176
     1
 73
     0
176
     1
 90
        0
176
     1
 40
-0.6
176
     1
 41
-30.0
176
     1
 62
     5
 63
     7
421
 16777215
176
     1
 74
     1
176
     1
 91
        4
176
     1
 64
     7
176
     1
 65
   257
176
     1
 75
     1
176
     1
175
     1
176
     1
 42
1.0
176
     1
 92
        0
176
     1
 66
   257
176
     1
 43
1.0
176
     1
 76
     1
176
     1
 77
     6
176
     1
 78
     2
176
     1
 67
     7
176
     1
 79
     5
176
     1
170
     0
176
     1
171
     0
176
     1
290
     0
176
     1
 93
        1
176
     1
 44
0.0
176
     1
173
     0
176
     1
  0
VISUALSTYLE
  5
31
102
{ACAD_REACTORS
330
2A
102
}
330
2A
100
AcDbVisualStyle
  2
3D Hidden
 70
     6
177
     2
291
     0
 71
     1
176
     1
 72
     2
176
     1
 73
     2
176
     1
 90
        0
176
     1
 40
-0.6
176
     1
 41
-30.0
176
     1
 62
     5
 63
     7
421
 16777215
176
     1
 74
     2
176
     1
 91
        2
176
     1
 64
     7
176
     1
 65
   257
176
     1
 75
     2
176
     1
175
     1
176
     1
 42
40.0
176
     1
 92
        0
176
     1
 66
   257
176
     1
 43
1.0
176
     1
 76
     1
176
     1
 77
     6
176
     1
 78
     2
176
     1
 67
     7
176
     1
 79
     3
176
     1
170
     0
176
     1
171
     0
176
     1
290
     0
176
     1
 93
        1
176
     1
 44
0.0
176
     1
173
     0
176
     1
  0
VISUALSTYLE
  5
30
102
{ACAD_REACTORS
330
2A
102
}
330
2A
100
AcDbVisualStyle
  2
3dWireframe
 70
     5
177
     2
291
     0
 71
     0
176
     1
 72
     2
176
     1
 73
     0
176
     1
 90
        0
176
     1
 40
-0.6
176
     1
 41
-30.0
176
     1
 62
     5
 63
     7
421
 16777215
176
     1
 74
     1
176
     1
 91
        4
176
     1
 64
     7
176
     1
 65
   257
176
     1
 75
     1
176
     1
175
     1
176
     1
 42
1.0
176
     1
 92
        0
176
     1
 66
   257
176
     1
 43
1.0
176
     1
 76
     1
176
     1
 77
     6
176
     1
 78
     2
176
     1
 67
     7
176
     1
 79
     5
176
     1
170
     0
176
     1
171
     0
176
     1
290
     0
176
     1
 93
        1
176
     1
 44
0.0
176
     1
173
     0
176
     1
  0
VISUALSTYLE
  5
32
102
{ACAD_REACTORS
330
2A
102
}
330
2A
100
AcDbVisualStyle
  2
Basic
 70
     7
177
     2
291
     1
 71
     1
176
     1
 72
     0
176
     1
 73
     1
176
     1
 90
        0
176
     1
 40
-0.6
176
     1
 41
-30.0
176
     1
 62
     5
 63
     7
421
 16777215
176
     1
 74
     0
176
     1
 91
        4
176
     1
 64
     7
176
     1
 65
   257
176
     1
 75
     1
176
     1
175
     1
176
     1
 42
1.0
176
     1
 92
        8
176
     1
 66
     7
176
     1
 43
1.0
176
     1
 76
     1
176
     1
 77
     6
176
     1
 78
     2
176
     1
 67
     7
176
     1
 79
     5
176
     1
170
     0
176
     1
171
     0
176
     1
290
     0
176
     1
 93
        1
176
     1
 44
0.0
176
     1
173
     0
176
     1
  0
VISUALSTYLE
  5
36
102
{ACAD_REACTORS
330
2A
102
}
330
2A
100
AcDbVisualStyle
  2
Brighten
 70
    12
177
     2
291
     1
 71
     2
176
     1
 72
     2
176
     1
 73
     0
176
     1
 90
        0
176
     1
 40
-0.6
176
     1
 41
-30.0
176
     1
 62
     5
 63
     7
421
 16777215
176
     1
 74
     1
176
     1
 91
        4
176
     1
 64
     7
176
     1
 65
   257
176
     1
 75
     1
176
     1
175
     1
176
     1
 42
1.0
176
     1
 92
        8
176
     1
 66
     7
176
     1
 43
1.0
176
     1
 76
     1
176
     1
 77
     6
176
     1
 78
     2
176
     1
 67
     7
176
     1
 79
     5
176
     1
170
     0
176
     1
171
     0
176
     1
290
     0
176
     1
 93
        1
176
     1
 44
50.0
176
     1
173
     0
176
     1
  0
VISUALSTYLE
  5
3A
102
{ACAD_REACTORS
330
2A
102
}
330
2A
100
AcDbVisualStyle
  2
ColorChange
 70
    16
177
     2
291
     1
 71
     2
176
     1
 72
     2
176
     1
 73
     3
176
     1
 90
        0
176
     1
 40
-0.6
176
     1
 41
-30.0
176
     1
 62
     5
 63
     8
421
  8421504
176
     1
 74
     1
176
     1
 91
        4
176
     1
 64
     7
176
     1
 65
   257
176
     1
 75
     1
176
     1
175
     1
176
     1
 42
1.0
176
     1
 92
        8
176
     1
 66
     8
424
  8421504
176
     1
 43
1.0
176
     1
 76
     1
176
     1
 77
     6
176
     1
 78
     2
176
     1
 67
     7
176
     1
 79
     5
176
     1
170
     0
176
     1
171
     0
176
     1
290
     0
176
     1
 93
        1
176
     1
 44
0.0
176
     1
173
     0
176
     1
  0
VISUALSTYLE
  5
34
102
{ACAD_REACTORS
330
2A
102
}
330
2A
100
AcDbVisualStyle
  2
Conceptual
 70
     9
177
     2
291
     0
 71
     3
176
     1
 72
     2
176
     1
 73
     0
176
     1
 90
        0
176
     1
 40
-0.6
176
     1
 41
-30.0
176
     1
 62
     5
 63
     7
421
 16777215
176
     1
 74
     2
176
     1
 91
        2
176
     1
 64
     7
176
     1
 65
   257
176
     1
 75
     1
176
     1
175
     1
176
     1
 42
40.0
176
     1
 92
        8
176
     1
 66
     7
176
     1
 43
1.0
176
     1
 76
     1
176
     1
 77
     6
176
     1
 78
     2
176
     1
 67
     7
176
     1
 79
     3
176
     1
170
     0
176
     1
171
     0
176
     1
290
     0
176
     1
 93
        1
176
     1
 44
0.0
176
     1
173
     0
176
     1
  0
VISUALSTYLE
  5
35
102
{ACAD_REACTORS
330
2A
102
}
330
2A
100
AcDbVisualStyle
  2
Dim
 70
    11
177
     2
291
     1
 71
     2
176
     1
 72
     2
176
     1
 73
     0
176
     1
 90
        0
176
     1
 40
-0.6
176
     1
 41
-30.0
176
     1
 62
     5
 63
     7
421
 16777215
176
     1
 74
     1
176
     1
 91
        4
176
     1
 64
     7
176
     1
 65
   257
176
     1
 75
     1
176
     1
175
     1
176
     1
 42
1.0
176
     1
 92
        8
176
     1
 66
     7
176
     1
 43
1.0
176
     1
 76
     1
176
     1
 77
     6
176
     1
 78
     2
176
     1
 67
     7
176
     1
 79
     5
176
     1
170
     0
176
     1
171
     0
176
     1
290
     0
176
     1
 93
        1
176
     1
 44
-50.0
176
     1
173
     0
176
     1
  0
VISUALSTYLE
  5
39
102
{ACAD_REACTORS
330
2A
102
}
330
2A
100
AcDbVisualStyle
  2
Facepattern
 70
    15
177
     2
291
     1
 71
     2
176
     1
 72
     2
176
     1
 73
     0
176
     1
 90
        0
176
     1
 40
-0.6
176
     1
 41
-30.0
176
     1
 62
     5
 63
     7
421
 16777215
176
     1
 74
     1
176
     1
 91
        4
176
     1
 64
     7
176
     1
 65
   257
176
     1
 75
     1
176
     1
175
     1
176
     1
 42
1.0
176
     1
 92
        8
176
     1
 66
     7
176
     1
 43
1.0
176
     1
 76
     1
176
     1
 77
     6
176
     1
 78
     2
176
     1
 67
     7
176
     1
 79
     5
176
     1
170
     0
176
     1
171
     0
176
     1
290
     0
176
     1
 93
        1
176
     1
 44
0.0
176
     1
173
     0
176
     1
  0
VISUALSTYLE
  5
2B
102
{ACAD_REACTORS
330
2A
102
}
330
2A
100
AcDbVisualStyle
  2
Flat
 70
     0
177
     2
291
     1
 71
     2
176
     1
 72
     1
176
     1
 73
     1
176
     1
 90
        2
176
     1
 40
-0.6
176
     1
 41
30.0
176
     1
 62
     5
 63
     7
421
 16777215
176
     1
 74
     0
176
     1
 91
        4
176
     1
 64
     7
176
     1
 65
   257
176
     1
 75
     1
176
     1
175
     1
176
     1
 42
1.0
176
     1
 92
        8
176
     1
 66
     7
176
     1
 43
1.0
176
     1
 76
     1
176
     1
 77
     6
176
     1
 78
     2
176
     1
 67
     7
176
     1
 79
     5
176
     1
170
     0
176
     1
171
     0
176
     1
290
     0
176
     1
 93
       13
176
     1
 44
0.0
176
     1
173
     0
176
     1
  0
VISUALSTYLE
  5
2C
102
{ACAD_REACTORS
330
2A
102
}
330
2A
100
AcDbVisualStyle
  2
FlatWithEdges
 70
     1
177
     2
291
     1
 71
     2
176
     1
 72
     1
176
     1
 73
     1
176
     1
 90
        2
176
     1
 40
-0.6
176
     1
 41
30.0
176
     1
 62
     5
 63
     7
421
 16777215
176
     1
 74
     1
176
     1
 91
        4
176
     1
 64
     7
176
     1
 65
   257
176
     1
 75
     1
176
     1
175
     1
176
     1
 42
1.0
176
     1
 92
        0
176
     1
 66
   257
176
     1
 43
1.0
176
     1
 76
     1
176
     1
 77
     6
176
     1
 78
     2
176
     1
 67
     7
176
     1
 79
     5
176
     1
170
     0
176
     1
171
     0
176
     1
290
     0
176
     1
 93
       13
176
     1
 44
0.0
176
     1
173
     0
176
     1
  0
VISUALSTYLE
  5
2D
102
{ACAD_REACTORS
330
2A
102
}
330
2A
100
AcDbVisualStyle
  2
Gouraud
 70
     2
177
     2
291
     1
 71
     2
176
     1
 72
     2
176
     1
 73
     1
176
     1
 90
        2
176
     1
 40
-0.6
176
     1
 41
30.0
176
     1
 62
     5
 63
     7
421
 16777215
176
     1
 74
     0
176
     1
 91
        4
176
     1
 64
     7
176
     1
 65
   257
176
     1
 75
     1
176
     1
175
     1
176
     1
 42
1.0
176
     1
 92
        0
176
     1
 66
     7
176
     1
 43
1.0
176
     1
 76
     1
176
     1
 77
     6
176
     1
 78
     2
176
     1
 67
     7
176
     1
 79
     5
176
     1
170
     0
176
     1
171
     0
176
     1
290
     0
176
     1
 93
       13
176
     1
 44
0.0
176
     1
173
     0
176
     1
  0
VISUALSTYLE
  5
2E
102
{ACAD_REACTORS
330
2A
102
}
330
2A
100
AcDbVisualStyle
  2
GouraudWithEdges
 70
     3
177
     2
291
     1
 71
     2
176
     1
 72
     2
176
     1
 73
     1
176
     1
 90
        2
176
     1
 40
-0.6
176
     1
 41
30.0
176
     1
 62
     5
 63
     7
421
 16777215
176
     1
 74
     1
176
     1
 91
        4
176
     1
 64
     7
176
     1
 65
   257
176
     1
 75
     1
176
     1
175
     1
176
     1
 42
1.0
176
     1
 92
        0
176
     1
 66
   257
176
     1
 43
1.0
176
     1
 76
     1
176
     1
 77
     6
176
     1
 78
     2
176
     1
 67
     7
176
     1
 79
     5
176
     1
170
     0
176
     1
171
     0
176
     1
290
     0
176
     1
 93
       13
176
     1
 44
0.0
176
     1
173
     0
176
     1
  0
VISUALSTYLE
  5
38
102
{ACAD_REACTORS
330
2A
102
}
330
2A
100
AcDbVisualStyle
  2
Linepattern
 70
    14
177
     2
291
     1
 71
     2
176
     1
 72
     2
176
     1
 73
     0
176
     1
 90
        0
176
     1
 40
-0.6
176
     1
 41
-30.0
176
     1
 62
     5
 63
     7
421
 16777215
176
     1
 74
     1
176
     1
 91
        4
176
     1
 64
     7
176
     1
 65
   257
176
     1
 75
     7
176
     1
175
     7
176
     1
 42
1.0
176
     1
 92
        8
176
     1
 66
     7
176
     1
 43
1.0
176
     1
 76
     1
176
     1
 77
     6
176
     1
 78
     2
176
     1
 67
     7
176
     1
 79
     5
176
     1
170
     0
176
     1
171
     0
176
     1
290
     0
176
     1
 93
        1
176
     1
 44
0.0
176
     1
173
     0
176
     1
  0
VISUALSTYLE
  5
33
102
{ACAD_REACTORS
330
2A
102
}
330
2A
100
AcDbVisualStyle
  2
Realistic
 70
     8
177
     2
291
     0
 71
     2
176
     1
 72
     2
176
     1
 73
     0
176
     1
 90
        0
176
     1
 40
-0.6
176
     1
 41
-30.0
176
     1
 62
     5
 63
     7
421
 16777215
176
     1
 74
     1
176
     1
 91
        0
176
     1
 64
     7
176
     1
 65
   257
176
     1
 75
     1
176
     1
175
     1
176
     1
 42
1.0
176
     1
 92
        8
176
     1
 66
     8
424
  7895160
176
     1
 43
1.0
176
     1
 76
     1
176
     1
 77
     6
176
     1
 78
     2
176
     1
 67
     7
176
     1
 79
     5
176
     1
170
     0
176
     1
171
     0
176
     1
290
     0
176
     1
 93
       13
176
     1
 44
0.0
176
     1
173
     0
176
     1
  0
VISUALSTYLE
  5
37
102
{ACAD_REACTORS
330
2A
102
}
330
2A
100
AcDbVisualStyle
  2
Thicken
 70
    13
177
     2
291
     1
 71
     2
176
     1
 72
     2
176
     1
 73
     0
176
     1
 90
        0
176
     1
 40
-0.6
176
     1
 41
-30.0
176
     1
 62
     5
 63
     7
421
 16777215
176
     1
 74
     1
176
     1
 91
        4
176
     1
 64
     7
176
     1
 65
   257
176
     1
 75
     1
176
     1
175
     1
176
     1
 42
1.0
176
     1
 92
       12
176
     1
 66
     7
176
     1
 43
1.0
176
     1
 76
     1
176
     1
 77
     6
176
     1
 78
     2
176
     1
 67
     7
176
     1
 79
     5
176
     1
170
     0
176
     1
171
     0
176
     1
290
     0
176
     1
 93
        1
176
     1
 44
0.0
176
     1
173
     0
176
     1
  0
ENDSEC
  0
EOF
