  0
SECTION
  2
HEADER
  9
$ACADVER
  1
AC1024
  9
$ACADMAINTVER
 70
     6
  9
$DWGCODEPAGE
  3
ANSI_1252
  9
$INSBASE
 10
0.0
 20
0.0
 30
0.0
  9
$EXTMIN
 10
1.000000000000000E+20
 20
1.000000000000000E+20
 30
1.000000000000000E+20
  9
$EXTMAX
 10
-1.000000000000000E+20
 20
-1.000000000000000E+20
 30
-1.000000000000000E+20
  9
$LIMMIN
 10
0.0
 20
0.0
  9
$LIMMAX
 10
12.0
 20
9.0
  9
$ORTHOMODE
 70
     0
  9
$REGENMODE
 70
     1
  9
$FILLMODE
 70
     1
  9
$QTEXTMODE
 70
     0
  9
$MIRRTEXT
 70
     1
  9
$LTSCALE
 40
1.0
  9
$ATTMODE
 70
     1
  9
$TEXTSIZE
 40
0.2
  9
$TRACEWID
 40
0.05
  9
$TEXTSTYLE
  7
Standard
  9
$CLAYER
  8
0
  9
$CELTYPE
  6
ByLayer
  9
$CECOLOR
 62
   256
  9
$CELTSCALE
 40
1.0
  9
$DISPSILH
 70
     0
  9
$DIMSCALE
 40
1.0
  9
$DIMASZ
 40
0.18
  9
$DIMEXO
 40
0.0625
  9
$DIMDLI
 40
0.38
  9
$DIMRND
 40
0.0
  9
$DIMDLE
 40
0.0
  9
$DIMEXE
 40
0.18
  9
$DIMTP
 40
0.0
  9
$DIMTM
 40
0.0
  9
$DIMTXT
 40
0.18
  9
$DIMCEN
 40
0.09
  9
$DIMTSZ
 40
0.0
  9
$DIMTOL
 70
     0
  9
$DIMLIM
 70
     0
  9
$DIMTIH
 70
     1
  9
$DIMTOH
 70
     1
  9
$DIMSE1
 70
     0
  9
$DIMSE2
 70
     0
  9
$DIMTAD
 70
     0
  9
$DIMZIN
 70
     0
  9
$DIMBLK
  1

  9
$DIMASO
 70
     1
  9
$DIMSHO
 70
     1
  9
$DIMPOST
  1

  9
$DIMAPOST
  1

  9
$DIMALT
 70
     0
  9
$DIMALTD
 70
     2
  9
$DIMALTF
 40
25.4
  9
$DIMLFAC
 40
1.0
  9
$DIMTOFL
 70
     0
  9
$DIMTVP
 40
0.0
  9
$DIMTIX
 70
     0
  9
$DIMSOXD
 70
     0
  9
$DIMSAH
 70
     0
  9
$DIMBLK1
  1

  9
$DIMBLK2
  1

  9
$DIMSTYLE
  2
Standard
  9
$DIMCLRD
 70
     0
  9
$DIMCLRE
 70
     0
  9
$DIMCLRT
 70
     0
  9
$DIMTFAC
 40
1.0
  9
$DIMGAP
 40
0.09
  9
$DIMJUST
 70
     0
  9
$DIMSD1
 70
     0
  9
$DIMSD2
 70
     0
  9
$DIMTOLJ
 70
     1
  9
$DIMTZIN
 70
     0
  9
$DIMALTZ
 70
     0
  9
$DIMALTTZ
 70
     0
  9
$DIMUPT
 70
     0
  9
$DIMDEC
 70
     4
  9
$DIMTDEC
 70
     4
  9
$DIMALTU
 70
     2
  9
$DIMALTTD
 70
     2
  9
$DIMTXSTY
  7
Standard
  9
$DIMAUNIT
 70
     0
  9
$DIMADEC
 70
     0
  9
$DIMALTRND
 40
0.0
  9
$DIMAZIN
 70
     0
  9
$DIMDSEP
 70
    46
  9
$DIMATFIT
 70
     3
  9
$DIMFRAC
 70
     0
  9
$DIMLDRBLK
  1

  9
$DIMLUNIT
 70
     2
  9
$DIMLWD
 70
    -2
  9
$DIMLWE
 70
    -2
  9
$DIMTMOVE
 70
     0
  9
$DIMFXL
 40
1.0
  9
$DIMFXLON
 70
     0
  9
$DIMJOGANG
 40
0.7853981633974483
  9
$DIMTFILL
 70
     0
  9
$DIMTFILLCLR
 70
     0
  9
$DIMARCSYM
 70
     0
  9
$DIMLTYPE
  6

  9
$DIMLTEX1
  6

  9
$DIMLTEX2
  6

  9
$DIMTXTDIRECTION
 70
     0
  9
$LUNITS
 70
     2
  9
$LUPREC
 70
     4
  9
$SKETCHINC
 40
0.1
  9
$FILLETRAD
 40
0.5
  9
$AUNITS
 70
     0
  9
$AUPREC
 70
     0
  9
$MENU
  1
.
  9
$ELEVATION
 40
0.0
  9
$PELEVATION
 40
0.0
  9
$THICKNESS
 40
0.0
  9
$LIMCHECK
 70
     0
  9
$CHAMFERA
 40
0.5
  9
$CHAMFERB
 40
0.5
  9
$CHAMFERC
 40
1.0
  9
$CHAMFERD
 40
0.0
  9
$SKPOLY
 70
     0
  9
$TDCREATE
 40
2458854.97388088
  9
$TDUCREATE
 40
2458854.432214213
  9
$TDUPDATE
 40
2458854.973881053
  9
$TDUUPDATE
 40
2458854.432214387
  9
$TDINDWG
 40
0.0000000116
  9
$TDUSRTIMER
 40
0.0000000116
  9
$USRTIMER
 70
     1
  9
$ANGBASE
 50
0.0
  9
$ANGDIR
 70
     0
  9
$PDMODE
 70
     0
  9
$PDSIZE
 40
0.0
  9
$PLINEWID
 40
0.0
  9
$SPLFRAME
 70
     0
  9
$SPLINETYPE
 70
     6
  9
$SPLINESEGS
 70
     8
  9
$HANDSEED
  5
38D
  9
$SURFTAB1
 70
     6
  9
$SURFTAB2
 70
     6
  9
$SURFTYPE
 70
     6
  9
$SURFU
 70
     6
  9
$SURFV
 70
     6
  9
$UCSBASE
  2

  9
$UCSNAME
  2

  9
$UCSORG
 10
0.0
 20
0.0
 30
0.0
  9
$UCSXDIR
 10
1.0
 20
0.0
 30
0.0
  9
$UCSYDIR
 10
0.0
 20
1.0
 30
0.0
  9
$UCSORTHOREF
  2

  9
$UCSORTHOVIEW
 70
     0
  9
$UCSORGTOP
 10
0.0
 20
0.0
 30
0.0
  9
$UCSORGBOTTOM
 10
0.0
 20
0.0
 30
0.0
  9
$UCSORGLEFT
 10
0.0
 20
0.0
 30
0.0
  9
$UCSORGRIGHT
 10
0.0
 20
0.0
 30
0.0
  9
$UCSORGFRONT
 10
0.0
 20
0.0
 30
0.0
  9
$UCSORGBACK
 10
0.0
 20
0.0
 30
0.0
  9
$PUCSBASE
  2

  9
$PUCSNAME
  2

  9
$PUCSORG
 10
0.0
 20
0.0
 30
0.0
  9
$PUCSXDIR
 10
1.0
 20
0.0
 30
0.0
  9
$PUCSYDIR
 10
0.0
 20
1.0
 30
0.0
  9
$PUCSORTHOREF
  2

  9
$PUCSORTHOVIEW
 70
     0
  9
$PUCSORGTOP
 10
0.0
 20
0.0
 30
0.0
  9
$PUCSORGBOTTOM
 10
0.0
 20
0.0
 30
0.0
  9
$PUCSORGLEFT
 10
0.0
 20
0.0
 30
0.0
  9
$PUCSORGRIGHT
 10
0.0
 20
0.0
 30
0.0
  9
$PUCSORGFRONT
 10
0.0
 20
0.0
 30
0.0
  9
$PUCSORGBACK
 10
0.0
 20
0.0
 30
0.0
  9
$USERI1
 70
     0
  9
$USERI2
 70
     0
  9
$USERI3
 70
     0
  9
$USERI4
 70
     0
  9
$USERI5
 70
     0
  9
$USERR1
 40
0.0
  9
$USERR2
 40
0.0
  9
$USERR3
 40
0.0
  9
$USERR4
 40
0.0
  9
$USERR5
 40
0.0
  9
$WORLDVIEW
 70
     1
  9
$SHADEDGE
 70
     3
  9
$SHADEDIF
 70
    70
  9
$TILEMODE
 70
     1
  9
$MAXACTVP
 70
    64
  9
$PINSBASE
 10
0.0
 20
0.0
 30
0.0
  9
$PLIMCHECK
 70
     0
  9
$PEXTMIN
 10
1.000000000000000E+20
 20
1.000000000000000E+20
 30
1.000000000000000E+20
  9
$PEXTMAX
 10
-1.000000000000000E+20
 20
-1.000000000000000E+20
 30
-1.000000000000000E+20
  9
$PLIMMIN
 10
0.0
 20
0.0
  9
$PLIMMAX
 10
12.0
 20
9.0
  9
$UNITMODE
 70
     0
  9
$VISRETAIN
 70
     1
  9
$PLINEGEN
 70
     0
  9
$PSLTSCALE
 70
     1
  9
$TREEDEPTH
 70
  3020
  9
$CMLSTYLE
  2
Standard
  9
$CMLJUST
 70
     0
  9
$CMLSCALE
 40
1.0
  9
$PROXYGRAPHICS
 70
     1
  9
$MEASUREMENT
 70
     0
  9
$CELWEIGHT
370
    -1
  9
$ENDCAPS
280
     0
  9
$JOINSTYLE
280
     0
  9
$LWDISPLAY
290
     1
  9
$INSUNITS
 70
     1
  9
$HYPERLINKBASE
  1

  9
$STYLESHEET
  1

  9
$XEDIT
290
     1
  9
$CEPSNTYPE
380
     0
  9
$PSTYLEMODE
290
     1
  9
$FINGERPRINTGUID
  2
{9E7DA54C-0DF4-4C57-9C29-2441EBE87982}
  9
$VERSIONGUID
  2
{FAEB1C32-E019-11D5-929B-00C0DF256EC4}
  9
$EXTNAMES
290
     1
  9
$PSVPSCALE
 40
0.0
  9
$OLESTARTUP
290
     0
  9
$SORTENTS
280
   127
  9
$INDEXCTL
280
     0
  9
$HIDETEXT
280
     1
  9
$XCLIPFRAME
280
     2
  9
$HALOGAP
280
     0
  9
$OBSCOLOR
 70
   257
  9
$OBSLTYPE
280
     0
  9
$INTERSECTIONDISPLAY
280
     0
  9
$INTERSECTIONCOLOR
 70
   257
  9
$DIMASSOC
280
     2
  9
$PROJECTNAME
  1

  9
$CAMERADISPLAY
290
     0
  9
$LENSLENGTH
 40
50.0
  9
$CAMERAHEIGHT
 40
0.0
  9
$STEPSPERSEC
 40
2.0
  9
$STEPSIZE
 40
6.0
  9
$3DDWFPREC
 40
2.0
  9
$PSOLWIDTH
 40
0.25
  9
$PSOLHEIGHT
 40
4.0
  9
$LOFTANG1
 40
1.570796326794897
  9
$LOFTANG2
 40
1.570796326794897
  9
$LOFTMAG1
 40
0.0
  9
$LOFTMAG2
 40
0.0
  9
$LOFTPARAM
 70
     7
  9
$LOFTNORMALS
280
     1
  9
$LATITUDE
 40
37.795
  9
$LONGITUDE
 40
-122.394
  9
$NORTHDIRECTION
 40
0.0
  9
$TIMEZONE
 70
 -8000
  9
$LIGHTGLYPHDISPLAY
280
     1
  9
$TILEMODELIGHTSYNCH
280
     1
  9
$CMATERIAL
347
3C
  9
$SOLIDHIST
280
     1
  9
$SHOWHIST
280
     1
  9
$DWFFRAME
280
     2
  9
$DGNFRAME
280
     2
  9
$REALWORLDSCALE
290
     1
  9
$INTERFERECOLOR
 62
   256
  9
$CSHADOW
280
     0
  9
$SHADOWPLANELOCATION
 40
0.0
  0
ENDSEC
  0
SECTION
  2
CLASSES
  0
CLASS
  1
ACDBDICTIONARYWDFLT
  2
AcDbDictionaryWithDefault
  3
ObjectDBX Classes
 90
        0
 91
        4
280
     0
281
     0
  0
CLASS
  1
VISUALSTYLE
  2
AcDbVisualStyle
  3
ObjectDBX Classes
 90
     4095
 91
        4
280
     0
281
     0
  0
CLASS
  1
MATERIAL
  2
AcDbMaterial
  3
ObjectDBX Classes
 90
     1153
 91
        4
280
     0
281
     0
  0
CLASS
  1
SUN
  2
AcDbSun
  3
SCENEOE
 90
     1024
 91
        4
280
     0
281
     0
  0
ENDSEC
  0
SECTION
  2
TABLES
  0
TABLE
  2
VPORT
  5
8
330
0
100
AcDbSymbolTable
 70
     1
  0
VPORT
  5
29
330
8
100
AcDbSymbolTableRecord
100
AcDbViewportTableRecord
  2
*Active
 70
     0
 10
0.0
 20
0.0
 11
1.0
 21
1.0
 12
0.0
 22
0.0
 13
0.0
 23
0.0
 14
0.5
 24
0.5
 15
0.5
 25
0.5
 16
0.0
 26
0.0
 36
1.0
 17
4.318293718188443
 27
5.863597768539724
 37
0.0
 40
11.69291338582677
 41
0.7070707070707065
 42
50.0
 43
0.0
 44
0.0
 50
0.0
 51
0.0
 71
     0
 72
   100
 73
     1
 74
     3
 75
     0
 76
     0
 77
     0
 78
     0
281
     0
 65
     1
110
0.0
120
0.0
130
0.0
111
1.0
121
0.0
131
0.0
112
0.0
122
1.0
132
0.0
 79
     0
146
0.0
 60
     3
 61
     5
292
     1
282
     1
141
0.0
142
0.0
 63
   250
361
3F
  0
ENDTAB
  0
TABLE
  2
LTYPE
  5
5
330
0
100
AcDbSymbolTable
 70
     1
  0
LTYPE
  5
14
330
5
100
AcDbSymbolTableRecord
100
AcDbLinetypeTableRecord
  2
ByBlock
 70
     0
  3

 72
    65
 73
     0
 40
0.0
  0
LTYPE
  5
15
330
5
100
AcDbSymbolTableRecord
100
AcDbLinetypeTableRecord
  2
ByLayer
 70
     0
  3

 72
    65
 73
     0
 40
0.0
  0
LTYPE
  5
16
330
5
100
AcDbSymbolTableRecord
100
AcDbLinetypeTableRecord
  2
Continuous
 70
     0
  3
Solid line
 72
    65
 73
     0
 40
0.0
  0
ENDTAB
  0
TABLE
  2
LAYER
  5
2
330
0
100
AcDbSymbolTable
 70
     5
  0
LAYER
  5
10
330
2
100
AcDbSymbolTableRecord
100
AcDbLayerTableRecord
  2
0
 70
     0
 62
     7
  6
Continuous
370
    -3
390
F
347
3E
  0
LAYER
  5
40
330
2
100
AcDbSymbolTableRecord
100
AcDbLayerTableRecord
  2
Beam
 70
     0
 62
     7
  6
Continuous
370
    -3
390
F
347
3E
  0
LAYER
  5
EA
330
2
100
AcDbSymbolTableRecord
100
AcDbLayerTableRecord
  2
Wood
 70
     0
 62
     7
  6
Continuous
370
    -3
390
F
347
3E
  0
LAYER
  5
1FC
330
2
100
AcDbSymbolTableRecord
100
AcDbLayerTableRecord
  2
BA
 70
     0
 62
     7
  6
Continuous
370
    -3
390
F
347
3E
  0
LAYER
  5
375
330
2
100
AcDbSymbolTableRecord
100
AcDbLayerTableRecord
  2
callout
 70
     0
 62
     7
  6
Continuous
370
    -3
390
F
347
3E
  0
ENDTAB
  0
TABLE
  2
STYLE
  5
3
330
0
100
AcDbSymbolTable
 70
     1
  0
STYLE
  5
11
330
3
100
AcDbSymbolTableRecord
100
AcDbTextStyleTableRecord
  2
Standard
 70
     0
 40
0.0
 41
1.0
 50
0.0
 71
     0
 42
0.2
  3
txt
  4

  0
ENDTAB
  0
TABLE
  2
VIEW
  5
6
330
0
100
AcDbSymbolTable
 70
     0
  0
ENDTAB
  0
TABLE
  2
UCS
  5
7
330
0
100
AcDbSymbolTable
 70
     0
  0
ENDTAB
  0
TABLE
  2
APPID
  5
9
330
0
100
AcDbSymbolTable
 70
     1
  0
APPID
  5
12
330
9
100
AcDbSymbolTableRecord
100
AcDbRegAppTableRecord
  2
ACAD
 70
     0
  0
ENDTAB
  0
TABLE
  2
DIMSTYLE
  5
A
330
0
100
AcDbSymbolTable
 70
     1
100
AcDbDimStyleTable
  0
DIMSTYLE
105
27
330
A
100
AcDbSymbolTableRecord
100
AcDbDimStyleTableRecord
  2
Standard
 70
     0
178
     0
340
11
  0
ENDTAB
  0
TABLE
  2
BLOCK_RECORD
  5
1
330
0
100
AcDbSymbolTable
 70
    23
  0
BLOCK_RECORD
  5
1F
330
1
100
AcDbSymbolTableRecord
100
AcDbBlockTableRecord
  2
*Model_Space
340
22
 70
     0
280
     1
281
     0
  0
BLOCK_RECORD
  5
1B
330
1
100
AcDbSymbolTableRecord
100
AcDbBlockTableRecord
  2
*Paper_Space
340
1E
 70
     0
280
     1
281
     0
  0
BLOCK_RECORD
  5
23
330
1
100
AcDbSymbolTableRecord
100
AcDbBlockTableRecord
  2
*Paper_Space0
340
26
 70
     0
280
     1
281
     0
  0
BLOCK_RECORD
  5
41
330
1
100
AcDbSymbolTableRecord
100
AcDbBlockTableRecord
  2
block 2
340
0
102
{BLKREFS
331
42
102
}
 70
     0
280
     1
281
     0
  0
BLOCK_RECORD
  5
6D
330
1
100
AcDbSymbolTableRecord
100
AcDbBlockTableRecord
  2
block 3
340
0
102
{BLKREFS
331
6E
102
}
 70
     0
280
     1
281
     0
  0
BLOCK_RECORD
  5
9C
330
1
100
AcDbSymbolTableRecord
100
AcDbBlockTableRecord
  2
block 4
340
0
102
{BLKREFS
331
9D
102
}
 70
     0
280
     1
281
     0
  0
BLOCK_RECORD
  5
1FD
330
1
100
AcDbSymbolTableRecord
100
AcDbBlockTableRecord
  2
block 5
340
0
102
{BLKREFS
331
1FE
102
}
 70
     0
280
     1
281
     0
  0
BLOCK_RECORD
  5
21C
330
1
100
AcDbSymbolTableRecord
100
AcDbBlockTableRecord
  2
block 6
340
0
102
{BLKREFS
331
21D
102
}
 70
     0
280
     1
281
     0
  0
BLOCK_RECORD
  5
22C
330
1
100
AcDbSymbolTableRecord
100
AcDbBlockTableRecord
  2
block 7
340
0
102
{BLKREFS
331
22D
102
}
 70
     0
280
     1
281
     0
  0
BLOCK_RECORD
  5
24C
330
1
100
AcDbSymbolTableRecord
100
AcDbBlockTableRecord
  2
block 8
340
0
102
{BLKREFS
331
24D
102
}
 70
     0
280
     1
281
     0
  0
BLOCK_RECORD
  5
262
330
1
100
AcDbSymbolTableRecord
100
AcDbBlockTableRecord
  2
block 9
340
0
102
{BLKREFS
331
263
102
}
 70
     0
280
     1
281
     0
  0
BLOCK_RECORD
  5
277
330
1
100
AcDbSymbolTableRecord
100
AcDbBlockTableRecord
  2
block 10
340
0
102
{BLKREFS
331
278
102
}
 70
     0
280
     1
281
     0
  0
BLOCK_RECORD
  5
289
330
1
100
AcDbSymbolTableRecord
100
AcDbBlockTableRecord
  2
block 11
340
0
102
{BLKREFS
331
28A
102
}
 70
     0
280
     1
281
     0
  0
BLOCK_RECORD
  5
29E
330
1
100
AcDbSymbolTableRecord
100
AcDbBlockTableRecord
  2
block 12
340
0
102
{BLKREFS
331
29F
102
}
 70
     0
280
     1
281
     0
  0
BLOCK_RECORD
  5
2C9
330
1
100
AcDbSymbolTableRecord
100
AcDbBlockTableRecord
  2
block 13
340
0
102
{BLKREFS
331
2CA
102
}
 70
     0
280
     1
281
     0
  0
BLOCK_RECORD
  5
2D6
330
1
100
AcDbSymbolTableRecord
100
AcDbBlockTableRecord
  2
block 14
340
0
102
{BLKREFS
331
2D7
102
}
 70
     0
280
     1
281
     0
  0
BLOCK_RECORD
  5
2DC
330
1
100
AcDbSymbolTableRecord
100
AcDbBlockTableRecord
  2
block 15
340
0
102
{BLKREFS
331
2DD
102
}
 70
     0
280
     1
281
     0
  0
BLOCK_RECORD
  5
2E2
330
1
100
AcDbSymbolTableRecord
100
AcDbBlockTableRecord
  2
block 16
340
0
102
{BLKREFS
331
2E3
102
}
 70
     0
280
     1
281
     0
  0
BLOCK_RECORD
  5
2F0
330
1
100
AcDbSymbolTableRecord
100
AcDbBlockTableRecord
  2
block 17
340
0
102
{BLKREFS
331
2F1
102
}
 70
     0
280
     1
281
     0
  0
BLOCK_RECORD
  5
305
330
1
100
AcDbSymbolTableRecord
100
AcDbBlockTableRecord
  2
block 18
340
0
102
{BLKREFS
331
306
102
}
 70
     0
280
     1
281
     0
  0
BLOCK_RECORD
  5
317
330
1
100
AcDbSymbolTableRecord
100
AcDbBlockTableRecord
  2
block 19
340
0
102
{BLKREFS
331
318
102
}
 70
     0
280
     1
281
     0
  0
BLOCK_RECORD
  5
33B
330
1
100
AcDbSymbolTableRecord
100
AcDbBlockTableRecord
  2
block 20
340
0
102
{BLKREFS
331
33C
102
}
 70
     0
280
     1
281
     0
  0
BLOCK_RECORD
  5
341
330
1
100
AcDbSymbolTableRecord
100
AcDbBlockTableRecord
  2
block 21
340
0
102
{BLKREFS
331
342
102
}
 70
     0
280
     1
281
     0
  0
BLOCK_RECORD
  5
347
330
1
100
AcDbSymbolTableRecord
100
AcDbBlockTableRecord
  2
block 22
340
0
102
{BLKREFS
331
348
102
}
 70
     0
280
     1
281
     0
  0
BLOCK_RECORD
  5
357
330
1
100
AcDbSymbolTableRecord
100
AcDbBlockTableRecord
  2
block 23
340
0
102
{BLKREFS
331
358
102
}
 70
     0
280
     1
281
     0
  0
ENDTAB
  0
ENDSEC
  0
SECTION
  2
BLOCKS
  0
BLOCK
  5
20
330
1F
100
AcDbEntity
  8
0
100
AcDbBlockBegin
  2
*Model_Space
 70
     0
 10
0.0
 20
0.0
 30
0.0
  3
*Model_Space
  1

  0
ENDBLK
  5
21
330
1F
100
AcDbEntity
  8
0
100
AcDbBlockEnd
  0
BLOCK
  5
1C
330
1B
100
AcDbEntity
 67
     1
  8
0
100
AcDbBlockBegin
  2
*Paper_Space
 70
     0
 10
0.0
 20
0.0
 30
0.0
  3
*Paper_Space
  1

  0
ENDBLK
  5
1D
330
1B
100
AcDbEntity
 67
     1
  8
0
100
AcDbBlockEnd
  0
BLOCK
  5
24
330
23
100
AcDbEntity
  8
0
100
AcDbBlockBegin
  2
*Paper_Space0
 70
     0
 10
0.0
 20
0.0
 30
0.0
  3
*Paper_Space0
  1

  0
ENDBLK
  5
25
330
23
100
AcDbEntity
  8
0
100
AcDbBlockEnd
  0
BLOCK
  5
43
330
41
100
AcDbEntity
  8
0
100
AcDbBlockBegin
  2
block 2
 70
     0
 10
0.0
 20
0.0
 30
0.0
  3
block 2
  1

  0
POLYLINE
  5
45
330
41
100
AcDbEntity
  8
Beam
 62
   250
420
  2301728
370
    18
100
AcDb2dPolyline
 66
     1
 10
0.0
 20
0.0
 30
0.0
  0
VERTEX
  5
46
330
45
100
AcDbEntity
  8
Beam
 62
   250
420
  2301728
370
    18
100
AcDbVertex
100
AcDb2dVertex
 10
3.129801142850422
 20
6.420282647490504
 30
0.0
  0
VERTEX
  5
47
330
45
100
AcDbEntity
  8
Beam
 62
   250
420
  2301728
370
    18
100
AcDbVertex
100
AcDb2dVertex
 10
3.033657370449494
 20
6.485087560664978
 30
0.0
  0
VERTEX
  5
48
330
45
100
AcDbEntity
  8
Beam
 62
   250
420
  2301728
370
    18
100
AcDbVertex
100
AcDb2dVertex
 10
3.195476581483869
 20
6.617260521231552
 30
0.0
  0
VERTEX
  5
49
330
45
100
AcDbEntity
  8
Beam
 62
   250
420
  2301728
370
    18
100
AcDbVertex
100
AcDb2dVertex
 10
3.129801142850422
 20
6.659536157118597
 30
0.0
  0
VERTEX
  5
4A
330
45
100
AcDbEntity
  8
Beam
 62
   250
420
  2301728
370
    18
100
AcDbVertex
100
AcDb2dVertex
 10
3.129801142850422
 20
7.412792799507669
 30
0.0
  0
VERTEX
  5
4B
330
45
100
AcDbEntity
  8
Beam
 62
   250
420
  2301728
370
    18
100
AcDbVertex
100
AcDb2dVertex
 10
5.157982537365367
 20
7.811804066710301
 30
0.0
  0
VERTEX
  5
4C
330
45
100
AcDbEntity
  8
Beam
 62
   250
420
  2301728
370
    18
100
AcDbVertex
100
AcDb2dVertex
 10
5.26299283154122
 20
7.771953405017926
 30
0.0
  0
VERTEX
  5
4D
330
45
100
AcDbEntity
  8
Beam
 62
   250
420
  2301728
370
    18
100
AcDbVertex
100
AcDb2dVertex
 10
5.354468546803446
 20
7.765681003584202
 30
0.0
  0
VERTEX
  5
4E
330
45
100
AcDbEntity
  8
Beam
 62
   250
420
  2301728
370
    18
100
AcDbVertex
100
AcDb2dVertex
 10
5.353098343275456
 20
7.733463272121575
 30
0.0
  0
VERTEX
  5
4F
330
45
100
AcDbEntity
  8
Beam
 62
   250
420
  2301728
370
    18
100
AcDbVertex
100
AcDb2dVertex
 10
5.389294713595821
 20
7.734689309872035
 30
0.0
  0
VERTEX
  5
50
330
45
100
AcDbEntity
  8
Beam
 62
   250
420
  2301728
370
    18
100
AcDbVertex
100
AcDb2dVertex
 10
5.545308232973158
 20
7.679193906494169
 30
0.0
  0
VERTEX
  5
51
330
45
100
AcDbEntity
  8
Beam
 62
   250
420
  2301728
370
    18
100
AcDbVertex
100
AcDb2dVertex
 10
5.530170389982534
 20
6.385214692441751
 30
0.0
  0
VERTEX
  5
52
330
45
100
AcDbEntity
  8
Beam
 62
   250
420
  2301728
370
    18
100
AcDbVertex
100
AcDb2dVertex
 10
4.5889120366192
 20
5.918338893543553
 30
0.0
  0
VERTEX
  5
53
330
45
100
AcDbEntity
  8
Beam
 62
   250
420
  2301728
370
    18
100
AcDbVertex
100
AcDb2dVertex
 10
3.485482779882128
 20
5.385114138321998
 30
0.0
  0
VERTEX
  5
54
330
45
100
AcDbEntity
  8
Beam
 62
   250
420
  2301728
370
    18
100
AcDbVertex
100
AcDb2dVertex
 10
3.129801142850422
 20
5.659350662937944
 30
0.0
  0
VERTEX
  5
55
330
45
100
AcDbEntity
  8
Beam
 62
   250
420
  2301728
370
    18
100
AcDbVertex
100
AcDb2dVertex
 10
3.129801142850422
 20
6.420282647490504
 30
0.0
  0
SEQEND
  5
57
330
45
100
AcDbEntity
  8
Beam
 62
   250
420
  2301728
370
    18
  0
HATCH
  5
56
330
41
100
AcDbEntity
  8
Beam
 62
    43
420
 15510365
100
AcDbHatch
 10
0.0
 20
0.0
 30
0.0
210
0.0
220
0.0
230
1.0
  2
SOLID
 70
     1
 71
     0
 91
        1
 92
        1
 93
       15
 72
     1
 10
3.129801142850422
 20
6.420282647490504
 11
3.033657370449494
 21
6.485087560664978
 72
     1
 10
3.033657370449494
 20
6.485087560664978
 11
3.195476581483869
 21
6.617260521231552
 72
     1
 10
3.195476581483869
 20
6.617260521231552
 11
3.129801142850422
 21
6.659536157118597
 72
     1
 10
3.129801142850422
 20
6.659536157118597
 11
3.129801142850422
 21
7.412792799507669
 72
     1
 10
3.129801142850422
 20
7.412792799507669
 11
5.157982537365367
 21
7.811804066710301
 72
     1
 10
5.157982537365367
 20
7.811804066710301
 11
5.26299283154122
 21
7.771953405017926
 72
     1
 10
5.26299283154122
 20
7.771953405017926
 11
5.354468546803446
 21
7.765681003584202
 72
     1
 10
5.354468546803446
 20
7.765681003584202
 11
5.353098343275456
 21
7.733463272121575
 72
     1
 10
5.353098343275456
 20
7.733463272121575
 11
5.389294713595821
 21
7.734689309872035
 72
     1
 10
5.389294713595821
 20
7.734689309872035
 11
5.545308232973158
 21
7.679193906494169
 72
     1
 10
5.545308232973158
 20
7.679193906494169
 11
5.530170389982534
 21
6.385214692441751
 72
     1
 10
5.530170389982534
 20
6.385214692441751
 11
4.5889120366192
 21
5.918338893543553
 72
     1
 10
4.5889120366192
 20
5.918338893543553
 11
3.485482779882128
 21
5.385114138321998
 72
     1
 10
3.485482779882128
 20
5.385114138321998
 11
3.129801142850422
 21
5.659350662937944
 72
     1
 10
3.129801142850422
 20
5.659350662937944
 11
3.129801142850422
 21
6.420282647490504
 97
        0
 75
     2
 76
     1
 98
        0
  0
POLYLINE
  5
58
330
41
100
AcDbEntity
  8
Beam
 62
   250
420
  2301728
370
    13
100
AcDb2dPolyline
 66
     1
 10
0.0
 20
0.0
 30
0.0
  0
VERTEX
  5
59
330
58
100
AcDbEntity
  8
Beam
 62
   250
420
  2301728
370
    13
100
AcDbVertex
100
AcDb2dVertex
 10
3.485482779882128
 20
5.385114138321998
 30
0.0
  0
VERTEX
  5
5A
330
58
100
AcDbEntity
  8
Beam
 62
   250
420
  2301728
370
    13
100
AcDbVertex
100
AcDb2dVertex
 10
3.485482779882128
 20
6.234930426479624
 30
0.0
  0
VERTEX
  5
5B
330
58
100
AcDbEntity
  8
Beam
 62
   250
420
  2301728
370
    13
100
AcDbVertex
100
AcDb2dVertex
 10
3.384827622048609
 20
6.248385199616033
 30
0.0
  0
VERTEX
  5
5C
330
58
100
AcDbEntity
  8
Beam
 62
   250
420
  2301728
370
    13
100
AcDbVertex
100
AcDb2dVertex
 10
3.605149532157409
 20
6.428342790315595
 30
0.0
  0
VERTEX
  5
5D
330
58
100
AcDbEntity
  8
Beam
 62
   250
420
  2301728
370
    13
100
AcDbVertex
100
AcDb2dVertex
 10
3.485482779882128
 20
6.430584967020813
 30
0.0
  0
VERTEX
  5
5E
330
58
100
AcDbEntity
  8
Beam
 62
   250
420
  2301728
370
    13
100
AcDbVertex
100
AcDb2dVertex
 10
3.485482779882128
 20
7.22170138886511
 30
0.0
  0
VERTEX
  5
5F
330
58
100
AcDbEntity
  8
Beam
 62
   250
420
  2301728
370
    13
100
AcDbVertex
100
AcDb2dVertex
 10
5.545308232973158
 20
7.679193906494169
 30
0.0
  0
SEQEND
  5
60
330
58
100
AcDbEntity
  8
Beam
 62
   250
420
  2301728
370
    13
  0
POLYLINE
  5
61
330
41
100
AcDbEntity
  8
Beam
 62
   250
420
  2301728
370
    13
100
AcDb2dPolyline
 66
     1
 10
0.0
 20
0.0
 30
0.0
  0
VERTEX
  5
62
330
61
100
AcDbEntity
  8
Beam
 62
   250
420
  2301728
370
    13
100
AcDbVertex
100
AcDb2dVertex
 10
3.485482779882128
 20
7.22170138886511
 30
0.0
  0
VERTEX
  5
63
330
61
100
AcDbEntity
  8
Beam
 62
   250
420
  2301728
370
    13
100
AcDbVertex
100
AcDb2dVertex
 10
3.129801142850422
 20
7.412792799507669
 30
0.0
  0
SEQEND
  5
64
330
61
100
AcDbEntity
  8
Beam
 62
   250
420
  2301728
370
    13
  0
POLYLINE
  5
65
330
41
100
AcDbEntity
  8
Beam
 62
   250
420
  2301728
370
    13
100
AcDb2dPolyline
 66
     1
 10
0.0
 20
0.0
 30
0.0
  0
VERTEX
  5
66
330
65
100
AcDbEntity
  8
Beam
 62
   250
420
  2301728
370
    13
100
AcDbVertex
100
AcDb2dVertex
 10
3.485482779882128
 20
6.430584967020813
 30
0.0
  0
VERTEX
  5
67
330
65
100
AcDbEntity
  8
Beam
 62
   250
420
  2301728
370
    13
100
AcDbVertex
100
AcDb2dVertex
 10
3.195476581483869
 20
6.617260521231552
 30
0.0
  0
SEQEND
  5
68
330
65
100
AcDbEntity
  8
Beam
 62
   250
420
  2301728
370
    13
  0
POLYLINE
  5
69
330
41
100
AcDbEntity
  8
Beam
 62
   250
420
  2301728
370
    13
100
AcDb2dPolyline
 66
     1
 10
0.0
 20
0.0
 30
0.0
  0
VERTEX
  5
6A
330
69
100
AcDbEntity
  8
Beam
 62
   250
420
  2301728
370
    13
100
AcDbVertex
100
AcDb2dVertex
 10
3.129801142850422
 20
6.420282647490504
 30
0.0
  0
VERTEX
  5
6B
330
69
100
AcDbEntity
  8
Beam
 62
   250
420
  2301728
370
    13
100
AcDbVertex
100
AcDb2dVertex
 10
3.384827622048609
 20
6.248385199616033
 30
0.0
  0
SEQEND
  5
6C
330
69
100
AcDbEntity
  8
Beam
 62
   250
420
  2301728
370
    13
  0
INSERT
  5
6E
330
41
100
AcDbEntity
  8
Beam
100
AcDbBlockReference
  2
block 3
 10
0.0
 20
0.0
 30
0.0
  0
INSERT
  5
9D
330
41
100
AcDbEntity
  8
Beam
100
AcDbBlockReference
  2
block 4
 10
0.0
 20
0.0
 30
0.0
  0
POLYLINE
  5
CB
330
41
100
AcDbEntity
  8
Beam
 62
   250
420
  2301728
370
     5
100
AcDb2dPolyline
 66
     1
 10
0.0
 20
0.0
 30
0.0
  0
VERTEX
  5
CC
330
CB
100
AcDbEntity
  8
Beam
 62
   250
420
  2301728
370
     5
100
AcDbVertex
100
AcDb2dVertex
 10
3.092020812622018
 20
6.445747823223869
 30
0.0
  0
VERTEX
  5
CD
330
CB
100
AcDbEntity
  8
Beam
 62
   250
420
  2301728
370
     5
100
AcDbVertex
100
AcDb2dVertex
 10
3.163384256598899
 20
6.523647594022501
 30
0.0
  0
VERTEX
  5
CE
330
CB
100
AcDbEntity
  8
Beam
 62
   250
420
  2301728
370
     5
100
AcDbVertex
100
AcDb2dVertex
 10
3.179879135725489
 20
6.604520869609157
 30
0.0
  0
SEQEND
  5
CF
330
CB
100
AcDbEntity
  8
Beam
 62
   250
420
  2301728
370
     5
  0
POLYLINE
  5
D0
330
41
100
AcDbEntity
  8
Beam
 62
   250
420
  2301728
370
     5
100
AcDb2dPolyline
 66
     1
 10
0.0
 20
0.0
 30
0.0
  0
VERTEX
  5
D1
330
D0
100
AcDbEntity
  8
Beam
 62
   250
420
  2301728
370
     5
100
AcDbVertex
100
AcDb2dVertex
 10
3.17068818019599
 20
6.392723236371416
 30
0.0
  0
VERTEX
  5
D2
330
D0
100
AcDbEntity
  8
Beam
 62
   250
420
  2301728
370
     5
100
AcDbVertex
100
AcDb2dVertex
 10
3.241870657474212
 20
6.478798189577143
 30
0.0
  0
VERTEX
  5
D3
330
D0
100
AcDbEntity
  8
Beam
 62
   250
420
  2301728
370
     5
100
AcDbVertex
100
AcDb2dVertex
 10
3.261115673899162
 20
6.5750091709573
 30
0.0
  0
SEQEND
  5
D4
330
D0
100
AcDbEntity
  8
Beam
 62
   250
420
  2301728
370
     5
  0
POLYLINE
  5
D5
330
41
100
AcDbEntity
  8
Beam
 62
   250
420
  2301728
370
     5
100
AcDb2dPolyline
 66
     1
 10
0.0
 20
0.0
 30
0.0
  0
VERTEX
  5
D6
330
D5
100
AcDbEntity
  8
Beam
 62
   250
420
  2301728
370
     5
100
AcDbVertex
100
AcDb2dVertex
 10
3.245451627409415
 20
6.342329730339328
 30
0.0
  0
VERTEX
  5
D7
330
D5
100
AcDbEntity
  8
Beam
 62
   250
420
  2301728
370
     5
100
AcDbVertex
100
AcDb2dVertex
 10
3.3169933453231
 20
6.445747823223869
 30
0.0
  0
VERTEX
  5
D8
330
D5
100
AcDbEntity
  8
Beam
 62
   250
420
  2301728
370
     5
100
AcDbVertex
100
AcDb2dVertex
 10
3.330960744963186
 20
6.530050047657722
 30
0.0
  0
SEQEND
  5
D9
330
D5
100
AcDbEntity
  8
Beam
 62
   250
420
  2301728
370
     5
  0
POLYLINE
  5
DA
330
41
100
AcDbEntity
  8
Beam
 62
   250
420
  2301728
370
     5
100
AcDb2dPolyline
 66
     1
 10
0.0
 20
0.0
 30
0.0
  0
VERTEX
  5
DB
330
DA
100
AcDbEntity
  8
Beam
 62
   250
420
  2301728
370
     5
100
AcDbVertex
100
AcDb2dVertex
 10
3.321010267741485
 20
6.29140072434993
 30
0.0
  0
VERTEX
  5
DC
330
DA
100
AcDbEntity
  8
Beam
 62
   250
420
  2301728
370
     5
100
AcDbVertex
100
AcDb2dVertex
 10
3.38331124769848
 20
6.392723236371416
 30
0.0
  0
VERTEX
  5
DD
330
DA
100
AcDbEntity
  8
Beam
 62
   250
420
  2301728
370
     5
100
AcDbVertex
100
AcDb2dVertex
 10
3.411768092163154
 20
6.47803524150365
 30
0.0
  0
SEQEND
  5
DE
330
DA
100
AcDbEntity
  8
Beam
 62
   250
420
  2301728
370
     5
  0
POLYLINE
  5
DF
330
41
100
AcDbEntity
  8
Beam
 62
   250
420
  2301728
370
     5
100
AcDb2dPolyline
 66
     1
 10
0.0
 20
0.0
 30
0.0
  0
VERTEX
  5
E0
330
DF
100
AcDbEntity
  8
Beam
 62
   250
420
  2301728
370
     5
100
AcDbVertex
100
AcDb2dVertex
 10
3.434195180198988
 20
6.288708424313376
 30
0.0
  0
VERTEX
  5
E1
330
DF
100
AcDbEntity
  8
Beam
 62
   250
420
  2301728
370
     5
100
AcDbVertex
100
AcDb2dVertex
 10
3.485482779882128
 20
6.373963246661232
 30
0.0
  0
VERTEX
  5
E2
330
DF
100
AcDbEntity
  8
Beam
 62
   250
420
  2301728
370
     5
100
AcDbVertex
100
AcDb2dVertex
 10
3.493034247115474
 20
6.43044369190645
 30
0.0
  0
SEQEND
  5
E3
330
DF
100
AcDbEntity
  8
Beam
 62
   250
420
  2301728
370
     5
  0
ENDBLK
  5
44
330
41
100
AcDbEntity
  8
0
100
AcDbBlockEnd
  0
BLOCK
  5
6F
330
6D
100
AcDbEntity
  8
0
100
AcDbBlockBegin
  2
block 3
 70
     0
 10
0.0
 20
0.0
 30
0.0
  3
block 3
  1

  0
POLYLINE
  5
71
330
6D
100
AcDbEntity
  8
Beam
 62
   250
420
  2301728
370
     5
100
AcDb2dPolyline
 66
     1
 10
0.0
 20
0.0
 30
0.0
  0
VERTEX
  5
72
330
71
100
AcDbEntity
  8
Beam
 62
   250
420
  2301728
370
     5
100
AcDbVertex
100
AcDb2dVertex
 10
3.129801142850422
 20
7.168355312818435
 30
0.0
  0
VERTEX
  5
73
330
71
100
AcDbEntity
  8
Beam
 62
   250
420
  2301728
370
     5
100
AcDbVertex
100
AcDb2dVertex
 10
3.175718247133015
 20
7.22170138886511
 30
0.0
  0
VERTEX
  5
74
330
71
100
AcDbEntity
  8
Beam
 62
   250
420
  2301728
370
     5
100
AcDbVertex
100
AcDb2dVertex
 10
3.211575200462372
 20
7.368858929895206
 30
0.0
  0
SEQEND
  5
75
330
71
100
AcDbEntity
  8
Beam
 62
   250
420
  2301728
370
     5
  0
POLYLINE
  5
76
330
6D
100
AcDbEntity
  8
Beam
 62
   250
420
  2301728
370
     5
100
AcDb2dPolyline
 66
     1
 10
0.0
 20
0.0
 30
0.0
  0
VERTEX
  5
77
330
76
100
AcDbEntity
  8
Beam
 62
   250
420
  2301728
370
     5
100
AcDbVertex
100
AcDb2dVertex
 10
3.129801142850422
 20
7.02820157389197
 30
0.0
  0
VERTEX
  5
78
330
76
100
AcDbEntity
  8
Beam
 62
   250
420
  2301728
370
     5
100
AcDbVertex
100
AcDb2dVertex
 10
3.223930718321425
 20
7.134718379977382
 30
0.0
  0
VERTEX
  5
79
330
76
100
AcDbEntity
  8
Beam
 62
   250
420
  2301728
370
     5
100
AcDbVertex
100
AcDb2dVertex
 10
3.295062738403405
 20
7.324005426562103
 30
0.0
  0
SEQEND
  5
7A
330
76
100
AcDbEntity
  8
Beam
 62
   250
420
  2301728
370
     5
  0
POLYLINE
  5
7B
330
6D
100
AcDbEntity
  8
Beam
 62
   250
420
  2301728
370
     5
100
AcDb2dPolyline
 66
     1
 10
0.0
 20
0.0
 30
0.0
  0
VERTEX
  5
7C
330
7B
100
AcDbEntity
  8
Beam
 62
   250
420
  2301728
370
     5
100
AcDbVertex
100
AcDb2dVertex
 10
3.129801142850422
 20
6.902623543374236
 30
0.0
  0
VERTEX
  5
7D
330
7B
100
AcDbEntity
  8
Beam
 62
   250
420
  2301728
370
     5
100
AcDbVertex
100
AcDb2dVertex
 10
3.246355788141348
 20
7.000170648613233
 30
0.0
  0
VERTEX
  5
7E
330
7B
100
AcDbEntity
  8
Beam
 62
   250
420
  2301728
370
     5
100
AcDbVertex
100
AcDb2dVertex
 10
3.350630277314394
 20
7.17610316385771
 30
0.0
  0
VERTEX
  5
7F
330
7B
100
AcDbEntity
  8
Beam
 62
   250
420
  2301728
370
     5
100
AcDbVertex
100
AcDb2dVertex
 10
3.377212871928476
 20
7.279869735357642
 30
0.0
  0
SEQEND
  5
80
330
7B
100
AcDbEntity
  8
Beam
 62
   250
420
  2301728
370
     5
  0
POLYLINE
  5
81
330
6D
100
AcDbEntity
  8
Beam
 62
   250
420
  2301728
370
     5
100
AcDb2dPolyline
 66
     1
 10
0.0
 20
0.0
 30
0.0
  0
VERTEX
  5
82
330
81
100
AcDbEntity
  8
Beam
 62
   250
420
  2301728
370
     5
100
AcDbVertex
100
AcDb2dVertex
 10
3.129801142850422
 20
6.794985358282903
 30
0.0
  0
VERTEX
  5
83
330
81
100
AcDbEntity
  8
Beam
 62
   250
420
  2301728
370
     5
100
AcDbVertex
100
AcDb2dVertex
 10
3.288962363451686
 20
6.902623543374236
 30
0.0
  0
VERTEX
  5
84
330
81
100
AcDbEntity
  8
Beam
 62
   250
420
  2301728
370
     5
100
AcDbVertex
100
AcDb2dVertex
 10
3.430237481384008
 20
7.121263606840961
 30
0.0
  0
VERTEX
  5
85
330
81
100
AcDbEntity
  8
Beam
 62
   250
420
  2301728
370
     5
100
AcDbVertex
100
AcDb2dVertex
 10
3.461700099488275
 20
7.234478795397333
 30
0.0
  0
SEQEND
  5
86
330
81
100
AcDbEntity
  8
Beam
 62
   250
420
  2301728
370
     5
  0
POLYLINE
  5
87
330
6D
100
AcDbEntity
  8
Beam
 62
   250
420
  2301728
370
     5
100
AcDb2dPolyline
 66
     1
 10
0.0
 20
0.0
 30
0.0
  0
VERTEX
  5
88
330
87
100
AcDbEntity
  8
Beam
 62
   250
420
  2301728
370
     5
100
AcDbVertex
100
AcDb2dVertex
 10
3.129801142850422
 20
6.685665326549522
 30
0.0
  0
VERTEX
  5
89
330
87
100
AcDbEntity
  8
Beam
 62
   250
420
  2301728
370
     5
100
AcDbVertex
100
AcDb2dVertex
 10
3.275507590315227
 20
6.774803198578297
 30
0.0
  0
VERTEX
  5
8A
330
87
100
AcDbEntity
  8
Beam
 62
   250
420
  2301728
370
     5
100
AcDbVertex
100
AcDb2dVertex
 10
3.433601174668107
 20
6.944669709425536
 30
0.0
  0
VERTEX
  5
8B
330
87
100
AcDbEntity
  8
Beam
 62
   250
420
  2301728
370
     5
100
AcDbVertex
100
AcDb2dVertex
 10
3.485482779882128
 20
7.048944201232731
 30
0.0
  0
SEQEND
  5
8C
330
87
100
AcDbEntity
  8
Beam
 62
   250
420
  2301728
370
     5
  0
POLYLINE
  5
8D
330
6D
100
AcDbEntity
  8
Beam
 62
   250
420
  2301728
370
     5
100
AcDb2dPolyline
 66
     1
 10
0.0
 20
0.0
 30
0.0
  0
VERTEX
  5
8E
330
8D
100
AcDbEntity
  8
Beam
 62
   250
420
  2301728
370
     5
100
AcDbVertex
100
AcDb2dVertex
 10
3.190531952356221
 20
6.620443313770743
 30
0.0
  0
VERTEX
  5
8F
330
8D
100
AcDbEntity
  8
Beam
 62
   250
420
  2301728
370
     5
100
AcDbVertex
100
AcDb2dVertex
 10
3.361842139485702
 20
6.71145334914815
 30
0.0
  0
VERTEX
  5
90
330
8D
100
AcDbEntity
  8
Beam
 62
   250
420
  2301728
370
     5
100
AcDbVertex
100
AcDb2dVertex
 10
3.485482779882128
 20
6.867304763891133
 30
0.0
  0
SEQEND
  5
91
330
8D
100
AcDbEntity
  8
Beam
 62
   250
420
  2301728
370
     5
  0
POLYLINE
  5
92
330
6D
100
AcDbEntity
  8
Beam
 62
   250
420
  2301728
370
     5
100
AcDb2dPolyline
 66
     1
 10
0.0
 20
0.0
 30
0.0
  0
VERTEX
  5
93
330
92
100
AcDbEntity
  8
Beam
 62
   250
420
  2301728
370
     5
100
AcDbVertex
100
AcDb2dVertex
 10
3.281139739513567
 20
6.56212017135686
 30
0.0
  0
VERTEX
  5
94
330
92
100
AcDbEntity
  8
Beam
 62
   250
420
  2301728
370
     5
100
AcDbVertex
100
AcDb2dVertex
 10
3.406691628395265
 20
6.620443313770743
 30
0.0
  0
VERTEX
  5
95
330
92
100
AcDbEntity
  8
Beam
 62
   250
420
  2301728
370
     5
100
AcDbVertex
100
AcDb2dVertex
 10
3.485482779882128
 20
6.71743399565619
 30
0.0
  0
SEQEND
  5
96
330
92
100
AcDbEntity
  8
Beam
 62
   250
420
  2301728
370
     5
  0
POLYLINE
  5
97
330
6D
100
AcDbEntity
  8
Beam
 62
   250
420
  2301728
370
     5
100
AcDb2dPolyline
 66
     1
 10
0.0
 20
0.0
 30
0.0
  0
VERTEX
  5
98
330
97
100
AcDbEntity
  8
Beam
 62
   250
420
  2301728
370
     5
100
AcDbVertex
100
AcDb2dVertex
 10
3.377212871928476
 20
6.50027799915223
 30
0.0
  0
VERTEX
  5
99
330
97
100
AcDbEntity
  8
Beam
 62
   250
420
  2301728
370
     5
100
AcDbVertex
100
AcDb2dVertex
 10
3.447055947804529
 20
6.530935435480741
 30
0.0
  0
VERTEX
  5
9A
330
97
100
AcDbEntity
  8
Beam
 62
   250
420
  2301728
370
     5
100
AcDbVertex
100
AcDb2dVertex
 10
3.485482779882128
 20
6.589800067952574
 30
0.0
  0
SEQEND
  5
9B
330
97
100
AcDbEntity
  8
Beam
 62
   250
420
  2301728
370
     5
  0
ENDBLK
  5
70
330
6D
100
AcDbEntity
  8
0
100
AcDbBlockEnd
  0
BLOCK
  5
9E
330
9C
100
AcDbEntity
  8
0
100
AcDbBlockBegin
  2
block 4
 70
     0
 10
0.0
 20
0.0
 30
0.0
  3
block 4
  1

  0
POLYLINE
  5
A0
330
9C
100
AcDbEntity
  8
Beam
 62
   250
420
  2301728
370
     5
100
AcDb2dPolyline
 66
     1
 10
0.0
 20
0.0
 30
0.0
  0
VERTEX
  5
A1
330
A0
100
AcDbEntity
  8
Beam
 62
   250
420
  2301728
370
     5
100
AcDbVertex
100
AcDb2dVertex
 10
3.129801142850422
 20
6.160752862279852
 30
0.0
  0
VERTEX
  5
A2
330
A0
100
AcDbEntity
  8
Beam
 62
   250
420
  2301728
370
     5
100
AcDbVertex
100
AcDb2dVertex
 10
3.175718247133015
 20
6.215055652547941
 30
0.0
  0
VERTEX
  5
A3
330
A0
100
AcDbEntity
  8
Beam
 62
   250
420
  2301728
370
     5
100
AcDbVertex
100
AcDb2dVertex
 10
3.211575200462372
 20
6.364853020000711
 30
0.0
  0
SEQEND
  5
A4
330
A0
100
AcDbEntity
  8
Beam
 62
   250
420
  2301728
370
     5
  0
POLYLINE
  5
A5
330
9C
100
AcDbEntity
  8
Beam
 62
   250
420
  2301728
370
     5
100
AcDb2dPolyline
 66
     1
 10
0.0
 20
0.0
 30
0.0
  0
VERTEX
  5
A6
330
A5
100
AcDbEntity
  8
Beam
 62
   250
420
  2301728
370
     5
100
AcDbVertex
100
AcDb2dVertex
 10
3.129801142850422
 20
6.018085178931945
 30
0.0
  0
VERTEX
  5
A7
330
A5
100
AcDbEntity
  8
Beam
 62
   250
420
  2301728
370
     5
100
AcDbVertex
100
AcDb2dVertex
 10
3.223930718321425
 20
6.126512483728598
 30
0.0
  0
VERTEX
  5
A8
330
A5
100
AcDbEntity
  8
Beam
 62
   250
420
  2301728
370
     5
100
AcDbVertex
100
AcDb2dVertex
 10
3.29201659695362
 20
6.310943167313781
 30
0.0
  0
SEQEND
  5
A9
330
A5
100
AcDbEntity
  8
Beam
 62
   250
420
  2301728
370
     5
  0
POLYLINE
  5
AA
330
9C
100
AcDbEntity
  8
Beam
 62
   250
420
  2301728
370
     5
100
AcDb2dPolyline
 66
     1
 10
0.0
 20
0.0
 30
0.0
  0
VERTEX
  5
AB
330
AA
100
AcDbEntity
  8
Beam
 62
   250
420
  2301728
370
     5
100
AcDbVertex
100
AcDb2dVertex
 10
3.129801142850422
 20
5.890254746285412
 30
0.0
  0
VERTEX
  5
AC
330
AA
100
AcDbEntity
  8
Beam
 62
   250
420
  2301728
370
     5
100
AcDbVertex
100
AcDb2dVertex
 10
3.246355788141348
 20
5.989550969523735
 30
0.0
  0
VERTEX
  5
AD
330
AA
100
AcDbEntity
  8
Beam
 62
   250
420
  2301728
370
     5
100
AcDbVertex
100
AcDb2dVertex
 10
3.350630277314394
 20
6.168640050093118
 30
0.0
  0
VERTEX
  5
AE
330
AA
100
AcDbEntity
  8
Beam
 62
   250
420
  2301728
370
     5
100
AcDbVertex
100
AcDb2dVertex
 10
3.372747905575933
 20
6.256527298738647
 30
0.0
  0
SEQEND
  5
AF
330
AA
100
AcDbEntity
  8
Beam
 62
   250
420
  2301728
370
     5
  0
POLYLINE
  5
B0
330
9C
100
AcDbEntity
  8
Beam
 62
   250
420
  2301728
370
     5
100
AcDb2dPolyline
 66
     1
 10
0.0
 20
0.0
 30
0.0
  0
VERTEX
  5
B1
330
B0
100
AcDbEntity
  8
Beam
 62
   250
420
  2301728
370
     5
100
AcDbVertex
100
AcDb2dVertex
 10
3.129801142850422
 20
5.780685804016962
 30
0.0
  0
VERTEX
  5
B2
330
B0
100
AcDbEntity
  8
Beam
 62
   250
420
  2301728
370
     5
100
AcDbVertex
100
AcDb2dVertex
 10
3.288962363451686
 20
5.890254746285412
 30
0.0
  0
VERTEX
  5
B3
330
B0
100
AcDbEntity
  8
Beam
 62
   250
420
  2301728
370
     5
100
AcDbVertex
100
AcDb2dVertex
 10
3.430237481384008
 20
6.112816197760379
 30
0.0
  0
VERTEX
  5
B4
330
B0
100
AcDbEntity
  8
Beam
 62
   250
420
  2301728
370
     5
100
AcDbVertex
100
AcDb2dVertex
 10
3.466511549759768
 20
6.237466651215818
 30
0.0
  0
SEQEND
  5
B5
330
B0
100
AcDbEntity
  8
Beam
 62
   250
420
  2301728
370
     5
  0
POLYLINE
  5
B6
330
9C
100
AcDbEntity
  8
Beam
 62
   250
420
  2301728
370
     5
100
AcDb2dPolyline
 66
     1
 10
0.0
 20
0.0
 30
0.0
  0
VERTEX
  5
B7
330
B6
100
AcDbEntity
  8
Beam
 62
   250
420
  2301728
370
     5
100
AcDbVertex
100
AcDb2dVertex
 10
3.129801142850422
 20
5.669404741910133
 30
0.0
  0
VERTEX
  5
B8
330
B6
100
AcDbEntity
  8
Beam
 62
   250
420
  2301728
370
     5
100
AcDbVertex
100
AcDb2dVertex
 10
3.275507590315227
 20
5.76014171143394
 30
0.0
  0
VERTEX
  5
B9
330
B6
100
AcDbEntity
  8
Beam
 62
   250
420
  2301728
370
     5
100
AcDbVertex
100
AcDb2dVertex
 10
3.433601174668107
 20
5.933055051289759
 30
0.0
  0
VERTEX
  5
BA
330
B6
100
AcDbEntity
  8
Beam
 62
   250
420
  2301728
370
     5
100
AcDbVertex
100
AcDb2dVertex
 10
3.485482779882128
 20
6.039199753881513
 30
0.0
  0
SEQEND
  5
BB
330
B6
100
AcDbEntity
  8
Beam
 62
   250
420
  2301728
370
     5
  0
POLYLINE
  5
BC
330
9C
100
AcDbEntity
  8
Beam
 62
   250
420
  2301728
370
     5
100
AcDb2dPolyline
 66
     1
 10
0.0
 20
0.0
 30
0.0
  0
VERTEX
  5
BD
330
BC
100
AcDbEntity
  8
Beam
 62
   250
420
  2301728
370
     5
100
AcDbVertex
100
AcDb2dVertex
 10
3.197784075076773
 20
5.60693490455454
 30
0.0
  0
VERTEX
  5
BE
330
BC
100
AcDbEntity
  8
Beam
 62
   250
420
  2301728
370
     5
100
AcDbVertex
100
AcDb2dVertex
 10
3.361842139485702
 20
5.695655676374776
 30
0.0
  0
VERTEX
  5
BF
330
BC
100
AcDbEntity
  8
Beam
 62
   250
420
  2301728
370
     5
100
AcDbVertex
100
AcDb2dVertex
 10
3.485482779882128
 20
5.854302247895803
 30
0.0
  0
SEQEND
  5
C0
330
BC
100
AcDbEntity
  8
Beam
 62
   250
420
  2301728
370
     5
  0
POLYLINE
  5
C1
330
9C
100
AcDbEntity
  8
Beam
 62
   250
420
  2301728
370
     5
100
AcDb2dPolyline
 66
     1
 10
0.0
 20
0.0
 30
0.0
  0
VERTEX
  5
C2
330
C1
100
AcDbEntity
  8
Beam
 62
   250
420
  2301728
370
     5
100
AcDbVertex
100
AcDb2dVertex
 10
3.281139739513567
 20
5.543642980581049
 30
0.0
  0
VERTEX
  5
C3
330
C1
100
AcDbEntity
  8
Beam
 62
   250
420
  2301728
370
     5
100
AcDbVertex
100
AcDb2dVertex
 10
3.406691628395265
 20
5.603012838284358
 30
0.0
  0
VERTEX
  5
C4
330
C1
100
AcDbEntity
  8
Beam
 62
   250
420
  2301728
370
     5
100
AcDbVertex
100
AcDb2dVertex
 10
3.485482779882128
 20
5.701743288326548
 30
0.0
  0
SEQEND
  5
C5
330
C1
100
AcDbEntity
  8
Beam
 62
   250
420
  2301728
370
     5
  0
POLYLINE
  5
C6
330
9C
100
AcDbEntity
  8
Beam
 62
   250
420
  2301728
370
     5
100
AcDb2dPolyline
 66
     1
 10
0.0
 20
0.0
 30
0.0
  0
VERTEX
  5
C7
330
C6
100
AcDbEntity
  8
Beam
 62
   250
420
  2301728
370
     5
100
AcDbVertex
100
AcDb2dVertex
 10
3.377212871928476
 20
5.468592257922106
 30
0.0
  0
VERTEX
  5
C8
330
C6
100
AcDbEntity
  8
Beam
 62
   250
420
  2301728
370
     5
100
AcDbVertex
100
AcDb2dVertex
 10
3.447055947804529
 20
5.511899135122222
 30
0.0
  0
VERTEX
  5
C9
330
C6
100
AcDbEntity
  8
Beam
 62
   250
420
  2301728
370
     5
100
AcDbVertex
100
AcDb2dVertex
 10
3.485482779882128
 20
5.571819965771561
 30
0.0
  0
SEQEND
  5
CA
330
C6
100
AcDbEntity
  8
Beam
 62
   250
420
  2301728
370
     5
  0
ENDBLK
  5
9F
330
9C
100
AcDbEntity
  8
0
100
AcDbBlockEnd
  0
BLOCK
  5
1FF
330
1FD
100
AcDbEntity
  8
0
100
AcDbBlockBegin
  2
block 5
 70
     0
 10
0.0
 20
0.0
 30
0.0
  3
block 5
  1

  0
SPLINE
  5
201
330
1FD
100
AcDbEntity
  8
BA
370
     0
100
AcDbSpline
210
0.0
220
0.0
230
1.0
 70
    11
 71
     3
 72
   113
 73
   109
 74
     0
 42
0.0000000001
 43
0.0000000001
 12
1.0
 22
0.0
 32
0.0
 13
1.0
 23
0.0
 33
0.0
 40
0.0
 40
0.0
 40
0.0
 40
0.0
 40
1.0
 40
1.0
 40
1.0
 40
2.0
 40
2.0
 40
2.0
 40
3.0
 40
3.0
 40
3.0
 40
4.0
 40
4.0
 40
4.0
 40
5.0
 40
5.0
 40
5.0
 40
6.0
 40
6.0
 40
6.0
 40
7.0
 40
7.0
 40
7.0
 40
8.0
 40
8.0
 40
8.0
 40
9.0
 40
9.0
 40
9.0
 40
10.0
 40
10.0
 40
10.0
 40
11.0
 40
11.0
 40
11.0
 40
12.0
 40
12.0
 40
12.0
 40
13.0
 40
13.0
 40
13.0
 40
14.0
 40
14.0
 40
14.0
 40
15.0
 40
15.0
 40
15.0
 40
16.0
 40
16.0
 40
16.0
 40
17.0
 40
17.0
 40
17.0
 40
18.0
 40
18.0
 40
18.0
 40
19.0
 40
19.0
 40
19.0
 40
20.0
 40
20.0
 40
20.0
 40
21.0
 40
21.0
 40
21.0
 40
22.0
 40
22.0
 40
22.0
 40
23.0
 40
23.0
 40
23.0
 40
24.0
 40
24.0
 40
24.0
 40
25.0
 40
25.0
 40
25.0
 40
26.0
 40
26.0
 40
26.0
 40
27.0
 40
27.0
 40
27.0
 40
28.0
 40
28.0
 40
28.0
 40
29.0
 40
29.0
 40
29.0
 40
30.0
 40
30.0
 40
30.0
 40
31.0
 40
31.0
 40
31.0
 40
32.0
 40
32.0
 40
32.0
 40
33.0
 40
33.0
 40
33.0
 40
34.0
 40
34.0
 40
34.0
 40
35.0
 40
35.0
 40
35.0
 40
36.0
 40
36.0
 40
36.0
 40
36.0
 10
4.224675297820896
 20
7.366350282971943
 30
0.0
 10
4.224675297820896
 20
7.366350282971943
 30
0.0
 10
4.224675297820896
 20
7.382866148825997
 30
0.0
 10
4.224675297820896
 20
7.382866148825997
 30
0.0
 10
4.224675297820896
 20
7.382866148825997
 30
0.0
 10
4.223025197812086
 20
7.391126559380659
 30
0.0
 10
4.213114687248586
 20
7.396081814662415
 30
0.0
 10
4.213114687248586
 20
7.396081814662415
 30
0.0
 10
3.980217689006584
 20
7.481971254460909
 30
0.0
 10
3.980217689006584
 20
7.481971254460909
 30
0.0
 10
3.980217689006584
 20
7.481971254460909
 30
0.0
 10
3.959564184992284
 20
7.476193426802385
 30
0.0
 10
3.959564184992284
 20
7.476193426802385
 30
0.0
 10
3.959564184992284
 20
7.476193426802385
 30
0.0
 10
3.94559633373256
 20
7.474395660186158
 30
0.0
 10
3.934858295537019
 20
7.471090504913238
 30
0.0
 10
3.934858295537019
 20
7.471090504913238
 30
0.0
 10
3.913316787447747
 20
7.477015999179153
 30
0.0
 10
3.910011632174827
 20
7.466282916238886
 30
0.0
 10
3.910011632174827
 20
7.466282916238886
 30
0.0
 10
3.893495766320775
 20
7.461327660957143
 30
0.0
 10
3.893495766320775
 20
7.461327660957143
 30
0.0
 10
3.893495766320775
 20
7.461327660957143
 30
0.0
 10
3.883395401426077
 20
7.460039872784591
 30
0.0
 10
3.870184690844944
 20
7.457562245143713
 30
0.0
 10
3.870184690844944
 20
7.457562245143713
 30
0.0
 10
3.84724836877625
 20
7.463805288598021
 30
0.0
 10
3.841848131570196
 20
7.451455801384857
 30
0.0
 10
3.841848131570196
 20
7.451455801384857
 30
0.0
 10
3.730799869655256
 20
7.42911354637052
 30
0.0
 10
3.730799869655256
 20
7.42911354637052
 30
0.0
 10
3.730799869655256
 20
7.42911354637052
 30
0.0
 10
3.730799869655256
 20
7.412597680516468
 30
0.0
 10
3.730799869655256
 20
7.412597680516468
 30
0.0
 10
3.730799869655256
 20
7.412597680516468
 30
0.0
 10
3.957091512606679
 20
7.33000844073562
 30
0.0
 10
3.957091512606679
 20
7.33000844073562
 30
0.0
 10
3.957091512606679
 20
7.33000844073562
 30
0.0
 10
3.962046767888435
 20
7.326708240717986
 30
0.0
 10
3.962046767888435
 20
7.321752985436255
 30
0.0
 10
3.962046767888435
 20
7.321752985436255
 30
0.0
 10
3.962046767888435
 20
7.306887219591001
 30
0.0
 10
3.962046767888435
 20
7.306887219591001
 30
0.0
 10
3.962046767888435
 20
7.306887219591001
 30
0.0
 10
4.008294165432959
 20
7.27385053262761
 30
0.0
 10
4.008294165432959
 20
7.27385053262761
 30
0.0
 10
4.008294165432959
 20
7.27385053262761
 30
0.0
 10
4.095838660495537
 20
7.044258689658527
 30
0.0
 10
4.095838660495537
 20
7.044258689658527
 30
0.0
 10
4.095838660495537
 20
7.044258689658527
 30
0.0
 10
4.095838660495537
 20
6.29271494209743
 30
0.0
 10
4.095838660495537
 20
6.29271494209743
 30
0.0
 10
4.095838660495537
 20
6.29271494209743
 30
0.0
 10
4.095838660495537
 20
6.244807534033511
 30
0.0
 10
4.115659681622522
 20
6.203520347026015
 30
0.0
 10
4.115659681622522
 20
6.203520347026015
 30
0.0
 10
4.241191163674961
 20
5.964013038238161
 30
0.0
 10
4.241191163674961
 20
5.964013038238161
 30
0.0
 10
4.241191163674961
 20
5.964013038238161
 30
0.0
 10
4.252746818991985
 20
5.950802327657028
 30
0.0
 10
4.259357129537837
 20
5.949147272392931
 30
0.0
 10
4.259357129537837
 20
5.949147272392931
 30
0.0
 10
4.280843116439478
 20
5.853342366775678
 30
0.0
 10
4.27753300591126
 20
5.808745069239976
 30
0.0
 10
4.27753300591126
 20
5.808745069239976
 30
0.0
 10
4.274222895383066
 20
5.797179503412394
 30
0.0
 10
4.289088661228308
 20
5.788924048112979
 30
0.0
 10
4.289088661228308
 20
5.788924048112979
 30
0.0
 10
4.307033096926716
 20
5.769293299182309
 30
0.0
 10
4.307033096926716
 20
5.769293299182309
 30
0.0
 10
4.307033096926716
 20
5.769293299182309
 30
0.0
 10
4.345890613488968
 20
5.755361512246168
 30
0.0
 10
4.345890613488968
 20
5.755361512246168
 30
0.0
 10
4.345890613488968
 20
5.755361512246168
 30
0.0
 10
4.375
 20
5.732565011820321
 30
0.0
 10
4.375
 20
5.732565011820321
 30
0.0
 10
4.375
 20
5.732565011820321
 30
0.0
 10
4.47078796189933
 20
5.681563487178715
 30
0.0
 10
4.47078796189933
 20
5.681563487178715
 30
0.0
 10
4.47078796189933
 20
5.681563487178715
 30
0.0
 10
4.47739827244517
 20
5.674953176632875
 30
0.0
 10
4.500519493589788
 20
5.68651874246047
 30
0.0
 10
4.500519493589788
 20
5.68651874246047
 30
0.0
 10
4.485653727744547
 20
5.694774197759847
 30
0.0
 10
4.485653727744547
 20
5.694774197759847
 30
0.0
 10
4.485653727744547
 20
5.694774197759847
 30
0.0
 10
4.483998672480437
 20
5.709639963605089
 30
0.0
 10
4.483998672480437
 20
5.709639963605089
 30
0.0
 10
4.483998672480437
 20
5.709639963605089
 30
0.0
 10
4.488953927762193
 20
5.711295018869186
 30
0.0
 10
4.488953927762193
 20
5.711295018869186
 30
0.0
 10
4.488953927762193
 20
5.711295018869186
 30
0.0
 10
4.345251524591605
 20
6.279494321005725
 30
0.0
 10
4.345251524591605
 20
6.279494321005725
 30
0.0
 10
4.345251524591605
 20
6.279494321005725
 30
0.0
 10
4.345251524591605
 20
7.034348179095041
 30
0.0
 10
4.345251524591605
 20
7.034348179095041
 30
0.0
 10
4.345251524591605
 20
7.034348179095041
 30
0.0
 10
4.308909682355281
 20
7.239163745655408
 30
0.0
 10
4.308909682355281
 20
7.239163745655408
 30
0.0
 10
4.308909682355281
 20
7.239163745655408
 30
0.0
 10
4.274222895383066
 20
7.306887219591001
 30
0.0
 10
4.274222895383066
 20
7.306887219591001
 30
0.0
 10
4.274222895383066
 20
7.306887219591001
 30
0.0
 10
4.262657329555471
 20
7.323408040700352
 30
0.0
 10
4.254401874256094
 20
7.326708240717986
 30
0.0
 10
4.254401874256094
 20
7.326708240717986
 30
0.0
 10
4.224675297820896
 20
7.366350282971943
 30
0.0
 10
4.224675297820896
 20
7.366350282971943
 30
0.0
  0
HATCH
  5
202
330
1FD
100
AcDbEntity
  8
BA
 62
   254
420
 13358815
100
AcDbHatch
 10
0.0
 20
0.0
 30
0.0
210
0.0
220
0.0
230
1.0
  2
SOLID
 70
     1
 71
     0
 91
        1
 92
        1
 93
        1
 72
     4
 94
        3
 73
     0
 74
     1
 95
      113
 96
      109
 40
0.0
 40
0.0
 40
0.0
 40
0.0
 40
1.0
 40
1.0
 40
1.0
 40
2.0
 40
2.0
 40
2.0
 40
3.0
 40
3.0
 40
3.0
 40
4.0
 40
4.0
 40
4.0
 40
5.0
 40
5.0
 40
5.0
 40
6.0
 40
6.0
 40
6.0
 40
7.0
 40
7.0
 40
7.0
 40
8.0
 40
8.0
 40
8.0
 40
9.0
 40
9.0
 40
9.0
 40
10.0
 40
10.0
 40
10.0
 40
11.0
 40
11.0
 40
11.0
 40
12.0
 40
12.0
 40
12.0
 40
13.0
 40
13.0
 40
13.0
 40
14.0
 40
14.0
 40
14.0
 40
15.0
 40
15.0
 40
15.0
 40
16.0
 40
16.0
 40
16.0
 40
17.0
 40
17.0
 40
17.0
 40
18.0
 40
18.0
 40
18.0
 40
19.0
 40
19.0
 40
19.0
 40
20.0
 40
20.0
 40
20.0
 40
21.0
 40
21.0
 40
21.0
 40
22.0
 40
22.0
 40
22.0
 40
23.0
 40
23.0
 40
23.0
 40
24.0
 40
24.0
 40
24.0
 40
25.0
 40
25.0
 40
25.0
 40
26.0
 40
26.0
 40
26.0
 40
27.0
 40
27.0
 40
27.0
 40
28.0
 40
28.0
 40
28.0
 40
29.0
 40
29.0
 40
29.0
 40
30.0
 40
30.0
 40
30.0
 40
31.0
 40
31.0
 40
31.0
 40
32.0
 40
32.0
 40
32.0
 40
33.0
 40
33.0
 40
33.0
 40
34.0
 40
34.0
 40
34.0
 40
35.0
 40
35.0
 40
35.0
 40
36.0
 40
36.0
 40
36.0
 40
36.0
 10
4.224675297820896
 20
7.366350282971943
 10
4.224675297820896
 20
7.366350282971943
 10
4.224675297820896
 20
7.382866148825997
 10
4.224675297820896
 20
7.382866148825997
 10
4.224675297820896
 20
7.382866148825997
 10
4.223025197812086
 20
7.391126559380659
 10
4.213114687248586
 20
7.396081814662415
 10
4.213114687248586
 20
7.396081814662415
 10
3.980217689006584
 20
7.481971254460909
 10
3.980217689006584
 20
7.481971254460909
 10
3.980217689006584
 20
7.481971254460909
 10
3.959564184992284
 20
7.476193426802385
 10
3.959564184992284
 20
7.476193426802385
 10
3.959564184992284
 20
7.476193426802385
 10
3.94559633373256
 20
7.474395660186158
 10
3.934858295537019
 20
7.471090504913238
 10
3.934858295537019
 20
7.471090504913238
 10
3.913316787447747
 20
7.477015999179153
 10
3.910011632174827
 20
7.466282916238886
 10
3.910011632174827
 20
7.466282916238886
 10
3.893495766320775
 20
7.461327660957143
 10
3.893495766320775
 20
7.461327660957143
 10
3.893495766320775
 20
7.461327660957143
 10
3.883395401426077
 20
7.460039872784591
 10
3.870184690844944
 20
7.457562245143713
 10
3.870184690844944
 20
7.457562245143713
 10
3.84724836877625
 20
7.463805288598021
 10
3.841848131570196
 20
7.451455801384857
 10
3.841848131570196
 20
7.451455801384857
 10
3.730799869655256
 20
7.42911354637052
 10
3.730799869655256
 20
7.42911354637052
 10
3.730799869655256
 20
7.42911354637052
 10
3.730799869655256
 20
7.412597680516468
 10
3.730799869655256
 20
7.412597680516468
 10
3.730799869655256
 20
7.412597680516468
 10
3.957091512606679
 20
7.33000844073562
 10
3.957091512606679
 20
7.33000844073562
 10
3.957091512606679
 20
7.33000844073562
 10
3.962046767888435
 20
7.326708240717986
 10
3.962046767888435
 20
7.321752985436255
 10
3.962046767888435
 20
7.321752985436255
 10
3.962046767888435
 20
7.306887219591001
 10
3.962046767888435
 20
7.306887219591001
 10
3.962046767888435
 20
7.306887219591001
 10
4.008294165432959
 20
7.27385053262761
 10
4.008294165432959
 20
7.27385053262761
 10
4.008294165432959
 20
7.27385053262761
 10
4.095838660495537
 20
7.044258689658527
 10
4.095838660495537
 20
7.044258689658527
 10
4.095838660495537
 20
7.044258689658527
 10
4.095838660495537
 20
6.29271494209743
 10
4.095838660495537
 20
6.29271494209743
 10
4.095838660495537
 20
6.29271494209743
 10
4.095838660495537
 20
6.244807534033511
 10
4.115659681622522
 20
6.203520347026015
 10
4.115659681622522
 20
6.203520347026015
 10
4.241191163674961
 20
5.964013038238161
 10
4.241191163674961
 20
5.964013038238161
 10
4.241191163674961
 20
5.964013038238161
 10
4.252746818991985
 20
5.950802327657028
 10
4.259357129537837
 20
5.949147272392931
 10
4.259357129537837
 20
5.949147272392931
 10
4.280843116439478
 20
5.853342366775678
 10
4.27753300591126
 20
5.808745069239976
 10
4.27753300591126
 20
5.808745069239976
 10
4.274222895383066
 20
5.797179503412394
 10
4.289088661228308
 20
5.788924048112979
 10
4.289088661228308
 20
5.788924048112979
 10
4.307033096926716
 20
5.769293299182309
 10
4.307033096926716
 20
5.769293299182309
 10
4.307033096926716
 20
5.769293299182309
 10
4.345890613488968
 20
5.755361512246168
 10
4.345890613488968
 20
5.755361512246168
 10
4.345890613488968
 20
5.755361512246168
 10
4.375
 20
5.732565011820321
 10
4.375
 20
5.732565011820321
 10
4.375
 20
5.732565011820321
 10
4.47078796189933
 20
5.681563487178715
 10
4.47078796189933
 20
5.681563487178715
 10
4.47078796189933
 20
5.681563487178715
 10
4.47739827244517
 20
5.674953176632875
 10
4.500519493589788
 20
5.68651874246047
 10
4.500519493589788
 20
5.68651874246047
 10
4.485653727744547
 20
5.694774197759847
 10
4.485653727744547
 20
5.694774197759847
 10
4.485653727744547
 20
5.694774197759847
 10
4.483998672480437
 20
5.709639963605089
 10
4.483998672480437
 20
5.709639963605089
 10
4.483998672480437
 20
5.709639963605089
 10
4.488953927762193
 20
5.711295018869186
 10
4.488953927762193
 20
5.711295018869186
 10
4.488953927762193
 20
5.711295018869186
 10
4.345251524591605
 20
6.279494321005725
 10
4.345251524591605
 20
6.279494321005725
 10
4.345251524591605
 20
6.279494321005725
 10
4.345251524591605
 20
7.034348179095041
 10
4.345251524591605
 20
7.034348179095041
 10
4.345251524591605
 20
7.034348179095041
 10
4.308909682355281
 20
7.239163745655408
 10
4.308909682355281
 20
7.239163745655408
 10
4.308909682355281
 20
7.239163745655408
 10
4.274222895383066
 20
7.306887219591001
 10
4.274222895383066
 20
7.306887219591001
 10
4.274222895383066
 20
7.306887219591001
 10
4.262657329555471
 20
7.323408040700352
 10
4.254401874256094
 20
7.326708240717986
 10
4.254401874256094
 20
7.326708240717986
 10
4.224675297820896
 20
7.366350282971943
 10
4.224675297820896
 20
7.366350282971943
 97
        0
 97
        0
 75
     2
 76
     1
 98
        0
  0
SPLINE
  5
203
330
1FD
100
AcDbEntity
  8
BA
370
     0
100
AcDbSpline
210
0.0
220
0.0
230
1.0
 70
     8
 71
     3
 72
    26
 73
    22
 74
     0
 42
0.0000000001
 43
0.0000000001
 12
1.0
 22
0.0
 32
0.0
 13
1.0
 23
0.0
 33
0.0
 40
0.0
 40
0.0
 40
0.0
 40
0.0
 40
1.0
 40
1.0
 40
1.0
 40
2.0
 40
2.0
 40
2.0
 40
3.0
 40
3.0
 40
3.0
 40
4.0
 40
4.0
 40
4.0
 40
5.0
 40
5.0
 40
5.0
 40
6.0
 40
6.0
 40
6.0
 40
7.0
 40
7.0
 40
7.0
 40
7.0
 10
4.617790565087565
 20
7.478666099187952
 30
0.0
 10
4.617790565087565
 20
7.478666099187952
 30
0.0
 10
4.62935613091516
 20
7.475360943915044
 30
0.0
 10
4.62935613091516
 20
7.468755588624465
 30
0.0
 10
4.62935613091516
 20
7.468755588624465
 30
0.0
 10
4.62935613091516
 20
7.458845078060979
 30
0.0
 10
4.62935613091516
 20
7.458845078060979
 30
0.0
 10
4.62935613091516
 20
7.458845078060979
 30
0.0
 10
4.817645921110903
 20
7.394426759398306
 30
0.0
 10
4.817645921110903
 20
7.394426759398306
 30
0.0
 10
4.817645921110903
 20
7.394426759398306
 30
0.0
 10
4.840777052766068
 20
7.458845078060979
 30
0.0
 10
4.840777052766068
 20
7.458845078060979
 30
0.0
 10
4.840777052766068
 20
7.458845078060979
 30
0.0
 10
4.872163639720662
 20
7.495186920297303
 30
0.0
 10
4.872163639720662
 20
7.495186920297303
 30
0.0
 10
4.872163639720662
 20
7.495186920297303
 30
0.0
 10
4.872163639720662
 20
7.526568551996597
 30
0.0
 10
4.872163639720662
 20
7.526568551996597
 30
0.0
 10
4.872163639720662
 20
7.526568551996597
 30
0.0
 10
4.87049867394598
 20
7.539779262577743
 30
0.0
 10
4.853987763347201
 20
7.54308441785065
 30
0.0
  0
HATCH
  5
204
330
1FD
100
AcDbEntity
  8
BA
 62
   254
420
 13358815
100
AcDbHatch
 10
0.0
 20
0.0
 30
0.0
210
0.0
220
0.0
230
1.0
  2
SOLID
 70
     1
 71
     0
 91
        1
 92
        1
 93
        2
 72
     4
 94
        3
 73
     0
 74
     0
 95
       26
 96
       22
 40
0.0
 40
0.0
 40
0.0
 40
0.0
 40
0.0138888888888889
 40
0.0138888888888889
 40
0.0138888888888889
 40
0.0277777777777778
 40
0.0277777777777778
 40
0.0277777777777778
 40
0.0416666666666667
 40
0.0416666666666667
 40
0.0416666666666667
 40
0.0555555555555556
 40
0.0555555555555556
 40
0.0555555555555556
 40
0.0694444444444444
 40
0.0694444444444444
 40
0.0694444444444444
 40
0.0833333333333333
 40
0.0833333333333333
 40
0.0833333333333333
 40
0.0972222222222222
 40
0.0972222222222222
 40
0.0972222222222222
 40
0.0972222222222222
 10
4.617790565087565
 20
7.478666099187952
 10
4.617790565087565
 20
7.478666099187952
 10
4.62935613091516
 20
7.475360943915044
 10
4.62935613091516
 20
7.468755588624465
 10
4.62935613091516
 20
7.468755588624465
 10
4.62935613091516
 20
7.458845078060979
 10
4.62935613091516
 20
7.458845078060979
 10
4.62935613091516
 20
7.458845078060979
 10
4.817645921110903
 20
7.394426759398306
 10
4.817645921110903
 20
7.394426759398306
 10
4.817645921110903
 20
7.394426759398306
 10
4.840777052766068
 20
7.458845078060979
 10
4.840777052766068
 20
7.458845078060979
 10
4.840777052766068
 20
7.458845078060979
 10
4.872163639720662
 20
7.495186920297303
 10
4.872163639720662
 20
7.495186920297303
 10
4.872163639720662
 20
7.495186920297303
 10
4.872163639720662
 20
7.526568551996597
 10
4.872163639720662
 20
7.526568551996597
 10
4.872163639720662
 20
7.526568551996597
 10
4.87049867394598
 20
7.539779262577743
 10
4.853987763347201
 20
7.54308441785065
 97
        0
 72
     1
 10
4.853987763347201
 20
7.54308441785065
 11
4.617790565087565
 21
7.478666099187952
 97
        0
 75
     2
 76
     1
 98
        0
  0
ENDBLK
  5
200
330
1FD
100
AcDbEntity
  8
0
100
AcDbBlockEnd
  0
BLOCK
  5
21E
330
21C
100
AcDbEntity
  8
0
100
AcDbBlockBegin
  2
block 6
 70
     0
 10
0.0
 20
0.0
 30
0.0
  3
block 6
  1

  0
POLYLINE
  5
220
330
21C
100
AcDbEntity
  8
BA
 62
   250
420
  2301728
370
    13
100
AcDb2dPolyline
 66
     1
 10
0.0
 20
0.0
 30
0.0
  0
VERTEX
  5
221
330
220
100
AcDbEntity
  8
BA
 62
   250
420
  2301728
370
    13
100
AcDbVertex
100
AcDb2dVertex
 10
4.254411784766654
 20
6.011910535791508
 30
0.0
  0
VERTEX
  5
222
330
220
100
AcDbEntity
  8
BA
 62
   250
420
  2301728
370
    13
100
AcDbVertex
100
AcDb2dVertex
 10
4.254411784766654
 20
5.992089514664536
 30
0.0
  0
SEQEND
  5
223
330
220
100
AcDbEntity
  8
BA
 62
   250
420
  2301728
370
    13
  0
POLYLINE
  5
224
330
21C
100
AcDbEntity
  8
BA
 62
   250
420
  2301728
370
    13
100
AcDb2dPolyline
 66
     1
 10
0.0
 20
0.0
 30
0.0
  0
VERTEX
  5
225
330
224
100
AcDbEntity
  8
BA
 62
   250
420
  2301728
370
    13
100
AcDbVertex
100
AcDb2dVertex
 10
4.254411784766654
 20
7.252384366747087
 30
0.0
  0
VERTEX
  5
226
330
224
100
AcDbEntity
  8
BA
 62
   250
420
  2301728
370
    13
100
AcDbVertex
100
AcDb2dVertex
 10
4.254411784766654
 20
6.028431356900847
 30
0.0
  0
SEQEND
  5
227
330
224
100
AcDbEntity
  8
BA
 62
   250
420
  2301728
370
    13
  0
POLYLINE
  5
228
330
21C
100
AcDbEntity
  8
BA
 62
   250
420
  2301728
370
    13
100
AcDb2dPolyline
 66
     1
 10
0.0
 20
0.0
 30
0.0
  0
VERTEX
  5
229
330
228
100
AcDbEntity
  8
BA
 62
   250
420
  2301728
370
    13
100
AcDbVertex
100
AcDb2dVertex
 10
4.254411784766654
 20
7.283761043191096
 30
0.0
  0
VERTEX
  5
22A
330
228
100
AcDbEntity
  8
BA
 62
   250
420
  2301728
370
    13
100
AcDbVertex
100
AcDb2dVertex
 10
4.254411784766654
 20
7.267245177337044
 30
0.0
  0
SEQEND
  5
22B
330
228
100
AcDbEntity
  8
BA
 62
   250
420
  2301728
370
    13
  0
ENDBLK
  5
21F
330
21C
100
AcDbEntity
  8
0
100
AcDbBlockEnd
  0
BLOCK
  5
22E
330
22C
100
AcDbEntity
  8
0
100
AcDbBlockBegin
  2
block 7
 70
     0
 10
0.0
 20
0.0
 30
0.0
  3
block 7
  1

  0
SPLINE
  5
230
330
22C
100
AcDbEntity
  8
BA
 62
   250
420
  2301728
370
    25
100
AcDbSpline
210
0.0
220
0.0
230
1.0
 70
    11
 71
     3
 72
   107
 73
   103
 74
     0
 42
0.0000000001
 43
0.0000000001
 12
1.0
 22
0.0
 32
0.0
 13
1.0
 23
0.0
 33
0.0
 40
0.0
 40
0.0
 40
0.0
 40
0.0
 40
1.0
 40
1.0
 40
1.0
 40
2.0
 40
2.0
 40
2.0
 40
3.0
 40
3.0
 40
3.0
 40
4.0
 40
4.0
 40
4.0
 40
5.0
 40
5.0
 40
5.0
 40
6.0
 40
6.0
 40
6.0
 40
7.0
 40
7.0
 40
7.0
 40
8.0
 40
8.0
 40
8.0
 40
9.0
 40
9.0
 40
9.0
 40
10.0
 40
10.0
 40
10.0
 40
11.0
 40
11.0
 40
11.0
 40
12.0
 40
12.0
 40
12.0
 40
13.0
 40
13.0
 40
13.0
 40
14.0
 40
14.0
 40
14.0
 40
15.0
 40
15.0
 40
15.0
 40
16.0
 40
16.0
 40
16.0
 40
17.0
 40
17.0
 40
17.0
 40
18.0
 40
18.0
 40
18.0
 40
19.0
 40
19.0
 40
19.0
 40
20.0
 40
20.0
 40
20.0
 40
21.0
 40
21.0
 40
21.0
 40
22.0
 40
22.0
 40
22.0
 40
23.0
 40
23.0
 40
23.0
 40
24.0
 40
24.0
 40
24.0
 40
25.0
 40
25.0
 40
25.0
 40
26.0
 40
26.0
 40
26.0
 40
27.0
 40
27.0
 40
27.0
 40
28.0
 40
28.0
 40
28.0
 40
29.0
 40
29.0
 40
29.0
 40
30.0
 40
30.0
 40
30.0
 40
31.0
 40
31.0
 40
31.0
 40
32.0
 40
32.0
 40
32.0
 40
33.0
 40
33.0
 40
33.0
 40
34.0
 40
34.0
 40
34.0
 40
34.0
 10
4.224675297820896
 20
7.366350282971943
 30
0.0
 10
4.224675297820896
 20
7.366350282971943
 30
0.0
 10
4.224675297820896
 20
7.382866148825997
 30
0.0
 10
4.224675297820896
 20
7.382866148825997
 30
0.0
 10
4.224675297820896
 20
7.382866148825997
 30
0.0
 10
4.223025197812086
 20
7.391126559380659
 30
0.0
 10
4.213114687248586
 20
7.396081814662415
 30
0.0
 10
4.213114687248586
 20
7.396081814662415
 30
0.0
 10
3.980217689006584
 20
7.481971254460909
 30
0.0
 10
3.980217689006584
 20
7.481971254460909
 30
0.0
 10
3.980217689006584
 20
7.481971254460909
 30
0.0
 10
3.959564184992284
 20
7.476193426802385
 30
0.0
 10
3.959564184992284
 20
7.476193426802385
 30
0.0
 10
3.959564184992284
 20
7.476193426802385
 30
0.0
 10
3.875591016548456
 20
7.458924349881802
 30
0.0
 10
3.841848131570196
 20
7.451455801384857
 30
0.0
 10
3.841848131570196
 20
7.451455801384857
 30
0.0
 10
3.730799869655256
 20
7.42911354637052
 30
0.0
 10
3.730799869655256
 20
7.42911354637052
 30
0.0
 10
3.730799869655256
 20
7.42911354637052
 30
0.0
 10
3.730799869655256
 20
7.412597680516468
 30
0.0
 10
3.730799869655256
 20
7.412597680516468
 30
0.0
 10
3.730799869655256
 20
7.412597680516468
 30
0.0
 10
3.957091512606679
 20
7.33000844073562
 30
0.0
 10
3.957091512606679
 20
7.33000844073562
 30
0.0
 10
3.957091512606679
 20
7.33000844073562
 30
0.0
 10
3.962046767888435
 20
7.326708240717986
 30
0.0
 10
3.962046767888435
 20
7.321752985436255
 30
0.0
 10
3.962046767888435
 20
7.321752985436255
 30
0.0
 10
3.962046767888435
 20
7.306887219591001
 30
0.0
 10
3.962046767888435
 20
7.306887219591001
 30
0.0
 10
3.962046767888435
 20
7.306887219591001
 30
0.0
 10
4.008294165432959
 20
7.27385053262761
 30
0.0
 10
4.008294165432959
 20
7.27385053262761
 30
0.0
 10
4.008294165432959
 20
7.27385053262761
 30
0.0
 10
4.095838660495537
 20
7.044258689658527
 30
0.0
 10
4.095838660495537
 20
7.044258689658527
 30
0.0
 10
4.095838660495537
 20
7.044258689658527
 30
0.0
 10
4.095838660495537
 20
6.29271494209743
 30
0.0
 10
4.095838660495537
 20
6.29271494209743
 30
0.0
 10
4.095838660495537
 20
6.29271494209743
 30
0.0
 10
4.095838660495537
 20
6.244807534033511
 30
0.0
 10
4.115659681622522
 20
6.203520347026015
 30
0.0
 10
4.115659681622522
 20
6.203520347026015
 30
0.0
 10
4.241191163674961
 20
5.964013038238161
 30
0.0
 10
4.241191163674961
 20
5.964013038238161
 30
0.0
 10
4.241191163674961
 20
5.964013038238161
 30
0.0
 10
4.252746818991985
 20
5.950802327657028
 30
0.0
 10
4.259357129537837
 20
5.949147272392931
 30
0.0
 10
4.259357129537837
 20
5.949147272392931
 30
0.0
 10
4.280843116439478
 20
5.853342366775678
 30
0.0
 10
4.27753300591126
 20
5.808745069239976
 30
0.0
 10
4.27753300591126
 20
5.808745069239976
 30
0.0
 10
4.274222895383066
 20
5.797179503412394
 30
0.0
 10
4.289088661228308
 20
5.788924048112979
 30
0.0
 10
4.289088661228308
 20
5.788924048112979
 30
0.0
 10
4.298211556151601
 20
5.768510969335718
 30
0.0
 10
4.306737588652469
 20
5.762395741642295
 30
0.0
 10
4.315263621153337
 20
5.756280513948872
 30
0.0
 10
4.324373749724751
 20
5.768075170601037
 30
0.0
 10
4.324373749724751
 20
5.768075170601037
 30
0.0
 10
4.324373749724751
 20
5.768075170601037
 30
0.0
 10
4.358788800640872
 20
5.747740366960139
 30
0.0
 10
4.358788800640872
 20
5.747740366960139
 30
0.0
 10
4.358788800640872
 20
5.747740366960139
 30
0.0
 10
4.356679886786954
 20
5.73840444523637
 30
0.0
 10
4.369590249365779
 20
5.730776106520655
 30
0.0
 10
4.382500611944604
 20
5.723147767804941
 30
0.0
 10
4.390782375590131
 20
5.728836342470546
 30
0.0
 10
4.390782375590131
 20
5.728836342470546
 30
0.0
 10
4.390782375590131
 20
5.728836342470546
 30
0.0
 10
4.47078796189933
 20
5.681563487178715
 30
0.0
 10
4.47078796189933
 20
5.681563487178715
 30
0.0
 10
4.47078796189933
 20
5.681563487178715
 30
0.0
 10
4.47739827244517
 20
5.674953176632875
 30
0.0
 10
4.500519493589788
 20
5.68651874246047
 30
0.0
 10
4.500519493589788
 20
5.68651874246047
 30
0.0
 10
4.485653727744547
 20
5.694774197759847
 30
0.0
 10
4.485653727744547
 20
5.694774197759847
 30
0.0
 10
4.485653727744547
 20
5.694774197759847
 30
0.0
 10
4.483998672480437
 20
5.709639963605089
 30
0.0
 10
4.483998672480437
 20
5.709639963605089
 30
0.0
 10
4.483998672480437
 20
5.709639963605089
 30
0.0
 10
4.488953927762193
 20
5.711295018869186
 30
0.0
 10
4.488953927762193
 20
5.711295018869186
 30
0.0
 10
4.488953927762193
 20
5.711295018869186
 30
0.0
 10
4.345251524591605
 20
6.279494321005725
 30
0.0
 10
4.345251524591605
 20
6.279494321005725
 30
0.0
 10
4.345251524591605
 20
6.279494321005725
 30
0.0
 10
4.345251524591605
 20
7.034348179095041
 30
0.0
 10
4.345251524591605
 20
7.034348179095041
 30
0.0
 10
4.345251524591605
 20
7.034348179095041
 30
0.0
 10
4.308909682355281
 20
7.239163745655408
 30
0.0
 10
4.308909682355281
 20
7.239163745655408
 30
0.0
 10
4.308909682355281
 20
7.239163745655408
 30
0.0
 10
4.274222895383066
 20
7.306887219591001
 30
0.0
 10
4.274222895383066
 20
7.306887219591001
 30
0.0
 10
4.274222895383066
 20
7.306887219591001
 30
0.0
 10
4.262657329555471
 20
7.323408040700352
 30
0.0
 10
4.254401874256094
 20
7.326708240717986
 30
0.0
 10
4.254401874256094
 20
7.326708240717986
 30
0.0
 10
4.224675297820896
 20
7.366350282971943
 30
0.0
 10
4.224675297820896
 20
7.366350282971943
 30
0.0
  0
SPLINE
  5
231
330
22C
100
AcDbEntity
  8
BA
 62
   250
420
  2301728
370
    25
100
AcDbSpline
210
0.0
220
0.0
230
1.0
 70
     8
 71
     3
 72
    26
 73
    22
 74
     0
 42
0.0000000001
 43
0.0000000001
 12
1.0
 22
0.0
 32
0.0
 13
1.0
 23
0.0
 33
0.0
 40
0.0
 40
0.0
 40
0.0
 40
0.0
 40
1.0
 40
1.0
 40
1.0
 40
2.0
 40
2.0
 40
2.0
 40
3.0
 40
3.0
 40
3.0
 40
4.0
 40
4.0
 40
4.0
 40
5.0
 40
5.0
 40
5.0
 40
6.0
 40
6.0
 40
6.0
 40
7.0
 40
7.0
 40
7.0
 40
7.0
 10
4.617790565087565
 20
7.478666099187952
 30
0.0
 10
4.617790565087565
 20
7.478666099187952
 30
0.0
 10
4.62935613091516
 20
7.475360943915044
 30
0.0
 10
4.62935613091516
 20
7.468755588624465
 30
0.0
 10
4.62935613091516
 20
7.468755588624465
 30
0.0
 10
4.62935613091516
 20
7.458845078060979
 30
0.0
 10
4.62935613091516
 20
7.458845078060979
 30
0.0
 10
4.62935613091516
 20
7.458845078060979
 30
0.0
 10
4.817645921110903
 20
7.394426759398306
 30
0.0
 10
4.817645921110903
 20
7.394426759398306
 30
0.0
 10
4.817645921110903
 20
7.394426759398306
 30
0.0
 10
4.840777052766068
 20
7.458845078060979
 30
0.0
 10
4.840777052766068
 20
7.458845078060979
 30
0.0
 10
4.840777052766068
 20
7.458845078060979
 30
0.0
 10
4.872163639720662
 20
7.495186920297303
 30
0.0
 10
4.872163639720662
 20
7.495186920297303
 30
0.0
 10
4.872163639720662
 20
7.495186920297303
 30
0.0
 10
4.872163639720662
 20
7.526568551996597
 30
0.0
 10
4.872163639720662
 20
7.526568551996597
 30
0.0
 10
4.872163639720662
 20
7.526568551996597
 30
0.0
 10
4.87049867394598
 20
7.539779262577743
 30
0.0
 10
4.853987763347201
 20
7.54308441785065
 30
0.0
  0
ENDBLK
  5
22F
330
22C
100
AcDbEntity
  8
0
100
AcDbBlockEnd
  0
BLOCK
  5
24E
330
24C
100
AcDbEntity
  8
0
100
AcDbBlockBegin
  2
block 8
 70
     0
 10
0.0
 20
0.0
 30
0.0
  3
block 8
  1

  0
POLYLINE
  5
250
330
24C
100
AcDbEntity
  8
BA
 62
   250
420
  2301728
370
    13
100
AcDb2dPolyline
 66
     1
 10
0.0
 20
0.0
 30
0.0
  0
VERTEX
  5
251
330
250
100
AcDbEntity
  8
BA
 62
   250
420
  2301728
370
    13
100
AcDbVertex
100
AcDb2dVertex
 10
4.716653854264703
 20
7.545600696482741
 30
0.0
  0
VERTEX
  5
252
330
250
100
AcDbEntity
  8
BA
 62
   250
420
  2301728
370
    13
100
AcDbVertex
100
AcDb2dVertex
 10
4.668756356711381
 20
7.560515154266315
 30
0.0
  0
VERTEX
  5
253
330
250
100
AcDbEntity
  8
BA
 62
   250
420
  2301728
370
    13
100
AcDbVertex
100
AcDb2dVertex
 10
4.655777552077425
 20
7.564560494241732
 30
0.0
  0
SEQEND
  5
254
330
250
100
AcDbEntity
  8
BA
 62
   250
420
  2301728
370
    13
  0
POLYLINE
  5
255
330
24C
100
AcDbEntity
  8
BA
 62
   250
420
  2301728
370
    13
100
AcDb2dPolyline
 66
     1
 10
0.0
 20
0.0
 30
0.0
  0
VERTEX
  5
256
330
255
100
AcDbEntity
  8
BA
 62
   250
420
  2301728
370
    13
100
AcDbVertex
100
AcDb2dVertex
 10
4.784420934446795
 20
7.52450716579939
 30
0.0
  0
VERTEX
  5
257
330
255
100
AcDbEntity
  8
BA
 62
   250
420
  2301728
370
    13
100
AcDbVertex
100
AcDb2dVertex
 10
4.73360974678778
 20
7.540326322760834
 30
0.0
  0
SEQEND
  5
258
330
255
100
AcDbEntity
  8
BA
 62
   250
420
  2301728
370
    13
  0
SPLINE
  5
259
330
24C
100
AcDbEntity
  8
BA
 62
   250
420
  2301728
370
    13
100
AcDbSpline
210
0.0
220
0.0
230
1.0
 70
     8
 71
     3
 72
     8
 73
     4
 74
     0
 42
0.0000000001
 43
0.0000000001
 12
1.0
 22
0.0
 32
0.0
 13
1.0
 23
0.0
 33
0.0
 40
0.0
 40
0.0
 40
0.0
 40
0.0
 40
1.0
 40
1.0
 40
1.0
 40
1.0
 10
4.797012238117708
 20
7.511702786151368
 30
0.0
 10
4.797012238117708
 20
7.519958241450745
 30
0.0
 10
4.793712038100062
 20
7.521613296714854
 30
0.0
 10
4.793712038100062
 20
7.521613296714854
 30
0.0
  0
POLYLINE
  5
25A
330
24C
100
AcDbEntity
  8
BA
 62
   250
420
  2301728
370
    13
100
AcDb2dPolyline
 66
     1
 10
0.0
 20
0.0
 30
0.0
  0
VERTEX
  5
25B
330
25A
100
AcDbEntity
  8
BA
 62
   250
420
  2301728
370
    13
100
AcDbVertex
100
AcDb2dVertex
 10
4.797012238117708
 20
7.483626309724993
 30
0.0
  0
VERTEX
  5
25C
330
25A
100
AcDbEntity
  8
BA
 62
   250
420
  2301728
370
    13
100
AcDbVertex
100
AcDb2dVertex
 10
4.797012238117708
 20
7.500142175579046
 30
0.0
  0
SEQEND
  5
25D
330
25A
100
AcDbEntity
  8
BA
 62
   250
420
  2301728
370
    13
  0
SPLINE
  5
25E
330
24C
100
AcDbEntity
  8
BA
 62
   250
420
  2301728
370
    18
100
AcDbSpline
210
0.0
220
0.0
230
1.0
 70
     8
 71
     3
 72
    20
 73
    16
 74
     0
 42
0.0000000001
 43
0.0000000001
 12
1.0
 22
0.0
 32
0.0
 13
1.0
 23
0.0
 33
0.0
 40
0.0
 40
0.0
 40
0.0
 40
0.0
 40
1.0
 40
1.0
 40
1.0
 40
2.0
 40
2.0
 40
2.0
 40
3.0
 40
3.0
 40
3.0
 40
4.0
 40
4.0
 40
4.0
 40
5.0
 40
5.0
 40
5.0
 40
5.0
 10
4.705330104894882
 20
7.574471004805218
 30
0.0
 10
4.705330104894882
 20
7.574471004805218
 30
0.0
 10
4.813533059227034
 20
7.541434317841826
 30
0.0
 10
4.813533059227034
 20
7.541434317841826
 30
0.0
 10
4.828398825072276
 20
7.538129162568907
 30
0.0
 10
4.831699025089923
 20
7.518313096697208
 30
0.0
 10
4.831699025089923
 20
7.518313096697208
 30
0.0
 10
4.831699025089923
 20
7.518313096697208
 30
0.0
 10
4.831699025089923
 20
7.49023166501556
 30
0.0
 10
4.831699025089923
 20
7.49023166501556
 30
0.0
 10
4.831699025089923
 20
7.49023166501556
 30
0.0
 10
4.829278878410327
 20
7.469917100462516
 30
0.0
 10
4.817655831621449
 20
7.468755588624465
 30
0.0
 10
4.813523148716487
 20
7.468344302436094
 30
0.0
 10
4.810174387197068
 20
7.469065787605132
 30
0.0
 10
4.807464853609013
 20
7.470381903407946
 30
0.0
  0
POLYLINE
  5
25F
330
24C
100
AcDbEntity
  8
BA
 62
   250
420
  2301728
370
    18
100
AcDb2dPolyline
 66
     1
 10
0.0
 20
0.0
 30
0.0
  0
VERTEX
  5
260
330
25F
100
AcDbEntity
  8
BA
 62
   250
420
  2301728
370
    18
100
AcDbVertex
100
AcDb2dVertex
 10
4.655777552077425
 20
7.564560494241732
 30
0.0
  0
VERTEX
  5
382
330
25F
100
AcDbEntity
  8
0
100
AcDbVertex
100
AcDb2dVertex
 10
4.655777552077425
 20
7.564560494241732
 30
0.0
  0
SEQEND
  5
261
330
25F
100
AcDbEntity
  8
BA
 62
   250
420
  2301728
370
    18
  0
ENDBLK
  5
24F
330
24C
100
AcDbEntity
  8
0
100
AcDbBlockEnd
  0
BLOCK
  5
264
330
262
100
AcDbEntity
  8
0
100
AcDbBlockBegin
  2
block 9
 70
     0
 10
0.0
 20
0.0
 30
0.0
  3
block 9
  1

  0
POLYLINE
  5
266
330
262
100
AcDbEntity
  8
BA
 62
   250
420
  2301728
370
    13
100
AcDb2dPolyline
 66
     1
 10
0.0
 20
0.0
 30
0.0
  0
VERTEX
  5
267
330
266
100
AcDbEntity
  8
BA
 62
   250
420
  2301728
370
    13
100
AcDbVertex
100
AcDb2dVertex
 10
4.077043377211895
 20
7.405290661078033
 30
0.0
  0
VERTEX
  5
268
330
266
100
AcDbEntity
  8
BA
 62
   250
420
  2301728
370
    13
100
AcDbVertex
100
AcDb2dVertex
 10
3.987756614392234
 20
7.437659379629419
 30
0.0
  0
SEQEND
  5
269
330
266
100
AcDbEntity
  8
BA
 62
   250
420
  2301728
370
    13
  0
POLYLINE
  5
26A
330
262
100
AcDbEntity
  8
BA
 62
   250
420
  2301728
370
    13
100
AcDb2dPolyline
 66
     1
 10
0.0
 20
0.0
 30
0.0
  0
VERTEX
  5
26B
330
26A
100
AcDbEntity
  8
BA
 62
   250
420
  2301728
370
    13
100
AcDbVertex
100
AcDb2dVertex
 10
4.146460557402785
 20
7.379159617875252
 30
0.0
  0
VERTEX
  5
26C
330
26A
100
AcDbEntity
  8
BA
 62
   250
420
  2301728
370
    13
100
AcDbVertex
100
AcDb2dVertex
 10
4.094411546974394
 20
7.398752697259283
 30
0.0
  0
SEQEND
  5
26D
330
26A
100
AcDbEntity
  8
BA
 62
   250
420
  2301728
370
    13
  0
SPLINE
  5
26E
330
262
100
AcDbEntity
  8
BA
 62
   250
420
  2301728
370
    13
100
AcDbSpline
210
0.0
220
0.0
230
1.0
 70
     8
 71
     3
 72
     8
 73
     4
 74
     0
 42
0.0000000001
 43
0.0000000001
 12
1.0
 22
0.0
 32
0.0
 13
1.0
 23
0.0
 33
0.0
 40
0.0
 40
0.0
 40
0.0
 40
0.0
 40
1.0
 40
1.0
 40
1.0
 40
1.0
 10
4.159148984077218
 20
7.365044077679676
 30
0.0
 10
4.159148984077218
 20
7.373667212920964
 30
0.0
 10
4.155698144299018
 20
7.375399570167461
 30
0.0
 10
4.155698144299018
 20
7.375399570167461
 30
0.0
  0
POLYLINE
  5
26F
330
262
100
AcDbEntity
  8
BA
 62
   250
420
  2301728
370
    13
100
AcDb2dPolyline
 66
     1
 10
0.0
 20
0.0
 30
0.0
  0
VERTEX
  5
270
330
26F
100
AcDbEntity
  8
BA
 62
   250
420
  2301728
370
    13
100
AcDbVertex
100
AcDb2dVertex
 10
4.161655352198724
 20
7.293594251772194
 30
0.0
  0
VERTEX
  5
271
330
26F
100
AcDbEntity
  8
BA
 62
   250
420
  2301728
370
    13
100
AcDbVertex
100
AcDb2dVertex
 10
4.161655352198724
 20
7.35296514740489
 30
0.0
  0
SEQEND
  5
272
330
26F
100
AcDbEntity
  8
BA
 62
   250
420
  2301728
370
    13
  0
SPLINE
  5
273
330
262
100
AcDbEntity
  8
BA
 62
   250
420
  2301728
370
    18
100
AcDbSpline
210
0.0
220
0.0
230
1.0
 70
     8
 71
     3
 72
    20
 73
    16
 74
     0
 42
0.0000000001
 43
0.0000000001
 12
1.0
 22
0.0
 32
0.0
 13
1.0
 23
0.0
 33
0.0
 40
0.0
 40
0.0
 40
0.0
 40
0.0
 40
1.0
 40
1.0
 40
1.0
 40
2.0
 40
2.0
 40
2.0
 40
3.0
 40
3.0
 40
3.0
 40
4.0
 40
4.0
 40
4.0
 40
5.0
 40
5.0
 40
5.0
 40
5.0
 10
4.018281977978833
 20
7.453825759441125
 30
0.0
 10
4.018281977978833
 20
7.453825759441125
 30
0.0
 10
4.177857054867925
 20
7.395056076819085
 30
0.0
 10
4.177857054867925
 20
7.395056076819085
 30
0.0
 10
4.193167802637453
 20
7.390695452171157
 30
0.0
 10
4.195403613820582
 20
7.369814997464939
 30
0.0
 10
4.195403613820582
 20
7.369814997464939
 30
0.0
 10
4.195403613820582
 20
7.369814997464939
 30
0.0
 10
4.195403613820582
 20
7.31050287322978
 30
0.0
 10
4.195403613820582
 20
7.31050287322978
 30
0.0
 10
4.195403613820582
 20
7.31050287322978
 30
0.0
 10
4.196816852626928
 20
7.293265522206714
 30
0.0
 10
4.180726147676056
 20
7.28805853995665
 30
0.0
 10
4.176593464771082
 20
7.286723594183741
 30
0.0
 10
4.172901799586182
 20
7.288382613652074
 30
0.0
 10
4.170070366718189
 20
7.289762156722493
 30
0.0
  0
POLYLINE
  5
274
330
262
100
AcDbEntity
  8
BA
 62
   250
420
  2301728
370
    18
100
AcDb2dPolyline
 66
     1
 10
0.0
 20
0.0
 30
0.0
  0
VERTEX
  5
275
330
274
100
AcDbEntity
  8
BA
 62
   250
420
  2301728
370
    18
100
AcDbVertex
100
AcDb2dVertex
 10
4.014686444746404
 20
7.428769651653965
 30
0.0
  0
VERTEX
  5
383
330
274
100
AcDbEntity
  8
0
100
AcDbVertex
100
AcDb2dVertex
 10
4.014686444746404
 20
7.428769651653965
 30
0.0
  0
SEQEND
  5
276
330
274
100
AcDbEntity
  8
BA
 62
   250
420
  2301728
370
    18
  0
ENDBLK
  5
265
330
262
100
AcDbEntity
  8
0
100
AcDbBlockEnd
  0
BLOCK
  5
279
330
277
100
AcDbEntity
  8
0
100
AcDbBlockBegin
  2
block 10
 70
     0
 10
0.0
 20
0.0
 30
0.0
  3
block 10
  1

  0
POLYLINE
  5
27B
330
277
100
AcDbEntity
  8
BA
 62
   250
420
  2301728
370
    13
100
AcDb2dPolyline
 66
     1
 10
0.0
 20
0.0
 30
0.0
  0
VERTEX
  5
27C
330
27B
100
AcDbEntity
  8
BA
 62
   250
420
  2301728
370
    13
100
AcDbVertex
100
AcDb2dVertex
 10
4.020086681952446
 20
7.387201997197533
 30
0.0
  0
VERTEX
  5
27D
330
27B
100
AcDbEntity
  8
BA
 62
   250
420
  2301728
370
    13
100
AcDbVertex
100
AcDb2dVertex
 10
3.921514761785854
 20
7.423151383215528
 30
0.0
  0
SEQEND
  5
27E
330
27B
100
AcDbEntity
  8
BA
 62
   250
420
  2301728
370
    13
  0
POLYLINE
  5
27F
330
277
100
AcDbEntity
  8
BA
 62
   250
420
  2301728
370
    13
100
AcDb2dPolyline
 66
     1
 10
0.0
 20
0.0
 30
0.0
  0
VERTEX
  5
280
330
27F
100
AcDbEntity
  8
BA
 62
   250
420
  2301728
370
    13
100
AcDbVertex
100
AcDb2dVertex
 10
4.087848806879252
 20
7.361893526371532
 30
0.0
  0
VERTEX
  5
281
330
27F
100
AcDbEntity
  8
BA
 62
   250
420
  2301728
370
    13
100
AcDbVertex
100
AcDb2dVertex
 10
4.035799796450862
 20
7.381491686924922
 30
0.0
  0
SEQEND
  5
282
330
27F
100
AcDbEntity
  8
BA
 62
   250
420
  2301728
370
    13
  0
SPLINE
  5
283
330
277
100
AcDbEntity
  8
BA
 62
   250
420
  2301728
370
    13
100
AcDbSpline
210
0.0
220
0.0
230
1.0
 70
     8
 71
     3
 72
     8
 73
     4
 74
     0
 42
0.0000000001
 43
0.0000000001
 12
1.0
 22
0.0
 32
0.0
 13
1.0
 23
0.0
 33
0.0
 40
0.0
 40
0.0
 40
0.0
 40
0.0
 40
1.0
 40
1.0
 40
1.0
 40
1.0
 10
4.102313197046669
 20
7.347947455906604
 30
0.0
 10
4.102313197046669
 20
7.356570591147892
 30
0.0
 10
4.097092340081821
 20
7.358138433919041
 30
0.0
 10
4.097092340081821
 20
7.358138433919041
 30
0.0
  0
POLYLINE
  5
284
330
277
100
AcDbEntity
  8
BA
 62
   250
420
  2301728
370
    13
100
AcDb2dPolyline
 66
     1
 10
0.0
 20
0.0
 30
0.0
  0
VERTEX
  5
285
330
284
100
AcDbEntity
  8
BA
 62
   250
420
  2301728
370
    13
100
AcDbVertex
100
AcDb2dVertex
 10
4.103885995073091
 20
7.281883992490394
 30
0.0
  0
VERTEX
  5
286
330
284
100
AcDbEntity
  8
BA
 62
   250
420
  2301728
370
    13
100
AcDbVertex
100
AcDb2dVertex
 10
4.103885995073091
 20
7.334866573013843
 30
0.0
  0
SEQEND
  5
287
330
284
100
AcDbEntity
  8
BA
 62
   250
420
  2301728
370
    13
  0
SPLINE
  5
288
330
277
100
AcDbEntity
  8
BA
 62
   250
420
  2301728
370
    18
100
AcDbSpline
210
0.0
220
0.0
230
1.0
 70
     8
 71
     3
 72
    20
 73
    16
 74
     0
 42
0.0000000001
 43
0.0000000001
 12
1.0
 22
0.0
 32
0.0
 13
1.0
 23
0.0
 33
0.0
 40
0.0
 40
0.0
 40
0.0
 40
0.0
 40
1.0
 40
1.0
 40
1.0
 40
2.0
 40
2.0
 40
2.0
 40
3.0
 40
3.0
 40
3.0
 40
4.0
 40
4.0
 40
4.0
 40
5.0
 40
5.0
 40
5.0
 40
5.0
 10
3.943924408272033
 20
7.441298478790208
 30
0.0
 10
3.943924408272033
 20
7.441298478790208
 30
0.0
 10
4.119250259599665
 20
7.377799895825951
 30
0.0
 10
4.119250259599665
 20
7.377799895825951
 30
0.0
 10
4.134547132654411
 20
7.3734303517185
 30
0.0
 10
4.136781952786476
 20
7.352558816471792
 30
0.0
 10
4.136781952786476
 20
7.352558816471792
 30
0.0
 10
4.136781952786476
 20
7.352558816471792
 30
0.0
 10
4.136781952786476
 20
7.297501295120506
 30
0.0
 10
4.136781952786476
 20
7.297501295120506
 30
0.0
 10
4.136781952786476
 20
7.297501295120506
 30
0.0
 10
4.139114961404579
 20
7.282466059544642
 30
0.0
 10
4.122110432948299
 20
7.275057952898439
 30
0.0
 10
4.118137309263387
 20
7.273325714974034
 30
0.0
 10
4.114295004317922
 20
7.275382026593863
 30
0.0
 10
4.111464636233929
 20
7.276751659153736
 30
0.0
  0
ENDBLK
  5
27A
330
277
100
AcDbEntity
  8
0
100
AcDbBlockEnd
  0
BLOCK
  5
28B
330
289
100
AcDbEntity
  8
0
100
AcDbBlockBegin
  2
block 11
 70
     0
 10
0.0
 20
0.0
 30
0.0
  3
block 11
  1

  0
POLYLINE
  5
28D
330
289
100
AcDbEntity
  8
BA
 62
   250
420
  2301728
370
    13
100
AcDb2dPolyline
 66
     1
 10
0.0
 20
0.0
 30
0.0
  0
VERTEX
  5
28E
330
28D
100
AcDbEntity
  8
BA
 62
   250
420
  2301728
370
    13
100
AcDbVertex
100
AcDb2dVertex
 10
3.943924408272033
 20
7.37574742908824
 30
0.0
  0
VERTEX
  5
28F
330
28D
100
AcDbEntity
  8
BA
 62
   250
420
  2301728
370
    13
100
AcDbVertex
100
AcDb2dVertex
 10
3.894860511886425
 20
7.39421863867647
 30
0.0
  0
VERTEX
  5
290
330
28D
100
AcDbEntity
  8
BA
 62
   250
420
  2301728
370
    13
100
AcDbVertex
100
AcDb2dVertex
 10
3.881567475806555
 20
7.39922741071526
 30
0.0
  0
SEQEND
  5
291
330
28D
100
AcDbEntity
  8
BA
 62
   250
420
  2301728
370
    13
  0
POLYLINE
  5
292
330
289
100
AcDbEntity
  8
BA
 62
   250
420
  2301728
370
    13
100
AcDb2dPolyline
 66
     1
 10
0.0
 20
0.0
 30
0.0
  0
VERTEX
  5
293
330
292
100
AcDbEntity
  8
BA
 62
   250
420
  2301728
370
    13
100
AcDbVertex
100
AcDb2dVertex
 10
4.013341588462936
 20
7.349606475374925
 30
0.0
  0
VERTEX
  5
294
330
292
100
AcDbEntity
  8
BA
 62
   250
420
  2301728
370
    13
100
AcDbVertex
100
AcDb2dVertex
 10
3.961291586983495
 20
7.369210456320565
 30
0.0
  0
SEQEND
  5
295
330
292
100
AcDbEntity
  8
BA
 62
   250
420
  2301728
370
    13
  0
SPLINE
  5
296
330
289
100
AcDbEntity
  8
BA
 62
   250
420
  2301728
370
    13
100
AcDbSpline
210
0.0
220
0.0
230
1.0
 70
     8
 71
     3
 72
     8
 73
     4
 74
     0
 42
0.0000000001
 43
0.0000000001
 12
1.0
 22
0.0
 32
0.0
 13
1.0
 23
0.0
 33
0.0
 40
0.0
 40
0.0
 40
0.0
 40
0.0
 40
1.0
 40
1.0
 40
1.0
 40
1.0
 10
4.026030015137368
 20
7.335505800945194
 30
0.0
 10
4.026030015137368
 20
7.344129061156713
 30
0.0
 10
4.022579175359169
 20
7.345856338177706
 30
0.0
 10
4.022579175359169
 20
7.345856338177706
 30
0.0
  0
POLYLINE
  5
297
330
289
100
AcDbEntity
  8
BA
 62
   250
420
  2301728
370
    13
100
AcDb2dPolyline
 66
     1
 10
0.0
 20
0.0
 30
0.0
  0
VERTEX
  5
298
330
297
100
AcDbEntity
  8
BA
 62
   250
420
  2301728
370
    13
100
AcDbVertex
100
AcDb2dVertex
 10
4.026030015137368
 20
7.27838795664421
 30
0.0
  0
VERTEX
  5
299
330
297
100
AcDbEntity
  8
BA
 62
   250
420
  2301728
370
    13
100
AcDbVertex
100
AcDb2dVertex
 10
4.026030015137368
 20
7.323422906466185
 30
0.0
  0
SEQEND
  5
29A
330
297
100
AcDbEntity
  8
BA
 62
   250
420
  2301728
370
    13
  0
SPLINE
  5
29B
330
289
100
AcDbEntity
  8
BA
 62
   250
420
  2301728
370
    18
100
AcDbSpline
210
0.0
220
0.0
230
1.0
 70
     8
 71
     3
 72
    26
 73
    22
 74
     0
 42
0.0000000001
 43
0.0000000001
 12
1.0
 22
0.0
 32
0.0
 13
1.0
 23
0.0
 33
0.0
 40
0.0
 40
0.0
 40
0.0
 40
0.0
 40
1.0
 40
1.0
 40
1.0
 40
2.0
 40
2.0
 40
2.0
 40
3.0
 40
3.0
 40
3.0
 40
4.0
 40
4.0
 40
4.0
 40
5.0
 40
5.0
 40
5.0
 40
6.0
 40
6.0
 40
6.0
 40
7.0
 40
7.0
 40
7.0
 40
7.0
 10
3.881567475806555
 20
7.39922741071526
 30
0.0
 10
3.881567475806555
 20
7.39922741071526
 30
0.0
 10
3.876152372834667
 20
7.402687169952969
 30
0.0
 10
3.880454525470276
 20
7.409665160440731
 30
0.0
 10
3.880454525470276
 20
7.409665160440731
 30
0.0
 10
3.889871492607704
 20
7.422943262493694
 30
0.0
 10
3.933863257947981
 20
7.406549295919565
 30
0.0
 10
3.933863257947981
 20
7.406549295919565
 30
0.0
 10
4.044737166924278
 20
7.36550392536982
 30
0.0
 10
4.044737166924278
 20
7.36550392536982
 30
0.0
 10
4.06003899562087
 20
7.361148255977165
 30
0.0
 10
4.062279689625446
 20
7.340276720730458
 30
0.0
 10
4.062279689625446
 20
7.340276720730458
 30
0.0
 10
4.062279689625446
 20
7.340276720730458
 30
0.0
 10
4.062279689625446
 20
7.285283689894286
 30
0.0
 10
4.062279689625446
 20
7.285283689894286
 30
0.0
 10
4.062279689625446
 20
7.285283689894286
 30
0.0
 10
4.060503726132475
 20
7.267490359228595
 30
0.0
 10
4.047597268225634
 20
7.262850258182766
 30
0.0
 10
4.043518174094187
 20
7.261383502619373
 30
0.0
 10
4.03978191151734
 20
7.263169376622904
 30
0.0
 10
4.036951397778353
 20
7.264539132844144
 30
0.0
  0
ENDBLK
  5
28C
330
289
100
AcDbEntity
  8
0
100
AcDbBlockEnd
  0
BLOCK
  5
2A0
330
29E
100
AcDbEntity
  8
0
100
AcDbBlockBegin
  2
block 12
 70
     0
 10
0.0
 20
0.0
 30
0.0
  3
block 12
  1

  0
SPLINE
  5
2A2
330
29E
100
AcDbEntity
  8
BA
 62
   250
420
  2301728
370
    13
100
AcDbSpline
210
0.0
220
0.0
230
1.0
 70
    11
 71
     3
 72
    17
 73
    13
 74
     0
 42
0.0000000001
 43
0.0000000001
 12
1.0
 22
0.0
 32
0.0
 13
1.0
 23
0.0
 33
0.0
 40
0.0
 40
0.0
 40
0.0
 40
0.0
 40
1.0
 40
1.0
 40
1.0
 40
2.0
 40
2.0
 40
2.0
 40
3.0
 40
3.0
 40
3.0
 40
4.0
 40
4.0
 40
4.0
 40
4.0
 10
4.820472490367592
 20
7.438346178011468
 30
0.0
 10
4.81891347541197
 20
7.428663609190935
 30
0.0
 10
4.811626276994629
 20
7.421782741706705
 30
0.0
 10
4.804203304582567
 20
7.422972994025384
 30
0.0
 10
4.796760511149387
 20
7.424158291088777
 30
0.0
 10
4.791998510823633
 20
7.43297071708183
 30
0.0
 10
4.793557434135285
 20
7.442658241157637
 30
0.0
 10
4.795115366395849
 20
7.452336845773945
 30
0.0
 10
4.802393645353681
 20
7.459227623768735
 30
0.0
 10
4.80982652827629
 20
7.458037371450068
 30
0.0
 10
4.817249500688351
 20
7.45684612808034
 30
0.0
 10
4.822010509963067
 20
7.44802973788305
 30
0.0
 10
4.820472490367592
 20
7.438346178011468
 30
0.0
  0
SPLINE
  5
2A3
330
29E
100
AcDbEntity
  8
BA
 62
   250
420
  2301728
370
    18
100
AcDbSpline
210
0.0
220
0.0
230
1.0
 70
    11
 71
     3
 72
    23
 73
    19
 74
     0
 42
0.0000000001
 43
0.0000000001
 12
1.0
 22
0.0
 32
0.0
 13
1.0
 23
0.0
 33
0.0
 40
0.0
 40
0.0
 40
0.0
 40
0.0
 40
1.0
 40
1.0
 40
1.0
 40
2.0
 40
2.0
 40
2.0
 40
3.0
 40
3.0
 40
3.0
 40
4.0
 40
4.0
 40
4.0
 40
5.0
 40
5.0
 40
5.0
 40
6.0
 40
6.0
 40
6.0
 40
6.0
 10
4.80982652827629
 20
7.458037371450068
 30
0.0
 10
4.809264602327352
 20
7.458124583943029
 30
0.0
 10
4.805683934860755
 20
7.459402048754655
 30
0.0
 10
4.804251866084339
 20
7.459624044191287
 30
0.0
 10
4.796827902621216
 20
7.460814296509953
 30
0.0
 10
4.789540704203899
 20
7.453928473770449
 30
0.0
 10
4.787991691402819
 20
7.444245904949916
 30
0.0
 10
4.786443669652802
 20
7.434562472333103
 30
0.0
 10
4.791204678927493
 20
7.425750910136331
 30
0.0
 10
4.798637561850127
 20
7.424564622021876
 30
0.0
 10
4.799199487799064
 20
7.424477409528915
 30
0.0
 10
4.80278015526566
 20
7.423195116429611
 30
0.0
 10
4.804203304582567
 20
7.422972994025384
 30
0.0
 10
4.811626276994629
 20
7.421782741706705
 30
0.0
 10
4.81891347541197
 20
7.428663609190935
 30
0.0
 10
4.820472490367592
 20
7.438346178011468
 30
0.0
 10
4.822010509963067
 20
7.44802973788305
 30
0.0
 10
4.817249500688351
 20
7.45684612808034
 30
0.0
 10
4.80982652827629
 20
7.458037371450068
 30
0.0
  0
ENDBLK
  5
2A1
330
29E
100
AcDbEntity
  8
0
100
AcDbBlockEnd
  0
BLOCK
  5
2CB
330
2C9
100
AcDbEntity
  8
0
100
AcDbBlockBegin
  2
block 13
 70
     0
 10
0.0
 20
0.0
 30
0.0
  3
block 13
  1

  0
SPLINE
  5
2CD
330
2C9
100
AcDbEntity
  8
BA
370
     0
100
AcDbSpline
210
0.0
220
0.0
230
1.0
 70
     8
 71
     3
 72
    23
 73
    19
 74
     0
 42
0.0000000001
 43
0.0000000001
 12
1.0
 22
0.0
 32
0.0
 13
1.0
 23
0.0
 33
0.0
 40
0.0
 40
0.0
 40
0.0
 40
0.0
 40
1.0
 40
1.0
 40
1.0
 40
2.0
 40
2.0
 40
2.0
 40
3.0
 40
3.0
 40
3.0
 40
4.0
 40
4.0
 40
4.0
 40
5.0
 40
5.0
 40
5.0
 40
6.0
 40
6.0
 40
6.0
 40
6.0
 10
4.160971593263513
 20
6.877340310583084
 30
0.0
 10
4.160971593263513
 20
6.877340310583084
 30
0.0
 10
4.160290225714284
 20
6.874173359486058
 30
0.0
 10
4.159199824071783
 20
6.873082344772039
 30
0.0
 10
4.157178724755669
 20
6.870935920717632
 30
0.0
 10
4.155362771223155
 20
6.867268628481699
 30
0.0
 10
4.152727743563775
 20
6.864724546233042
 30
0.0
 10
4.151592906143908
 20
6.866052399033757
 30
0.0
 10
4.150434813858864
 20
6.867245373616533
 30
0.0
 10
4.149639497470338
 20
6.868336388183125
 30
0.0
 10
4.14795817071917
 20
6.870731639355262
 30
0.0
 10
4.147051230977897
 20
6.876726382142831
 30
0.0
 10
4.147051230977897
 20
6.875035753445596
 30
0.0
 10
4.147051230977897
 20
6.872547482873339
 30
0.0
 10
4.147051230977897
 20
6.890239784288092
 30
0.0
 10
4.146460557402785
 20
6.893009800742624
 30
0.0
 10
4.146460557402785
 20
6.893009800742624
 30
0.0
 10
4.160971593263513
 20
6.895848857765018
 30
0.0
 10
4.160971593263513
 20
6.895848857765018
 30
0.0
  0
SPLINE
  5
2CE
330
2C9
100
AcDbEntity
  8
BA
370
     0
100
AcDbSpline
210
0.0
220
0.0
230
1.0
 70
    11
 71
     3
 72
    17
 73
    13
 74
     0
 42
0.0000000001
 43
0.0000000001
 12
1.0
 22
0.0
 32
0.0
 13
1.0
 23
0.0
 33
0.0
 40
0.0
 40
0.0
 40
0.0
 40
0.0
 40
1.0
 40
1.0
 40
1.0
 40
2.0
 40
2.0
 40
2.0
 40
3.0
 40
3.0
 40
3.0
 40
4.0
 40
4.0
 40
4.0
 40
4.0
 10
4.154906724429389
 20
6.944618960981416
 30
0.0
 10
4.154906724429389
 20
6.944618960981416
 30
0.0
 10
4.148139558667455
 20
6.934842615667586
 30
0.0
 10
4.148139558667455
 20
6.934842615667586
 30
0.0
 10
4.148911620190802
 20
6.93405892671165
 30
0.0
 10
4.148139558667455
 20
6.970053170968501
 30
0.0
 10
4.148139558667455
 20
6.969938858169106
 30
0.0
 10
4.151411518195674
 20
6.963683299440706
 30
0.0
 10
4.153818396739831
 20
6.956939388543901
 30
0.0
 10
4.154906724429389
 20
6.954588685245526
 30
0.0
 10
4.157064775916372
 20
6.949795493966335
 30
0.0
 10
4.156588051180557
 20
6.946333207904685
 30
0.0
 10
4.154906724429389
 20
6.944618960981416
 30
0.0
  0
HATCH
  5
2CF
330
2C9
100
AcDbEntity
  8
BA
 62
   254
420
 13358815
100
AcDbHatch
 10
0.0
 20
0.0
 30
0.0
210
0.0
220
0.0
230
1.0
  2
SOLID
 70
     1
 71
     0
 91
        1
 92
        1
 93
        2
 72
     4
 94
        3
 73
     0
 74
     0
 95
       17
 96
       13
 40
0.0
 40
0.0
 40
0.0
 40
0.0
 40
0.0138888888888889
 40
0.0138888888888889
 40
0.0138888888888889
 40
0.0277777777777778
 40
0.0277777777777778
 40
0.0277777777777778
 40
0.0416666666666667
 40
0.0416666666666667
 40
0.0416666666666667
 40
0.0555555555555556
 40
0.0555555555555556
 40
0.0555555555555556
 40
0.0555555555555556
 10
4.154906724429389
 20
6.944618960981416
 10
4.154906724429389
 20
6.944618960981416
 10
4.148139558667455
 20
6.934842615667586
 10
4.148139558667455
 20
6.934842615667586
 10
4.148911620190802
 20
6.93405892671165
 10
4.148139558667455
 20
6.970053170968501
 10
4.148139558667455
 20
6.969938858169106
 10
4.151411518195674
 20
6.963683299440706
 10
4.153818396739831
 20
6.956939388543901
 10
4.154906724429389
 20
6.954588685245526
 10
4.157064775916372
 20
6.949795493966335
 10
4.156588051180557
 20
6.946333207904685
 10
4.154906724429389
 20
6.944618960981416
 97
        0
 72
     1
 10
4.154906724429389
 20
6.944618960981416
 11
4.154906724429389
 21
6.944618960981416
 97
        0
 75
     2
 76
     1
 98
        0
  0
SPLINE
  5
2D0
330
2C9
100
AcDbEntity
  8
BA
 62
   250
420
  2301728
370
    15
100
AcDbSpline
210
0.0
220
0.0
230
1.0
 70
    11
 71
     3
 72
    17
 73
    13
 74
     0
 42
0.0000000001
 43
0.0000000001
 12
1.0
 22
0.0
 32
0.0
 13
1.0
 23
0.0
 33
0.0
 40
0.0
 40
0.0
 40
0.0
 40
0.0
 40
1.0
 40
1.0
 40
1.0
 40
2.0
 40
2.0
 40
2.0
 40
3.0
 40
3.0
 40
3.0
 40
4.0
 40
4.0
 40
4.0
 40
4.0
 10
4.154271866610517
 20
6.943756205483939
 30
0.0
 10
4.154271866610517
 20
6.943756205483939
 30
0.0
 10
4.146460557402785
 20
6.933977534683587
 30
0.0
 10
4.146460557402785
 20
6.933977534683587
 30
0.0
 10
4.146890772408293
 20
6.934421702608169
 30
0.0
 10
4.146460557402785
 20
6.959288129925211
 30
0.0
 10
4.146460557402785
 20
6.969076466607033
 30
0.0
 10
4.149730191444506
 20
6.962820907720596
 30
0.0
 10
4.153181213434411
 20
6.956074307559915
 30
0.0
 10
4.154271866610517
 20
6.953725566178617
 30
0.0
 10
4.156429918097451
 20
6.94893273846886
 30
0.0
 10
4.155974122740316
 20
6.945470089046327
 30
0.0
 10
4.154271866610517
 20
6.943756205483939
 30
0.0
  0
SPLINE
  5
2D1
330
2C9
100
AcDbEntity
  8
BA
 62
   250
420
  2301728
370
    13
100
AcDbSpline
210
0.0
220
0.0
230
1.0
 70
     8
 71
     3
 72
    14
 73
    10
 74
     0
 42
0.0000000001
 43
0.0000000001
 12
1.0
 22
0.0
 32
0.0
 13
1.0
 23
0.0
 33
0.0
 40
0.0
 40
0.0
 40
0.0
 40
0.0
 40
1.0
 40
1.0
 40
1.0
 40
2.0
 40
2.0
 40
2.0
 40
3.0
 40
3.0
 40
3.0
 40
3.0
 10
4.147118670086885
 20
6.986745149221242
 30
0.0
 10
4.147118670086885
 20
6.986745149221242
 30
0.0
 10
4.164106600744743
 20
6.957562618930233
 30
0.0
 10
4.165399319590228
 20
6.95410033306478
 30
0.0
 10
4.166671360714519
 20
6.950614065220015
 30
0.0
 10
4.167534116212033
 20
6.946265405434852
 30
0.0
 10
4.165808605217054
 20
6.943232971017803
 30
0.0
 10
4.164106600744743
 20
6.940188909168177
 30
0.0
 10
4.147118670086885
 20
6.918354916268186
 30
0.0
 10
4.147118670086885
 20
6.918354916268186
 30
0.0
  0
SPLINE
  5
2D2
330
2C9
100
AcDbEntity
  8
BA
 62
   250
420
  2301728
370
    15
100
AcDbSpline
210
0.0
220
0.0
230
1.0
 70
     8
 71
     3
 72
    32
 73
    28
 74
     0
 42
0.0000000001
 43
0.0000000001
 12
1.0
 22
0.0
 32
0.0
 13
1.0
 23
0.0
 33
0.0
 40
0.0
 40
0.0
 40
0.0
 40
0.0
 40
1.0
 40
1.0
 40
1.0
 40
2.0
 40
2.0
 40
2.0
 40
3.0
 40
3.0
 40
3.0
 40
4.0
 40
4.0
 40
4.0
 40
5.0
 40
5.0
 40
5.0
 40
6.0
 40
6.0
 40
6.0
 40
7.0
 40
7.0
 40
7.0
 40
8.0
 40
8.0
 40
8.0
 40
9.0
 40
9.0
 40
9.0
 40
9.0
 10
4.173029240849675
 20
6.990889530679434
 30
0.0
 10
4.173029240849675
 20
6.990889530679434
 30
0.0
 10
4.190063429580353
 20
6.954144153751511
 30
0.0
 10
4.191356400083325
 20
6.950681867799706
 30
0.0
 10
4.192674950937973
 20
6.947195600041304
 30
0.0
 10
4.193491196705129
 20
6.94284694025613
 30
0.0
 10
4.19178894057533
 20
6.939849388136824
 30
0.0
 10
4.190063429580353
 20
6.936793698854621
 30
0.0
 10
4.163559859755954
 20
6.89782552130373
 30
0.0
 10
4.163559859755954
 20
6.89782552130373
 30
0.0
 10
4.163559859755954
 20
6.89782552130373
 30
0.0
 10
4.147095415221707
 20
6.89484889856308
 30
0.0
 10
4.147095415221707
 20
6.89484889856308
 30
0.0
 10
4.147095415221707
 20
6.89484889856308
 30
0.0
 10
4.147095415221707
 20
6.934842615667586
 30
0.0
 10
4.147095415221707
 20
6.934842615667586
 30
0.0
 10
4.147095415221707
 20
6.934842615667586
 30
0.0
 10
4.154885795050758
 20
6.944584078683684
 30
0.0
 10
4.154885795050758
 20
6.944584078683684
 30
0.0
 10
4.156588051180557
 20
6.946333207904685
 30
0.0
 10
4.157064775916372
 20
6.949795493966335
 30
0.0
 10
4.154885795050758
 20
6.954588685245526
 30
0.0
 10
4.153839326118511
 20
6.956916133678747
 30
0.0
 10
4.150365049263377
 20
6.961911278715408
 30
0.0
 10
4.147095415221707
 20
6.968169526842845
 30
0.0
 10
4.147095415221707
 20
6.968169526842845
 30
0.0
 10
4.147095415221707
 20
6.986745149221242
 30
0.0
 10
4.147095415221707
 20
6.986745149221242
 30
0.0
  0
SPLINE
  5
2D3
330
2C9
100
AcDbEntity
  8
BA
 62
   250
420
  2301728
370
    13
100
AcDbSpline
210
0.0
220
0.0
230
1.0
 70
    11
 71
     3
 72
    32
 73
    28
 74
     0
 42
0.0000000001
 43
0.0000000001
 12
1.0
 22
0.0
 32
0.0
 13
1.0
 23
0.0
 33
0.0
 40
0.0
 40
0.0
 40
0.0
 40
0.0
 40
1.0
 40
1.0
 40
1.0
 40
2.0
 40
2.0
 40
2.0
 40
3.0
 40
3.0
 40
3.0
 40
4.0
 40
4.0
 40
4.0
 40
5.0
 40
5.0
 40
5.0
 40
6.0
 40
6.0
 40
6.0
 40
7.0
 40
7.0
 40
7.0
 40
8.0
 40
8.0
 40
8.0
 40
9.0
 40
9.0
 40
9.0
 40
9.0
 10
4.175324496041084
 20
6.913143500985521
 30
0.0
 10
4.175324496041084
 20
6.913143500985521
 30
0.0
 10
4.175324496041084
 20
6.87505900831075
 30
0.0
 10
4.175324496041084
 20
6.87505900831075
 30
0.0
 10
4.175324496041084
 20
6.87505900831075
 30
0.0
 10
4.174619873626676
 20
6.871845185945453
 30
0.0
 10
4.173552475315811
 20
6.870754894220984
 30
0.0
 10
4.170213076678642
 20
6.86735968382167
 30
0.0
 10
4.163764502569367
 20
6.86023868274343
 30
0.0
 10
4.16201573670921
 20
6.858524799181029
 30
0.0
 10
4.160925083533154
 20
6.857457400870127
 30
0.0
 10
4.158178683957607
 20
6.856594645372638
 30
0.0
 10
4.156769439128841
 20
6.858548054046196
 30
0.0
 10
4.155567162599987
 20
6.860285192473738
 30
0.0
 10
4.151025487433976
 20
6.865008255588034
 30
0.0
 10
4.148867435946991
 20
6.868005807707315
 30
0.0
 10
4.147209364061003
 20
6.870403384305455
 30
0.0
 10
4.147118670086885
 20
6.87231028324868
 30
0.0
 10
4.147118670086885
 20
6.874012539378504
 30
0.0
 10
4.147118670086885
 20
6.874012539378504
 30
0.0
 10
4.147118670086885
 20
6.893963250238332
 30
0.0
 10
4.147118670086885
 20
6.893963250238332
 30
0.0
 10
4.147118670086885
 20
6.893963250238332
 30
0.0
 10
4.163559859755954
 20
6.89693987305418
 30
0.0
 10
4.163559859755954
 20
6.89693987305418
 30
0.0
 10
4.163559859755954
 20
6.89693987305418
 30
0.0
 10
4.169124748989083
 20
6.903195431940617
 30
0.0
 10
4.175324496041084
 20
6.913143500985521
 30
0.0
  0
SPLINE
  5
2D4
330
2C9
100
AcDbEntity
  8
BA
 62
   250
420
  2301728
370
    15
100
AcDbSpline
210
0.0
220
0.0
230
1.0
 70
    11
 71
     3
 72
    26
 73
    22
 74
     0
 42
0.0000000001
 43
0.0000000001
 12
1.0
 22
0.0
 32
0.0
 13
1.0
 23
0.0
 33
0.0
 40
0.0
 40
0.0
 40
0.0
 40
0.0
 40
1.0
 40
1.0
 40
1.0
 40
2.0
 40
2.0
 40
2.0
 40
3.0
 40
3.0
 40
3.0
 40
4.0
 40
4.0
 40
4.0
 40
5.0
 40
5.0
 40
5.0
 40
6.0
 40
6.0
 40
6.0
 40
7.0
 40
7.0
 40
7.0
 40
7.0
 10
4.160971593263513
 20
6.877340310583084
 30
0.0
 10
4.160971593263513
 20
6.877340310583084
 30
0.0
 10
4.160290225714284
 20
6.874173359486058
 30
0.0
 10
4.159199824071783
 20
6.873082344772039
 30
0.0
 10
4.157178724755669
 20
6.870935920717632
 30
0.0
 10
4.155362771223155
 20
6.86906157858564
 30
0.0
 10
4.152727743563775
 20
6.866496566958353
 30
0.0
 10
4.151592906143908
 20
6.867848036002378
 30
0.0
 10
4.150434813858864
 20
6.867245373616533
 30
0.0
 10
4.149639497470338
 20
6.868336388183125
 30
0.0
 10
4.14795817071917
 20
6.870731639355262
 30
0.0
 10
4.147051230977897
 20
6.876726382142831
 30
0.0
 10
4.147051230977897
 20
6.875035753445596
 30
0.0
 10
4.147051230977897
 20
6.872547482873339
 30
0.0
 10
4.147051230977897
 20
6.890239784288092
 30
0.0
 10
4.147346567765427
 20
6.894872153428233
 30
0.0
 10
4.147346567765427
 20
6.894872153428233
 30
0.0
 10
4.161199742526125
 20
6.897893322549887
 30
0.0
 10
4.161199742526125
 20
6.897893322549887
 30
0.0
 10
4.161199742526125
 20
6.897893322549887
 30
0.0
 10
4.160971593263513
 20
6.877340310583084
 30
0.0
 10
4.160971593263513
 20
6.877340310583084
 30
0.0
  0
SPLINE
  5
2D5
330
2C9
100
AcDbEntity
  8
BA
 62
   250
420
  2301728
370
    15
100
AcDbSpline
210
0.0
220
0.0
230
1.0
 70
    11
 71
     3
 72
    17
 73
    13
 74
     0
 42
0.0000000001
 43
0.0000000001
 12
1.0
 22
0.0
 32
0.0
 13
1.0
 23
0.0
 33
0.0
 40
0.0
 40
0.0
 40
0.0
 40
0.0
 40
1.0
 40
1.0
 40
1.0
 40
2.0
 40
2.0
 40
2.0
 40
3.0
 40
3.0
 40
3.0
 40
4.0
 40
4.0
 40
4.0
 40
4.0
 10
4.154906724429389
 20
6.944618960981416
 30
0.0
 10
4.154906724429389
 20
6.944618960981416
 30
0.0
 10
4.148139558667455
 20
6.934842615667586
 30
0.0
 10
4.148139558667455
 20
6.934842615667586
 30
0.0
 10
4.148911620190802
 20
6.93405892671165
 30
0.0
 10
4.148139558667455
 20
6.970053170968501
 30
0.0
 10
4.148139558667455
 20
6.969938858169106
 30
0.0
 10
4.151411518195674
 20
6.963683299440706
 30
0.0
 10
4.153818396739831
 20
6.956939388543901
 30
0.0
 10
4.154906724429389
 20
6.954588685245526
 30
0.0
 10
4.157064775916372
 20
6.949795493966335
 30
0.0
 10
4.156588051180557
 20
6.946333207904685
 30
0.0
 10
4.154906724429389
 20
6.944618960981416
 30
0.0
  0
ENDBLK
  5
2CC
330
2C9
100
AcDbEntity
  8
0
100
AcDbBlockEnd
  0
BLOCK
  5
2D8
330
2D6
100
AcDbEntity
  8
0
100
AcDbBlockBegin
  2
block 14
 70
     0
 10
0.0
 20
0.0
 30
0.0
  3
block 14
  1

  0
SPLINE
  5
2DA
330
2D6
100
AcDbEntity
  8
BA
 62
   250
420
  2301728
370
     9
100
AcDbSpline
210
0.0
220
0.0
230
1.0
 70
    11
 71
     3
 72
    11
 73
     7
 74
     0
 42
0.0000000001
 43
0.0000000001
 12
1.0
 22
0.0
 32
0.0
 13
1.0
 23
0.0
 33
0.0
 40
0.0
 40
0.0
 40
0.0
 40
0.0
 40
1.0
 40
1.0
 40
1.0
 40
2.0
 40
2.0
 40
2.0
 40
2.0
 10
3.962534941318772
 20
7.449326185348582
 30
0.0
 10
3.991478820910591
 20
7.449846039600364
 30
0.0
 10
3.987933817223519
 20
7.466691089588393
 30
0.0
 10
3.961470602150307
 20
7.466360273246348
 30
0.0
 10
3.930289096117589
 20
7.465985151144221
 30
0.0
 10
3.940354224789517
 20
7.448907231832991
 30
0.0
 10
3.962534941318772
 20
7.449326185348582
 30
0.0
  0
SPLINE
  5
2DB
330
2D6
100
AcDbEntity
  8
BA
 62
   250
420
  2301728
370
    15
100
AcDbSpline
210
0.0
220
0.0
230
1.0
 70
     8
 71
     3
 72
    11
 73
     7
 74
     0
 42
0.0000000001
 43
0.0000000001
 12
1.0
 22
0.0
 32
0.0
 13
1.0
 23
0.0
 33
0.0
 40
0.0
 40
0.0
 40
0.0
 40
0.0
 40
1.0
 40
1.0
 40
1.0
 40
2.0
 40
2.0
 40
2.0
 40
2.0
 10
3.972929707843327
 20
7.452483709184699
 30
0.0
 10
3.969901509264269
 20
7.45381040274065
 30
0.0
 10
3.96826449416527
 20
7.453928551437254
 30
0.0
 10
3.96329757804574
 20
7.453928551437254
 30
0.0
 10
3.95868823519019
 20
7.453928551437254
 30
0.0
 10
3.955933803641351
 20
7.453638612664475
 30
0.0
 10
3.952905605062281
 20
7.452483709184699
 30
0.0
  0
ENDBLK
  5
2D9
330
2D6
100
AcDbEntity
  8
0
100
AcDbBlockEnd
  0
BLOCK
  5
2DE
330
2DC
100
AcDbEntity
  8
0
100
AcDbBlockBegin
  2
block 15
 70
     0
 10
0.0
 20
0.0
 30
0.0
  3
block 15
  1

  0
SPLINE
  5
2E0
330
2DC
100
AcDbEntity
  8
BA
 62
   250
420
  2301728
370
     9
100
AcDbSpline
210
0.0
220
0.0
230
1.0
 70
    11
 71
     3
 72
    11
 73
     7
 74
     0
 42
0.0000000001
 43
0.0000000001
 12
1.0
 22
0.0
 32
0.0
 13
1.0
 23
0.0
 33
0.0
 40
0.0
 40
0.0
 40
0.0
 40
0.0
 40
1.0
 40
1.0
 40
1.0
 40
2.0
 40
2.0
 40
2.0
 40
2.0
 10
3.832749797649474
 20
7.420253994873014
 30
0.0
 10
3.861693677241293
 20
7.420773849124796
 30
0.0
 10
3.858148673554208
 20
7.437618899112825
 30
0.0
 10
3.831685458481009
 20
7.43728808277078
 30
0.0
 10
3.80050395244829
 20
7.436912960668653
 30
0.0
 10
3.810569081120219
 20
7.419835041357411
 30
0.0
 10
3.832749797649474
 20
7.420253994873014
 30
0.0
  0
SPLINE
  5
2E1
330
2DC
100
AcDbEntity
  8
BA
 62
   250
420
  2301728
370
    15
100
AcDbSpline
210
0.0
220
0.0
230
1.0
 70
     8
 71
     3
 72
    11
 73
     7
 74
     0
 42
0.0000000001
 43
0.0000000001
 12
1.0
 22
0.0
 32
0.0
 13
1.0
 23
0.0
 33
0.0
 40
0.0
 40
0.0
 40
0.0
 40
0.0
 40
1.0
 40
1.0
 40
1.0
 40
2.0
 40
2.0
 40
2.0
 40
2.0
 10
3.843144564174041
 20
7.423411518709107
 30
0.0
 10
3.84011636559497
 20
7.424738212265083
 30
0.0
 10
3.838479350495959
 20
7.424856360961686
 30
0.0
 10
3.833512434376441
 20
7.424856360961686
 30
0.0
 10
3.828903091520892
 20
7.424856360961686
 30
0.0
 10
3.826148659972053
 20
7.424566422188907
 30
0.0
 10
3.823120461392982
 20
7.423411518709107
 30
0.0
  0
ENDBLK
  5
2DF
330
2DC
100
AcDbEntity
  8
0
100
AcDbBlockEnd
  0
BLOCK
  5
2E4
330
2E2
100
AcDbEntity
  8
0
100
AcDbBlockBegin
  2
block 16
 70
     0
 10
0.0
 20
0.0
 30
0.0
  3
block 16
  1

  0
SPLINE
  5
2E6
330
2E2
100
AcDbEntity
  8
BA
370
     0
100
AcDbSpline
210
0.0
220
0.0
230
1.0
 70
     8
 71
     3
 72
    56
 73
    52
 74
     0
 42
0.0000000001
 43
0.0000000001
 12
1.0
 22
0.0
 32
0.0
 13
1.0
 23
0.0
 33
0.0
 40
0.0
 40
0.0
 40
0.0
 40
0.0
 40
1.0
 40
1.0
 40
1.0
 40
2.0
 40
2.0
 40
2.0
 40
3.0
 40
3.0
 40
3.0
 40
4.0
 40
4.0
 40
4.0
 40
5.0
 40
5.0
 40
5.0
 40
6.0
 40
6.0
 40
6.0
 40
7.0
 40
7.0
 40
7.0
 40
8.0
 40
8.0
 40
8.0
 40
9.0
 40
9.0
 40
9.0
 40
10.0
 40
10.0
 40
10.0
 40
11.0
 40
11.0
 40
11.0
 40
12.0
 40
12.0
 40
12.0
 40
13.0
 40
13.0
 40
13.0
 40
14.0
 40
14.0
 40
14.0
 40
15.0
 40
15.0
 40
15.0
 40
16.0
 40
16.0
 40
16.0
 40
17.0
 40
17.0
 40
17.0
 40
17.0
 10
4.846971121868263
 20
7.470415599143861
 30
0.0
 10
4.846971121868263
 20
7.470415599143861
 30
0.0
 10
4.861997635933802
 20
7.506742575614326
 30
0.0
 10
4.861997635933802
 20
7.506742575614326
 30
0.0
 10
4.861997635933802
 20
7.506742575614326
 30
0.0
 10
4.870654268961819
 20
7.5276118724834
 30
0.0
 10
4.870654268961819
 20
7.5276118724834
 30
0.0
 10
4.870654268961819
 20
7.5276118724834
 30
0.0
 10
4.869004168953021
 20
7.535872283038063
 30
0.0
 10
4.85909365838951
 20
7.540827538319818
 30
0.0
 10
4.85909365838951
 20
7.540827538319818
 30
0.0
 10
4.626196660147494
 20
7.626716978118313
 30
0.0
 10
4.626196660147494
 20
7.626716978118313
 30
0.0
 10
4.626196660147494
 20
7.626716978118313
 30
0.0
 10
4.605543156133207
 20
7.620939150459789
 30
0.0
 10
4.605543156133207
 20
7.620939150459789
 30
0.0
 10
4.605543156133207
 20
7.620939150459789
 30
0.0
 10
4.591575304873484
 20
7.619141383843548
 30
0.0
 10
4.580837266677943
 20
7.615836228570641
 30
0.0
 10
4.580837266677943
 20
7.615836228570641
 30
0.0
 10
4.559295758588683
 20
7.621761722836557
 30
0.0
 10
4.55599060331575
 20
7.61102863989629
 30
0.0
 10
4.55599060331575
 20
7.61102863989629
 30
0.0
 10
4.539474737461711
 20
7.606073384614547
 30
0.0
 10
4.539474737461711
 20
7.606073384614547
 30
0.0
 10
4.539474737461711
 20
7.606073384614547
 30
0.0
 10
4.529374372567013
 20
7.604785596441994
 30
0.0
 10
4.516163661985855
 20
7.602307968801116
 30
0.0
 10
4.516163661985855
 20
7.602307968801116
 30
0.0
 10
4.493227339917161
 20
7.608551012255425
 30
0.0
 10
4.487827102711131
 20
7.596201525042261
 30
0.0
 10
4.487827102711131
 20
7.596201525042261
 30
0.0
 10
4.376778840796179
 20
7.573859270027924
 30
0.0
 10
4.376778840796179
 20
7.573859270027924
 30
0.0
 10
4.376778840796179
 20
7.573859270027924
 30
0.0
 10
4.376778840796179
 20
7.557343404173871
 30
0.0
 10
4.376778840796179
 20
7.557343404173871
 30
0.0
 10
4.376778840796179
 20
7.557343404173871
 30
0.0
 10
4.603070483747615
 20
7.474754164393024
 30
0.0
 10
4.603070483747615
 20
7.474754164393024
 30
0.0
 10
4.603070483747615
 20
7.474754164393024
 30
0.0
 10
4.611988456678167
 20
7.471873242951965
 30
0.0
 10
4.611988456678167
 20
7.466917987670247
 30
0.0
 10
4.611988456678167
 20
7.466917987670247
 30
0.0
 10
4.633295558864145
 20
7.461325183329513
 30
0.0
 10
4.633295558864145
 20
7.461325183329513
 30
0.0
 10
4.633295558864145
 20
7.461325183329513
 30
0.0
 10
4.68897377295237
 20
7.446261543782106
 30
0.0
 10
4.68897377295237
 20
7.446261543782106
 30
0.0
 10
4.68897377295237
 20
7.446261543782106
 30
0.0
 10
4.812060980565396
 20
7.412597680516468
 30
0.0
 10
4.812060980565396
 20
7.412597680516468
 30
0.0
  0
HATCH
  5
2E7
330
2E2
100
AcDbEntity
  8
BA
 62
   254
420
 13358815
100
AcDbHatch
 10
0.0
 20
0.0
 30
0.0
210
0.0
220
0.0
230
1.0
  2
SOLID
 70
     1
 71
     0
 91
        1
 92
        1
 93
        2
 72
     4
 94
        3
 73
     0
 74
     0
 95
       56
 96
       52
 40
0.0
 40
0.0
 40
0.0
 40
0.0
 40
0.0138888888888889
 40
0.0138888888888889
 40
0.0138888888888889
 40
0.0277777777777778
 40
0.0277777777777778
 40
0.0277777777777778
 40
0.0416666666666667
 40
0.0416666666666667
 40
0.0416666666666667
 40
0.0555555555555556
 40
0.0555555555555556
 40
0.0555555555555556
 40
0.0694444444444444
 40
0.0694444444444444
 40
0.0694444444444444
 40
0.0833333333333333
 40
0.0833333333333333
 40
0.0833333333333333
 40
0.0972222222222222
 40
0.0972222222222222
 40
0.0972222222222222
 40
0.1111111111111111
 40
0.1111111111111111
 40
0.1111111111111111
 40
0.125
 40
0.125
 40
0.125
 40
0.1388888888888889
 40
0.1388888888888889
 40
0.1388888888888889
 40
0.1527777777777778
 40
0.1527777777777778
 40
0.1527777777777778
 40
0.1666666666666667
 40
0.1666666666666667
 40
0.1666666666666667
 40
0.1805555555555556
 40
0.1805555555555556
 40
0.1805555555555556
 40
0.1944444444444444
 40
0.1944444444444444
 40
0.1944444444444444
 40
0.2083333333333333
 40
0.2083333333333333
 40
0.2083333333333333
 40
0.2222222222222222
 40
0.2222222222222222
 40
0.2222222222222222
 40
0.2361111111111111
 40
0.2361111111111111
 40
0.2361111111111111
 40
0.2361111111111111
 10
4.846971121868263
 20
7.470415599143861
 10
4.846971121868263
 20
7.470415599143861
 10
4.861997635933802
 20
7.506742575614326
 10
4.861997635933802
 20
7.506742575614326
 10
4.861997635933802
 20
7.506742575614326
 10
4.870654268961819
 20
7.5276118724834
 10
4.870654268961819
 20
7.5276118724834
 10
4.870654268961819
 20
7.5276118724834
 10
4.869004168953021
 20
7.535872283038063
 10
4.85909365838951
 20
7.540827538319818
 10
4.85909365838951
 20
7.540827538319818
 10
4.626196660147494
 20
7.626716978118313
 10
4.626196660147494
 20
7.626716978118313
 10
4.626196660147494
 20
7.626716978118313
 10
4.605543156133207
 20
7.620939150459789
 10
4.605543156133207
 20
7.620939150459789
 10
4.605543156133207
 20
7.620939150459789
 10
4.591575304873484
 20
7.619141383843548
 10
4.580837266677943
 20
7.615836228570641
 10
4.580837266677943
 20
7.615836228570641
 10
4.559295758588683
 20
7.621761722836557
 10
4.55599060331575
 20
7.61102863989629
 10
4.55599060331575
 20
7.61102863989629
 10
4.539474737461711
 20
7.606073384614547
 10
4.539474737461711
 20
7.606073384614547
 10
4.539474737461711
 20
7.606073384614547
 10
4.529374372567013
 20
7.604785596441994
 10
4.516163661985855
 20
7.602307968801116
 10
4.516163661985855
 20
7.602307968801116
 10
4.493227339917161
 20
7.608551012255425
 10
4.487827102711131
 20
7.596201525042261
 10
4.487827102711131
 20
7.596201525042261
 10
4.376778840796179
 20
7.573859270027924
 10
4.376778840796179
 20
7.573859270027924
 10
4.376778840796179
 20
7.573859270027924
 10
4.376778840796179
 20
7.557343404173871
 10
4.376778840796179
 20
7.557343404173871
 10
4.376778840796179
 20
7.557343404173871
 10
4.603070483747615
 20
7.474754164393024
 10
4.603070483747615
 20
7.474754164393024
 10
4.603070483747615
 20
7.474754164393024
 10
4.611988456678167
 20
7.471873242951965
 10
4.611988456678167
 20
7.466917987670247
 10
4.611988456678167
 20
7.466917987670247
 10
4.633295558864145
 20
7.461325183329513
 10
4.633295558864145
 20
7.461325183329513
 10
4.633295558864145
 20
7.461325183329513
 10
4.68897377295237
 20
7.446261543782106
 10
4.68897377295237
 20
7.446261543782106
 10
4.68897377295237
 20
7.446261543782106
 10
4.812060980565396
 20
7.412597680516468
 10
4.812060980565396
 20
7.412597680516468
 97
        0
 72
     1
 10
4.812060980565396
 20
7.412597680516468
 11
4.846971121868263
 21
7.470415599143861
 97
        0
 75
     2
 76
     1
 98
        0
  0
POLYLINE
  5
2E8
330
2E2
100
AcDbEntity
  8
BA
 62
   250
420
  2301728
370
    18
100
AcDb2dPolyline
 66
     1
 10
0.0
 20
0.0
 30
0.0
  0
VERTEX
  5
2E9
330
2E8
100
AcDbEntity
  8
BA
 62
   250
420
  2301728
370
    18
100
AcDbVertex
100
AcDb2dVertex
 10
4.831699025089923
 20
7.405290661078033
 30
0.0
  0
VERTEX
  5
384
330
2E8
100
AcDbEntity
  8
0
100
AcDbVertex
100
AcDb2dVertex
 10
4.831699025089923
 20
7.405290661078033
 30
0.0
  0
SEQEND
  5
2EA
330
2E8
100
AcDbEntity
  8
BA
 62
   250
420
  2301728
370
    18
  0
POLYLINE
  5
2EB
330
2E2
100
AcDbEntity
  8
BA
 62
   250
420
  2301728
370
    18
100
AcDb2dPolyline
 66
     1
 10
0.0
 20
0.0
 30
0.0
  0
VERTEX
  5
2EC
330
2EB
100
AcDbEntity
  8
BA
 62
   250
420
  2301728
370
    18
100
AcDbVertex
100
AcDb2dVertex
 10
4.672298373186751
 20
7.443979312215762
 30
0.0
  0
VERTEX
  5
385
330
2EB
100
AcDbEntity
  8
0
100
AcDbVertex
100
AcDb2dVertex
 10
4.672298373186751
 20
7.443979312215762
 30
0.0
  0
SEQEND
  5
2ED
330
2EB
100
AcDbEntity
  8
BA
 62
   250
420
  2301728
370
    18
  0
SPLINE
  5
2EE
330
2E2
100
AcDbEntity
  8
BA
 62
   250
420
  2301728
370
    18
100
AcDbSpline
210
0.0
220
0.0
230
1.0
 70
     8
 71
     3
 72
    11
 73
     7
 74
     0
 42
0.0000000001
 43
0.0000000001
 12
1.0
 22
0.0
 32
0.0
 13
1.0
 23
0.0
 33
0.0
 40
0.0
 40
0.0
 40
0.0
 40
0.0
 40
1.0
 40
1.0
 40
1.0
 40
2.0
 40
2.0
 40
2.0
 40
2.0
 10
4.376778840796179
 20
7.573859270027924
 30
0.0
 10
4.376778840796179
 20
7.573859270027924
 30
0.0
 10
4.614631094319924
 20
7.487969830229442
 30
0.0
 10
4.614631094319924
 20
7.487969830229442
 30
0.0
 10
4.614631094319924
 20
7.487969830229442
 30
0.0
 10
4.621241404865764
 20
7.487969830229442
 30
0.0
 10
4.621241404865764
 20
7.47145396437539
 30
0.0
  0
SPLINE
  5
2EF
330
2E2
100
AcDbEntity
  8
BA
 62
   250
420
  2301728
370
    25
100
AcDbSpline
210
0.0
220
0.0
230
1.0
 70
     8
 71
     3
 72
    29
 73
    25
 74
     0
 42
0.0000000001
 43
0.0000000001
 12
1.0
 22
0.0
 32
0.0
 13
1.0
 23
0.0
 33
0.0
 40
0.0
 40
0.0
 40
0.0
 40
0.0
 40
1.0
 40
1.0
 40
1.0
 40
2.0
 40
2.0
 40
2.0
 40
3.0
 40
3.0
 40
3.0
 40
4.0
 40
4.0
 40
4.0
 40
5.0
 40
5.0
 40
5.0
 40
6.0
 40
6.0
 40
6.0
 40
7.0
 40
7.0
 40
7.0
 40
8.0
 40
8.0
 40
8.0
 40
8.0
 10
4.870654268961819
 20
7.511096006629347
 30
0.0
 10
4.870654268961819
 20
7.511096006629347
 30
0.0
 10
4.870654268961819
 20
7.5276118724834
 30
0.0
 10
4.870654268961819
 20
7.5276118724834
 30
0.0
 10
4.870654268961819
 20
7.5276118724834
 30
0.0
 10
4.869004168953021
 20
7.535872283038063
 30
0.0
 10
4.85909365838951
 20
7.540827538319818
 30
0.0
 10
4.85909365838951
 20
7.540827538319818
 30
0.0
 10
4.626196660147494
 20
7.626716978118313
 30
0.0
 10
4.626196660147494
 20
7.626716978118313
 30
0.0
 10
4.626196660147494
 20
7.626716978118313
 30
0.0
 10
4.605543156133207
 20
7.620939150459789
 30
0.0
 10
4.605543156133207
 20
7.620939150459789
 30
0.0
 10
4.605543156133207
 20
7.620939150459789
 30
0.0
 10
4.521569987689367
 20
7.603670073539206
 30
0.0
 10
4.487827102711131
 20
7.596201525042261
 30
0.0
 10
4.487827102711131
 20
7.596201525042261
 30
0.0
 10
4.376778840796179
 20
7.573859270027924
 30
0.0
 10
4.376778840796179
 20
7.573859270027924
 30
0.0
 10
4.376778840796179
 20
7.573859270027924
 30
0.0
 10
4.376778840796179
 20
7.557343404173871
 30
0.0
 10
4.376778840796179
 20
7.557343404173871
 30
0.0
 10
4.376778840796179
 20
7.557343404173871
 30
0.0
 10
4.603070483747615
 20
7.474754164393024
 30
0.0
 10
4.603070483747615
 20
7.474754164393024
 30
0.0
  0
INSERT
  5
2F1
330
2E2
100
AcDbEntity
  8
BA
100
AcDbBlockReference
  2
block 17
 10
0.0
 20
0.0
 30
0.0
  0
INSERT
  5
306
330
2E2
100
AcDbEntity
  8
BA
100
AcDbBlockReference
  2
block 18
 10
0.0
 20
0.0
 30
0.0
  0
INSERT
  5
318
330
2E2
100
AcDbEntity
  8
BA
100
AcDbBlockReference
  2
block 19
 10
0.0
 20
0.0
 30
0.0
  0
POLYLINE
  5
329
330
2E2
100
AcDbEntity
  8
BA
 62
   250
420
  2301728
370
    13
100
AcDb2dPolyline
 66
     1
 10
0.0
 20
0.0
 30
0.0
  0
VERTEX
  5
32A
330
329
100
AcDbEntity
  8
BA
 62
   250
420
  2301728
370
    13
100
AcDbVertex
100
AcDb2dVertex
 10
4.836320296165669
 20
7.531811946860203
 30
0.0
  0
VERTEX
  5
32B
330
329
100
AcDbEntity
  8
BA
 62
   250
420
  2301728
370
    13
100
AcDbVertex
100
AcDb2dVertex
 10
4.851534911982728
 20
7.53524792087257
 30
0.0
  0
SEQEND
  5
32C
330
329
100
AcDbEntity
  8
BA
 62
   250
420
  2301728
370
    13
  0
POLYLINE
  5
32D
330
2E2
100
AcDbEntity
  8
BA
 62
   250
420
  2301728
370
    13
100
AcDb2dPolyline
 66
     1
 10
0.0
 20
0.0
 30
0.0
  0
VERTEX
  5
32E
330
32D
100
AcDbEntity
  8
BA
 62
   250
420
  2301728
370
    13
100
AcDbVertex
100
AcDb2dVertex
 10
4.773867231747722
 20
7.517721182941032
 30
0.0
  0
VERTEX
  5
32F
330
32D
100
AcDbEntity
  8
BA
 62
   250
420
  2301728
370
    13
100
AcDbVertex
100
AcDb2dVertex
 10
4.786942168334159
 20
7.520667703504942
 30
0.0
  0
SEQEND
  5
330
330
32D
100
AcDbEntity
  8
BA
 62
   250
420
  2301728
370
    13
  0
POLYLINE
  5
331
330
2E2
100
AcDbEntity
  8
BA
 62
   250
420
  2301728
370
    13
100
AcDb2dPolyline
 66
     1
 10
0.0
 20
0.0
 30
0.0
  0
VERTEX
  5
332
330
331
100
AcDbEntity
  8
BA
 62
   250
420
  2301728
370
    13
100
AcDbVertex
100
AcDb2dVertex
 10
4.703051678516304
 20
7.501742466759524
 30
0.0
  0
VERTEX
  5
333
330
331
100
AcDbEntity
  8
BA
 62
   250
420
  2301728
370
    13
100
AcDbVertex
100
AcDb2dVertex
 10
4.71933464737213
 20
7.505415427362423
 30
0.0
  0
SEQEND
  5
334
330
331
100
AcDbEntity
  8
BA
 62
   250
420
  2301728
370
    13
  0
POLYLINE
  5
335
330
2E2
100
AcDbEntity
  8
BA
 62
   250
420
  2301728
370
    13
100
AcDb2dPolyline
 66
     1
 10
0.0
 20
0.0
 30
0.0
  0
VERTEX
  5
336
330
335
100
AcDbEntity
  8
BA
 62
   250
420
  2301728
370
    13
100
AcDbVertex
100
AcDb2dVertex
 10
4.62879526650027
 20
7.484988748651946
 30
0.0
  0
VERTEX
  5
337
330
335
100
AcDbEntity
  8
BA
 62
   250
420
  2301728
370
    13
100
AcDbVertex
100
AcDb2dVertex
 10
4.65248230731504
 20
7.490331629903746
 30
0.0
  0
SEQEND
  5
338
330
335
100
AcDbEntity
  8
BA
 62
   250
420
  2301728
370
    13
  0
SPLINE
  5
339
330
2E2
100
AcDbEntity
  8
BA
 62
   250
420
  2301728
370
    18
100
AcDbSpline
210
0.0
220
0.0
230
1.0
 70
     8
 71
     3
 72
     8
 73
     4
 74
     0
 42
0.0000000001
 43
0.0000000001
 12
1.0
 22
0.0
 32
0.0
 13
1.0
 23
0.0
 33
0.0
 40
0.0
 40
0.0
 40
0.0
 40
0.0
 40
1.0
 40
1.0
 40
1.0
 40
1.0
 10
4.60802078377406
 20
7.578581922047217
 30
0.0
 10
4.599072311659963
 20
7.582532923638129
 30
0.0
 10
4.582001429769762
 20
7.591701988432785
 30
0.0
 10
4.567493732926778
 20
7.578581922047217
 30
0.0
  0
SPLINE
  5
33A
330
2E2
100
AcDbEntity
  8
BA
 62
   250
420
  2301728
370
    18
100
AcDbSpline
210
0.0
220
0.0
230
1.0
 70
     8
 71
     3
 72
     8
 73
     4
 74
     0
 42
0.0000000001
 43
0.0000000001
 12
1.0
 22
0.0
 32
0.0
 13
1.0
 23
0.0
 33
0.0
 40
0.0
 40
0.0
 40
0.0
 40
0.0
 40
1.0
 40
1.0
 40
1.0
 40
1.0
 10
4.674536661997536
 20
7.59357940780314
 30
0.0
 10
4.665588189883439
 20
7.597530409394052
 30
0.0
 10
4.648517307993239
 20
7.60669947418872
 30
0.0
 10
4.634009611150254
 20
7.59357940780314
 30
0.0
  0
INSERT
  5
33C
330
2E2
100
AcDbEntity
  8
BA
100
AcDbBlockReference
  2
block 20
 10
0.0
 20
0.0
 30
0.0
  0
INSERT
  5
342
330
2E2
100
AcDbEntity
  8
BA
100
AcDbBlockReference
  2
block 21
 10
0.0
 20
0.0
 30
0.0
  0
ENDBLK
  5
2E5
330
2E2
100
AcDbEntity
  8
0
100
AcDbBlockEnd
  0
BLOCK
  5
2F2
330
2F0
100
AcDbEntity
  8
0
100
AcDbBlockBegin
  2
block 17
 70
     0
 10
0.0
 20
0.0
 30
0.0
  3
block 17
  1

  0
POLYLINE
  5
2F4
330
2F0
100
AcDbEntity
  8
BA
 62
   250
420
  2301728
370
    13
100
AcDb2dPolyline
 66
     1
 10
0.0
 20
0.0
 30
0.0
  0
VERTEX
  5
2F5
330
2F4
100
AcDbEntity
  8
BA
 62
   250
420
  2301728
370
    13
100
AcDbVertex
100
AcDb2dVertex
 10
4.723022348352818
 20
7.550036384735423
 30
0.0
  0
VERTEX
  5
2F6
330
2F4
100
AcDbEntity
  8
BA
 62
   250
420
  2301728
370
    13
100
AcDbVertex
100
AcDb2dVertex
 10
4.633735585533158
 20
7.582405103286823
 30
0.0
  0
SEQEND
  5
2F7
330
2F4
100
AcDbEntity
  8
BA
 62
   250
420
  2301728
370
    13
  0
POLYLINE
  5
2F8
330
2F0
100
AcDbEntity
  8
BA
 62
   250
420
  2301728
370
    13
100
AcDb2dPolyline
 66
     1
 10
0.0
 20
0.0
 30
0.0
  0
VERTEX
  5
2F9
330
2F8
100
AcDbEntity
  8
BA
 62
   250
420
  2301728
370
    13
100
AcDbVertex
100
AcDb2dVertex
 10
4.792439528543708
 20
7.523905341532655
 30
0.0
  0
VERTEX
  5
2FA
330
2F8
100
AcDbEntity
  8
BA
 62
   250
420
  2301728
370
    13
100
AcDbVertex
100
AcDb2dVertex
 10
4.740390518115317
 20
7.543498420916674
 30
0.0
  0
SEQEND
  5
2FB
330
2F8
100
AcDbEntity
  8
BA
 62
   250
420
  2301728
370
    13
  0
SPLINE
  5
2FC
330
2F0
100
AcDbEntity
  8
BA
 62
   250
420
  2301728
370
    13
100
AcDbSpline
210
0.0
220
0.0
230
1.0
 70
     8
 71
     3
 72
     8
 73
     4
 74
     0
 42
0.0000000001
 43
0.0000000001
 12
1.0
 22
0.0
 32
0.0
 13
1.0
 23
0.0
 33
0.0
 40
0.0
 40
0.0
 40
0.0
 40
0.0
 40
1.0
 40
1.0
 40
1.0
 40
1.0
 10
4.805127955218141
 20
7.509789801337079
 30
0.0
 10
4.805127955218141
 20
7.518412936578367
 30
0.0
 10
4.801677115439942
 20
7.520145293824864
 30
0.0
 10
4.801677115439942
 20
7.520145293824864
 30
0.0
  0
POLYLINE
  5
2FD
330
2F0
100
AcDbEntity
  8
BA
 62
   250
420
  2301728
370
    13
100
AcDb2dPolyline
 66
     1
 10
0.0
 20
0.0
 30
0.0
  0
VERTEX
  5
2FE
330
2FD
100
AcDbEntity
  8
BA
 62
   250
420
  2301728
370
    13
100
AcDbVertex
100
AcDb2dVertex
 10
4.807634323339648
 20
7.438339975429598
 30
0.0
  0
VERTEX
  5
2FF
330
2FD
100
AcDbEntity
  8
BA
 62
   250
420
  2301728
370
    13
100
AcDbVertex
100
AcDb2dVertex
 10
4.807634323339648
 20
7.497710871062294
 30
0.0
  0
SEQEND
  5
300
330
2FD
100
AcDbEntity
  8
BA
 62
   250
420
  2301728
370
    13
  0
SPLINE
  5
301
330
2F0
100
AcDbEntity
  8
BA
 62
   250
420
  2301728
370
    18
100
AcDbSpline
210
0.0
220
0.0
230
1.0
 70
     8
 71
     3
 72
    14
 73
    10
 74
     0
 42
0.0000000001
 43
0.0000000001
 12
1.0
 22
0.0
 32
0.0
 13
1.0
 23
0.0
 33
0.0
 40
0.0
 40
0.0
 40
0.0
 40
0.0
 40
1.0
 40
1.0
 40
1.0
 40
2.0
 40
2.0
 40
2.0
 40
3.0
 40
3.0
 40
3.0
 40
3.0
 10
4.664260949119757
 20
7.598571483098529
 30
0.0
 10
4.664260949119757
 20
7.598571483098529
 30
0.0
 10
4.823836026008848
 20
7.539801800476488
 30
0.0
 10
4.823836026008848
 20
7.539801800476488
 30
0.0
 10
4.839146773778389
 20
7.535441175828559
 30
0.0
 10
4.841382584961492
 20
7.514560721122343
 30
0.0
 10
4.841382584961492
 20
7.514560721122343
 30
0.0
 10
4.841382584961492
 20
7.514560721122343
 30
0.0
 10
4.841382584961492
 20
7.455248596887182
 30
0.0
 10
4.841382584961492
 20
7.455248596887182
 30
0.0
  0
POLYLINE
  5
302
330
2F0
100
AcDbEntity
  8
BA
 62
   250
420
  2301728
370
    18
100
AcDb2dPolyline
 66
     1
 10
0.0
 20
0.0
 30
0.0
  0
VERTEX
  5
303
330
302
100
AcDbEntity
  8
BA
 62
   250
420
  2301728
370
    18
100
AcDbVertex
100
AcDb2dVertex
 10
4.660665415887327
 20
7.573515375311368
 30
0.0
  0
VERTEX
  5
386
330
302
100
AcDbEntity
  8
0
100
AcDbVertex
100
AcDb2dVertex
 10
4.660665415887327
 20
7.573515375311368
 30
0.0
  0
SEQEND
  5
304
330
302
100
AcDbEntity
  8
BA
 62
   250
420
  2301728
370
    18
  0
ENDBLK
  5
2F3
330
2F0
100
AcDbEntity
  8
0
100
AcDbBlockEnd
  0
BLOCK
  5
307
330
305
100
AcDbEntity
  8
0
100
AcDbBlockBegin
  2
block 18
 70
     0
 10
0.0
 20
0.0
 30
0.0
  3
block 18
  1

  0
POLYLINE
  5
309
330
305
100
AcDbEntity
  8
BA
 62
   250
420
  2301728
370
    13
100
AcDb2dPolyline
 66
     1
 10
0.0
 20
0.0
 30
0.0
  0
VERTEX
  5
30A
330
309
100
AcDbEntity
  8
BA
 62
   250
420
  2301728
370
    13
100
AcDbVertex
100
AcDb2dVertex
 10
4.666065653093382
 20
7.531947720854936
 30
0.0
  0
VERTEX
  5
30B
330
309
100
AcDbEntity
  8
BA
 62
   250
420
  2301728
370
    13
100
AcDbVertex
100
AcDb2dVertex
 10
4.567493732926778
 20
7.567897106872932
 30
0.0
  0
SEQEND
  5
30C
330
309
100
AcDbEntity
  8
BA
 62
   250
420
  2301728
370
    13
  0
POLYLINE
  5
30D
330
305
100
AcDbEntity
  8
BA
 62
   250
420
  2301728
370
    13
100
AcDb2dPolyline
 66
     1
 10
0.0
 20
0.0
 30
0.0
  0
VERTEX
  5
30E
330
30D
100
AcDbEntity
  8
BA
 62
   250
420
  2301728
370
    13
100
AcDbVertex
100
AcDb2dVertex
 10
4.733827778020188
 20
7.506639250028936
 30
0.0
  0
VERTEX
  5
30F
330
30D
100
AcDbEntity
  8
BA
 62
   250
420
  2301728
370
    13
100
AcDbVertex
100
AcDb2dVertex
 10
4.681778767591772
 20
7.526237410582326
 30
0.0
  0
SEQEND
  5
310
330
30D
100
AcDbEntity
  8
BA
 62
   250
420
  2301728
370
    13
  0
SPLINE
  5
311
330
305
100
AcDbEntity
  8
BA
 62
   250
420
  2301728
370
    13
100
AcDbSpline
210
0.0
220
0.0
230
1.0
 70
     8
 71
     3
 72
     8
 73
     4
 74
     0
 42
0.0000000001
 43
0.0000000001
 12
1.0
 22
0.0
 32
0.0
 13
1.0
 23
0.0
 33
0.0
 40
0.0
 40
0.0
 40
0.0
 40
0.0
 40
1.0
 40
1.0
 40
1.0
 40
1.0
 10
4.748292168187592
 20
7.492693179564007
 30
0.0
 10
4.748292168187592
 20
7.501316314805295
 30
0.0
 10
4.743071311222744
 20
7.502884157576444
 30
0.0
 10
4.743071311222744
 20
7.502884157576444
 30
0.0
  0
POLYLINE
  5
312
330
305
100
AcDbEntity
  8
BA
 62
   250
420
  2301728
370
    13
100
AcDb2dPolyline
 66
     1
 10
0.0
 20
0.0
 30
0.0
  0
VERTEX
  5
313
330
312
100
AcDbEntity
  8
BA
 62
   250
420
  2301728
370
    13
100
AcDbVertex
100
AcDb2dVertex
 10
4.749864966214014
 20
7.426629716147797
 30
0.0
  0
VERTEX
  5
314
330
312
100
AcDbEntity
  8
BA
 62
   250
420
  2301728
370
    13
100
AcDbVertex
100
AcDb2dVertex
 10
4.749864966214014
 20
7.479612296671247
 30
0.0
  0
SEQEND
  5
315
330
312
100
AcDbEntity
  8
BA
 62
   250
420
  2301728
370
    13
  0
SPLINE
  5
316
330
305
100
AcDbEntity
  8
BA
 62
   250
420
  2301728
370
    18
100
AcDbSpline
210
0.0
220
0.0
230
1.0
 70
     8
 71
     3
 72
    20
 73
    16
 74
     0
 42
0.0000000001
 43
0.0000000001
 12
1.0
 22
0.0
 32
0.0
 13
1.0
 23
0.0
 33
0.0
 40
0.0
 40
0.0
 40
0.0
 40
0.0
 40
1.0
 40
1.0
 40
1.0
 40
2.0
 40
2.0
 40
2.0
 40
3.0
 40
3.0
 40
3.0
 40
4.0
 40
4.0
 40
4.0
 40
5.0
 40
5.0
 40
5.0
 40
5.0
 10
4.589903379412943
 20
7.586044202447611
 30
0.0
 10
4.589903379412943
 20
7.586044202447611
 30
0.0
 10
4.765229230740588
 20
7.522545619483354
 30
0.0
 10
4.765229230740588
 20
7.522545619483354
 30
0.0
 10
4.780526103795333
 20
7.518176075375903
 30
0.0
 10
4.782760923927399
 20
7.497304540129195
 30
0.0
 10
4.782760923927399
 20
7.497304540129195
 30
0.0
 10
4.782760923927399
 20
7.497304540129195
 30
0.0
 10
4.782760923927399
 20
7.44224701877791
 30
0.0
 10
4.782760923927399
 20
7.44224701877791
 30
0.0
 10
4.782760923927399
 20
7.44224701877791
 30
0.0
 10
4.785093932545502
 20
7.427211783202046
 30
0.0
 10
4.768089404089222
 20
7.419803676555842
 30
0.0
 10
4.764116280404323
 20
7.41807143863145
 30
0.0
 10
4.760273975458858
 20
7.420127750251266
 30
0.0
 10
4.757443607374853
 20
7.42149738281114
 30
0.0
  0
ENDBLK
  5
308
330
305
100
AcDbEntity
  8
0
100
AcDbBlockEnd
  0
BLOCK
  5
319
330
317
100
AcDbEntity
  8
0
100
AcDbBlockBegin
  2
block 19
 70
     0
 10
0.0
 20
0.0
 30
0.0
  3
block 19
  1

  0
POLYLINE
  5
31B
330
317
100
AcDbEntity
  8
BA
 62
   250
420
  2301728
370
    13
100
AcDb2dPolyline
 66
     1
 10
0.0
 20
0.0
 30
0.0
  0
VERTEX
  5
31C
330
31B
100
AcDbEntity
  8
BA
 62
   250
420
  2301728
370
    13
100
AcDbVertex
100
AcDb2dVertex
 10
4.589903379412943
 20
7.520493152745644
 30
0.0
  0
VERTEX
  5
31D
330
31B
100
AcDbEntity
  8
BA
 62
   250
420
  2301728
370
    13
100
AcDbVertex
100
AcDb2dVertex
 10
4.540839483027361
 20
7.538964362333874
 30
0.0
  0
VERTEX
  5
31E
330
31B
100
AcDbEntity
  8
BA
 62
   250
420
  2301728
370
    13
100
AcDbVertex
100
AcDb2dVertex
 10
4.527546446947477
 20
7.543973134372663
 30
0.0
  0
SEQEND
  5
31F
330
31B
100
AcDbEntity
  8
BA
 62
   250
420
  2301728
370
    13
  0
POLYLINE
  5
320
330
317
100
AcDbEntity
  8
BA
 62
   250
420
  2301728
370
    13
100
AcDb2dPolyline
 66
     1
 10
0.0
 20
0.0
 30
0.0
  0
VERTEX
  5
321
330
320
100
AcDbEntity
  8
BA
 62
   250
420
  2301728
370
    13
100
AcDbVertex
100
AcDb2dVertex
 10
4.659320559603858
 20
7.494352199032328
 30
0.0
  0
VERTEX
  5
322
330
320
100
AcDbEntity
  8
BA
 62
   250
420
  2301728
370
    13
100
AcDbVertex
100
AcDb2dVertex
 10
4.607270558124431
 20
7.513956179977968
 30
0.0
  0
SEQEND
  5
323
330
320
100
AcDbEntity
  8
BA
 62
   250
420
  2301728
370
    13
  0
SPLINE
  5
324
330
317
100
AcDbEntity
  8
BA
 62
   250
420
  2301728
370
    13
100
AcDbSpline
210
0.0
220
0.0
230
1.0
 70
     8
 71
     3
 72
     8
 73
     4
 74
     0
 42
0.0000000001
 43
0.0000000001
 12
1.0
 22
0.0
 32
0.0
 13
1.0
 23
0.0
 33
0.0
 40
0.0
 40
0.0
 40
0.0
 40
0.0
 40
1.0
 40
1.0
 40
1.0
 40
1.0
 10
4.672008986278292
 20
7.480251524602598
 30
0.0
 10
4.672008986278292
 20
7.488874784814116
 30
0.0
 10
4.668558146500092
 20
7.490602061835109
 30
0.0
 10
4.668558146500092
 20
7.490602061835109
 30
0.0
  0
POLYLINE
  5
325
330
317
100
AcDbEntity
  8
BA
 62
   250
420
  2301728
370
    13
100
AcDb2dPolyline
 66
     1
 10
0.0
 20
0.0
 30
0.0
  0
VERTEX
  5
326
330
325
100
AcDbEntity
  8
BA
 62
   250
420
  2301728
370
    13
100
AcDbVertex
100
AcDb2dVertex
 10
4.672008986278292
 20
7.468168630123588
 30
0.0
  0
VERTEX
  5
387
330
325
100
AcDbEntity
  8
0
100
AcDbVertex
100
AcDb2dVertex
 10
4.672008986278292
 20
7.468168630123588
 30
0.0
  0
SEQEND
  5
327
330
325
100
AcDbEntity
  8
BA
 62
   250
420
  2301728
370
    13
  0
SPLINE
  5
328
330
317
100
AcDbEntity
  8
BA
 62
   250
420
  2301728
370
    18
100
AcDbSpline
210
0.0
220
0.0
230
1.0
 70
     8
 71
     3
 72
    20
 73
    16
 74
     0
 42
0.0000000001
 43
0.0000000001
 12
1.0
 22
0.0
 32
0.0
 13
1.0
 23
0.0
 33
0.0
 40
0.0
 40
0.0
 40
0.0
 40
0.0
 40
1.0
 40
1.0
 40
1.0
 40
2.0
 40
2.0
 40
2.0
 40
3.0
 40
3.0
 40
3.0
 40
4.0
 40
4.0
 40
4.0
 40
5.0
 40
5.0
 40
5.0
 40
5.0
 10
4.527546446947477
 20
7.543973134372663
 30
0.0
 10
4.527546446947477
 20
7.543973134372663
 30
0.0
 10
4.52213134397559
 20
7.547432893610372
 30
0.0
 10
4.526433496611187
 20
7.554410884098135
 30
0.0
 10
4.526433496611187
 20
7.554410884098135
 30
0.0
 10
4.535850463748627
 20
7.567688986151097
 30
0.0
 10
4.579842229088904
 20
7.551295019576969
 30
0.0
 10
4.579842229088904
 20
7.551295019576969
 30
0.0
 10
4.690716138065201
 20
7.510249649027223
 30
0.0
 10
4.690716138065201
 20
7.510249649027223
 30
0.0
 10
4.706017966761793
 20
7.505893979634569
 30
0.0
 10
4.708258660766356
 20
7.485022444387861
 30
0.0
 10
4.708258660766356
 20
7.485022444387861
 30
0.0
 10
4.708258660766356
 20
7.485022444387861
 30
0.0
 10
4.708258660766356
 20
7.43002941355169
 30
0.0
 10
4.708258660766356
 20
7.43002941355169
 30
0.0
  0
ENDBLK
  5
31A
330
317
100
AcDbEntity
  8
0
100
AcDbBlockEnd
  0
BLOCK
  5
33D
330
33B
100
AcDbEntity
  8
0
100
AcDbBlockBegin
  2
block 20
 70
     0
 10
0.0
 20
0.0
 30
0.0
  3
block 20
  1

  0
SPLINE
  5
33F
330
33B
100
AcDbEntity
  8
BA
 62
   250
420
  2301728
370
     9
100
AcDbSpline
210
0.0
220
0.0
230
1.0
 70
    11
 71
     3
 72
    11
 73
     7
 74
     0
 42
0.0000000001
 43
0.0000000001
 12
1.0
 22
0.0
 32
0.0
 13
1.0
 23
0.0
 33
0.0
 40
0.0
 40
0.0
 40
0.0
 40
0.0
 40
1.0
 40
1.0
 40
1.0
 40
2.0
 40
2.0
 40
2.0
 40
2.0
 10
4.608513912459683
 20
7.594071909005985
 30
0.0
 10
4.637457792051515
 20
7.594591763257768
 30
0.0
 10
4.633912788364442
 20
7.611436813245795
 30
0.0
 10
4.60744957329123
 20
7.611105996903752
 30
0.0
 10
4.576268067258499
 20
7.610730874801624
 30
0.0
 10
4.586333195930441
 20
7.593652955490395
 30
0.0
 10
4.608513912459683
 20
7.594071909005985
 30
0.0
  0
SPLINE
  5
340
330
33B
100
AcDbEntity
  8
BA
 62
   250
420
  2301728
370
    15
100
AcDbSpline
210
0.0
220
0.0
230
1.0
 70
     8
 71
     3
 72
    11
 73
     7
 74
     0
 42
0.0000000001
 43
0.0000000001
 12
1.0
 22
0.0
 32
0.0
 13
1.0
 23
0.0
 33
0.0
 40
0.0
 40
0.0
 40
0.0
 40
0.0
 40
1.0
 40
1.0
 40
1.0
 40
2.0
 40
2.0
 40
2.0
 40
2.0
 10
4.61890867898425
 20
7.597229432842077
 30
0.0
 10
4.615880480405192
 20
7.598556126398054
 30
0.0
 10
4.614243465306168
 20
7.598674275094658
 30
0.0
 10
4.609276549186663
 20
7.598674275094658
 30
0.0
 10
4.604667206331113
 20
7.598674275094658
 30
0.0
 10
4.601912774782274
 20
7.598384336321878
 30
0.0
 10
4.598884576203191
 20
7.597229432842077
 30
0.0
  0
ENDBLK
  5
33E
330
33B
100
AcDbEntity
  8
0
100
AcDbBlockEnd
  0
BLOCK
  5
343
330
341
100
AcDbEntity
  8
0
100
AcDbBlockBegin
  2
block 21
 70
     0
 10
0.0
 20
0.0
 30
0.0
  3
block 21
  1

  0
SPLINE
  5
345
330
341
100
AcDbEntity
  8
BA
 62
   250
420
  2301728
370
     9
100
AcDbSpline
210
0.0
220
0.0
230
1.0
 70
    11
 71
     3
 72
    11
 73
     7
 74
     0
 42
0.0000000001
 43
0.0000000001
 12
1.0
 22
0.0
 32
0.0
 13
1.0
 23
0.0
 33
0.0
 40
0.0
 40
0.0
 40
0.0
 40
0.0
 40
1.0
 40
1.0
 40
1.0
 40
2.0
 40
2.0
 40
2.0
 40
2.0
 10
4.47872876879041
 20
7.564999718530417
 30
0.0
 10
4.507672648382216
 20
7.5655195727822
 30
0.0
 10
4.504127644695118
 20
7.582364622770228
 30
0.0
 10
4.477664429621933
 20
7.582033806428184
 30
0.0
 10
4.446482923589226
 20
7.581658684326056
 30
0.0
 10
4.456548052261142
 20
7.564580765014814
 30
0.0
 10
4.47872876879041
 20
7.564999718530417
 30
0.0
  0
SPLINE
  5
346
330
341
100
AcDbEntity
  8
BA
 62
   250
420
  2301728
370
    15
100
AcDbSpline
210
0.0
220
0.0
230
1.0
 70
     8
 71
     3
 72
    11
 73
     7
 74
     0
 42
0.0000000001
 43
0.0000000001
 12
1.0
 22
0.0
 32
0.0
 13
1.0
 23
0.0
 33
0.0
 40
0.0
 40
0.0
 40
0.0
 40
0.0
 40
1.0
 40
1.0
 40
1.0
 40
2.0
 40
2.0
 40
2.0
 40
2.0
 10
4.489123535314977
 20
7.56815724236651
 30
0.0
 10
4.486095336735894
 20
7.569483935922486
 30
0.0
 10
4.484458321636894
 20
7.56960208461909
 30
0.0
 10
4.479491405517365
 20
7.56960208461909
 30
0.0
 10
4.474882062661814
 20
7.56960208461909
 30
0.0
 10
4.472127631112977
 20
7.569312145846311
 30
0.0
 10
4.469099432533918
 20
7.56815724236651
 30
0.0
  0
ENDBLK
  5
344
330
341
100
AcDbEntity
  8
0
100
AcDbBlockEnd
  0
BLOCK
  5
349
330
347
100
AcDbEntity
  8
0
100
AcDbBlockBegin
  2
block 22
 70
     0
 10
0.0
 20
0.0
 30
0.0
  3
block 22
  1

  0
SPLINE
  5
34B
330
347
100
AcDbEntity
  8
BA
370
     0
100
AcDbSpline
210
0.0
220
0.0
230
1.0
 70
    11
 71
     3
 72
    14
 73
    10
 74
     0
 42
0.0000000001
 43
0.0000000001
 12
1.0
 22
0.0
 32
0.0
 13
1.0
 23
0.0
 33
0.0
 40
0.0
 40
0.0
 40
0.0
 40
0.0
 40
1.0
 40
1.0
 40
1.0
 40
2.0
 40
2.0
 40
2.0
 40
3.0
 40
3.0
 40
3.0
 40
3.0
 10
4.317128524000433
 20
6.64465333172945
 30
0.0
 10
4.315537891223382
 20
6.639793064910704
 30
0.0
 10
4.29366901602566
 20
6.655645906491208
 30
0.0
 10
4.293259730398833
 20
6.658620203745348
 30
0.0
 10
4.292873699637135
 20
6.661606128432064
 30
0.0
 10
4.304068591725834
 20
6.675631137610885
 30
0.0
 10
4.308338184969443
 20
6.673087055362227
 30
0.0
 10
4.308338184969443
 20
6.673087055362227
 30
0.0
 10
4.318693576425807
 20
6.649536853413324
 30
0.0
 10
4.317128524000433
 20
6.64465333172945
 30
0.0
  0
SPLINE
  5
34C
330
347
100
AcDbEntity
  8
BA
370
     0
100
AcDbSpline
210
0.0
220
0.0
230
1.0
 70
    11
 71
     3
 72
    14
 73
    10
 74
     0
 42
0.0000000001
 43
0.0000000001
 12
1.0
 22
0.0
 32
0.0
 13
1.0
 23
0.0
 33
0.0
 40
0.0
 40
0.0
 40
0.0
 40
0.0
 40
1.0
 40
1.0
 40
1.0
 40
2.0
 40
2.0
 40
2.0
 40
3.0
 40
3.0
 40
3.0
 40
3.0
 10
4.317128524000433
 20
6.358295247618949
 30
0.0
 10
4.315537891223382
 20
6.353423353367652
 30
0.0
 10
4.29366901602566
 20
6.36928549689421
 30
0.0
 10
4.293259730398833
 20
6.372259794148337
 30
0.0
 10
4.292873699637135
 20
6.375248044321577
 30
0.0
 10
4.304068591725834
 20
6.389259100581297
 30
0.0
 10
4.308338184969443
 20
6.386703390900063
 30
0.0
 10
4.308338184969443
 20
6.386703390900063
 30
0.0
 10
4.318693576425807
 20
6.363176443816315
 30
0.0
 10
4.317128524000433
 20
6.358295247618949
 30
0.0
  0
SPLINE
  5
34D
330
347
100
AcDbEntity
  8
BA
370
     0
100
AcDbSpline
210
0.0
220
0.0
230
1.0
 70
    11
 71
     3
 72
    14
 73
    10
 74
     0
 42
0.0000000001
 43
0.0000000001
 12
1.0
 22
0.0
 32
0.0
 13
1.0
 23
0.0
 33
0.0
 40
0.0
 40
0.0
 40
0.0
 40
0.0
 40
1.0
 40
1.0
 40
1.0
 40
2.0
 40
2.0
 40
2.0
 40
3.0
 40
3.0
 40
3.0
 40
3.0
 10
4.178029548037797
 20
6.163272971916222
 30
0.0
 10
4.179278334296908
 20
6.157812729576322
 30
0.0
 10
4.201579749986674
 20
6.165851936462622
 30
0.0
 10
4.202123913831429
 20
6.168712284877452
 30
0.0
 10
4.202693658027922
 20
6.171574958778832
 30
0.0
 10
4.192631277872579
 20
6.189697475199081
 30
0.0
 10
4.188340755250288
 20
6.188641704320755
 30
0.0
 10
4.188340755250288
 20
6.188641704320755
 30
0.0
 10
4.176804269475598
 20
6.168735539742619
 30
0.0
 10
4.178029548037797
 20
6.163272971916222
 30
0.0
  0
SPLINE
  5
34E
330
347
100
AcDbEntity
  8
BA
370
     0
100
AcDbSpline
210
0.0
220
0.0
230
1.0
 70
    11
 71
     3
 72
    14
 73
    10
 74
     0
 42
0.0000000001
 43
0.0000000001
 12
1.0
 22
0.0
 32
0.0
 13
1.0
 23
0.0
 33
0.0
 40
0.0
 40
0.0
 40
0.0
 40
0.0
 40
1.0
 40
1.0
 40
1.0
 40
2.0
 40
2.0
 40
2.0
 40
3.0
 40
3.0
 40
3.0
 40
3.0
 10
4.317128524000433
 20
6.500447936187229
 30
0.0
 10
4.315537891223382
 20
6.495587669245701
 30
0.0
 10
4.29366901602566
 20
6.511449464085153
 30
0.0
 10
4.293259730398833
 20
6.514424110502254
 30
0.0
 10
4.292873699637135
 20
6.517400733318103
 30
0.0
 10
4.304068591725834
 20
6.531423417364648
 30
0.0
 10
4.308338184969443
 20
6.52886735809102
 30
0.0
 10
4.308338184969443
 20
6.52886735809102
 30
0.0
 10
4.318693576425807
 20
6.505328783574694
 30
0.0
 10
4.317128524000433
 20
6.500447936187229
 30
0.0
  0
SPLINE
  5
34F
330
347
100
AcDbEntity
  8
BA
 62
   250
420
  2301728
370
     9
100
AcDbSpline
210
0.0
220
0.0
230
1.0
 70
     8
 71
     3
 72
    20
 73
    16
 74
     0
 42
0.0000000001
 43
0.0000000001
 12
1.0
 22
0.0
 32
0.0
 13
1.0
 23
0.0
 33
0.0
 40
0.0
 40
0.0
 40
0.0
 40
0.0
 40
1.0
 40
1.0
 40
1.0
 40
2.0
 40
2.0
 40
2.0
 40
3.0
 40
3.0
 40
3.0
 40
4.0
 40
4.0
 40
4.0
 40
5.0
 40
5.0
 40
5.0
 40
5.0
 10
4.295371272155458
 20
6.665047848475941
 30
0.0
 10
4.29171560735209
 20
6.660834066908706
 30
0.0
 10
4.290262178279514
 20
6.658462070662254
 30
0.0
 10
4.288627361258654
 20
6.656213325201141
 30
0.0
 10
4.285650738518017
 20
6.652113492473214
 30
0.0
 10
4.28812738165771
 20
6.647004398597245
 30
0.0
 10
4.291555148782487
 20
6.644814142755952
 30
0.0
 10
4.296801446362906
 20
6.641462764229295
 30
0.0
 10
4.308498643539047
 20
6.633584015912624
 30
0.0
 10
4.3116775836066
 20
6.631721653339341
 30
0.0
 10
4.31721921797455
 20
6.628460969117567
 30
0.0
 10
4.320126076119752
 20
6.63341192991043
 30
0.0
 10
4.319058677808824
 20
6.638953916587234
 30
0.0
 10
4.31855869820788
 20
6.641509273959614
 30
0.0
 10
4.318102902850695
 20
6.643790928662989
 30
0.0
 10
4.317672687845238
 20
6.645834678879623
 30
0.0
  0
SPLINE
  5
350
330
347
100
AcDbEntity
  8
BA
 62
   250
420
  2301728
370
    13
100
AcDbSpline
210
0.0
220
0.0
230
1.0
 70
    11
 71
     3
 72
    23
 73
    19
 74
     0
 42
0.0000000001
 43
0.0000000001
 12
1.0
 22
0.0
 32
0.0
 13
1.0
 23
0.0
 33
0.0
 40
0.0
 40
0.0
 40
0.0
 40
0.0
 40
1.0
 40
1.0
 40
1.0
 40
2.0
 40
2.0
 40
2.0
 40
3.0
 40
3.0
 40
3.0
 40
4.0
 40
4.0
 40
4.0
 40
5.0
 40
5.0
 40
5.0
 40
6.0
 40
6.0
 40
6.0
 40
6.0
 10
4.304501132217839
 20
6.672303366406291
 30
0.0
 10
4.307770766259511
 20
6.673721913181124
 30
0.0
 10
4.310156715425036
 20
6.671373171799839
 30
0.0
 10
4.311586889632482
 20
6.665138895420417
 30
0.0
 10
4.312654287943411
 20
6.660459663579609
 30
0.0
 10
4.316310209102817
 20
6.647902036392477
 30
0.0
 10
4.317605248736249
 20
6.641632524744978
 30
0.0
 10
4.310268338777834
 20
6.64546027555054
 30
0.0
 10
4.30218494764775
 20
6.651762344009259
 30
0.0
 10
4.298029303243387
 20
6.65432735563656
 30
0.0
 10
4.293850403973894
 20
6.656883418079587
 30
0.0
 10
4.294757343715219
 20
6.661561944188255
 30
0.0
 10
4.294417822683878
 20
6.661810771245477
 30
0.0
 10
4.29468990460623
 20
6.663231996429026
 30
0.0
 10
4.298550212223063
 20
6.66771518150996
 30
0.0
 10
4.296506109575325
 20
6.66527342066801
 30
0.0
 10
4.294055302581228
 20
6.662345633144191
 30
0.0
 10
4.301184988445812
 20
6.670906102126132
 30
0.0
 10
4.304501132217839
 20
6.672303366406291
 30
0.0
  0
SPLINE
  5
351
330
347
100
AcDbEntity
  8
BA
 62
   250
420
  2301728
370
     9
100
AcDbSpline
210
0.0
220
0.0
230
1.0
 70
     8
 71
     3
 72
    20
 73
    16
 74
     0
 42
0.0000000001
 43
0.0000000001
 12
1.0
 22
0.0
 32
0.0
 13
1.0
 23
0.0
 33
0.0
 40
0.0
 40
0.0
 40
0.0
 40
0.0
 40
1.0
 40
1.0
 40
1.0
 40
2.0
 40
2.0
 40
2.0
 40
3.0
 40
3.0
 40
3.0
 40
4.0
 40
4.0
 40
4.0
 40
5.0
 40
5.0
 40
5.0
 40
5.0
 10
4.295371272155458
 20
6.378687438878942
 30
0.0
 10
4.29171560735209
 20
6.374476328425809
 30
0.0
 10
4.290262178279514
 20
6.372101661065244
 30
0.0
 10
4.288627361258654
 20
6.369841288171566
 30
0.0
 10
4.285650738518017
 20
6.365755753769993
 30
0.0
 10
4.28812738165771
 20
6.360643989000234
 30
0.0
 10
4.291555148782487
 20
6.358453725924871
 30
0.0
 10
4.296801446362906
 20
6.355105025257027
 30
0.0
 10
4.308498643539047
 20
6.347223606315626
 30
0.0
 10
4.3116775836066
 20
6.345361236508261
 30
0.0
 10
4.31721921797455
 20
6.34210288500708
 30
0.0
 10
4.320126076119752
 20
6.347053845799943
 30
0.0
 10
4.319058677808824
 20
6.352593499756166
 30
0.0
 10
4.31855869820788
 20
6.355148864362617
 30
0.0
 10
4.318102902850695
 20
6.357432492121461
 30
0.0
 10
4.317672687845238
 20
6.359474269282625
 30
0.0
  0
SPLINE
  5
352
330
347
100
AcDbEntity
  8
BA
 62
   250
420
  2301728
370
    13
100
AcDbSpline
210
0.0
220
0.0
230
1.0
 70
    11
 71
     3
 72
    23
 73
    19
 74
     0
 42
0.0000000001
 43
0.0000000001
 12
1.0
 22
0.0
 32
0.0
 13
1.0
 23
0.0
 33
0.0
 40
0.0
 40
0.0
 40
0.0
 40
0.0
 40
1.0
 40
1.0
 40
1.0
 40
2.0
 40
2.0
 40
2.0
 40
3.0
 40
3.0
 40
3.0
 40
4.0
 40
4.0
 40
4.0
 40
5.0
 40
5.0
 40
5.0
 40
6.0
 40
6.0
 40
6.0
 40
6.0
 10
4.304501132217839
 20
6.385942956809294
 30
0.0
 10
4.307770766259511
 20
6.387363829070637
 30
0.0
 10
4.310156715425036
 20
6.385012762202829
 30
0.0
 10
4.311586889632482
 20
6.378778478589348
 30
0.0
 10
4.312654287943411
 20
6.374099253982599
 30
0.0
 10
4.316310209102817
 20
6.361541626795492
 30
0.0
 10
4.317605248736249
 20
6.3552628132019
 30
0.0
 10
4.310268338777834
 20
6.359099865953517
 30
0.0
 10
4.30218494764775
 20
6.365401934412248
 30
0.0
 10
4.298029303243387
 20
6.367969271526071
 30
0.0
 10
4.293850403973894
 20
6.370501726342139
 30
0.0
 10
4.294757343715219
 20
6.375201534591244
 30
0.0
 10
4.294417822683878
 20
6.375453032787264
 30
0.0
 10
4.29468990460623
 20
6.376871579597946
 30
0.0
 10
4.298550212223063
 20
6.381357097399473
 30
0.0
 10
4.296506109575325
 20
6.378915336557522
 30
0.0
 10
4.294055302581228
 20
6.375985223547192
 30
0.0
 10
4.301184988445812
 20
6.384547664899602
 30
0.0
 10
4.304501132217839
 20
6.385942956809294
 30
0.0
  0
SPLINE
  5
353
330
347
100
AcDbEntity
  8
BA
 62
   250
420
  2301728
370
     9
100
AcDbSpline
210
0.0
220
0.0
230
1.0
 70
     8
 71
     3
 72
    20
 73
    16
 74
     0
 42
0.0000000001
 43
0.0000000001
 12
1.0
 22
0.0
 32
0.0
 13
1.0
 23
0.0
 33
0.0
 40
0.0
 40
0.0
 40
0.0
 40
0.0
 40
1.0
 40
1.0
 40
1.0
 40
2.0
 40
2.0
 40
2.0
 40
3.0
 40
3.0
 40
3.0
 40
4.0
 40
4.0
 40
4.0
 40
5.0
 40
5.0
 40
5.0
 40
5.0
 10
4.200444912566809
 20
6.17592361856402
 30
0.0
 10
4.203781985717468
 20
6.170370356763467
 30
0.0
 10
4.20503077197663
 20
6.167463498618304
 30
0.0
 10
4.206484201049205
 20
6.164624419908376
 30
0.0
 10
4.209095722406826
 20
6.159435919164606
 30
0.0
 10
4.206393507075088
 20
6.155177953353561
 30
0.0
 10
4.202919483711538
 20
6.154201249016776
 30
0.0
 10
4.197628748395775
 20
6.152736192511611
 30
0.0
 10
4.185729233892667
 20
6.149045645410486
 30
0.0
 10
4.182527038959986
 20
6.14832009361746
 30
0.0
 10
4.176917965483047
 20
6.147048052493144
 30
0.0
 10
4.174418067478174
 20
6.153066751631223
 30
0.0
 10
4.175781055382711
 20
6.158231317149241
 30
0.0
 10
4.176441240747232
 20
6.160649823126012
 30
0.0
 10
4.177008659457164
 20
6.162764030648469
 30
0.0
 10
4.177552823301968
 20
6.164647674774137
 30
0.0
  0
SPLINE
  5
354
330
347
100
AcDbEntity
  8
BA
 62
   250
420
  2301728
370
    13
100
AcDbSpline
210
0.0
220
0.0
230
1.0
 70
    11
 71
     3
 72
    23
 73
    19
 74
     0
 42
0.0000000001
 43
0.0000000001
 12
1.0
 22
0.0
 32
0.0
 13
1.0
 23
0.0
 33
0.0
 40
0.0
 40
0.0
 40
0.0
 40
0.0
 40
1.0
 40
1.0
 40
1.0
 40
2.0
 40
2.0
 40
2.0
 40
3.0
 40
3.0
 40
3.0
 40
4.0
 40
4.0
 40
4.0
 40
5.0
 40
5.0
 40
5.0
 40
6.0
 40
6.0
 40
6.0
 40
6.0
 10
4.192042929784015
 20
6.186483993712297
 30
0.0
 10
4.1889314288254
 20
6.189106801623981
 30
0.0
 10
4.186478293627134
 20
6.187595235388496
 30
0.0
 10
4.184682764960422
 20
6.181828028828463
 30
0.0
 10
4.183366539592321
 20
6.177558435584867
 30
0.0
 10
4.178120242011902
 20
6.164454319066408
 30
0.0
 10
4.176485424991041
 20
6.158617347910914
 30
0.0
 10
4.183866519193265
 20
6.159833917564115
 30
0.0
 10
4.193903318996919
 20
6.163252382829228
 30
0.0
 10
4.198105726501555
 20
6.164319440848481
 30
0.0
 10
4.202307627266211
 20
6.165386839159383
 30
0.0
 10
4.20173788306978
 20
6.170416866493787
 30
0.0
 10
4.202079729587618
 20
6.170551744711727
 30
0.0
 10
4.201921596504513
 20
6.172063310947212
 30
0.0
 10
4.197538054421607
 20
6.179737416450457
 30
0.0
 10
4.199377514255881
 20
6.17658173124807
 30
0.0
 10
4.201603004851854
 20
6.172744678496441
 30
0.0
 10
4.195175613417202
 20
6.183904688287384
 30
0.0
 10
4.192042929784015
 20
6.186483993712297
 30
0.0
  0
SPLINE
  5
355
330
347
100
AcDbEntity
  8
BA
 62
   250
420
  2301728
370
     9
100
AcDbSpline
210
0.0
220
0.0
230
1.0
 70
     8
 71
     3
 72
    20
 73
    16
 74
     0
 42
0.0000000001
 43
0.0000000001
 12
1.0
 22
0.0
 32
0.0
 13
1.0
 23
0.0
 33
0.0
 40
0.0
 40
0.0
 40
0.0
 40
0.0
 40
1.0
 40
1.0
 40
1.0
 40
2.0
 40
2.0
 40
2.0
 40
3.0
 40
3.0
 40
3.0
 40
4.0
 40
4.0
 40
4.0
 40
5.0
 40
5.0
 40
5.0
 40
5.0
 10
4.295371272155458
 20
6.52083977863731
 30
0.0
 10
4.29171560735209
 20
6.516637624502651
 30
0.0
 10
4.290262178279514
 20
6.5142656282562
 30
0.0
 10
4.288627361258654
 20
6.51200560446437
 30
0.0
 10
4.285650738518017
 20
6.507896120688492
 30
0.0
 10
4.28812738165771
 20
6.502796677627846
 30
0.0
 10
4.291555148782487
 20
6.500605720460422
 30
0.0
 10
4.296801446362906
 20
6.49726632182324
 30
0.0
 10
4.308498643539047
 20
6.48937594607398
 30
0.0
 10
4.3116775836066
 20
6.487489976509399
 30
0.0
 10
4.31721921797455
 20
6.484266852198036
 30
0.0
 10
4.320126076119752
 20
6.48921583603054
 30
0.0
 10
4.319058677808824
 20
6.494724565061106
 30
0.0
 10
4.31855869820788
 20
6.49731283155356
 30
0.0
 10
4.318102902850695
 20
6.499582506393304
 30
0.0
 10
4.317672687845238
 20
6.501605679662348
 30
0.0
  0
SPLINE
  5
356
330
347
100
AcDbEntity
  8
BA
 62
   250
420
  2301728
370
    13
100
AcDbSpline
210
0.0
220
0.0
230
1.0
 70
    11
 71
     3
 72
    23
 73
    19
 74
     0
 42
0.0000000001
 43
0.0000000001
 12
1.0
 22
0.0
 32
0.0
 13
1.0
 23
0.0
 33
0.0
 40
0.0
 40
0.0
 40
0.0
 40
0.0
 40
1.0
 40
1.0
 40
1.0
 40
2.0
 40
2.0
 40
2.0
 40
3.0
 40
3.0
 40
3.0
 40
4.0
 40
4.0
 40
4.0
 40
5.0
 40
5.0
 40
5.0
 40
6.0
 40
6.0
 40
6.0
 40
6.0
 10
4.304501132217839
 20
6.528095296567661
 30
0.0
 10
4.307770766259511
 20
6.529516518373257
 30
0.0
 10
4.310156715425036
 20
6.527165101961195
 30
0.0
 10
4.311586889632482
 20
6.520907217746285
 30
0.0
 10
4.312654287943411
 20
6.516263221173554
 30
0.0
 10
4.316310209102817
 20
6.503705593986423
 30
0.0
 10
4.317605248736249
 20
6.497426780392844
 30
0.0
 10
4.310268338777834
 20
6.501240578279319
 30
0.0
 10
4.30218494764775
 20
6.507565901603205
 30
0.0
 10
4.298029303243387
 20
6.510121960338715
 30
0.0
 10
4.293850403973894
 20
6.512654066100493
 30
0.0
 10
4.294757343715219
 20
6.51735422358662
 30
0.0
 10
4.294417822683878
 20
6.517602701406846
 30
0.0
 10
4.29468990460623
 20
6.519023573668227
 30
0.0
 10
4.298550212223063
 20
6.523518739103893
 30
0.0
 10
4.296506109575325
 20
6.521079303748492
 30
0.0
 10
4.294055302581228
 20
6.518137563305559
 30
0.0
 10
4.301184988445812
 20
6.526700004657969
 30
0.0
 10
4.304501132217839
 20
6.528095296567661
 30
0.0
  0
ENDBLK
  5
34A
330
347
100
AcDbEntity
  8
0
100
AcDbBlockEnd
  0
BLOCK
  5
359
330
357
100
AcDbEntity
  8
0
100
AcDbBlockBegin
  2
block 23
 70
     0
 10
0.0
 20
0.0
 30
0.0
  3
block 23
  1

  0
SPLINE
  5
35B
330
357
100
AcDbEntity
  8
BA
 62
   250
420
  2301728
370
    13
100
AcDbSpline
210
0.0
220
0.0
230
1.0
 70
     8
 71
     3
 72
    11
 73
     7
 74
     0
 42
0.0000000001
 43
0.0000000001
 12
1.0
 22
0.0
 32
0.0
 13
1.0
 23
0.0
 33
0.0
 40
0.0
 40
0.0
 40
0.0
 40
0.0
 40
1.0
 40
1.0
 40
1.0
 40
2.0
 40
2.0
 40
2.0
 40
2.0
 10
4.30135918387719
 20
5.79207592604775
 30
0.0
 10
4.30135918387719
 20
5.79207592604775
 30
0.0
 10
4.30135918387719
 20
6.141851745497648
 30
0.0
 10
4.30135918387719
 20
6.141851745497648
 30
0.0
 10
4.30135918387719
 20
6.157625520536625
 30
0.0
 10
4.311077392028134
 20
6.16237183851605
 30
0.0
 10
4.31832360801238
 20
6.154830285744222
 30
0.0
  0
POLYLINE
  5
35C
330
357
100
AcDbEntity
  8
BA
 62
   250
420
  2301728
370
     9
100
AcDb2dPolyline
 66
     1
 10
0.0
 20
0.0
 30
0.0
  0
VERTEX
  5
35D
330
35C
100
AcDbEntity
  8
BA
 62
   250
420
  2301728
370
     9
100
AcDbVertex
100
AcDb2dVertex
 10
4.322728079473968
 20
6.136084538937653
 30
0.0
  0
VERTEX
  5
35E
330
35C
100
AcDbEntity
  8
BA
 62
   250
420
  2301728
370
     9
100
AcDbVertex
100
AcDb2dVertex
 10
4.322728079473968
 20
5.7890574445498
 30
0.0
  0
SEQEND
  5
35F
330
35C
100
AcDbEntity
  8
BA
 62
   250
420
  2301728
370
     9
  0
SPLINE
  5
360
330
357
100
AcDbEntity
  8
BA
 62
   250
420
  2301728
370
    13
100
AcDbSpline
210
0.0
220
0.0
230
1.0
 70
     8
 71
     3
 72
    11
 73
     7
 74
     0
 42
0.0000000001
 43
0.0000000001
 12
1.0
 22
0.0
 32
0.0
 13
1.0
 23
0.0
 33
0.0
 40
0.0
 40
0.0
 40
0.0
 40
0.0
 40
1.0
 40
1.0
 40
1.0
 40
2.0
 40
2.0
 40
2.0
 40
2.0
 10
4.36113142052525
 20
5.747740366960139
 30
0.0
 10
4.36113142052525
 20
5.747740366960139
 30
0.0
 10
4.36113142052525
 20
5.95488262960032
 30
0.0
 10
4.36113142052525
 20
5.95488262960032
 30
0.0
 10
4.36113142052525
 20
5.97065441558766
 30
0.0
 10
4.370828699542522
 20
5.975400397132185
 30
0.0
 10
4.378049078206307
 20
5.967861169846893
 30
0.0
  0
POLYLINE
  5
361
330
357
100
AcDbEntity
  8
BA
 62
   250
420
  2301728
370
     9
100
AcDb2dPolyline
 66
     1
 10
0.0
 20
0.0
 30
0.0
  0
VERTEX
  5
362
330
361
100
AcDbEntity
  8
BA
 62
   250
420
  2301728
370
     9
100
AcDbVertex
100
AcDb2dVertex
 10
4.382500059398201
 20
5.947024810662279
 30
0.0
  0
VERTEX
  5
363
330
361
100
AcDbEntity
  8
BA
 62
   250
420
  2301728
370
     9
100
AcDbVertex
100
AcDb2dVertex
 10
4.382500059398201
 20
5.748296485897399
 30
0.0
  0
SEQEND
  5
364
330
361
100
AcDbEntity
  8
BA
 62
   250
420
  2301728
370
     9
  0
SPLINE
  5
365
330
357
100
AcDbEntity
  8
BA
 62
   250
420
  2301728
370
     9
100
AcDbSpline
210
0.0
220
0.0
230
1.0
 70
     8
 71
     3
 72
     8
 73
     4
 74
     0
 42
0.0000000001
 43
0.0000000001
 12
1.0
 22
0.0
 32
0.0
 13
1.0
 23
0.0
 33
0.0
 40
0.0
 40
0.0
 40
0.0
 40
0.0
 40
1.0
 40
1.0
 40
1.0
 40
1.0
 10
4.32690697874346
 20
5.762395741642295
 30
0.0
 10
4.32690697874346
 20
5.762395741642295
 30
0.0
 10
4.323204804209783
 20
5.766914161943178
 30
0.0
 10
4.323523395862493
 20
5.776190856722324
 30
0.0
  0
SPLINE
  5
366
330
357
100
AcDbEntity
  8
BA
 62
   250
420
  2301728
370
     9
100
AcDbSpline
210
0.0
220
0.0
230
1.0
 70
     8
 71
     3
 72
     8
 73
     4
 74
     0
 42
0.0000000001
 43
0.0000000001
 12
1.0
 22
0.0
 32
0.0
 13
1.0
 23
0.0
 33
0.0
 40
0.0
 40
0.0
 40
0.0
 40
0.0
 40
1.0
 40
1.0
 40
1.0
 40
1.0
 10
4.386111539957761
 20
5.723883200791129
 30
0.0
 10
4.386111539957761
 20
5.723883200791129
 30
0.0
 10
4.382386367819688
 20
5.728390320816439
 30
0.0
 10
4.382727957076794
 20
5.737669012250181
 30
0.0
  0
SPLINE
  5
367
330
357
100
AcDbEntity
  8
BA
 62
   250
420
  2301728
370
    15
100
AcDbSpline
210
0.0
220
0.0
230
1.0
 70
     8
 71
     3
 72
    20
 73
    16
 74
     0
 42
0.0000000001
 43
0.0000000001
 12
1.0
 22
0.0
 32
0.0
 13
1.0
 23
0.0
 33
0.0
 40
0.0
 40
0.0
 40
0.0
 40
0.0
 40
1.0
 40
1.0
 40
1.0
 40
2.0
 40
2.0
 40
2.0
 40
3.0
 40
3.0
 40
3.0
 40
4.0
 40
4.0
 40
4.0
 40
5.0
 40
5.0
 40
5.0
 40
5.0
 10
4.287928300484357
 20
5.78961629727587
 30
0.0
 10
4.287928300484357
 20
5.78961629727587
 30
0.0
 10
4.29284869976358
 20
5.771276595744666
 30
0.0
 10
4.306737588652469
 20
5.762395741642295
 30
0.0
 10
4.315827505391098
 20
5.756583453488487
 30
0.0
 10
4.325407039940526
 20
5.76290734867588
 30
0.0
 10
4.325407039940526
 20
5.76290734867588
 30
0.0
 10
4.325407039940526
 20
5.76290734867588
 30
0.0
 10
4.358788800640872
 20
5.747740366960139
 30
0.0
 10
4.358788800640872
 20
5.747740366960139
 30
0.0
 10
4.358788800640872
 20
5.747740366960139
 30
0.0
 10
4.359835867811954
 20
5.735317617990959
 30
0.0
 10
4.36780763558929
 20
5.727597002757395
 30
0.0
 10
4.374121331480587
 20
5.721487949679461
 30
0.0
 10
4.38977541371158
 20
5.725768321512987
 30
0.0
 10
4.38977541371158
 20
5.725768321512987
 30
0.0
  0
SPLINE
  5
368
330
357
100
AcDbEntity
  8
BA
 62
   250
420
  2301728
370
     9
100
AcDbSpline
210
0.0
220
0.0
230
1.0
 70
    11
 71
     3
 72
    20
 73
    16
 74
     0
 42
0.0000000001
 43
0.0000000001
 12
1.0
 22
0.0
 32
0.0
 13
1.0
 23
0.0
 33
0.0
 40
0.0
 40
0.0
 40
0.0
 40
0.0
 40
1.0
 40
1.0
 40
1.0
 40
2.0
 40
2.0
 40
2.0
 40
3.0
 40
3.0
 40
3.0
 40
4.0
 40
4.0
 40
4.0
 40
5.0
 40
5.0
 40
5.0
 40
5.0
 10
4.4263982683633
 20
5.807942561889894
 30
0.0
 10
4.4263982683633
 20
5.807942561889894
 30
0.0
 10
4.429170248290575
 20
5.805900784728692
 30
0.0
 10
4.431053892368608
 20
5.804219457977575
 30
0.0
 10
4.429805106109446
 20
5.796452333013652
 30
0.0
 10
4.420879888860529
 20
5.787594554873686
 30
0.0
 10
4.411273304062383
 20
5.792808295642872
 30
0.0
 10
4.39433213479232
 20
5.802017222246781
 30
0.0
 10
4.393150787642096
 20
5.826055776364076
 30
0.0
 10
4.401350453098025
 20
5.827474323138934
 30
0.0
 10
4.401576025290069
 20
5.828200204610362
 30
0.0
 10
4.4037575894429
 20
5.825851463169733
 30
0.0
 10
4.406687702527153
 20
5.823898054446848
 30
0.0
 10
4.399101707636924
 20
5.820921431630975
 30
0.0
 10
4.411024477005159
 20
5.800926569070725
 30
0.0
 10
4.4263982683633
 20
5.807942561889894
 30
0.0
  0
POLYLINE
  5
369
330
357
100
AcDbEntity
  8
BA
 62
   250
420
  2301728
370
    13
100
AcDb2dPolyline
 66
     1
 10
0.0
 20
0.0
 30
0.0
  0
VERTEX
  5
36A
330
369
100
AcDbEntity
  8
BA
 62
   250
420
  2301728
370
    13
100
AcDbVertex
100
AcDb2dVertex
 10
4.401666719264187
 20
5.827155731486173
 30
0.0
  0
VERTEX
  5
36B
330
369
100
AcDbEntity
  8
BA
 62
   250
420
  2301728
370
    13
100
AcDbVertex
100
AcDb2dVertex
 10
4.430486473658675
 20
5.804854315796446
 30
0.0
  0
SEQEND
  5
36C
330
369
100
AcDbEntity
  8
BA
 62
   250
420
  2301728
370
    13
  0
SPLINE
  5
36D
330
357
100
AcDbEntity
  8
BA
 62
   250
420
  2301728
370
     9
100
AcDbSpline
210
0.0
220
0.0
230
1.0
 70
     8
 71
     3
 72
     8
 73
     4
 74
     0
 42
0.0000000001
 43
0.0000000001
 12
1.0
 22
0.0
 32
0.0
 13
1.0
 23
0.0
 33
0.0
 40
0.0
 40
0.0
 40
0.0
 40
0.0
 40
1.0
 40
1.0
 40
1.0
 40
1.0
 10
4.410161721507645
 20
5.820683902511822
 30
0.0
 10
4.410161721507645
 20
5.820683902511822
 30
0.0
 10
4.410275670346942
 20
5.81024944451388
 30
0.0
 10
4.416952142134758
 20
5.80687549271872
 30
0.0
  0
SPLINE
  5
36E
330
357
100
AcDbEntity
  8
BA
 62
   250
420
  2301728
370
     9
100
AcDbSpline
210
0.0
220
0.0
230
1.0
 70
     8
 71
     3
 72
    11
 73
     7
 74
     0
 42
0.0000000001
 43
0.0000000001
 12
1.0
 22
0.0
 32
0.0
 13
1.0
 23
0.0
 33
0.0
 40
0.0
 40
0.0
 40
0.0
 40
0.0
 40
1.0
 40
1.0
 40
1.0
 40
2.0
 40
2.0
 40
2.0
 40
2.0
 10
4.430214391736273
 20
5.80299392658354
 30
0.0
 10
4.430214391736273
 20
5.80299392658354
 30
0.0
 10
4.418110234419802
 20
5.793943133062738
 30
0.0
 10
4.40371107971138
 20
5.807126316122726
 30
0.0
 10
4.390743909097889
 20
5.819037787505345
 30
0.0
 10
4.40089465774084
 20
5.827497578004075
 30
0.0
 10
4.40089465774084
 20
5.827497578004075
 30
0.0
  0
SPLINE
  5
36F
330
357
100
AcDbEntity
  8
BA
 62
   250
420
  2301728
370
     9
100
AcDbSpline
210
0.0
220
0.0
230
1.0
 70
    11
 71
     3
 72
    17
 73
    13
 74
     0
 42
0.0000000001
 43
0.0000000001
 12
1.0
 22
0.0
 32
0.0
 13
1.0
 23
0.0
 33
0.0
 40
0.0
 40
0.0
 40
0.0
 40
0.0
 40
1.0
 40
1.0
 40
1.0
 40
2.0
 40
2.0
 40
2.0
 40
3.0
 40
3.0
 40
3.0
 40
4.0
 40
4.0
 40
4.0
 40
4.0
 10
4.34387140287865
 20
5.840476118250623
 30
0.0
 10
4.34387140287865
 20
5.840476118250623
 30
0.0
 10
4.352615232179334
 20
5.816642536333196
 30
0.0
 10
4.352615232179334
 20
5.816642536333196
 30
0.0
 10
4.352615232179334
 20
5.816642536333196
 30
0.0
 10
4.34387140287865
 20
5.813712423248893
 30
0.0
 10
4.337034472521231
 20
5.818686309594441
 30
0.0
 10
4.33017661278513
 20
5.823669827198501
 30
0.0
 10
4.327860428215091
 20
5.833639187893216
 30
0.0
 10
4.327860428215091
 20
5.833639187893216
 30
0.0
 10
4.327860428215091
 20
5.833639187893216
 30
0.0
 10
4.34387140287865
 20
5.840476118250623
 30
0.0
 10
4.34387140287865
 20
5.840476118250623
 30
0.0
  0
SPLINE
  5
370
330
357
100
AcDbEntity
  8
BA
 62
   250
420
  2301728
370
     9
100
AcDbSpline
210
0.0
220
0.0
230
1.0
 70
     8
 71
     3
 72
    11
 73
     7
 74
     0
 42
0.0000000001
 43
0.0000000001
 12
1.0
 22
0.0
 32
0.0
 13
1.0
 23
0.0
 33
0.0
 40
0.0
 40
0.0
 40
0.0
 40
0.0
 40
1.0
 40
1.0
 40
1.0
 40
2.0
 40
2.0
 40
2.0
 40
2.0
 10
4.346527364834957
 20
5.832083767190448
 30
0.0
 10
4.346527364834957
 20
5.832083767190448
 30
0.0
 10
4.336718206355019
 20
5.833015957506884
 30
0.0
 10
4.336718206355019
 20
5.833015957506884
 30
0.0
 10
4.336718206355019
 20
5.833015957506884
 30
0.0
 10
4.338897187220684
 20
5.821479548408964
 30
0.0
 10
4.350115334174512
 20
5.823034969379578
 30
0.0
  0
POLYLINE
  5
371
330
357
100
AcDbEntity
  8
BA
 62
   250
420
  2301728
370
     9
100
AcDb2dPolyline
 66
     1
 10
0.0
 20
0.0
 30
0.0
  0
VERTEX
  5
372
330
371
100
AcDbEntity
  8
BA
 62
   250
420
  2301728
370
     9
100
AcDbVertex
100
AcDb2dVertex
 10
4.328427846925024
 20
5.832708993286764
 30
0.0
  0
VERTEX
  5
373
330
371
100
AcDbEntity
  8
BA
 62
   250
420
  2301728
370
     9
100
AcDbVertex
100
AcDb2dVertex
 10
4.336853340683521
 20
5.832390401634004
 30
0.0
  0
SEQEND
  5
374
330
371
100
AcDbEntity
  8
BA
 62
   250
420
  2301728
370
     9
  0
ENDBLK
  5
35A
330
357
100
AcDbEntity
  8
0
100
AcDbBlockEnd
  0
ENDSEC
  0
SECTION
  2
ENTITIES
  0
INSERT
  5
42
330
1F
100
AcDbEntity
  8
Beam
100
AcDbBlockReference
  2
block 2
 10
0.0
 20
0.0
 30
0.0
  0
POLYLINE
  5
E4
330
1F
100
AcDbEntity
  8
Beam
 62
   250
420
  2301728
370
    18
100
AcDb2dPolyline
 66
     1
 10
0.0
 20
0.0
 30
0.0
  0
VERTEX
  5
E5
330
E4
100
AcDbEntity
  8
Beam
 62
   250
420
  2301728
370
    18
100
AcDbVertex
100
AcDb2dVertex
 10
5.349686379928319
 20
7.761872759856638
 30
0.0
  0
VERTEX
  5
E6
330
E4
100
AcDbEntity
  8
Beam
 62
   250
420
  2301728
370
    18
100
AcDbVertex
100
AcDb2dVertex
 10
5.287186379928319
 20
7.735663082437276
 30
0.0
  0
VERTEX
  5
E7
330
E4
100
AcDbEntity
  8
Beam
 62
   250
420
  2301728
370
    18
100
AcDbVertex
100
AcDb2dVertex
 10
5.349686379928319
 20
7.73297491039428
 30
0.0
  0
SEQEND
  5
E9
330
E4
100
AcDbEntity
  8
Beam
 62
   250
420
  2301728
370
    18
  0
HATCH
  5
E8
330
1F
100
AcDbEntity
  8
Beam
 62
    43
420
 15510365
100
AcDbHatch
 10
0.0
 20
0.0
 30
0.0
210
0.0
220
0.0
230
1.0
  2
SOLID
 70
     1
 71
     0
 91
        1
 92
        1
 93
        3
 72
     1
 10
5.349686379928319
 20
7.761872759856638
 11
5.287186379928319
 21
7.735663082437275
 72
     1
 10
5.287186379928319
 20
7.735663082437276
 11
5.349686379928319
 21
7.73297491039428
 72
     1
 10
5.349686379928319
 20
7.73297491039428
 11
5.349686379928319
 21
7.761872759856638
 97
        0
 75
     2
 76
     1
 98
        0
  0
POLYLINE
  5
EB
330
1F
100
AcDbEntity
  8
Wood
370
     0
100
AcDb2dPolyline
 66
     1
 10
0.0
 20
0.0
 30
0.0
  0
VERTEX
  5
EC
330
EB
100
AcDbEntity
  8
Wood
370
     0
100
AcDbVertex
100
AcDb2dVertex
 10
4.247346581785942
 20
7.192432715195372
 30
0.0
  0
VERTEX
  5
ED
330
EB
100
AcDbEntity
  8
Wood
370
     0
100
AcDbVertex
100
AcDb2dVertex
 10
4.392326449768158
 20
7.133453284729941
 30
0.0
  0
VERTEX
  5
EE
330
EB
100
AcDbEntity
  8
Wood
370
     0
100
AcDbVertex
100
AcDb2dVertex
 10
4.392326449768158
 20
6.070551026795682
 30
0.0
  0
VERTEX
  5
EF
330
EB
100
AcDbEntity
  8
Wood
370
     0
100
AcDbVertex
100
AcDb2dVertex
 10
4.246146418956704
 20
6.023476101619116
 30
0.0
  0
VERTEX
  5
F0
330
EB
100
AcDbEntity
  8
Wood
370
     0
100
AcDbVertex
100
AcDb2dVertex
 10
4.246146418956704
 20
5.835176400912801
 30
0.0
  0
VERTEX
  5
F1
330
EB
100
AcDbEntity
  8
Wood
370
     0
100
AcDbVertex
100
AcDb2dVertex
 10
5.086062189212448
 20
5.347083755660933
 30
0.0
  0
VERTEX
  5
F2
330
EB
100
AcDbEntity
  8
Wood
370
     0
100
AcDbVertex
100
AcDb2dVertex
 10
5.447795824779809
 20
5.503174297035912
 30
0.0
  0
VERTEX
  5
F3
330
EB
100
AcDbEntity
  8
Wood
370
     0
100
AcDbVertex
100
AcDb2dVertex
 10
5.447795824779809
 20
5.713047280902439
 30
0.0
  0
VERTEX
  5
F4
330
EB
100
AcDbEntity
  8
Wood
370
     0
100
AcDbVertex
100
AcDb2dVertex
 10
5.325898631363139
 20
5.775955153989608
 30
0.0
  0
VERTEX
  5
F5
330
EB
100
AcDbEntity
  8
Wood
370
     0
100
AcDbVertex
100
AcDb2dVertex
 10
5.325898631363139
 20
6.311587527363472
 30
0.0
  0
VERTEX
  5
F6
330
EB
100
AcDbEntity
  8
Wood
370
     0
100
AcDbVertex
100
AcDb2dVertex
 10
5.364630784335228
 20
6.325916143536169
 30
0.0
  0
VERTEX
  5
F7
330
EB
100
AcDbEntity
  8
Wood
370
     0
100
AcDbVertex
100
AcDb2dVertex
 10
5.287824327468191
 20
6.395140068771095
 30
0.0
  0
VERTEX
  5
F8
330
EB
100
AcDbEntity
  8
Wood
370
     0
100
AcDbVertex
100
AcDb2dVertex
 10
5.325898631363139
 20
6.407842370160298
 30
0.0
  0
VERTEX
  5
F9
330
EB
100
AcDbEntity
  8
Wood
370
     0
100
AcDbVertex
100
AcDb2dVertex
 10
5.325898631363139
 20
6.930064831690717
 30
0.0
  0
VERTEX
  5
FA
330
EB
100
AcDbEntity
  8
Wood
370
     0
100
AcDbVertex
100
AcDb2dVertex
 10
5.447795824779809
 20
6.967428447566135
 30
0.0
  0
VERTEX
  5
FB
330
EB
100
AcDbEntity
  8
Wood
370
     0
100
AcDbVertex
100
AcDb2dVertex
 10
5.447795824779809
 20
7.183005837547385
 30
0.0
  0
VERTEX
  5
FC
330
EB
100
AcDbEntity
  8
Wood
370
     0
100
AcDbVertex
100
AcDb2dVertex
 10
4.928133248127955
 20
7.356226696431336
 30
0.0
  0
SEQEND
  5
FE
330
EB
100
AcDbEntity
  8
Wood
370
     0
  0
HATCH
  5
FD
330
1F
100
AcDbEntity
  8
Wood
 62
    43
420
 15510365
100
AcDbHatch
 10
0.0
 20
0.0
 30
0.0
210
0.0
220
0.0
230
1.0
  2
SOLID
 70
     1
 71
     0
 91
        1
 92
        1
 93
       17
 72
     1
 10
4.247346581785942
 20
7.192432715195372
 11
4.392326449768158
 21
7.133453284729941
 72
     1
 10
4.392326449768158
 20
7.133453284729941
 11
4.392326449768158
 21
6.070551026795682
 72
     1
 10
4.392326449768158
 20
6.070551026795682
 11
4.246146418956704
 21
6.023476101619116
 72
     1
 10
4.246146418956704
 20
6.023476101619116
 11
4.246146418956704
 21
5.835176400912802
 72
     1
 10
4.246146418956704
 20
5.835176400912801
 11
5.086062189212448
 21
5.347083755660933
 72
     1
 10
5.086062189212448
 20
5.347083755660933
 11
5.447795824779809
 21
5.503174297035911
 72
     1
 10
5.447795824779809
 20
5.503174297035912
 11
5.447795824779809
 21
5.71304728090244
 72
     1
 10
5.447795824779809
 20
5.713047280902439
 11
5.325898631363139
 21
5.775955153989608
 72
     1
 10
5.325898631363139
 20
5.775955153989608
 11
5.325898631363139
 21
6.311587527363472
 72
     1
 10
5.325898631363139
 20
6.311587527363472
 11
5.364630784335229
 21
6.325916143536169
 72
     1
 10
5.364630784335228
 20
6.325916143536169
 11
5.287824327468191
 21
6.395140068771095
 72
     1
 10
5.287824327468191
 20
6.395140068771095
 11
5.325898631363139
 21
6.407842370160298
 72
     1
 10
5.325898631363139
 20
6.407842370160298
 11
5.325898631363139
 21
6.930064831690717
 72
     1
 10
5.325898631363139
 20
6.930064831690717
 11
5.447795824779809
 21
6.967428447566134
 72
     1
 10
5.447795824779809
 20
6.967428447566135
 11
5.447795824779809
 21
7.183005837547386
 72
     1
 10
5.447795824779809
 20
7.183005837547385
 11
4.928133248127955
 21
7.356226696431336
 72
     1
 10
4.928133248127955
 20
7.356226696431336
 11
4.247346581785943
 21
7.192432715195372
 97
        0
 75
     2
 76
     1
 98
        0
  0
POLYLINE
  5
FF
330
1F
100
AcDbEntity
  8
Wood
 62
   250
420
  2301728
370
    25
100
AcDb2dPolyline
 66
     1
 10
0.0
 20
0.0
 30
0.0
  0
VERTEX
  5
100
330
FF
100
AcDbEntity
  8
Wood
 62
   250
420
  2301728
370
    25
100
AcDbVertex
100
AcDb2dVertex
 10
4.247346581785942
 20
7.192432715195372
 30
0.0
  0
VERTEX
  5
101
330
FF
100
AcDbEntity
  8
Wood
 62
   250
420
  2301728
370
    25
100
AcDbVertex
100
AcDb2dVertex
 10
4.392326449768158
 20
7.133453284729941
 30
0.0
  0
VERTEX
  5
102
330
FF
100
AcDbEntity
  8
Wood
 62
   250
420
  2301728
370
    25
100
AcDbVertex
100
AcDb2dVertex
 10
4.392326449768158
 20
6.070551026795682
 30
0.0
  0
VERTEX
  5
103
330
FF
100
AcDbEntity
  8
Wood
 62
   250
420
  2301728
370
    25
100
AcDbVertex
100
AcDb2dVertex
 10
4.246146418956704
 20
6.023476101619116
 30
0.0
  0
VERTEX
  5
104
330
FF
100
AcDbEntity
  8
Wood
 62
   250
420
  2301728
370
    25
100
AcDbVertex
100
AcDb2dVertex
 10
4.246146418956704
 20
5.835176400912801
 30
0.0
  0
VERTEX
  5
105
330
FF
100
AcDbEntity
  8
Wood
 62
   250
420
  2301728
370
    25
100
AcDbVertex
100
AcDb2dVertex
 10
5.086062189212448
 20
5.347083755660933
 30
0.0
  0
VERTEX
  5
106
330
FF
100
AcDbEntity
  8
Wood
 62
   250
420
  2301728
370
    25
100
AcDbVertex
100
AcDb2dVertex
 10
5.447795824779809
 20
5.503174297035912
 30
0.0
  0
VERTEX
  5
107
330
FF
100
AcDbEntity
  8
Wood
 62
   250
420
  2301728
370
    25
100
AcDbVertex
100
AcDb2dVertex
 10
5.447795824779809
 20
5.713047280902439
 30
0.0
  0
VERTEX
  5
108
330
FF
100
AcDbEntity
  8
Wood
 62
   250
420
  2301728
370
    25
100
AcDbVertex
100
AcDb2dVertex
 10
5.325898631363139
 20
5.775955153989608
 30
0.0
  0
VERTEX
  5
109
330
FF
100
AcDbEntity
  8
Wood
 62
   250
420
  2301728
370
    25
100
AcDbVertex
100
AcDb2dVertex
 10
5.325898631363139
 20
6.311587527363472
 30
0.0
  0
VERTEX
  5
10A
330
FF
100
AcDbEntity
  8
Wood
 62
   250
420
  2301728
370
    25
100
AcDbVertex
100
AcDb2dVertex
 10
5.364630784335228
 20
6.325916143536169
 30
0.0
  0
VERTEX
  5
10B
330
FF
100
AcDbEntity
  8
Wood
 62
   250
420
  2301728
370
    25
100
AcDbVertex
100
AcDb2dVertex
 10
5.287824327468191
 20
6.395140068771095
 30
0.0
  0
VERTEX
  5
10C
330
FF
100
AcDbEntity
  8
Wood
 62
   250
420
  2301728
370
    25
100
AcDbVertex
100
AcDb2dVertex
 10
5.325898631363139
 20
6.407842370160298
 30
0.0
  0
VERTEX
  5
10D
330
FF
100
AcDbEntity
  8
Wood
 62
   250
420
  2301728
370
    25
100
AcDbVertex
100
AcDb2dVertex
 10
5.325898631363139
 20
6.930064831690717
 30
0.0
  0
VERTEX
  5
10E
330
FF
100
AcDbEntity
  8
Wood
 62
   250
420
  2301728
370
    25
100
AcDbVertex
100
AcDb2dVertex
 10
5.447795824779809
 20
6.967428447566135
 30
0.0
  0
VERTEX
  5
10F
330
FF
100
AcDbEntity
  8
Wood
 62
   250
420
  2301728
370
    25
100
AcDbVertex
100
AcDb2dVertex
 10
5.447795824779809
 20
7.183005837547385
 30
0.0
  0
VERTEX
  5
110
330
FF
100
AcDbEntity
  8
Wood
 62
   250
420
  2301728
370
    25
100
AcDbVertex
100
AcDb2dVertex
 10
4.928133248127955
 20
7.356226696431336
 30
0.0
  0
SEQEND
  5
111
330
FF
100
AcDbEntity
  8
Wood
 62
   250
420
  2301728
370
    25
  0
POLYLINE
  5
112
330
1F
100
AcDbEntity
  8
Wood
 62
   250
420
  2301728
370
    25
100
AcDb2dPolyline
 66
     1
 10
0.0
 20
0.0
 30
0.0
  0
VERTEX
  5
113
330
112
100
AcDbEntity
  8
Wood
 62
   250
420
  2301728
370
    25
100
AcDbVertex
100
AcDb2dVertex
 10
5.325898631363139
 20
5.659961547303484
 30
0.0
  0
VERTEX
  5
114
330
112
100
AcDbEntity
  8
Wood
 62
   250
420
  2301728
370
    25
100
AcDbVertex
100
AcDb2dVertex
 10
5.325898631363139
 20
5.797595744856052
 30
0.0
  0
SEQEND
  5
115
330
112
100
AcDbEntity
  8
Wood
 62
   250
420
  2301728
370
    25
  0
POLYLINE
  5
116
330
1F
100
AcDbEntity
  8
Wood
 62
   250
420
  2301728
370
    25
100
AcDb2dPolyline
 66
     1
 10
0.0
 20
0.0
 30
0.0
  0
VERTEX
  5
117
330
116
100
AcDbEntity
  8
Wood
 62
   250
420
  2301728
370
    25
100
AcDbVertex
100
AcDb2dVertex
 10
4.247346581785942
 20
7.192432715195372
 30
0.0
  0
VERTEX
  5
118
330
116
100
AcDbEntity
  8
Wood
 62
   250
420
  2301728
370
    25
100
AcDbVertex
100
AcDb2dVertex
 10
5.08375898655749
 20
6.86126309420581
 30
0.0
  0
VERTEX
  5
119
330
116
100
AcDbEntity
  8
Wood
 62
   250
420
  2301728
370
    25
100
AcDbVertex
100
AcDb2dVertex
 10
5.219399189384679
 20
6.900576107509058
 30
0.0
  0
SEQEND
  5
11A
330
116
100
AcDbEntity
  8
Wood
 62
   250
420
  2301728
370
    25
  0
POLYLINE
  5
11B
330
1F
100
AcDbEntity
  8
Wood
 62
   250
420
  2301728
370
    25
100
AcDb2dPolyline
 66
     1
 10
0.0
 20
0.0
 30
0.0
  0
VERTEX
  5
11C
330
11B
100
AcDbEntity
  8
Wood
 62
   250
420
  2301728
370
    25
100
AcDbVertex
100
AcDb2dVertex
 10
4.935633522522417
 20
7.35367176680807
 30
0.0
  0
VERTEX
  5
11D
330
11B
100
AcDbEntity
  8
Wood
 62
   250
420
  2301728
370
    25
100
AcDbVertex
100
AcDb2dVertex
 10
4.594204540997503
 20
7.468789284360392
 30
0.0
  0
SEQEND
  5
11E
330
11B
100
AcDbEntity
  8
Wood
 62
   250
420
  2301728
370
    25
  0
POLYLINE
  5
11F
330
1F
100
AcDbEntity
  8
Wood
 62
   250
420
  2301728
370
    18
100
AcDb2dPolyline
 66
     1
 10
0.0
 20
0.0
 30
0.0
  0
VERTEX
  5
120
330
11F
100
AcDbEntity
  8
Wood
 62
   250
420
  2301728
370
    18
100
AcDbVertex
100
AcDb2dVertex
 10
4.246185069947905
 20
7.392108690977503
 30
0.0
  0
VERTEX
  5
121
330
11F
100
AcDbEntity
  8
Wood
 62
   250
420
  2301728
370
    18
100
AcDbVertex
100
AcDb2dVertex
 10
4.246185069947905
 20
7.191566657688301
 30
0.0
  0
SEQEND
  5
122
330
11F
100
AcDbEntity
  8
Wood
 62
   250
420
  2301728
370
    18
  0
POLYLINE
  5
123
330
1F
100
AcDbEntity
  8
Wood
 62
   250
420
  2301728
370
    18
100
AcDb2dPolyline
 66
     1
 10
0.0
 20
0.0
 30
0.0
  0
VERTEX
  5
124
330
123
100
AcDbEntity
  8
Wood
 62
   250
420
  2301728
370
    18
100
AcDbVertex
100
AcDb2dVertex
 10
4.244210896243658
 20
7.390139472528542
 30
0.0
  0
VERTEX
  5
125
330
123
100
AcDbEntity
  8
Wood
 62
   250
420
  2301728
370
    18
100
AcDbVertex
100
AcDb2dVertex
 10
5.081784812853256
 20
7.085396227956519
 30
0.0
  0
VERTEX
  5
126
330
123
100
AcDbEntity
  8
Wood
 62
   250
420
  2301728
370
    18
100
AcDbVertex
100
AcDb2dVertex
 10
5.447795824779809
 20
7.183005837547385
 30
0.0
  0
SEQEND
  5
127
330
123
100
AcDbEntity
  8
Wood
 62
   250
420
  2301728
370
    18
  0
POLYLINE
  5
128
330
1F
100
AcDbEntity
  8
Wood
 62
   250
420
  2301728
370
    18
100
AcDb2dPolyline
 66
     1
 10
0.0
 20
0.0
 30
0.0
  0
VERTEX
  5
129
330
128
100
AcDbEntity
  8
Wood
 62
   250
420
  2301728
370
    18
100
AcDbVertex
100
AcDb2dVertex
 10
5.081784812853256
 20
7.085396227956519
 30
0.0
  0
VERTEX
  5
12A
330
128
100
AcDbEntity
  8
Wood
 62
   250
420
  2301728
370
    18
100
AcDbVertex
100
AcDb2dVertex
 10
5.081784812853256
 20
6.86126309420581
 30
0.0
  0
SEQEND
  5
12B
330
128
100
AcDbEntity
  8
Wood
 62
   250
420
  2301728
370
    18
  0
POLYLINE
  5
12C
330
1F
100
AcDbEntity
  8
Wood
 62
   250
420
  2301728
370
    18
100
AcDb2dPolyline
 66
     1
 10
0.0
 20
0.0
 30
0.0
  0
VERTEX
  5
12D
330
12C
100
AcDbEntity
  8
Wood
 62
   250
420
  2301728
370
    18
100
AcDbVertex
100
AcDb2dVertex
 10
5.085704419781096
 20
5.555765412392121
 30
0.0
  0
VERTEX
  5
12E
330
12C
100
AcDbEntity
  8
Wood
 62
   250
420
  2301728
370
    18
100
AcDbVertex
100
AcDb2dVertex
 10
5.085704419781096
 20
5.347083755660933
 30
0.0
  0
SEQEND
  5
12F
330
12C
100
AcDbEntity
  8
Wood
 62
   250
420
  2301728
370
    18
  0
POLYLINE
  5
130
330
1F
100
AcDbEntity
  8
Wood
 62
   250
420
  2301728
370
    18
100
AcDb2dPolyline
 66
     1
 10
0.0
 20
0.0
 30
0.0
  0
VERTEX
  5
131
330
130
100
AcDbEntity
  8
Wood
 62
   250
420
  2301728
370
    18
100
AcDbVertex
100
AcDb2dVertex
 10
5.219631095331882
 20
5.613932262253128
 30
0.0
  0
VERTEX
  5
132
330
130
100
AcDbEntity
  8
Wood
 62
   250
420
  2301728
370
    18
100
AcDbVertex
100
AcDb2dVertex
 10
5.085704419781096
 20
5.555756492932611
 30
0.0
  0
VERTEX
  5
133
330
130
100
AcDbEntity
  8
Wood
 62
   250
420
  2301728
370
    18
100
AcDbVertex
100
AcDb2dVertex
 10
4.246146418956704
 20
6.023476101619116
 30
0.0
  0
SEQEND
  5
134
330
130
100
AcDbEntity
  8
Wood
 62
   250
420
  2301728
370
    18
  0
POLYLINE
  5
135
330
1F
100
AcDbEntity
  8
Wood
 62
   250
420
  2301728
370
    18
100
AcDb2dPolyline
 66
     1
 10
0.0
 20
0.0
 30
0.0
  0
VERTEX
  5
136
330
135
100
AcDbEntity
  8
Wood
 62
   250
420
  2301728
370
    18
100
AcDbVertex
100
AcDb2dVertex
 10
5.447795824779809
 20
5.713047280902439
 30
0.0
  0
VERTEX
  5
137
330
135
100
AcDbEntity
  8
Wood
 62
   250
420
  2301728
370
    18
100
AcDbVertex
100
AcDb2dVertex
 10
5.327872700655259
 20
5.660948634155602
 30
0.0
  0
SEQEND
  5
138
330
135
100
AcDbEntity
  8
Wood
 62
   250
420
  2301728
370
    18
  0
POLYLINE
  5
139
330
1F
100
AcDbEntity
  8
Wood
 62
   250
420
  2301728
370
    18
100
AcDb2dPolyline
 66
     1
 10
0.0
 20
0.0
 30
0.0
  0
VERTEX
  5
13A
330
139
100
AcDbEntity
  8
Wood
 62
   250
420
  2301728
370
    18
100
AcDbVertex
100
AcDb2dVertex
 10
4.392326449768158
 20
6.070551026795682
 30
0.0
  0
VERTEX
  5
13B
330
139
100
AcDbEntity
  8
Wood
 62
   250
420
  2301728
370
    18
100
AcDbVertex
100
AcDb2dVertex
 10
5.21937936836356
 20
5.614754834650689
 30
0.0
  0
SEQEND
  5
13C
330
139
100
AcDbEntity
  8
Wood
 62
   250
420
  2301728
370
    18
  0
POLYLINE
  5
13D
330
1F
100
AcDbEntity
  8
Wood
 62
   250
420
  2301728
370
    18
100
AcDb2dPolyline
 66
     1
 10
0.0
 20
0.0
 30
0.0
  0
VERTEX
  5
13E
330
13D
100
AcDbEntity
  8
Wood
 62
   250
420
  2301728
370
    18
100
AcDbVertex
100
AcDb2dVertex
 10
5.325549676979159
 20
6.930064831690717
 30
0.0
  0
VERTEX
  5
13F
330
13D
100
AcDbEntity
  8
Wood
 62
   250
420
  2301728
370
    18
100
AcDbVertex
100
AcDb2dVertex
 10
5.325549676979159
 20
6.965463193321398
 30
0.0
  0
VERTEX
  5
140
330
13D
100
AcDbEntity
  8
Wood
 62
   250
420
  2301728
370
    18
100
AcDbVertex
100
AcDb2dVertex
 10
5.305893170327534
 20
7.036245050816888
 30
0.0
  0
VERTEX
  5
141
330
13D
100
AcDbEntity
  8
Wood
 62
   250
420
  2301728
370
    18
100
AcDbVertex
100
AcDb2dVertex
 10
5.237081522332068
 20
7.024447579042114
 30
0.0
  0
VERTEX
  5
142
330
13D
100
AcDbEntity
  8
Wood
 62
   250
420
  2301728
370
    18
100
AcDbVertex
100
AcDb2dVertex
 10
5.21937936836356
 20
6.939902995527101
 30
0.0
  0
VERTEX
  5
143
330
13D
100
AcDbEntity
  8
Wood
 62
   250
420
  2301728
370
    18
100
AcDbVertex
100
AcDb2dVertex
 10
5.21937936836356
 20
6.369511488453908
 30
0.0
  0
VERTEX
  5
144
330
13D
100
AcDbEntity
  8
Wood
 62
   250
420
  2301728
370
    18
100
AcDbVertex
100
AcDb2dVertex
 10
5.185167294847335
 20
6.357955833136871
 30
0.0
  0
VERTEX
  5
145
330
13D
100
AcDbEntity
  8
Wood
 62
   250
420
  2301728
370
    18
100
AcDbVertex
100
AcDb2dVertex
 10
5.256457561534742
 20
6.289288878595622
 30
0.0
  0
VERTEX
  5
146
330
13D
100
AcDbEntity
  8
Wood
 62
   250
420
  2301728
370
    18
100
AcDbVertex
100
AcDb2dVertex
 10
5.21937936836356
 20
6.274965217678211
 30
0.0
  0
VERTEX
  5
147
330
13D
100
AcDbEntity
  8
Wood
 62
   250
420
  2301728
370
    18
100
AcDbVertex
100
AcDb2dVertex
 10
5.21937936836356
 20
5.581325610186417
 30
0.0
  0
VERTEX
  5
148
330
13D
100
AcDbEntity
  8
Wood
 62
   250
420
  2301728
370
    18
100
AcDbVertex
100
AcDb2dVertex
 10
5.237081522332068
 20
5.508584444752513
 30
0.0
  0
VERTEX
  5
149
330
13D
100
AcDbEntity
  8
Wood
 62
   250
420
  2301728
370
    18
100
AcDbVertex
100
AcDb2dVertex
 10
5.307858424572284
 20
5.538074159985222
 30
0.0
  0
VERTEX
  5
14A
330
13D
100
AcDbEntity
  8
Wood
 62
   250
420
  2301728
370
    18
100
AcDbVertex
100
AcDb2dVertex
 10
5.325540757519674
 20
5.630481742581322
 30
0.0
  0
VERTEX
  5
14B
330
13D
100
AcDbEntity
  8
Wood
 62
   250
420
  2301728
370
    18
100
AcDbVertex
100
AcDb2dVertex
 10
5.325540757519674
 20
5.663910968287357
 30
0.0
  0
SEQEND
  5
14C
330
13D
100
AcDbEntity
  8
Wood
 62
   250
420
  2301728
370
    18
  0
POLYLINE
  5
14D
330
1F
100
AcDbEntity
  8
Wood
 62
   250
420
  2301728
370
    25
100
AcDb2dPolyline
 66
     1
 10
0.0
 20
0.0
 30
0.0
  0
VERTEX
  5
14E
330
14D
100
AcDbEntity
  8
Wood
 62
   250
420
  2301728
370
    25
100
AcDbVertex
100
AcDb2dVertex
 10
5.363556484990164
 20
6.325746673805547
 30
0.0
  0
VERTEX
  5
14F
330
14D
100
AcDbEntity
  8
Wood
 62
   250
420
  2301728
370
    25
100
AcDbVertex
100
AcDb2dVertex
 10
5.221856996004438
 20
6.277442845319077
 30
0.0
  0
SEQEND
  5
150
330
14D
100
AcDbEntity
  8
Wood
 62
   250
420
  2301728
370
    25
  0
POLYLINE
  5
151
330
1F
100
AcDbEntity
  8
Wood
 62
   250
420
  2301728
370
    25
100
AcDb2dPolyline
 66
     1
 10
0.0
 20
0.0
 30
0.0
  0
VERTEX
  5
152
330
151
100
AcDbEntity
  8
Wood
 62
   250
420
  2301728
370
    25
100
AcDbVertex
100
AcDb2dVertex
 10
5.328869698017948
 20
6.407508385954328
 30
0.0
  0
VERTEX
  5
153
330
151
100
AcDbEntity
  8
Wood
 62
   250
420
  2301728
370
    25
100
AcDbVertex
100
AcDb2dVertex
 10
5.185167294847335
 20
6.357955833136871
 30
0.0
  0
SEQEND
  5
154
330
151
100
AcDbEntity
  8
Wood
 62
   250
420
  2301728
370
    25
  0
POLYLINE
  5
155
330
1F
100
AcDbEntity
  8
Wood
 62
   250
420
  2301728
370
    13
100
AcDb2dPolyline
 66
     1
 10
0.0
 20
0.0
 30
0.0
  0
VERTEX
  5
156
330
155
100
AcDbEntity
  8
Wood
 62
   250
420
  2301728
370
    13
100
AcDbVertex
100
AcDb2dVertex
 10
5.304596875545839
 20
6.402558085927858
 30
0.0
  0
VERTEX
  5
157
330
155
100
AcDbEntity
  8
Wood
 62
   250
420
  2301728
370
    13
100
AcDbVertex
100
AcDb2dVertex
 10
5.304596875545839
 20
7.032310578123188
 30
0.0
  0
SEQEND
  5
158
330
155
100
AcDbEntity
  8
Wood
 62
   250
420
  2301728
370
    13
  0
POLYLINE
  5
159
330
1F
100
AcDbEntity
  8
Wood
 62
   250
420
  2301728
370
    13
100
AcDb2dPolyline
 66
     1
 10
0.0
 20
0.0
 30
0.0
  0
VERTEX
  5
15A
330
159
100
AcDbEntity
  8
Wood
 62
   250
420
  2301728
370
    13
100
AcDbVertex
100
AcDb2dVertex
 10
5.338780208581435
 20
6.318313790882914
 30
0.0
  0
VERTEX
  5
15B
330
159
100
AcDbEntity
  8
Wood
 62
   250
420
  2301728
370
    13
100
AcDbVertex
100
AcDb2dVertex
 10
5.271884262277884
 20
6.385209737186478
 30
0.0
  0
SEQEND
  5
15C
330
159
100
AcDbEntity
  8
Wood
 62
   250
420
  2301728
370
    13
  0
POLYLINE
  5
15D
330
1F
100
AcDbEntity
  8
Wood
 62
   250
420
  2301728
370
    13
100
AcDb2dPolyline
 66
     1
 10
0.0
 20
0.0
 30
0.0
  0
VERTEX
  5
15E
330
15D
100
AcDbEntity
  8
Wood
 62
   250
420
  2301728
370
    13
100
AcDbVertex
100
AcDb2dVertex
 10
5.304596875545839
 20
5.538074159985222
 30
0.0
  0
VERTEX
  5
15F
330
15D
100
AcDbEntity
  8
Wood
 62
   250
420
  2301728
370
    13
100
AcDbVertex
100
AcDb2dVertex
 10
5.304596875545839
 20
6.303448025037684
 30
0.0
  0
SEQEND
  5
160
330
15D
100
AcDbEntity
  8
Wood
 62
   250
420
  2301728
370
    13
  0
POLYLINE
  5
161
330
1F
100
AcDbEntity
  8
Wood
 62
   250
420
  2301728
370
    13
100
AcDb2dPolyline
 66
     1
 10
0.0
 20
0.0
 30
0.0
  0
VERTEX
  5
162
330
161
100
AcDbEntity
  8
Wood
 62
   250
420
  2301728
370
    13
100
AcDbVertex
100
AcDb2dVertex
 10
5.283295224140677
 20
6.392642620109086
 30
0.0
  0
VERTEX
  5
163
330
161
100
AcDbEntity
  8
Wood
 62
   250
420
  2301728
370
    13
100
AcDbVertex
100
AcDb2dVertex
 10
5.283295224140677
 20
7.032310578123188
 30
0.0
  0
SEQEND
  5
164
330
161
100
AcDbEntity
  8
Wood
 62
   250
420
  2301728
370
    13
  0
POLYLINE
  5
165
330
1F
100
AcDbEntity
  8
Wood
 62
   250
420
  2301728
370
    13
100
AcDb2dPolyline
 66
     1
 10
0.0
 20
0.0
 30
0.0
  0
VERTEX
  5
166
330
165
100
AcDbEntity
  8
Wood
 62
   250
420
  2301728
370
    13
100
AcDbVertex
100
AcDb2dVertex
 10
5.318959187454437
 20
6.310880907960305
 30
0.0
  0
VERTEX
  5
167
330
165
100
AcDbEntity
  8
Wood
 62
   250
420
  2301728
370
    13
100
AcDbVertex
100
AcDb2dVertex
 10
5.249585613510034
 20
6.380254481904735
 30
0.0
  0
SEQEND
  5
168
330
165
100
AcDbEntity
  8
Wood
 62
   250
420
  2301728
370
    13
  0
POLYLINE
  5
169
330
1F
100
AcDbEntity
  8
Wood
 62
   250
420
  2301728
370
    13
100
AcDb2dPolyline
 66
     1
 10
0.0
 20
0.0
 30
0.0
  0
VERTEX
  5
16A
330
169
100
AcDbEntity
  8
Wood
 62
   250
420
  2301728
370
    13
100
AcDbVertex
100
AcDb2dVertex
 10
5.283295224140677
 20
5.528240951404137
 30
0.0
  0
VERTEX
  5
16B
330
169
100
AcDbEntity
  8
Wood
 62
   250
420
  2301728
370
    13
100
AcDbVertex
100
AcDb2dVertex
 10
5.283295224140677
 20
6.298492769755941
 30
0.0
  0
SEQEND
  5
16C
330
169
100
AcDbEntity
  8
Wood
 62
   250
420
  2301728
370
    13
  0
POLYLINE
  5
16D
330
1F
100
AcDbEntity
  8
Wood
 62
   250
420
  2301728
370
    13
100
AcDb2dPolyline
 66
     1
 10
0.0
 20
0.0
 30
0.0
  0
VERTEX
  5
16E
330
16D
100
AcDbEntity
  8
Wood
 62
   250
420
  2301728
370
    13
100
AcDbVertex
100
AcDb2dVertex
 10
5.261993572735516
 20
6.385214692441751
 30
0.0
  0
VERTEX
  5
16F
330
16D
100
AcDbEntity
  8
Wood
 62
   250
420
  2301728
370
    13
100
AcDbVertex
100
AcDb2dVertex
 10
5.261993572735516
 20
7.026411842235802
 30
0.0
  0
SEQEND
  5
170
330
16D
100
AcDbEntity
  8
Wood
 62
   250
420
  2301728
370
    13
  0
POLYLINE
  5
171
330
1F
100
AcDbEntity
  8
Wood
 62
   250
420
  2301728
370
    13
100
AcDb2dPolyline
 66
     1
 10
0.0
 20
0.0
 30
0.0
  0
VERTEX
  5
172
330
171
100
AcDbEntity
  8
Wood
 62
   250
420
  2301728
370
    13
100
AcDbVertex
100
AcDb2dVertex
 10
5.294182911045734
 20
6.30592565267855
 30
0.0
  0
VERTEX
  5
173
330
171
100
AcDbEntity
  8
Wood
 62
   250
420
  2301728
370
    13
100
AcDbVertex
100
AcDb2dVertex
 10
5.227286964742183
 20
6.372821598982114
 30
0.0
  0
SEQEND
  5
174
330
171
100
AcDbEntity
  8
Wood
 62
   250
420
  2301728
370
    13
  0
POLYLINE
  5
175
330
1F
100
AcDbEntity
  8
Wood
 62
   250
420
  2301728
370
    13
100
AcDb2dPolyline
 66
     1
 10
0.0
 20
0.0
 30
0.0
  0
VERTEX
  5
176
330
175
100
AcDbEntity
  8
Wood
 62
   250
420
  2301728
370
    13
100
AcDbVertex
100
AcDb2dVertex
 10
5.261993572735516
 20
5.520381916527286
 30
0.0
  0
VERTEX
  5
177
330
175
100
AcDbEntity
  8
Wood
 62
   250
420
  2301728
370
    13
100
AcDbVertex
100
AcDb2dVertex
 10
5.261993572735516
 20
6.288582259192455
 30
0.0
  0
SEQEND
  5
178
330
175
100
AcDbEntity
  8
Wood
 62
   250
420
  2301728
370
    13
  0
POLYLINE
  5
179
330
1F
100
AcDbEntity
  8
Wood
 62
   250
420
  2301728
370
    13
100
AcDb2dPolyline
 66
     1
 10
0.0
 20
0.0
 30
0.0
  0
VERTEX
  5
17A
330
179
100
AcDbEntity
  8
Wood
 62
   250
420
  2301728
370
    13
100
AcDbVertex
100
AcDb2dVertex
 10
5.240682010819783
 20
6.377776854263857
 30
0.0
  0
VERTEX
  5
17B
330
179
100
AcDbEntity
  8
Wood
 62
   250
420
  2301728
370
    13
100
AcDbVertex
100
AcDb2dVertex
 10
5.240682010819783
 20
7.022482324797377
 30
0.0
  0
SEQEND
  5
17C
330
179
100
AcDbEntity
  8
Wood
 62
   250
420
  2301728
370
    13
  0
POLYLINE
  5
17D
330
1F
100
AcDbEntity
  8
Wood
 62
   250
420
  2301728
370
    13
100
AcDb2dPolyline
 66
     1
 10
0.0
 20
0.0
 30
0.0
  0
VERTEX
  5
17E
330
17D
100
AcDbEntity
  8
Wood
 62
   250
420
  2301728
370
    13
100
AcDbVertex
100
AcDb2dVertex
 10
5.276839517559615
 20
6.298492769755941
 30
0.0
  0
VERTEX
  5
17F
330
17D
100
AcDbEntity
  8
Wood
 62
   250
420
  2301728
370
    13
100
AcDbVertex
100
AcDb2dVertex
 10
5.207465943615185
 20
6.367866343700371
 30
0.0
  0
SEQEND
  5
180
330
17D
100
AcDbEntity
  8
Wood
 62
   250
420
  2301728
370
    13
  0
POLYLINE
  5
181
330
1F
100
AcDbEntity
  8
Wood
 62
   250
420
  2301728
370
    13
100
AcDb2dPolyline
 66
     1
 10
0.0
 20
0.0
 30
0.0
  0
VERTEX
  5
182
330
181
100
AcDbEntity
  8
Wood
 62
   250
420
  2301728
370
    13
100
AcDbVertex
100
AcDb2dVertex
 10
5.240682010819783
 20
5.510548707946214
 30
0.0
  0
VERTEX
  5
183
330
181
100
AcDbEntity
  8
Wood
 62
   250
420
  2301728
370
    13
100
AcDbVertex
100
AcDb2dVertex
 10
5.240682010819783
 20
6.283627003910699
 30
0.0
  0
SEQEND
  5
184
330
181
100
AcDbEntity
  8
Wood
 62
   250
420
  2301728
370
    13
  0
POLYLINE
  5
185
330
1F
100
AcDbEntity
  8
Wood
 62
   250
420
  2301728
370
    13
100
AcDb2dPolyline
 66
     1
 10
0.0
 20
0.0
 30
0.0
  0
VERTEX
  5
186
330
185
100
AcDbEntity
  8
Wood
 62
   250
420
  2301728
370
    13
100
AcDbVertex
100
AcDb2dVertex
 10
5.087649951398159
 20
5.528240951404137
 30
0.0
  0
VERTEX
  5
187
330
185
100
AcDbEntity
  8
Wood
 62
   250
420
  2301728
370
    13
100
AcDbVertex
100
AcDb2dVertex
 10
5.201688115956686
 20
5.602957281593338
 30
0.0
  0
SEQEND
  5
188
330
185
100
AcDbEntity
  8
Wood
 62
   250
420
  2301728
370
    13
  0
POLYLINE
  5
189
330
1F
100
AcDbEntity
  8
Wood
 62
   250
420
  2301728
370
    13
100
AcDb2dPolyline
 66
     1
 10
0.0
 20
0.0
 30
0.0
  0
VERTEX
  5
18A
330
189
100
AcDbEntity
  8
Wood
 62
   250
420
  2301728
370
    13
100
AcDbVertex
100
AcDb2dVertex
 10
5.087649951398159
 20
5.50268075360984
 30
0.0
  0
VERTEX
  5
18B
330
189
100
AcDbEntity
  8
Wood
 62
   250
420
  2301728
370
    13
100
AcDbVertex
100
AcDb2dVertex
 10
5.22134462260831
 20
5.591158818767503
 30
0.0
  0
SEQEND
  5
18C
330
189
100
AcDbEntity
  8
Wood
 62
   250
420
  2301728
370
    13
  0
POLYLINE
  5
18D
330
1F
100
AcDbEntity
  8
Wood
 62
   250
420
  2301728
370
    13
100
AcDb2dPolyline
 66
     1
 10
0.0
 20
0.0
 30
0.0
  0
VERTEX
  5
18E
330
18D
100
AcDbEntity
  8
Wood
 62
   250
420
  2301728
370
    13
100
AcDbVertex
100
AcDb2dVertex
 10
5.087649951398159
 20
5.477120555815544
 30
0.0
  0
VERTEX
  5
18F
330
18D
100
AcDbEntity
  8
Wood
 62
   250
420
  2301728
370
    13
100
AcDbVertex
100
AcDb2dVertex
 10
5.223318796312545
 20
5.565598701013969
 30
0.0
  0
SEQEND
  5
190
330
18D
100
AcDbEntity
  8
Wood
 62
   250
420
  2301728
370
    13
  0
POLYLINE
  5
191
330
1F
100
AcDbEntity
  8
Wood
 62
   250
420
  2301728
370
    13
100
AcDb2dPolyline
 66
     1
 10
0.0
 20
0.0
 30
0.0
  0
VERTEX
  5
192
330
191
100
AcDbEntity
  8
Wood
 62
   250
420
  2301728
370
    13
100
AcDbVertex
100
AcDb2dVertex
 10
5.085684598759977
 20
5.451560358021248
 30
0.0
  0
VERTEX
  5
193
330
191
100
AcDbEntity
  8
Wood
 62
   250
420
  2301728
370
    13
100
AcDbVertex
100
AcDb2dVertex
 10
5.229212576944645
 20
5.545933194862073
 30
0.0
  0
SEQEND
  5
194
330
191
100
AcDbEntity
  8
Wood
 62
   250
420
  2301728
370
    13
  0
POLYLINE
  5
195
330
1F
100
AcDbEntity
  8
Wood
 62
   250
420
  2301728
370
    13
100
AcDb2dPolyline
 66
     1
 10
0.0
 20
0.0
 30
0.0
  0
VERTEX
  5
196
330
195
100
AcDbEntity
  8
Wood
 62
   250
420
  2301728
370
    13
100
AcDbVertex
100
AcDb2dVertex
 10
5.087649951398159
 20
5.427964423420639
 30
0.0
  0
VERTEX
  5
197
330
195
100
AcDbEntity
  8
Wood
 62
   250
420
  2301728
370
    13
100
AcDbVertex
100
AcDb2dVertex
 10
5.235107348627808
 20
5.516443479629364
 30
0.0
  0
SEQEND
  5
198
330
195
100
AcDbEntity
  8
Wood
 62
   250
420
  2301728
370
    13
  0
POLYLINE
  5
199
330
1F
100
AcDbEntity
  8
Wood
 62
   250
420
  2301728
370
    13
100
AcDb2dPolyline
 66
     1
 10
0.0
 20
0.0
 30
0.0
  0
VERTEX
  5
19A
330
199
100
AcDbEntity
  8
Wood
 62
   250
420
  2301728
370
    13
100
AcDbVertex
100
AcDb2dVertex
 10
5.085684598759977
 20
5.398474708187905
 30
0.0
  0
VERTEX
  5
19B
330
199
100
AcDbEntity
  8
Wood
 62
   250
420
  2301728
370
    13
100
AcDbVertex
100
AcDb2dVertex
 10
5.276404446145888
 20
5.524311512963473
 30
0.0
  0
SEQEND
  5
19C
330
199
100
AcDbEntity
  8
Wood
 62
   250
420
  2301728
370
    13
  0
POLYLINE
  5
19D
330
1F
100
AcDbEntity
  8
Wood
 62
   250
420
  2301728
370
    13
100
AcDb2dPolyline
 66
     1
 10
0.0
 20
0.0
 30
0.0
  0
VERTEX
  5
19E
330
19D
100
AcDbEntity
  8
Wood
 62
   250
420
  2301728
370
    13
100
AcDbVertex
100
AcDb2dVertex
 10
5.085684598759977
 20
5.37488967514893
 30
0.0
  0
VERTEX
  5
19F
330
19D
100
AcDbEntity
  8
Wood
 62
   250
420
  2301728
370
    13
100
AcDbVertex
100
AcDb2dVertex
 10
5.301954837236861
 20
5.514478225384614
 30
0.0
  0
VERTEX
  5
1A0
330
19D
100
AcDbEntity
  8
Wood
 62
   250
420
  2301728
370
    13
100
AcDbVertex
100
AcDb2dVertex
 10
5.445482711614305
 20
5.530205214597824
 30
0.0
  0
SEQEND
  5
1A1
330
19D
100
AcDbEntity
  8
Wood
 62
   250
420
  2301728
370
    13
  0
POLYLINE
  5
1A2
330
1F
100
AcDbEntity
  8
Wood
 62
   250
420
  2301728
370
    13
100
AcDb2dPolyline
 66
     1
 10
0.0
 20
0.0
 30
0.0
  0
VERTEX
  5
1A3
330
1A2
100
AcDbEntity
  8
Wood
 62
   250
420
  2301728
370
    13
100
AcDbVertex
100
AcDb2dVertex
 10
5.101421498483735
 20
5.357187521180422
 30
0.0
  0
VERTEX
  5
1A4
330
1A2
100
AcDbEntity
  8
Wood
 62
   250
420
  2301728
370
    13
100
AcDbVertex
100
AcDb2dVertex
 10
5.288192007410089
 20
5.479084819009231
 30
0.0
  0
VERTEX
  5
1A5
330
1A2
100
AcDbEntity
  8
Wood
 62
   250
420
  2301728
370
    13
100
AcDbVertex
100
AcDb2dVertex
 10
5.447446974807993
 20
5.512513962190925
 30
0.0
  0
SEQEND
  5
1A6
330
1A2
100
AcDbEntity
  8
Wood
 62
   250
420
  2301728
370
    13
  0
POLYLINE
  5
1A7
330
1F
100
AcDbEntity
  8
Wood
 62
   250
420
  2301728
370
    13
100
AcDb2dPolyline
 66
     1
 10
0.0
 20
0.0
 30
0.0
  0
VERTEX
  5
1A8
330
1A7
100
AcDbEntity
  8
Wood
 62
   250
420
  2301728
370
    13
100
AcDbVertex
100
AcDb2dVertex
 10
5.193819170569264
 20
5.396510444994242
 30
0.0
  0
VERTEX
  5
1A9
330
1A7
100
AcDbEntity
  8
Wood
 62
   250
420
  2301728
370
    13
100
AcDbVertex
100
AcDb2dVertex
 10
5.272465018196903
 20
5.441737136862482
 30
0.0
  0
VERTEX
  5
1AA
330
1A7
100
AcDbEntity
  8
Wood
 62
   250
420
  2301728
370
    13
100
AcDbVertex
100
AcDb2dVertex
 10
5.35110987477348
 20
5.459428312357608
 30
0.0
  0
SEQEND
  5
1AB
330
1A7
100
AcDbEntity
  8
Wood
 62
   250
420
  2301728
370
    13
  0
POLYLINE
  5
1AC
330
1F
100
AcDbEntity
  8
Wood
 62
   250
420
  2301728
370
    13
100
AcDb2dPolyline
 66
     1
 10
0.0
 20
0.0
 30
0.0
  0
VERTEX
  5
1AD
330
1AC
100
AcDbEntity
  8
Wood
 62
   250
420
  2301728
370
    13
100
AcDbVertex
100
AcDb2dVertex
 10
5.309822687765973
 20
5.543967940617348
 30
0.0
  0
VERTEX
  5
1AE
330
1AC
100
AcDbEntity
  8
Wood
 62
   250
420
  2301728
370
    13
100
AcDbVertex
100
AcDb2dVertex
 10
5.331453368121831
 20
5.559694929830534
 30
0.0
  0
VERTEX
  5
1AF
330
1AC
100
AcDbEntity
  8
Wood
 62
   250
420
  2301728
370
    13
100
AcDbVertex
100
AcDb2dVertex
 10
5.447446974807993
 20
5.553801149198433
 30
0.0
  0
SEQEND
  5
1B0
330
1AC
100
AcDbEntity
  8
Wood
 62
   250
420
  2301728
370
    13
  0
POLYLINE
  5
1B1
330
1F
100
AcDbEntity
  8
Wood
 62
   250
420
  2301728
370
    13
100
AcDb2dPolyline
 66
     1
 10
0.0
 20
0.0
 30
0.0
  0
VERTEX
  5
1B2
330
1B1
100
AcDbEntity
  8
Wood
 62
   250
420
  2301728
370
    13
100
AcDbVertex
100
AcDb2dVertex
 10
5.31769163315337
 20
5.581325610186417
 30
0.0
  0
VERTEX
  5
1B3
330
1B1
100
AcDbEntity
  8
Wood
 62
   250
420
  2301728
370
    13
100
AcDbVertex
100
AcDb2dVertex
 10
5.347181348386104
 20
5.604921544787026
 30
0.0
  0
VERTEX
  5
1B4
330
1B1
100
AcDbEntity
  8
Wood
 62
   250
420
  2301728
370
    13
100
AcDbVertex
100
AcDb2dVertex
 10
5.449412229052718
 20
5.58525512762483
 30
0.0
  0
SEQEND
  5
1B5
330
1B1
100
AcDbEntity
  8
Wood
 62
   250
420
  2301728
370
    13
  0
POLYLINE
  5
1B6
330
1F
100
AcDbEntity
  8
Wood
 62
   250
420
  2301728
370
    13
100
AcDb2dPolyline
 66
     1
 10
0.0
 20
0.0
 30
0.0
  0
VERTEX
  5
1B7
330
1B6
100
AcDbEntity
  8
Wood
 62
   250
420
  2301728
370
    13
100
AcDbVertex
100
AcDb2dVertex
 10
5.323585413785495
 20
5.618684270806549
 30
0.0
  0
VERTEX
  5
1B8
330
1B6
100
AcDbEntity
  8
Wood
 62
   250
420
  2301728
370
    13
100
AcDbVertex
100
AcDb2dVertex
 10
5.37077629193565
 20
5.648173986039258
 30
0.0
  0
VERTEX
  5
1B9
330
1B6
100
AcDbEntity
  8
Wood
 62
   250
420
  2301728
370
    13
100
AcDbVertex
100
AcDb2dVertex
 10
5.449412229052718
 20
5.628507568877075
 30
0.0
  0
SEQEND
  5
1BA
330
1B6
100
AcDbEntity
  8
Wood
 62
   250
420
  2301728
370
    13
  0
POLYLINE
  5
1BB
330
1F
100
AcDbEntity
  8
Wood
 62
   250
420
  2301728
370
    13
100
AcDb2dPolyline
 66
     1
 10
0.0
 20
0.0
 30
0.0
  0
VERTEX
  5
1BC
330
1BB
100
AcDbEntity
  8
Wood
 62
   250
420
  2301728
370
    13
100
AcDbVertex
100
AcDb2dVertex
 10
5.325549676979159
 20
5.642270294896585
 30
0.0
  0
VERTEX
  5
1BD
330
1BB
100
AcDbEntity
  8
Wood
 62
   250
420
  2301728
370
    13
100
AcDbVertex
100
AcDb2dVertex
 10
5.386503281148862
 20
5.685531655608328
 30
0.0
  0
VERTEX
  5
1BE
330
1BB
100
AcDbEntity
  8
Wood
 62
   250
420
  2301728
370
    13
100
AcDbVertex
100
AcDb2dVertex
 10
5.447446974807993
 20
5.681592227659343
 30
0.0
  0
SEQEND
  5
1BF
330
1BB
100
AcDbEntity
  8
Wood
 62
   250
420
  2301728
370
    13
  0
POLYLINE
  5
1C0
330
1F
100
AcDbEntity
  8
Wood
 62
   250
420
  2301728
370
    13
100
AcDb2dPolyline
 66
     1
 10
0.0
 20
0.0
 30
0.0
  0
VERTEX
  5
1C1
330
1C0
100
AcDbEntity
  8
Wood
 62
   250
420
  2301728
370
    13
100
AcDbVertex
100
AcDb2dVertex
 10
5.08175508132154
 20
7.052001771561789
 30
0.0
  0
VERTEX
  5
1C2
330
1C0
100
AcDbEntity
  8
Wood
 62
   250
420
  2301728
370
    13
100
AcDbVertex
100
AcDb2dVertex
 10
5.282298226777988
 20
7.13851061827049
 30
0.0
  0
SEQEND
  5
1C3
330
1C0
100
AcDbEntity
  8
Wood
 62
   250
420
  2301728
370
    13
  0
POLYLINE
  5
1C4
330
1F
100
AcDbEntity
  8
Wood
 62
   250
420
  2301728
370
    13
100
AcDb2dPolyline
 66
     1
 10
0.0
 20
0.0
 30
0.0
  0
VERTEX
  5
1C5
330
1C4
100
AcDbEntity
  8
Wood
 62
   250
420
  2301728
370
    13
100
AcDbVertex
100
AcDb2dVertex
 10
5.08175508132154
 20
7.024476319522755
 30
0.0
  0
VERTEX
  5
1C6
330
1C4
100
AcDbEntity
  8
Wood
 62
   250
420
  2301728
370
    13
100
AcDbVertex
100
AcDb2dVertex
 10
5.357013565916128
 20
7.152272353238963
 30
0.0
  0
VERTEX
  5
1C7
330
1C4
100
AcDbEntity
  8
Wood
 62
   250
420
  2301728
370
    13
100
AcDbVertex
100
AcDb2dVertex
 10
5.445482711614305
 20
7.168004297707435
 30
0.0
  0
SEQEND
  5
1C8
330
1C4
100
AcDbEntity
  8
Wood
 62
   250
420
  2301728
370
    13
  0
POLYLINE
  5
1C9
330
1F
100
AcDbEntity
  8
Wood
 62
   250
420
  2301728
370
    13
100
AcDb2dPolyline
 66
     1
 10
0.0
 20
0.0
 30
0.0
  0
VERTEX
  5
1CA
330
1C9
100
AcDbEntity
  8
Wood
 62
   250
420
  2301728
370
    13
100
AcDbVertex
100
AcDb2dVertex
 10
5.08175508132154
 20
6.991052131596322
 30
0.0
  0
VERTEX
  5
1CB
330
1C9
100
AcDbEntity
  8
Wood
 62
   250
420
  2301728
370
    13
100
AcDbVertex
100
AcDb2dVertex
 10
5.355039392211893
 20
7.128682364944678
 30
0.0
  0
VERTEX
  5
1CC
330
1C9
100
AcDbEntity
  8
Wood
 62
   250
420
  2301728
370
    13
100
AcDbVertex
100
AcDb2dVertex
 10
5.447446974807993
 20
7.142444099913139
 30
0.0
  0
SEQEND
  5
1CD
330
1C9
100
AcDbEntity
  8
Wood
 62
   250
420
  2301728
370
    13
  0
POLYLINE
  5
1CE
330
1F
100
AcDbEntity
  8
Wood
 62
   250
420
  2301728
370
    13
100
AcDb2dPolyline
 66
     1
 10
0.0
 20
0.0
 30
0.0
  0
VERTEX
  5
1CF
330
1CE
100
AcDbEntity
  8
Wood
 62
   250
420
  2301728
370
    13
100
AcDbVertex
100
AcDb2dVertex
 10
5.08175508132154
 20
6.949764944588828
 30
0.0
  0
VERTEX
  5
1D0
330
1CE
100
AcDbEntity
  8
Wood
 62
   250
420
  2301728
370
    13
100
AcDbVertex
100
AcDb2dVertex
 10
5.343251935798182
 20
7.101156912905644
 30
0.0
  0
VERTEX
  5
1D1
330
1CE
100
AcDbEntity
  8
Wood
 62
   250
420
  2301728
370
    13
100
AcDbVertex
100
AcDb2dVertex
 10
5.447446974807993
 20
7.114919638925155
 30
0.0
  0
SEQEND
  5
1D2
330
1CE
100
AcDbEntity
  8
Wood
 62
   250
420
  2301728
370
    13
  0
POLYLINE
  5
1D3
330
1F
100
AcDbEntity
  8
Wood
 62
   250
420
  2301728
370
    13
100
AcDb2dPolyline
 66
     1
 10
0.0
 20
0.0
 30
0.0
  0
VERTEX
  5
1D4
330
1D3
100
AcDbEntity
  8
Wood
 62
   250
420
  2301728
370
    13
100
AcDbVertex
100
AcDb2dVertex
 10
5.270800052422222
 20
7.027897427769264
 30
0.0
  0
VERTEX
  5
1D5
330
1D3
100
AcDbEntity
  8
Wood
 62
   250
420
  2301728
370
    13
100
AcDbVertex
100
AcDb2dVertex
 10
5.353075129018205
 20
7.075596715111335
 30
0.0
  0
VERTEX
  5
1D6
330
1D3
100
AcDbEntity
  8
Wood
 62
   250
420
  2301728
370
    13
100
AcDbVertex
100
AcDb2dVertex
 10
5.447446974807993
 20
7.083460705243472
 30
0.0
  0
SEQEND
  5
1D7
330
1D3
100
AcDbEntity
  8
Wood
 62
   250
420
  2301728
370
    13
  0
POLYLINE
  5
1D8
330
1F
100
AcDbEntity
  8
Wood
 62
   250
420
  2301728
370
    13
100
AcDb2dPolyline
 66
     1
 10
0.0
 20
0.0
 30
0.0
  0
VERTEX
  5
1D9
330
1D8
100
AcDbEntity
  8
Wood
 62
   250
420
  2301728
370
    13
100
AcDbVertex
100
AcDb2dVertex
 10
5.08175508132154
 20
6.918306010907145
 30
0.0
  0
VERTEX
  5
1DA
330
1D8
100
AcDbEntity
  8
Wood
 62
   250
420
  2301728
370
    13
100
AcDbVertex
100
AcDb2dVertex
 10
5.232599989455265
 20
7.005753382966203
 30
0.0
  0
SEQEND
  5
1DB
330
1D8
100
AcDbEntity
  8
Wood
 62
   250
420
  2301728
370
    13
  0
POLYLINE
  5
1DC
330
1F
100
AcDbEntity
  8
Wood
 62
   250
420
  2301728
370
    13
100
AcDb2dPolyline
 66
     1
 10
0.0
 20
0.0
 30
0.0
  0
VERTEX
  5
1DD
330
1DC
100
AcDbEntity
  8
Wood
 62
   250
420
  2301728
370
    13
100
AcDbVertex
100
AcDb2dVertex
 10
5.08372033556629
 20
6.88881629567441
 30
0.0
  0
VERTEX
  5
1DE
330
1DC
100
AcDbEntity
  8
Wood
 62
   250
420
  2301728
370
    13
100
AcDbVertex
100
AcDb2dVertex
 10
5.227248313750983
 20
6.973360879189435
 30
0.0
  0
SEQEND
  5
1DF
330
1DC
100
AcDbEntity
  8
Wood
 62
   250
420
  2301728
370
    13
  0
POLYLINE
  5
1E0
330
1F
100
AcDbEntity
  8
Wood
 62
   250
420
  2301728
370
    13
100
AcDb2dPolyline
 66
     1
 10
0.0
 20
0.0
 30
0.0
  0
VERTEX
  5
1E1
330
1E0
100
AcDbEntity
  8
Wood
 62
   250
420
  2301728
370
    13
100
AcDbVertex
100
AcDb2dVertex
 10
5.08175508132154
 20
6.873089306461225
 30
0.0
  0
VERTEX
  5
1E2
330
1E0
100
AcDbEntity
  8
Wood
 62
   250
420
  2301728
370
    13
100
AcDbVertex
100
AcDb2dVertex
 10
5.215450841976184
 20
6.932068736926655
 30
0.0
  0
SEQEND
  5
1E3
330
1E0
100
AcDbEntity
  8
Wood
 62
   250
420
  2301728
370
    13
  0
POLYLINE
  5
1E4
330
1F
100
AcDbEntity
  8
Wood
 62
   250
420
  2301728
370
    13
100
AcDb2dPolyline
 66
     1
 10
0.0
 20
0.0
 30
0.0
  0
VERTEX
  5
1E5
330
1E4
100
AcDbEntity
  8
Wood
 62
   250
420
  2301728
370
    13
100
AcDbVertex
100
AcDb2dVertex
 10
5.17416266391764
 20
6.88881629567441
 30
0.0
  0
VERTEX
  5
1E6
330
1E4
100
AcDbEntity
  8
Wood
 62
   250
420
  2301728
370
    13
100
AcDbVertex
100
AcDb2dVertex
 10
5.22134462260831
 20
6.912407389083783
 30
0.0
  0
SEQEND
  5
1E7
330
1E4
100
AcDbEntity
  8
Wood
 62
   250
420
  2301728
370
    13
  0
POLYLINE
  5
1E8
330
1F
100
AcDbEntity
  8
Wood
 62
   250
420
  2301728
370
    13
100
AcDb2dPolyline
 66
     1
 10
0.0
 20
0.0
 30
0.0
  0
VERTEX
  5
1E9
330
1E8
100
AcDbEntity
  8
Wood
 62
   250
420
  2301728
370
    13
100
AcDbVertex
100
AcDb2dVertex
 10
5.313752205204385
 20
7.022512056329067
 30
0.0
  0
VERTEX
  5
1EA
330
1E8
100
AcDbEntity
  8
Wood
 62
   250
420
  2301728
370
    13
100
AcDbVertex
100
AcDb2dVertex
 10
5.36290833759929
 20
7.048072371614567
 30
0.0
  0
VERTEX
  5
1EB
330
1E8
100
AcDbEntity
  8
Wood
 62
   250
420
  2301728
370
    13
100
AcDbVertex
100
AcDb2dVertex
 10
5.451386402756977
 20
7.050036517317039
 30
0.0
  0
SEQEND
  5
1EC
330
1E8
100
AcDbEntity
  8
Wood
 62
   250
420
  2301728
370
    13
  0
POLYLINE
  5
1ED
330
1F
100
AcDbEntity
  8
Wood
 62
   250
420
  2301728
370
    13
100
AcDb2dPolyline
 66
     1
 10
0.0
 20
0.0
 30
0.0
  0
VERTEX
  5
1EE
330
1ED
100
AcDbEntity
  8
Wood
 62
   250
420
  2301728
370
    13
100
AcDbVertex
100
AcDb2dVertex
 10
5.31769163315337
 20
7.00088534017742
 30
0.0
  0
VERTEX
  5
1EF
330
1ED
100
AcDbEntity
  8
Wood
 62
   250
420
  2301728
370
    13
100
AcDbVertex
100
AcDb2dVertex
 10
5.380599590006189
 20
7.026440582716431
 30
0.0
  0
VERTEX
  5
1F0
330
1ED
100
AcDbEntity
  8
Wood
 62
   250
420
  2301728
370
    13
100
AcDbVertex
100
AcDb2dVertex
 10
5.443518448420617
 20
7.026440582716431
 30
0.0
  0
SEQEND
  5
1F1
330
1ED
100
AcDbEntity
  8
Wood
 62
   250
420
  2301728
370
    13
  0
POLYLINE
  5
1F2
330
1F
100
AcDbEntity
  8
Wood
 62
   250
420
  2301728
370
    13
100
AcDb2dPolyline
 66
     1
 10
0.0
 20
0.0
 30
0.0
  0
VERTEX
  5
1F3
330
1F2
100
AcDbEntity
  8
Wood
 62
   250
420
  2301728
370
    13
100
AcDbVertex
100
AcDb2dVertex
 10
5.327514931223909
 20
6.971391660740474
 30
0.0
  0
VERTEX
  5
1F4
330
1F2
100
AcDbEntity
  8
Wood
 62
   250
420
  2301728
370
    13
100
AcDbVertex
100
AcDb2dVertex
 10
5.408125042045236
 20
6.998916237977873
 30
0.0
  0
VERTEX
  5
1F5
330
1F2
100
AcDbEntity
  8
Wood
 62
   250
420
  2301728
370
    13
100
AcDbVertex
100
AcDb2dVertex
 10
5.447446974807993
 20
6.994986604290034
 30
0.0
  0
SEQEND
  5
1F6
330
1F2
100
AcDbEntity
  8
Wood
 62
   250
420
  2301728
370
    13
  0
POLYLINE
  5
1F7
330
1F
100
AcDbEntity
  8
Wood
 62
   250
420
  2301728
370
    13
100
AcDb2dPolyline
 66
     1
 10
0.0
 20
0.0
 30
0.0
  0
VERTEX
  5
1F8
330
1F7
100
AcDbEntity
  8
Wood
 62
   250
420
  2301728
370
    13
100
AcDbVertex
100
AcDb2dVertex
 10
5.325549676979159
 20
6.947800681395139
 30
0.0
  0
VERTEX
  5
1F9
330
1F7
100
AcDbEntity
  8
Wood
 62
   250
420
  2301728
370
    13
100
AcDbVertex
100
AcDb2dVertex
 10
5.429755722401094
 20
6.983189132515248
 30
0.0
  0
VERTEX
  5
1FA
330
1F7
100
AcDbEntity
  8
Wood
 62
   250
420
  2301728
370
    13
100
AcDbVertex
100
AcDb2dVertex
 10
5.449412229052718
 20
6.977290396627861
 30
0.0
  0
SEQEND
  5
1FB
330
1F7
100
AcDbEntity
  8
Wood
 62
   250
420
  2301728
370
    13
  0
INSERT
  5
1FE
330
1F
100
AcDbEntity
  8
BA
100
AcDbBlockReference
  2
block 5
 10
0.0
 20
0.0
 30
0.0
  0
SPLINE
  5
205
330
1F
100
AcDbEntity
  8
BA
 62
   250
420
  2301728
370
    18
100
AcDbSpline
210
0.0
220
0.0
230
1.0
 70
     8
 71
     3
 72
    29
 73
    25
 74
     0
 42
0.0000000001
 43
0.0000000001
 12
1.0
 22
0.0
 32
0.0
 13
1.0
 23
0.0
 33
0.0
 40
0.0
 40
0.0
 40
0.0
 40
0.0
 40
1.0
 40
1.0
 40
1.0
 40
2.0
 40
2.0
 40
2.0
 40
3.0
 40
3.0
 40
3.0
 40
4.0
 40
4.0
 40
4.0
 40
5.0
 40
5.0
 40
5.0
 40
6.0
 40
6.0
 40
6.0
 40
7.0
 40
7.0
 40
7.0
 40
8.0
 40
8.0
 40
8.0
 40
8.0
 10
4.261012184801934
 20
7.321752985436255
 30
0.0
 10
4.261012184801934
 20
7.321752985436255
 30
0.0
 10
4.257702074273728
 20
7.303582064318081
 30
0.0
 10
4.26431238481958
 20
7.293671553754595
 30
0.0
 10
4.26431238481958
 20
7.293671553754595
 30
0.0
 10
4.292398771756527
 20
7.235858590382476
 30
0.0
 10
4.292398771756527
 20
7.235858590382476
 30
0.0
 10
4.292398771756527
 20
7.235858590382476
 30
0.0
 10
4.330385758746362
 20
7.032693123830931
 30
0.0
 10
4.330385758746362
 20
7.032693123830931
 30
0.0
 10
4.330385758746362
 20
7.032693123830931
 30
0.0
 10
4.330385758746362
 20
6.2778491762522
 30
0.0
 10
4.330385758746362
 20
6.2778491762522
 30
0.0
 10
4.330385758746362
 20
6.2778491762522
 30
0.0
 10
4.474088161916976
 20
5.706339763587443
 30
0.0
 10
4.474088161916976
 20
5.706339763587443
 30
0.0
 10
4.474088161916976
 20
5.706339763587443
 30
0.0
 10
4.464177651353465
 20
5.703039563569797
 30
0.0
 10
4.464177651353465
 20
5.703039563569797
 30
0.0
 10
4.464177651353465
 20
5.703039563569797
 30
0.0
 10
4.467477851371111
 20
5.694774197759847
 30
0.0
 10
4.467477851371111
 20
5.694774197759847
 30
0.0
 10
4.467477851371111
 20
5.694774197759847
 30
0.0
 10
4.472433106652867
 20
5.679908431914606
 30
0.0
 10
4.487298872498084
 20
5.681563487178715
 30
0.0
  0
POLYLINE
  5
206
330
1F
100
AcDbEntity
  8
BA
 62
   250
420
  2301728
370
    18
100
AcDb2dPolyline
 66
     1
 10
0.0
 20
0.0
 30
0.0
  0
VERTEX
  5
207
330
206
100
AcDbEntity
  8
BA
 62
   250
420
  2301728
370
    18
100
AcDbVertex
100
AcDb2dVertex
 10
4.332040814010472
 20
6.274539065723982
 30
0.0
  0
VERTEX
  5
208
330
206
100
AcDbEntity
  8
BA
 62
   250
420
  2301728
370
    18
100
AcDbVertex
100
AcDb2dVertex
 10
4.345251524591605
 20
6.279494321005725
 30
0.0
  0
SEQEND
  5
209
330
206
100
AcDbEntity
  8
BA
 62
   250
420
  2301728
370
    18
  0
POLYLINE
  5
20A
330
1F
100
AcDbEntity
  8
BA
 62
   250
420
  2301728
370
    25
100
AcDb2dPolyline
 66
     1
 10
0.0
 20
0.0
 30
0.0
  0
VERTEX
  5
20B
330
20A
100
AcDbEntity
  8
BA
 62
   250
420
  2301728
370
    25
100
AcDbVertex
100
AcDb2dVertex
 10
4.47574321718106
 20
5.706339763587443
 30
0.0
  0
VERTEX
  5
20C
330
20A
100
AcDbEntity
  8
BA
 62
   250
420
  2301728
370
    25
100
AcDbVertex
100
AcDb2dVertex
 10
4.492254127779839
 20
5.711295018869186
 30
0.0
  0
SEQEND
  5
20D
330
20A
100
AcDbEntity
  8
BA
 62
   250
420
  2301728
370
    25
  0
POLYLINE
  5
20E
330
1F
100
AcDbEntity
  8
BA
 62
   250
420
  2301728
370
    18
100
AcDb2dPolyline
 66
     1
 10
0.0
 20
0.0
 30
0.0
  0
VERTEX
  5
20F
330
20E
100
AcDbEntity
  8
BA
 62
   250
420
  2301728
370
    18
100
AcDbVertex
100
AcDb2dVertex
 10
4.330385758746362
 20
7.032693123830931
 30
0.0
  0
VERTEX
  5
210
330
20E
100
AcDbEntity
  8
BA
 62
   250
420
  2301728
370
    18
100
AcDbVertex
100
AcDb2dVertex
 10
4.345251524591605
 20
7.034348179095041
 30
0.0
  0
SEQEND
  5
211
330
20E
100
AcDbEntity
  8
BA
 62
   250
420
  2301728
370
    18
  0
POLYLINE
  5
212
330
1F
100
AcDbEntity
  8
BA
 62
   250
420
  2301728
370
    18
100
AcDb2dPolyline
 66
     1
 10
0.0
 20
0.0
 30
0.0
  0
VERTEX
  5
213
330
212
100
AcDbEntity
  8
BA
 62
   250
420
  2301728
370
    18
100
AcDbVertex
100
AcDb2dVertex
 10
4.292398771756527
 20
7.235858590382476
 30
0.0
  0
VERTEX
  5
214
330
212
100
AcDbEntity
  8
BA
 62
   250
420
  2301728
370
    18
100
AcDbVertex
100
AcDb2dVertex
 10
4.308909682355281
 20
7.239163745655408
 30
0.0
  0
SEQEND
  5
215
330
212
100
AcDbEntity
  8
BA
 62
   250
420
  2301728
370
    18
  0
SPLINE
  5
216
330
1F
100
AcDbEntity
  8
BA
 62
   250
420
  2301728
370
    18
100
AcDbSpline
210
0.0
220
0.0
230
1.0
 70
     8
 71
     3
 72
    23
 73
    19
 74
     0
 42
0.0000000001
 43
0.0000000001
 12
1.0
 22
0.0
 32
0.0
 13
1.0
 23
0.0
 33
0.0
 40
0.0
 40
0.0
 40
0.0
 40
0.0
 40
1.0
 40
1.0
 40
1.0
 40
2.0
 40
2.0
 40
2.0
 40
3.0
 40
3.0
 40
3.0
 40
4.0
 40
4.0
 40
4.0
 40
5.0
 40
5.0
 40
5.0
 40
6.0
 40
6.0
 40
6.0
 40
6.0
 10
4.008294165432959
 20
7.27385053262761
 30
0.0
 10
4.008294165432959
 20
7.27385053262761
 30
0.0
 10
4.013254375969975
 20
7.27715568790053
 30
0.0
 10
4.021509831269364
 20
7.263940022064124
 30
0.0
 10
4.021509831269364
 20
7.263940022064124
 30
0.0
 10
4.110704426340766
 20
7.035998279103865
 30
0.0
 10
4.110704426340766
 20
7.035998279103865
 30
0.0
 10
4.110704426340766
 20
7.035998279103865
 30
0.0
 10
4.110704426340766
 20
6.284449576287468
 30
0.0
 10
4.110704426340766
 20
6.284449576287468
 30
0.0
 10
4.110704426340766
 20
6.284449576287468
 30
0.0
 10
4.10904937107667
 20
6.256373099861106
 30
0.0
 10
4.125570192186008
 20
6.216731057607149
 30
0.0
 10
4.125570192186008
 20
6.216731057607149
 30
0.0
 10
4.249446618974338
 20
5.975578604065769
 30
0.0
 10
4.249446618974338
 20
5.975578604065769
 30
0.0
 10
4.249446618974338
 20
5.975578604065769
 30
0.0
 10
4.257702074273728
 20
5.955757582938784
 30
0.0
 10
4.259357129537837
 20
5.949147272392931
 30
0.0
  0
POLYLINE
  5
217
330
1F
100
AcDbEntity
  8
BA
 62
   250
420
  2301728
370
    18
100
AcDb2dPolyline
 66
     1
 10
0.0
 20
0.0
 30
0.0
  0
VERTEX
  5
218
330
217
100
AcDbEntity
  8
BA
 62
   250
420
  2301728
370
    18
100
AcDbVertex
100
AcDb2dVertex
 10
4.095838660495537
 20
7.044258689658527
 30
0.0
  0
VERTEX
  5
219
330
217
100
AcDbEntity
  8
BA
 62
   250
420
  2301728
370
    18
100
AcDbVertex
100
AcDb2dVertex
 10
4.110704426340766
 20
7.035998279103865
 30
0.0
  0
SEQEND
  5
21A
330
217
100
AcDbEntity
  8
BA
 62
   250
420
  2301728
370
    18
  0
SPLINE
  5
21B
330
1F
100
AcDbEntity
  8
BA
 62
   250
420
  2301728
370
    18
100
AcDbSpline
210
0.0
220
0.0
230
1.0
 70
     8
 71
     3
 72
    14
 73
    10
 74
     0
 42
0.0000000001
 43
0.0000000001
 12
1.0
 22
0.0
 32
0.0
 13
1.0
 23
0.0
 33
0.0
 40
0.0
 40
0.0
 40
0.0
 40
0.0
 40
1.0
 40
1.0
 40
1.0
 40
2.0
 40
2.0
 40
2.0
 40
3.0
 40
3.0
 40
3.0
 40
3.0
 10
3.730799869655256
 20
7.42911354637052
 30
0.0
 10
3.730799869655256
 20
7.42911354637052
 30
0.0
 10
3.968652123179001
 20
7.343224106572039
 30
0.0
 10
3.968652123179001
 20
7.343224106572039
 30
0.0
 10
3.968652123179001
 20
7.343224106572039
 30
0.0
 10
3.975262433724841
 20
7.343224106572039
 30
0.0
 10
3.975262433724841
 20
7.326708240717986
 30
0.0
 10
3.975262433724841
 20
7.326708240717986
 30
0.0
 10
3.975262433724841
 20
7.298626809036338
 30
0.0
 10
3.975262433724841
 20
7.298626809036338
 30
0.0
  0
INSERT
  5
21D
330
1F
100
AcDbEntity
  8
BA
100
AcDbBlockReference
  2
block 6
 10
0.0
 20
0.0
 30
0.0
  0
INSERT
  5
22D
330
1F
100
AcDbEntity
  8
BA
100
AcDbBlockReference
  2
block 7
 10
0.0
 20
0.0
 30
0.0
  0
SPLINE
  5
232
330
1F
100
AcDbEntity
  8
BA
 62
   250
420
  2301728
370
    18
100
AcDbSpline
210
0.0
220
0.0
230
1.0
 70
     8
 71
     3
 72
    11
 73
     7
 74
     0
 42
0.0000000001
 43
0.0000000001
 12
1.0
 22
0.0
 32
0.0
 13
1.0
 23
0.0
 33
0.0
 40
0.0
 40
0.0
 40
0.0
 40
0.0
 40
1.0
 40
1.0
 40
1.0
 40
2.0
 40
2.0
 40
2.0
 40
2.0
 10
4.631001275668697
 20
7.491881765024395
 30
0.0
 10
4.631001275668697
 20
7.491881765024395
 30
0.0
 10
4.642566841496293
 20
7.485276409733816
 30
0.0
 10
4.64421198624983
 20
7.470410643888575
 30
0.0
 10
4.64421198624983
 20
7.470410643888575
 30
0.0
 10
4.64421198624983
 20
7.452239722770425
 30
0.0
 10
4.64421198624983
 20
7.452239722770425
 30
0.0
  0
SPLINE
  5
233
330
1F
100
AcDbEntity
  8
BA
 62
   250
420
  2301728
370
    18
100
AcDbSpline
210
0.0
220
0.0
230
1.0
 70
     8
 71
     3
 72
    11
 73
     7
 74
     0
 42
0.0000000001
 43
0.0000000001
 12
1.0
 22
0.0
 32
0.0
 13
1.0
 23
0.0
 33
0.0
 40
0.0
 40
0.0
 40
0.0
 40
0.0
 40
1.0
 40
1.0
 40
1.0
 40
2.0
 40
2.0
 40
2.0
 40
2.0
 10
4.706985160158966
 20
7.43076860163463
 30
0.0
 10
4.706985160158966
 20
7.43076860163463
 30
0.0
 10
4.706985160158966
 20
7.49023166501556
 30
0.0
 10
4.706985160158966
 20
7.49023166501556
 30
0.0
 10
4.706985160158966
 20
7.49023166501556
 30
0.0
 10
4.703684960141319
 20
7.510047730887258
 30
0.0
 10
4.688819194296078
 20
7.513352886160178
 30
0.0
  0
POLYLINE
  5
234
330
1F
100
AcDbEntity
  8
BA
 62
   250
420
  2301728
370
    13
100
AcDb2dPolyline
 66
     1
 10
0.0
 20
0.0
 30
0.0
  0
VERTEX
  5
235
330
234
100
AcDbEntity
  8
BA
 62
   250
420
  2301728
370
    13
100
AcDbVertex
100
AcDb2dVertex
 10
4.672298373186751
 20
7.470415599143861
 30
0.0
  0
VERTEX
  5
236
330
234
100
AcDbEntity
  8
BA
 62
   250
420
  2301728
370
    13
100
AcDbVertex
100
AcDb2dVertex
 10
4.672298373186751
 20
7.443979312215762
 30
0.0
  0
SEQEND
  5
237
330
234
100
AcDbEntity
  8
BA
 62
   250
420
  2301728
370
    13
  0
SPLINE
  5
238
330
1F
100
AcDbEntity
  8
BA
 62
   250
420
  2301728
370
    13
100
AcDbSpline
210
0.0
220
0.0
230
1.0
 70
     8
 71
     3
 72
     8
 73
     4
 74
     0
 42
0.0000000001
 43
0.0000000001
 12
1.0
 22
0.0
 32
0.0
 13
1.0
 23
0.0
 33
0.0
 40
0.0
 40
0.0
 40
0.0
 40
0.0
 40
1.0
 40
1.0
 40
1.0
 40
1.0
 10
4.668998173169105
 20
7.493531865033206
 30
0.0
 10
4.668998173169105
 20
7.493531865033206
 30
0.0
 10
4.672298373186751
 20
7.491876809769097
 30
0.0
 10
4.672298373186751
 20
7.483621354469707
 30
0.0
  0
POLYLINE
  5
239
330
1F
100
AcDbEntity
  8
BA
 62
   250
420
  2301728
370
    13
100
AcDb2dPolyline
 66
     1
 10
0.0
 20
0.0
 30
0.0
  0
VERTEX
  5
23A
330
239
100
AcDbEntity
  8
BA
 62
   250
420
  2301728
370
    13
100
AcDbVertex
100
AcDb2dVertex
 10
4.653657693867899
 20
7.498579288063183
 30
0.0
  0
VERTEX
  5
388
330
239
100
AcDbEntity
  8
0
100
AcDbVertex
100
AcDb2dVertex
 10
4.653657693867899
 20
7.498579288063183
 30
0.0
  0
SEQEND
  5
23B
330
239
100
AcDbEntity
  8
BA
 62
   250
420
  2301728
370
    13
  0
SPLINE
  5
23C
330
1F
100
AcDbEntity
  8
BA
 62
   250
420
  2301728
370
    18
100
AcDbSpline
210
0.0
220
0.0
230
1.0
 70
     8
 71
     3
 72
    11
 73
     7
 74
     0
 42
0.0000000001
 43
0.0000000001
 12
1.0
 22
0.0
 32
0.0
 13
1.0
 23
0.0
 33
0.0
 40
0.0
 40
0.0
 40
0.0
 40
0.0
 40
1.0
 40
1.0
 40
1.0
 40
2.0
 40
2.0
 40
2.0
 40
2.0
 10
4.773048623575201
 20
7.412597680516468
 30
0.0
 10
4.773048623575201
 20
7.412597680516468
 30
0.0
 10
4.773048623575201
 20
7.503442375596692
 30
0.0
 10
4.773048623575201
 20
7.503442375596692
 30
0.0
 10
4.773048623575201
 20
7.503442375596692
 30
0.0
 10
4.769748423557555
 20
7.523258441468392
 30
0.0
 10
4.754882657712313
 20
7.526563596741298
 30
0.0
  0
POLYLINE
  5
23D
330
1F
100
AcDbEntity
  8
BA
 62
   250
420
  2301728
370
    13
100
AcDb2dPolyline
 66
     1
 10
0.0
 20
0.0
 30
0.0
  0
VERTEX
  5
23E
330
23D
100
AcDbEntity
  8
BA
 62
   250
420
  2301728
370
    13
100
AcDbVertex
100
AcDb2dVertex
 10
4.738361836602987
 20
7.481971254460909
 30
0.0
  0
VERTEX
  5
23F
330
23D
100
AcDbEntity
  8
BA
 62
   250
420
  2301728
370
    13
100
AcDbVertex
100
AcDb2dVertex
 10
4.738361836602987
 20
7.440679112198116
 30
0.0
  0
SEQEND
  5
240
330
23D
100
AcDbEntity
  8
BA
 62
   250
420
  2301728
370
    13
  0
SPLINE
  5
241
330
1F
100
AcDbEntity
  8
BA
 62
   250
420
  2301728
370
    13
100
AcDbSpline
210
0.0
220
0.0
230
1.0
 70
     8
 71
     3
 72
     8
 73
     4
 74
     0
 42
0.0000000001
 43
0.0000000001
 12
1.0
 22
0.0
 32
0.0
 13
1.0
 23
0.0
 33
0.0
 40
0.0
 40
0.0
 40
0.0
 40
0.0
 40
1.0
 40
1.0
 40
1.0
 40
1.0
 10
4.735061636585341
 20
7.506742575614326
 30
0.0
 10
4.735061636585341
 20
7.506742575614326
 30
0.0
 10
4.738361836602987
 20
7.505087520350255
 30
0.0
 10
4.738361836602987
 20
7.49683206505084
 30
0.0
  0
POLYLINE
  5
242
330
1F
100
AcDbEntity
  8
BA
 62
   250
420
  2301728
370
    13
100
AcDb2dPolyline
 66
     1
 10
0.0
 20
0.0
 30
0.0
  0
VERTEX
  5
243
330
242
100
AcDbEntity
  8
BA
 62
   250
420
  2301728
370
    13
100
AcDbVertex
100
AcDb2dVertex
 10
4.66099444483805
 20
7.530788447394532
 30
0.0
  0
VERTEX
  5
244
330
242
100
AcDbEntity
  8
BA
 62
   250
420
  2301728
370
    13
100
AcDbVertex
100
AcDb2dVertex
 10
4.721647760537659
 20
7.511098245006981
 30
0.0
  0
SEQEND
  5
245
330
242
100
AcDbEntity
  8
BA
 62
   250
420
  2301728
370
    13
  0
POLYLINE
  5
246
330
1F
100
AcDbEntity
  8
BA
 62
   250
420
  2301728
370
    13
100
AcDb2dPolyline
 66
     1
 10
0.0
 20
0.0
 30
0.0
  0
VERTEX
  5
247
330
246
100
AcDbEntity
  8
BA
 62
   250
420
  2301728
370
    13
100
AcDbVertex
100
AcDb2dVertex
 10
4.647619219781569
 20
7.535134336072044
 30
0.0
  0
VERTEX
  5
389
330
246
100
AcDbEntity
  8
0
100
AcDbVertex
100
AcDb2dVertex
 10
4.647619219781569
 20
7.535134336072044
 30
0.0
  0
SEQEND
  5
248
330
246
100
AcDbEntity
  8
BA
 62
   250
420
  2301728
370
    13
  0
POLYLINE
  5
249
330
1F
100
AcDbEntity
  8
BA
 62
   250
420
  2301728
370
    13
100
AcDb2dPolyline
 66
     1
 10
0.0
 20
0.0
 30
0.0
  0
VERTEX
  5
24A
330
249
100
AcDbEntity
  8
BA
 62
   250
420
  2301728
370
    13
100
AcDbVertex
100
AcDb2dVertex
 10
4.807464853609013
 20
7.470381903407946
 30
0.0
  0
VERTEX
  5
38A
330
249
100
AcDbEntity
  8
0
100
AcDbVertex
100
AcDb2dVertex
 10
4.807464853609013
 20
7.470381903407946
 30
0.0
  0
SEQEND
  5
24B
330
249
100
AcDbEntity
  8
BA
 62
   250
420
  2301728
370
    13
  0
INSERT
  5
24D
330
1F
100
AcDbEntity
  8
BA
100
AcDbBlockReference
  2
block 8
 10
0.0
 20
0.0
 30
0.0
  0
INSERT
  5
263
330
1F
100
AcDbEntity
  8
BA
100
AcDbBlockReference
  2
block 9
 10
0.0
 20
0.0
 30
0.0
  0
INSERT
  5
278
330
1F
100
AcDbEntity
  8
BA
100
AcDbBlockReference
  2
block 10
 10
0.0
 20
0.0
 30
0.0
  0
INSERT
  5
28A
330
1F
100
AcDbEntity
  8
BA
100
AcDbBlockReference
  2
block 11
 10
0.0
 20
0.0
 30
0.0
  0
SPLINE
  5
29C
330
1F
100
AcDbEntity
  8
BA
 62
   250
420
  2301728
370
    13
100
AcDbSpline
210
0.0
220
0.0
230
1.0
 70
    11
 71
     3
 72
    17
 73
    13
 74
     0
 42
0.0000000001
 43
0.0000000001
 12
1.0
 22
0.0
 32
0.0
 13
1.0
 23
0.0
 33
0.0
 40
0.0
 40
0.0
 40
0.0
 40
0.0
 40
1.0
 40
1.0
 40
1.0
 40
2.0
 40
2.0
 40
2.0
 40
3.0
 40
3.0
 40
3.0
 40
4.0
 40
4.0
 40
4.0
 40
4.0
 10
4.185173984816944
 20
7.228202720972174
 30
0.0
 10
4.183542714778191
 20
7.218011742959738
 30
0.0
 10
4.175877925908392
 20
7.210768150788883
 30
0.0
 10
4.168057542022741
 20
7.21202083932413
 30
0.0
 10
4.16023319393288
 20
7.213269563655116
 30
0.0
 10
4.155219541477083
 20
7.222545801542537
 30
0.0
 10
4.156849745626497
 20
7.232742725861309
 30
0.0
 10
4.158481015665239
 20
7.242933703873746
 30
0.0
 10
4.16614580453505
 20
7.250182251299886
 30
0.0
 10
4.1739661884207
 20
7.248929562764665
 30
0.0
 10
4.181790536510574
 20
7.247680838433666
 30
0.0
 10
4.186804339440818
 20
7.238399645290959
 30
0.0
 10
4.185173984816944
 20
7.228202720972174
 30
0.0
  0
SPLINE
  5
29D
330
1F
100
AcDbEntity
  8
BA
 62
   250
420
  2301728
370
    18
100
AcDbSpline
210
0.0
220
0.0
230
1.0
 70
    11
 71
     3
 72
    23
 73
    19
 74
     0
 42
0.0000000001
 43
0.0000000001
 12
1.0
 22
0.0
 32
0.0
 13
1.0
 23
0.0
 33
0.0
 40
0.0
 40
0.0
 40
0.0
 40
0.0
 40
1.0
 40
1.0
 40
1.0
 40
2.0
 40
2.0
 40
2.0
 40
3.0
 40
3.0
 40
3.0
 40
4.0
 40
4.0
 40
4.0
 40
5.0
 40
5.0
 40
5.0
 40
6.0
 40
6.0
 40
6.0
 40
6.0
 10
4.1739661884207
 20
7.248929562764665
 30
0.0
 10
4.173385507798861
 20
7.249020739461848
 30
0.0
 10
4.169610519028045
 20
7.250366586796367
 30
0.0
 10
4.168116014035073
 20
7.250603570606396
 30
0.0
 10
4.160295630149436
 20
7.251857127585114
 30
0.0
 10
4.152630841279612
 20
7.244607711564034
 30
0.0
 10
4.15099957124087
 20
7.234416611095488
 30
0.0
 10
4.149369292253166
 20
7.224220677827765
 30
0.0
 10
4.154382028496179
 20
7.214944439940344
 30
0.0
 10
4.162207367637115
 20
7.213695715609346
 30
0.0
 10
4.162788123556134
 20
7.213603547861099
 30
0.0
 10
4.166562045978708
 20
7.212258691577618
 30
0.0
 10
4.168057542022741
 20
7.21202083932413
 30
0.0
 10
4.175877925908392
 20
7.210768150788883
 30
0.0
 10
4.183542714778191
 20
7.218011742959738
 30
0.0
 10
4.185173984816944
 20
7.228202720972174
 30
0.0
 10
4.186804339440818
 20
7.238399645290959
 30
0.0
 10
4.181790536510574
 20
7.247680838433666
 30
0.0
 10
4.1739661884207
 20
7.248929562764665
 30
0.0
  0
INSERT
  5
29F
330
1F
100
AcDbEntity
  8
BA
100
AcDbBlockReference
  2
block 12
 10
0.0
 20
0.0
 30
0.0
  0
POLYLINE
  5
2A4
330
1F
100
AcDbEntity
  8
BA
 62
   250
420
  2301728
370
    13
100
AcDb2dPolyline
 66
     1
 10
0.0
 20
0.0
 30
0.0
  0
VERTEX
  5
2A5
330
2A4
100
AcDbEntity
  8
BA
 62
   250
420
  2301728
370
    13
100
AcDbVertex
100
AcDb2dVertex
 10
4.82711144975009
 20
7.530729975382201
 30
0.0
  0
VERTEX
  5
2A6
330
2A4
100
AcDbEntity
  8
BA
 62
   250
420
  2301728
370
    13
100
AcDbVertex
100
AcDb2dVertex
 10
4.849952203445759
 20
7.535888396130505
 30
0.0
  0
SEQEND
  5
2A7
330
2A4
100
AcDbEntity
  8
BA
 62
   250
420
  2301728
370
    13
  0
POLYLINE
  5
2A8
330
1F
100
AcDbEntity
  8
BA
 62
   250
420
  2301728
370
    13
100
AcDb2dPolyline
 66
     1
 10
0.0
 20
0.0
 30
0.0
  0
VERTEX
  5
2A9
330
2A8
100
AcDbEntity
  8
BA
 62
   250
420
  2301728
370
    13
100
AcDbVertex
100
AcDb2dVertex
 10
4.767725688351548
 20
7.517330965100363
 30
0.0
  0
VERTEX
  5
2AA
330
2A8
100
AcDbEntity
  8
BA
 62
   250
420
  2301728
370
    13
100
AcDbVertex
100
AcDb2dVertex
 10
4.78193339629537
 20
7.520538997369764
 30
0.0
  0
SEQEND
  5
2AB
330
2A8
100
AcDbEntity
  8
BA
 62
   250
420
  2301728
370
    13
  0
POLYLINE
  5
2AC
330
1F
100
AcDbEntity
  8
BA
 62
   250
420
  2301728
370
    13
100
AcDb2dPolyline
 66
     1
 10
0.0
 20
0.0
 30
0.0
  0
VERTEX
  5
2AD
330
2AC
100
AcDbEntity
  8
BA
 62
   250
420
  2301728
370
    13
100
AcDbVertex
100
AcDb2dVertex
 10
4.702194419352584
 20
7.502552411748095
 30
0.0
  0
VERTEX
  5
2AE
330
2AC
100
AcDbEntity
  8
BA
 62
   250
420
  2301728
370
    13
100
AcDbVertex
100
AcDb2dVertex
 10
4.719363387852758
 20
7.506418501918915
 30
0.0
  0
SEQEND
  5
2AF
330
2AC
100
AcDbEntity
  8
BA
 62
   250
420
  2301728
370
    13
  0
POLYLINE
  5
2B0
330
1F
100
AcDbEntity
  8
BA
 62
   250
420
  2301728
370
    13
100
AcDb2dPolyline
 66
     1
 10
0.0
 20
0.0
 30
0.0
  0
VERTEX
  5
2B1
330
2B0
100
AcDbEntity
  8
BA
 62
   250
420
  2301728
370
    13
100
AcDbVertex
100
AcDb2dVertex
 10
4.647812474737545
 20
7.490285181772606
 30
0.0
  0
VERTEX
  5
2B2
330
2B0
100
AcDbEntity
  8
BA
 62
   250
420
  2301728
370
    13
100
AcDbVertex
100
AcDb2dVertex
 10
4.658671421161974
 20
7.492733077881793
 30
0.0
  0
SEQEND
  5
2B3
330
2B0
100
AcDbEntity
  8
BA
 62
   250
420
  2301728
370
    13
  0
POLYLINE
  5
2B4
330
1F
100
AcDbEntity
  8
BA
 62
   250
420
  2301728
370
    13
100
AcDb2dPolyline
 66
     1
 10
0.0
 20
0.0
 30
0.0
  0
VERTEX
  5
2B5
330
2B4
100
AcDbEntity
  8
BA
 62
   250
420
  2301728
370
    13
100
AcDbVertex
100
AcDb2dVertex
 10
4.190341325024747
 20
7.3870662232028
 30
0.0
  0
VERTEX
  5
2B6
330
2B4
100
AcDbEntity
  8
BA
 62
   250
420
  2301728
370
    13
100
AcDbVertex
100
AcDb2dVertex
 10
4.205555940841817
 20
7.390502197215167
 30
0.0
  0
SEQEND
  5
2B7
330
2B4
100
AcDbEntity
  8
BA
 62
   250
420
  2301728
370
    13
  0
POLYLINE
  5
2B8
330
1F
100
AcDbEntity
  8
BA
 62
   250
420
  2301728
370
    13
100
AcDb2dPolyline
 66
     1
 10
0.0
 20
0.0
 30
0.0
  0
VERTEX
  5
2B9
330
2B8
100
AcDbEntity
  8
BA
 62
   250
420
  2301728
370
    13
100
AcDbVertex
100
AcDb2dVertex
 10
4.127888260606811
 20
7.372975459283629
 30
0.0
  0
VERTEX
  5
2BA
330
2B8
100
AcDbEntity
  8
BA
 62
   250
420
  2301728
370
    13
100
AcDbVertex
100
AcDb2dVertex
 10
4.140963197193224
 20
7.375921979847539
 30
0.0
  0
SEQEND
  5
2BB
330
2B8
100
AcDbEntity
  8
BA
 62
   250
420
  2301728
370
    13
  0
POLYLINE
  5
2BC
330
1F
100
AcDbEntity
  8
BA
 62
   250
420
  2301728
370
    13
100
AcDb2dPolyline
 66
     1
 10
0.0
 20
0.0
 30
0.0
  0
VERTEX
  5
2BD
330
2BC
100
AcDbEntity
  8
BA
 62
   250
420
  2301728
370
    13
100
AcDbVertex
100
AcDb2dVertex
 10
4.057072707375394
 20
7.356996743102122
 30
0.0
  0
VERTEX
  5
2BE
330
2BC
100
AcDbEntity
  8
BA
 62
   250
420
  2301728
370
    13
100
AcDbVertex
100
AcDb2dVertex
 10
4.073355676231206
 20
7.360669703705033
 30
0.0
  0
SEQEND
  5
2BF
330
2BC
100
AcDbEntity
  8
BA
 62
   250
420
  2301728
370
    13
  0
POLYLINE
  5
2C0
330
1F
100
AcDbEntity
  8
BA
 62
   250
420
  2301728
370
    13
100
AcDb2dPolyline
 66
     1
 10
0.0
 20
0.0
 30
0.0
  0
VERTEX
  5
2C1
330
2C0
100
AcDbEntity
  8
BA
 62
   250
420
  2301728
370
    13
100
AcDbVertex
100
AcDb2dVertex
 10
3.982816295359334
 20
7.340243024994543
 30
0.0
  0
VERTEX
  5
2C2
330
2C0
100
AcDbEntity
  8
BA
 62
   250
420
  2301728
370
    13
100
AcDbVertex
100
AcDb2dVertex
 10
4.006503336174129
 20
7.345585906246343
 30
0.0
  0
SEQEND
  5
2C3
330
2C0
100
AcDbEntity
  8
BA
 62
   250
420
  2301728
370
    13
  0
SPLINE
  5
2C4
330
1F
100
AcDbEntity
  8
BA
 62
   250
420
  2301728
370
    18
100
AcDbSpline
210
0.0
220
0.0
230
1.0
 70
     8
 71
     3
 72
     8
 73
     4
 74
     0
 42
0.0000000001
 43
0.0000000001
 12
1.0
 22
0.0
 32
0.0
 13
1.0
 23
0.0
 33
0.0
 40
0.0
 40
0.0
 40
0.0
 40
0.0
 40
1.0
 40
1.0
 40
1.0
 40
1.0
 10
3.962041812633149
 20
7.433836198389813
 30
0.0
 10
3.953093340519053
 20
7.437787199980725
 30
0.0
 10
3.936022458628852
 20
7.446956264775381
 30
0.0
 10
3.921514761785854
 20
7.433836198389813
 30
0.0
  0
SPLINE
  5
2C5
330
1F
100
AcDbEntity
  8
BA
 62
   250
420
  2301728
370
    18
100
AcDbSpline
210
0.0
220
0.0
230
1.0
 70
     8
 71
     3
 72
     8
 73
     4
 74
     0
 42
0.0000000001
 43
0.0000000001
 12
1.0
 22
0.0
 32
0.0
 13
1.0
 23
0.0
 33
0.0
 40
0.0
 40
0.0
 40
0.0
 40
0.0
 40
1.0
 40
1.0
 40
1.0
 40
1.0
 10
4.028557690856612
 20
7.448833684145736
 30
0.0
 10
4.019609218742517
 20
7.452784685736648
 30
0.0
 10
4.002538336852315
 20
7.461953750531316
 30
0.0
 10
3.988030640009318
 20
7.448833684145736
 30
0.0
  0
SPLINE
  5
2C6
330
1F
100
AcDbEntity
  8
BA
370
     0
100
AcDbSpline
210
0.0
220
0.0
230
1.0
 70
    11
 71
     3
 72
    17
 73
    13
 74
     0
 42
0.0000000001
 43
0.0000000001
 12
1.0
 22
0.0
 32
0.0
 13
1.0
 23
0.0
 33
0.0
 40
0.0
 40
0.0
 40
0.0
 40
0.0
 40
1.0
 40
1.0
 40
1.0
 40
2.0
 40
2.0
 40
2.0
 40
3.0
 40
3.0
 40
3.0
 40
4.0
 40
4.0
 40
4.0
 40
4.0
 10
4.252092373497236
 20
6.656199702530304
 30
0.0
 10
4.265401132829108
 20
6.656199702530304
 30
0.0
 10
4.276166064751552
 20
6.640609640926122
 30
0.0
 10
4.276166064751552
 20
6.62327081346181
 30
0.0
 10
4.276166064751552
 20
6.605897103699753
 30
0.0
 10
4.269489338124433
 20
6.590874460805518
 30
0.0
 10
4.252092373497236
 20
6.591793027979393
 30
0.0
 10
4.235288407931648
 20
6.592702293207203
 30
0.0
 10
4.228042191947351
 20
6.605897103699753
 30
0.0
 10
4.228042191947351
 20
6.62327081346181
 30
0.0
 10
4.228042191947351
 20
6.640609640926122
 30
0.0
 10
4.238806869030542
 20
6.656199702530304
 30
0.0
 10
4.252092373497236
 20
6.656199702530304
 30
0.0
  0
SPLINE
  5
2C7
330
1F
100
AcDbEntity
  8
BA
 62
   250
420
  2301728
370
    15
100
AcDbSpline
210
0.0
220
0.0
230
1.0
 70
    11
 71
     3
 72
    17
 73
    13
 74
     0
 42
0.0000000001
 43
0.0000000001
 12
1.0
 22
0.0
 32
0.0
 13
1.0
 23
0.0
 33
0.0
 40
0.0
 40
0.0
 40
0.0
 40
0.0
 40
1.0
 40
1.0
 40
1.0
 40
2.0
 40
2.0
 40
2.0
 40
3.0
 40
3.0
 40
3.0
 40
4.0
 40
4.0
 40
4.0
 40
4.0
 10
4.227860803999116
 20
6.618682980140571
 30
0.0
 10
4.227860803999116
 20
6.600981025204646
 30
0.0
 10
4.238239450320608
 20
6.592293007580363
 30
0.0
 10
4.252545843367872
 20
6.592293007580363
 30
0.0
 10
4.266831307036505
 20
6.592293007580363
 30
0.0
 10
4.274756565083483
 20
6.601706928143939
 30
0.0
 10
4.274756565083483
 20
6.619454690088824
 30
0.0
 10
4.274756565083483
 20
6.63714466601708
 30
0.0
 10
4.266831307036505
 20
6.653053671717366
 30
0.0
 10
4.252545843367872
 20
6.653053671717366
 30
0.0
 10
4.238239450320608
 20
6.653053671717366
 30
0.0
 10
4.227860803999116
 20
6.636395859358875
 30
0.0
 10
4.227860803999116
 20
6.618682980140571
 30
0.0
  0
SPLINE
  5
2C8
330
1F
100
AcDbEntity
  8
BA
 62
   250
420
  2301728
370
     9
100
AcDbSpline
210
0.0
220
0.0
230
1.0
 70
     8
 71
     3
 72
    11
 73
     7
 74
     0
 42
0.0000000001
 43
0.0000000001
 12
1.0
 22
0.0
 32
0.0
 13
1.0
 23
0.0
 33
0.0
 40
0.0
 40
0.0
 40
0.0
 40
0.0
 40
1.0
 40
1.0
 40
1.0
 40
2.0
 40
2.0
 40
2.0
 40
2.0
 10
4.227860803999116
 20
6.608678385573057
 30
0.0
 10
4.227860803999116
 20
6.590965154779648
 30
0.0
 10
4.238239450320608
 20
6.58226783520931
 30
0.0
 10
4.252545843367872
 20
6.58226783520931
 30
0.0
 10
4.266831307036505
 20
6.58226783520931
 30
0.0
 10
4.274756565083483
 20
6.591702334005263
 30
0.0
 10
4.274756565083483
 20
6.609427543572539
 30
0.0
  0
INSERT
  5
2CA
330
1F
100
AcDbEntity
  8
BA
100
AcDbBlockReference
  2
block 13
 10
0.0
 20
0.0
 30
0.0
  0
INSERT
  5
2D7
330
1F
100
AcDbEntity
  8
BA
100
AcDbBlockReference
  2
block 14
 10
0.0
 20
0.0
 30
0.0
  0
INSERT
  5
2DD
330
1F
100
AcDbEntity
  8
BA
100
AcDbBlockReference
  2
block 15
 10
0.0
 20
0.0
 30
0.0
  0
INSERT
  5
2E3
330
1F
100
AcDbEntity
  8
BA
100
AcDbBlockReference
  2
block 16
 10
0.0
 20
0.0
 30
0.0
  0
INSERT
  5
348
330
1F
100
AcDbEntity
  8
BA
100
AcDbBlockReference
  2
block 22
 10
0.0
 20
0.0
 30
0.0
  0
INSERT
  5
358
330
1F
100
AcDbEntity
  8
BA
100
AcDbBlockReference
  2
block 23
 10
0.0
 20
0.0
 30
0.0
  0
MTEXT
  5
376
330
1F
100
AcDbEntity
  8
callout
 62
   250
420
  2301728
100
AcDbMText
 10
3.627192179361979
 20
4.96353883213467
 30
0.0
 40
0.118
 41
0.0
 46
0.0
 71
     7
 72
     1
  1
\fHelvetica Neue LT Std 55 Roman|b0|i0|c0|p34;\W1;SIMPSON Strong-Tie\H0.068794;®\H0.118; ^C
 73
     1
 44
1.0
  0
MTEXT
  5
377
330
1F
100
AcDbEntity
  8
callout
 62
   250
420
  2301728
100
AcDbMText
 10
3.31581793891059
 20
4.763533406787448
 30
0.0
 40
0.118
 41
0.0
 46
0.0
 71
     7
 72
     1
  1
\fHelvetica Neue LT Std 55 Roman|b0|i0|c0|p34;\W1;ITSE Top Fix I-Joist Installation
 73
     1
 44
1.0
  0
MTEXT
  5
378
330
1F
100
AcDbEntity
  8
callout
 62
   250
420
  2236191
100
AcDbMText
 10
3.17987929450141
 20
7.626714918348524
 30
0.0
 40
0.118
 41
0.0
 46
0.0
 71
     7
 72
     1
  1
\fHelvetica Neue LT Std 57 Condensed|b0|i0|c0|p34;\W1;ITSE
 73
     1
 44
1.0
  0
MTEXT
  5
379
330
1F
100
AcDbEntity
  8
callout
 62
   250
420
  2236191
100
AcDbMText
 10
4.004389868842231
 20
5.293362538019815
 30
0.0
 40
0.118
 41
0.0
 46
0.0
 71
     7
 72
     1
  1
\fHelvetica Neue LT Std 57 Condensed|b0|i0|c0|p34;\W1;I-Joist
 73
     1
 44
1.0
  0
POLYLINE
  5
37A
330
1F
100
AcDbEntity
  8
callout
 62
   250
420
  2236191
370
    18
100
AcDb2dPolyline
 66
     1
 10
0.0
 20
0.0
 30
0.0
  0
VERTEX
  5
37B
330
37A
100
AcDbEntity
  8
callout
 62
   250
420
  2236191
370
    18
100
AcDbVertex
100
AcDb2dVertex
 10
3.499447352546591
 20
7.681559828436825
 30
0.0
  0
VERTEX
  5
37C
330
37A
100
AcDbEntity
  8
callout
 62
   250
420
  2236191
370
    18
100
AcDbVertex
100
AcDb2dVertex
 10
3.8482612370013
 20
7.453821723327514
 30
0.0
  0
SEQEND
  5
37D
330
37A
100
AcDbEntity
  8
callout
 62
   250
420
  2236191
370
    18
  0
POLYLINE
  5
37E
330
1F
100
AcDbEntity
  8
callout
 62
   250
420
  2236191
370
    18
100
AcDb2dPolyline
 66
     1
 10
0.0
 20
0.0
 30
0.0
  0
VERTEX
  5
37F
330
37E
100
AcDbEntity
  8
callout
 62
   250
420
  2236191
370
    18
100
AcDbVertex
100
AcDb2dVertex
 10
4.46729055676691
 20
5.34944967760359
 30
0.0
  0
VERTEX
  5
380
330
37E
100
AcDbEntity
  8
callout
 62
   250
420
  2236191
370
    18
100
AcDbVertex
100
AcDb2dVertex
 10
4.72306695969582
 20
5.554197357166585
 30
0.0
  0
SEQEND
  5
381
330
37E
100
AcDbEntity
  8
callout
 62
   250
420
  2236191
370
    18
  0
ENDSEC
  0
SECTION
  2
OBJECTS
  0
DICTIONARY
  5
C
330
0
100
AcDbDictionary
281
     1
  3
ACAD_GROUP
350
D
  3
ACAD_LAYOUT
350
1A
  3
ACAD_MATERIAL
350
3B
  3
ACAD_MLEADERSTYLE
350
38C
  3
ACAD_MLINESTYLE
350
17
  3
ACAD_PLOTSETTINGS
350
19
  3
ACAD_PLOTSTYLENAME
350
E
  3
ACAD_TABLESTYLE
350
38B
  3
ACAD_VISUALSTYLE
350
2A
  0
SUN
  5
3F
330
29
100
AcDbSun
 90
        1
290
     0
 63
     7
421
 16777215
 40
1.0
291
     1
 91
  2455826
 92
 54000000
292
     0
 70
     2
 71
   256
280
     1
  0
DICTIONARY
  5
D
102
{ACAD_REACTORS
330
C
102
}
330
C
100
AcDbDictionary
281
     1
  0
DICTIONARY
  5
1A
102
{ACAD_REACTORS
330
C
102
}
330
C
100
AcDbDictionary
281
     1
  3
Layout1
350
1E
  3
Layout2
350
26
  3
Model
350
22
  0
DICTIONARY
  5
3B
102
{ACAD_REACTORS
330
C
102
}
330
C
100
AcDbDictionary
281
     1
  3
ByBlock
350
3D
  3
ByLayer
350
3C
  3
Global
350
3E
  0
DICTIONARY
  5
38C
102
{ACAD_REACTORS
330
C
102
}
330
C
100
AcDbDictionary
281
     1
  0
DICTIONARY
  5
17
102
{ACAD_REACTORS
330
C
102
}
330
C
100
AcDbDictionary
281
     1
  3
Standard
350
18
  0
DICTIONARY
  5
19
102
{ACAD_REACTORS
330
C
102
}
330
C
100
AcDbDictionary
281
     1
  0
ACDBDICTIONARYWDFLT
  5
E
102
{ACAD_REACTORS
330
C
102
}
330
C
100
AcDbDictionary
281
     1
  3
Normal
350
F
100
AcDbDictionaryWithDefault
340
F
  0
DICTIONARY
  5
38B
102
{ACAD_REACTORS
330
C
102
}
330
C
100
AcDbDictionary
281
     1
  0
DICTIONARY
  5
2A
102
{ACAD_REACTORS
330
C
102
}
330
C
100
AcDbDictionary
281
     1
  3
2dWireframe
350
2F
  3
3D Hidden
350
31
  3
3dWireframe
350
30
  3
Basic
350
32
  3
Brighten
350
36
  3
ColorChange
350
3A
  3
Conceptual
350
34
  3
Dim
350
35
  3
Facepattern
350
39
  3
Flat
350
2B
  3
FlatWithEdges
350
2C
  3
Gouraud
350
2D
  3
GouraudWithEdges
350
2E
  3
Linepattern
350
38
  3
Realistic
350
33
  3
Thicken
350
37
  0
LAYOUT
  5
1E
102
{ACAD_REACTORS
330
1A
102
}
330
1A
100
AcDbPlotSettings
  1

  2
none_device
  4

  6

 40
0.0
 41
0.0
 42
0.0
 43
0.0
 44
0.0
 45
0.0
 46
0.0
 47
0.0
 48
0.0
 49
0.0
140
0.0
141
0.0
142
1.0
143
1.0
 70
   688
 72
     0
 73
     0
 74
     5
  7

 75
    16
 76
     0
 77
     2
 78
   300
147
1.0
148
0.0
149
0.0
100
AcDbLayout
  1
Layout1
 70
     1
 71
     1
 10
0.0
 20
0.0
 11
12.0
 21
9.0
 12
0.0
 22
0.0
 32
0.0
 14
1.000000000000000E+20
 24
1.000000000000000E+20
 34
1.000000000000000E+20
 15
-1.000000000000000E+20
 25
-1.000000000000000E+20
 35
-1.000000000000000E+20
146
0.0
 13
0.0
 23
0.0
 33
0.0
 16
1.0
 26
0.0
 36
0.0
 17
0.0
 27
1.0
 37
0.0
 76
     0
330
1B
  0
LAYOUT
  5
26
102
{ACAD_REACTORS
330
1A
102
}
330
1A
100
AcDbPlotSettings
  1

  2
none_device
  4

  6

 40
0.0
 41
0.0
 42
0.0
 43
0.0
 44
0.0
 45
0.0
 46
0.0
 47
0.0
 48
0.0
 49
0.0
140
0.0
141
0.0
142
1.0
143
1.0
 70
   688
 72
     0
 73
     0
 74
     5
  7

 75
    16
 76
     0
 77
     2
 78
   300
147
1.0
148
0.0
149
0.0
100
AcDbLayout
  1
Layout2
 70
     1
 71
     2
 10
0.0
 20
0.0
 11
0.0
 21
0.0
 12
0.0
 22
0.0
 32
0.0
 14
0.0
 24
0.0
 34
0.0
 15
0.0
 25
0.0
 35
0.0
146
0.0
 13
0.0
 23
0.0
 33
0.0
 16
1.0
 26
0.0
 36
0.0
 17
0.0
 27
1.0
 37
0.0
 76
     0
330
23
  0
LAYOUT
  5
22
102
{ACAD_REACTORS
330
1A
102
}
330
1A
100
AcDbPlotSettings
  1

  2
none_device
  4

  6

 40
0.0
 41
0.0
 42
0.0
 43
0.0
 44
0.0
 45
0.0
 46
0.0
 47
0.0
 48
0.0
 49
0.0
140
0.0
141
0.0
142
1.0
143
1.0
 70
  1712
 72
     0
 73
     0
 74
     0
  7

 75
     0
 76
     0
 77
     2
 78
   300
147
1.0
148
0.0
149
0.0
100
AcDbLayout
  1
Model
 70
     1
 71
     0
 10
0.0
 20
0.0
 11
12.0
 21
9.0
 12
0.0
 22
0.0
 32
0.0
 14
1.000000000000000E+20
 24
1.000000000000000E+20
 34
1.000000000000000E+20
 15
-1.000000000000000E+20
 25
-1.000000000000000E+20
 35
-1.000000000000000E+20
146
0.0
 13
0.0
 23
0.0
 33
0.0
 16
1.0
 26
0.0
 36
0.0
 17
0.0
 27
1.0
 37
0.0
 76
     0
330
1F
331
29
  0
MATERIAL
  5
3D
102
{ACAD_REACTORS
330
3B
102
}
330
3B
100
AcDbMaterial
  1
ByBlock
 72
     1
 94
      127
  0
MATERIAL
  5
3C
102
{ACAD_REACTORS
330
3B
102
}
330
3B
100
AcDbMaterial
  1
ByLayer
 72
     1
 94
      127
  0
MATERIAL
  5
3E
102
{ACAD_REACTORS
330
3B
102
}
330
3B
100
AcDbMaterial
  1
Global
 72
     1
 94
      127
  0
MLINESTYLE
  5
18
102
{ACAD_REACTORS
330
17
102
}
330
17
100
AcDbMlineStyle
  2
Standard
 70
     0
  3

 62
   256
 51
90.0
 52
90.0
 71
     2
 49
0.5
 62
   256
  6
BYLAYER
 49
-0.5
 62
   256
  6
BYLAYER
  0
ACDBPLACEHOLDER
  5
F
102
{ACAD_REACTORS
330
E
102
}
330
E
  0
VISUALSTYLE
  5
2F
102
{ACAD_REACTORS
330
2A
102
}
330
2A
100
AcDbVisualStyle
  2
2dWireframe
 70
     4
177
     2
291
     0
 71
     0
176
     1
 72
     2
176
     1
 73
     0
176
     1
 90
        0
176
     1
 40
-0.6
176
     1
 41
-30.0
176
     1
 62
     5
 63
     7
421
 16777215
176
     1
 74
     1
176
     1
 91
        4
176
     1
 64
     7
176
     1
 65
   257
176
     1
 75
     1
176
     1
175
     1
176
     1
 42
1.0
176
     1
 92
        0
176
     1
 66
   257
176
     1
 43
1.0
176
     1
 76
     1
176
     1
 77
     6
176
     1
 78
     2
176
     1
 67
     7
176
     1
 79
     5
176
     1
170
     0
176
     1
171
     0
176
     1
290
     0
176
     1
 93
        1
176
     1
 44
0.0
176
     1
173
     0
176
     1
  0
VISUALSTYLE
  5
31
102
{ACAD_REACTORS
330
2A
102
}
330
2A
100
AcDbVisualStyle
  2
3D Hidden
 70
     6
177
     2
291
     0
 71
     1
176
     1
 72
     2
176
     1
 73
     2
176
     1
 90
        0
176
     1
 40
-0.6
176
     1
 41
-30.0
176
     1
 62
     5
 63
     7
421
 16777215
176
     1
 74
     2
176
     1
 91
        2
176
     1
 64
     7
176
     1
 65
   257
176
     1
 75
     2
176
     1
175
     1
176
     1
 42
40.0
176
     1
 92
        0
176
     1
 66
   257
176
     1
 43
1.0
176
     1
 76
     1
176
     1
 77
     6
176
     1
 78
     2
176
     1
 67
     7
176
     1
 79
     3
176
     1
170
     0
176
     1
171
     0
176
     1
290
     0
176
     1
 93
        1
176
     1
 44
0.0
176
     1
173
     0
176
     1
  0
VISUALSTYLE
  5
30
102
{ACAD_REACTORS
330
2A
102
}
330
2A
100
AcDbVisualStyle
  2
3dWireframe
 70
     5
177
     2
291
     0
 71
     0
176
     1
 72
     2
176
     1
 73
     0
176
     1
 90
        0
176
     1
 40
-0.6
176
     1
 41
-30.0
176
     1
 62
     5
 63
     7
421
 16777215
176
     1
 74
     1
176
     1
 91
        4
176
     1
 64
     7
176
     1
 65
   257
176
     1
 75
     1
176
     1
175
     1
176
     1
 42
1.0
176
     1
 92
        0
176
     1
 66
   257
176
     1
 43
1.0
176
     1
 76
     1
176
     1
 77
     6
176
     1
 78
     2
176
     1
 67
     7
176
     1
 79
     5
176
     1
170
     0
176
     1
171
     0
176
     1
290
     0
176
     1
 93
        1
176
     1
 44
0.0
176
     1
173
     0
176
     1
  0
VISUALSTYLE
  5
32
102
{ACAD_REACTORS
330
2A
102
}
330
2A
100
AcDbVisualStyle
  2
Basic
 70
     7
177
     2
291
     1
 71
     1
176
     1
 72
     0
176
     1
 73
     1
176
     1
 90
        0
176
     1
 40
-0.6
176
     1
 41
-30.0
176
     1
 62
     5
 63
     7
421
 16777215
176
     1
 74
     0
176
     1
 91
        4
176
     1
 64
     7
176
     1
 65
   257
176
     1
 75
     1
176
     1
175
     1
176
     1
 42
1.0
176
     1
 92
        8
176
     1
 66
     7
176
     1
 43
1.0
176
     1
 76
     1
176
     1
 77
     6
176
     1
 78
     2
176
     1
 67
     7
176
     1
 79
     5
176
     1
170
     0
176
     1
171
     0
176
     1
290
     0
176
     1
 93
        1
176
     1
 44
0.0
176
     1
173
     0
176
     1
  0
VISUALSTYLE
  5
36
102
{ACAD_REACTORS
330
2A
102
}
330
2A
100
AcDbVisualStyle
  2
Brighten
 70
    12
177
     2
291
     1
 71
     2
176
     1
 72
     2
176
     1
 73
     0
176
     1
 90
        0
176
     1
 40
-0.6
176
     1
 41
-30.0
176
     1
 62
     5
 63
     7
421
 16777215
176
     1
 74
     1
176
     1
 91
        4
176
     1
 64
     7
176
     1
 65
   257
176
     1
 75
     1
176
     1
175
     1
176
     1
 42
1.0
176
     1
 92
        8
176
     1
 66
     7
176
     1
 43
1.0
176
     1
 76
     1
176
     1
 77
     6
176
     1
 78
     2
176
     1
 67
     7
176
     1
 79
     5
176
     1
170
     0
176
     1
171
     0
176
     1
290
     0
176
     1
 93
        1
176
     1
 44
50.0
176
     1
173
     0
176
     1
  0
VISUALSTYLE
  5
3A
102
{ACAD_REACTORS
330
2A
102
}
330
2A
100
AcDbVisualStyle
  2
ColorChange
 70
    16
177
     2
291
     1
 71
     2
176
     1
 72
     2
176
     1
 73
     3
176
     1
 90
        0
176
     1
 40
-0.6
176
     1
 41
-30.0
176
     1
 62
     5
 63
     8
421
  8421504
176
     1
 74
     1
176
     1
 91
        4
176
     1
 64
     7
176
     1
 65
   257
176
     1
 75
     1
176
     1
175
     1
176
     1
 42
1.0
176
     1
 92
        8
176
     1
 66
     8
424
  8421504
176
     1
 43
1.0
176
     1
 76
     1
176
     1
 77
     6
176
     1
 78
     2
176
     1
 67
     7
176
     1
 79
     5
176
     1
170
     0
176
     1
171
     0
176
     1
290
     0
176
     1
 93
        1
176
     1
 44
0.0
176
     1
173
     0
176
     1
  0
VISUALSTYLE
  5
34
102
{ACAD_REACTORS
330
2A
102
}
330
2A
100
AcDbVisualStyle
  2
Conceptual
 70
     9
177
     2
291
     0
 71
     3
176
     1
 72
     2
176
     1
 73
     0
176
     1
 90
        0
176
     1
 40
-0.6
176
     1
 41
-30.0
176
     1
 62
     5
 63
     7
421
 16777215
176
     1
 74
     2
176
     1
 91
        2
176
     1
 64
     7
176
     1
 65
   257
176
     1
 75
     1
176
     1
175
     1
176
     1
 42
40.0
176
     1
 92
        8
176
     1
 66
     7
176
     1
 43
1.0
176
     1
 76
     1
176
     1
 77
     6
176
     1
 78
     2
176
     1
 67
     7
176
     1
 79
     3
176
     1
170
     0
176
     1
171
     0
176
     1
290
     0
176
     1
 93
        1
176
     1
 44
0.0
176
     1
173
     0
176
     1
  0
VISUALSTYLE
  5
35
102
{ACAD_REACTORS
330
2A
102
}
330
2A
100
AcDbVisualStyle
  2
Dim
 70
    11
177
     2
291
     1
 71
     2
176
     1
 72
     2
176
     1
 73
     0
176
     1
 90
        0
176
     1
 40
-0.6
176
     1
 41
-30.0
176
     1
 62
     5
 63
     7
421
 16777215
176
     1
 74
     1
176
     1
 91
        4
176
     1
 64
     7
176
     1
 65
   257
176
     1
 75
     1
176
     1
175
     1
176
     1
 42
1.0
176
     1
 92
        8
176
     1
 66
     7
176
     1
 43
1.0
176
     1
 76
     1
176
     1
 77
     6
176
     1
 78
     2
176
     1
 67
     7
176
     1
 79
     5
176
     1
170
     0
176
     1
171
     0
176
     1
290
     0
176
     1
 93
        1
176
     1
 44
-50.0
176
     1
173
     0
176
     1
  0
VISUALSTYLE
  5
39
102
{ACAD_REACTORS
330
2A
102
}
330
2A
100
AcDbVisualStyle
  2
Facepattern
 70
    15
177
     2
291
     1
 71
     2
176
     1
 72
     2
176
     1
 73
     0
176
     1
 90
        0
176
     1
 40
-0.6
176
     1
 41
-30.0
176
     1
 62
     5
 63
     7
421
 16777215
176
     1
 74
     1
176
     1
 91
        4
176
     1
 64
     7
176
     1
 65
   257
176
     1
 75
     1
176
     1
175
     1
176
     1
 42
1.0
176
     1
 92
        8
176
     1
 66
     7
176
     1
 43
1.0
176
     1
 76
     1
176
     1
 77
     6
176
     1
 78
     2
176
     1
 67
     7
176
     1
 79
     5
176
     1
170
     0
176
     1
171
     0
176
     1
290
     0
176
     1
 93
        1
176
     1
 44
0.0
176
     1
173
     0
176
     1
  0
VISUALSTYLE
  5
2B
102
{ACAD_REACTORS
330
2A
102
}
330
2A
100
AcDbVisualStyle
  2
Flat
 70
     0
177
     2
291
     1
 71
     2
176
     1
 72
     1
176
     1
 73
     1
176
     1
 90
        2
176
     1
 40
-0.6
176
     1
 41
30.0
176
     1
 62
     5
 63
     7
421
 16777215
176
     1
 74
     0
176
     1
 91
        4
176
     1
 64
     7
176
     1
 65
   257
176
     1
 75
     1
176
     1
175
     1
176
     1
 42
1.0
176
     1
 92
        8
176
     1
 66
     7
176
     1
 43
1.0
176
     1
 76
     1
176
     1
 77
     6
176
     1
 78
     2
176
     1
 67
     7
176
     1
 79
     5
176
     1
170
     0
176
     1
171
     0
176
     1
290
     0
176
     1
 93
       13
176
     1
 44
0.0
176
     1
173
     0
176
     1
  0
VISUALSTYLE
  5
2C
102
{ACAD_REACTORS
330
2A
102
}
330
2A
100
AcDbVisualStyle
  2
FlatWithEdges
 70
     1
177
     2
291
     1
 71
     2
176
     1
 72
     1
176
     1
 73
     1
176
     1
 90
        2
176
     1
 40
-0.6
176
     1
 41
30.0
176
     1
 62
     5
 63
     7
421
 16777215
176
     1
 74
     1
176
     1
 91
        4
176
     1
 64
     7
176
     1
 65
   257
176
     1
 75
     1
176
     1
175
     1
176
     1
 42
1.0
176
     1
 92
        0
176
     1
 66
   257
176
     1
 43
1.0
176
     1
 76
     1
176
     1
 77
     6
176
     1
 78
     2
176
     1
 67
     7
176
     1
 79
     5
176
     1
170
     0
176
     1
171
     0
176
     1
290
     0
176
     1
 93
       13
176
     1
 44
0.0
176
     1
173
     0
176
     1
  0
VISUALSTYLE
  5
2D
102
{ACAD_REACTORS
330
2A
102
}
330
2A
100
AcDbVisualStyle
  2
Gouraud
 70
     2
177
     2
291
     1
 71
     2
176
     1
 72
     2
176
     1
 73
     1
176
     1
 90
        2
176
     1
 40
-0.6
176
     1
 41
30.0
176
     1
 62
     5
 63
     7
421
 16777215
176
     1
 74
     0
176
     1
 91
        4
176
     1
 64
     7
176
     1
 65
   257
176
     1
 75
     1
176
     1
175
     1
176
     1
 42
1.0
176
     1
 92
        0
176
     1
 66
     7
176
     1
 43
1.0
176
     1
 76
     1
176
     1
 77
     6
176
     1
 78
     2
176
     1
 67
     7
176
     1
 79
     5
176
     1
170
     0
176
     1
171
     0
176
     1
290
     0
176
     1
 93
       13
176
     1
 44
0.0
176
     1
173
     0
176
     1
  0
VISUALSTYLE
  5
2E
102
{ACAD_REACTORS
330
2A
102
}
330
2A
100
AcDbVisualStyle
  2
GouraudWithEdges
 70
     3
177
     2
291
     1
 71
     2
176
     1
 72
     2
176
     1
 73
     1
176
     1
 90
        2
176
     1
 40
-0.6
176
     1
 41
30.0
176
     1
 62
     5
 63
     7
421
 16777215
176
     1
 74
     1
176
     1
 91
        4
176
     1
 64
     7
176
     1
 65
   257
176
     1
 75
     1
176
     1
175
     1
176
     1
 42
1.0
176
     1
 92
        0
176
     1
 66
   257
176
     1
 43
1.0
176
     1
 76
     1
176
     1
 77
     6
176
     1
 78
     2
176
     1
 67
     7
176
     1
 79
     5
176
     1
170
     0
176
     1
171
     0
176
     1
290
     0
176
     1
 93
       13
176
     1
 44
0.0
176
     1
173
     0
176
     1
  0
VISUALSTYLE
  5
38
102
{ACAD_REACTORS
330
2A
102
}
330
2A
100
AcDbVisualStyle
  2
Linepattern
 70
    14
177
     2
291
     1
 71
     2
176
     1
 72
     2
176
     1
 73
     0
176
     1
 90
        0
176
     1
 40
-0.6
176
     1
 41
-30.0
176
     1
 62
     5
 63
     7
421
 16777215
176
     1
 74
     1
176
     1
 91
        4
176
     1
 64
     7
176
     1
 65
   257
176
     1
 75
     7
176
     1
175
     7
176
     1
 42
1.0
176
     1
 92
        8
176
     1
 66
     7
176
     1
 43
1.0
176
     1
 76
     1
176
     1
 77
     6
176
     1
 78
     2
176
     1
 67
     7
176
     1
 79
     5
176
     1
170
     0
176
     1
171
     0
176
     1
290
     0
176
     1
 93
        1
176
     1
 44
0.0
176
     1
173
     0
176
     1
  0
VISUALSTYLE
  5
33
102
{ACAD_REACTORS
330
2A
102
}
330
2A
100
AcDbVisualStyle
  2
Realistic
 70
     8
177
     2
291
     0
 71
     2
176
     1
 72
     2
176
     1
 73
     0
176
     1
 90
        0
176
     1
 40
-0.6
176
     1
 41
-30.0
176
     1
 62
     5
 63
     7
421
 16777215
176
     1
 74
     1
176
     1
 91
        0
176
     1
 64
     7
176
     1
 65
   257
176
     1
 75
     1
176
     1
175
     1
176
     1
 42
1.0
176
     1
 92
        8
176
     1
 66
     8
424
  7895160
176
     1
 43
1.0
176
     1
 76
     1
176
     1
 77
     6
176
     1
 78
     2
176
     1
 67
     7
176
     1
 79
     5
176
     1
170
     0
176
     1
171
     0
176
     1
290
     0
176
     1
 93
       13
176
     1
 44
0.0
176
     1
173
     0
176
     1
  0
VISUALSTYLE
  5
37
102
{ACAD_REACTORS
330
2A
102
}
330
2A
100
AcDbVisualStyle
  2
Thicken
 70
    13
177
     2
291
     1
 71
     2
176
     1
 72
     2
176
     1
 73
     0
176
     1
 90
        0
176
     1
 40
-0.6
176
     1
 41
-30.0
176
     1
 62
     5
 63
     7
421
 16777215
176
     1
 74
     1
176
     1
 91
        4
176
     1
 64
     7
176
     1
 65
   257
176
     1
 75
     1
176
     1
175
     1
176
     1
 42
1.0
176
     1
 92
       12
176
     1
 66
     7
176
     1
 43
1.0
176
     1
 76
     1
176
     1
 77
     6
176
     1
 78
     2
176
     1
 67
     7
176
     1
 79
     5
176
     1
170
     0
176
     1
171
     0
176
     1
290
     0
176
     1
 93
        1
176
     1
 44
0.0
176
     1
173
     0
176
     1
  0
ENDSEC
  0
EOF
