  0
SECTION
  2
HEADER
  9
$ACADVER
  1
AC1032
  9
$ACADMAINTVER
 90
      197
  9
$DWGCODEPAGE
  3
ANSI_1252
  9
$REQUIREDVERSIONS
160
                 0
  9
$INSBASE
 10
0.0
 20
0.0
 30
0.0
  9
$EXTMIN
 10
1.000000000000000E+20
 20
1.000000000000000E+20
 30
1.000000000000000E+20
  9
$EXTMAX
 10
-1.000000000000000E+20
 20
-1.000000000000000E+20
 30
-1.000000000000000E+20
  9
$LIMMIN
 10
0.0
 20
0.0
  9
$LIMMAX
 10
12.0
 20
9.0
  9
$ORTHOMODE
 70
     0
  9
$REGENMODE
 70
     1
  9
$FILLMODE
 70
     1
  9
$QTEXTMODE
 70
     0
  9
$MIRRTEXT
 70
     0
  9
$LTSCALE
 40
1.0
  9
$ATTMODE
 70
     1
  9
$TEXTSIZE
 40
0.2
  9
$TRACEWID
 40
0.05
  9
$TEXTSTYLE
  7
Standard
  9
$CLAYER
  8
0
  9
$CELTYPE
  6
ByLayer
  9
$CECOLOR
 62
   256
  9
$CELTSCALE
 40
1.0
  9
$DISPSILH
 70
     0
  9
$DIMSCALE
 40
1.0
  9
$DIMASZ
 40
0.18
  9
$DIMEXO
 40
0.0625
  9
$DIMDLI
 40
0.38
  9
$DIMRND
 40
0.0
  9
$DIMDLE
 40
0.0
  9
$DIMEXE
 40
0.18
  9
$DIMTP
 40
0.0
  9
$DIMTM
 40
0.0
  9
$DIMTXT
 40
0.18
  9
$DIMCEN
 40
0.09
  9
$DIMTSZ
 40
0.0
  9
$DIMTOL
 70
     0
  9
$DIMLIM
 70
     0
  9
$DIMTIH
 70
     1
  9
$DIMTOH
 70
     1
  9
$DIMSE1
 70
     0
  9
$DIMSE2
 70
     0
  9
$DIMTAD
 70
     0
  9
$DIMZIN
 70
     0
  9
$DIMBLK
  1

  9
$DIMASO
 70
     1
  9
$DIMSHO
 70
     1
  9
$DIMPOST
  1

  9
$DIMAPOST
  1

  9
$DIMALT
 70
     0
  9
$DIMALTD
 70
     2
  9
$DIMALTF
 40
25.4
  9
$DIMLFAC
 40
1.0
  9
$DIMTOFL
 70
     0
  9
$DIMTVP
 40
0.0
  9
$DIMTIX
 70
     0
  9
$DIMSOXD
 70
     0
  9
$DIMSAH
 70
     0
  9
$DIMBLK1
  1

  9
$DIMBLK2
  1

  9
$DIMSTYLE
  2
Standard
  9
$DIMCLRD
 70
     0
  9
$DIMCLRE
 70
     0
  9
$DIMCLRT
 70
     0
  9
$DIMTFAC
 40
1.0
  9
$DIMGAP
 40
0.09
  9
$DIMJUST
 70
     0
  9
$DIMSD1
 70
     0
  9
$DIMSD2
 70
     0
  9
$DIMTOLJ
 70
     1
  9
$DIMTZIN
 70
     0
  9
$DIMALTZ
 70
     0
  9
$DIMALTTZ
 70
     0
  9
$DIMUPT
 70
     0
  9
$DIMDEC
 70
     4
  9
$DIMTDEC
 70
     4
  9
$DIMALTU
 70
     2
  9
$DIMALTTD
 70
     2
  9
$DIMTXSTY
  7
Standard
  9
$DIMAUNIT
 70
     0
  9
$DIMADEC
 70
     0
  9
$DIMALTRND
 40
0.0
  9
$DIMAZIN
 70
     0
  9
$DIMDSEP
 70
    46
  9
$DIMATFIT
 70
     3
  9
$DIMFRAC
 70
     0
  9
$DIMLDRBLK
  1

  9
$DIMLUNIT
 70
     2
  9
$DIMLWD
 70
    -2
  9
$DIMLWE
 70
    -2
  9
$DIMTMOVE
 70
     0
  9
$DIMFXL
 40
1.0
  9
$DIMFXLON
 70
     0
  9
$DIMJOGANG
 40
0.7853981633974483
  9
$DIMTFILL
 70
     0
  9
$DIMTFILLCLR
 70
     0
  9
$DIMARCSYM
 70
     0
  9
$DIMLTYPE
  6

  9
$DIMLTEX1
  6

  9
$DIMLTEX2
  6

  9
$DIMTXTDIRECTION
 70
     0
  9
$LUNITS
 70
     2
  9
$LUPREC
 70
     4
  9
$SKETCHINC
 40
0.1
  9
$FILLETRAD
 40
0.0
  9
$AUNITS
 70
     0
  9
$AUPREC
 70
     0
  9
$MENU
  1
.
  9
$ELEVATION
 40
0.0
  9
$PELEVATION
 40
0.0
  9
$THICKNESS
 40
0.0
  9
$LIMCHECK
 70
     0
  9
$CHAMFERA
 40
0.0
  9
$CHAMFERB
 40
0.0
  9
$CHAMFERC
 40
0.0
  9
$CHAMFERD
 40
0.0
  9
$SKPOLY
 70
     0
  9
$TDCREATE
 40
2459627.643969908
  9
$TDUCREATE
 40
2459627.102303241
  9
$TDUPDATE
 40
2459627.643969908
  9
$TDUUPDATE
 40
2459627.102303241
  9
$TDINDWG
 40
0.0000000000
  9
$TDUSRTIMER
 40
0.0000000000
  9
$USRTIMER
 70
     1
  9
$ANGBASE
 50
0.0
  9
$ANGDIR
 70
     0
  9
$PDMODE
 70
     0
  9
$PDSIZE
 40
0.0
  9
$PLINEWID
 40
0.0
  9
$SPLFRAME
 70
     0
  9
$SPLINETYPE
 70
     6
  9
$SPLINESEGS
 70
     8
  9
$HANDSEED
  5
10E
  9
$SURFTAB1
 70
     6
  9
$SURFTAB2
 70
     6
  9
$SURFTYPE
 70
     6
  9
$SURFU
 70
     6
  9
$SURFV
 70
     6
  9
$UCSBASE
  2

  9
$UCSNAME
  2

  9
$UCSORG
 10
0.0
 20
0.0
 30
0.0
  9
$UCSXDIR
 10
1.0
 20
0.0
 30
0.0
  9
$UCSYDIR
 10
0.0
 20
1.0
 30
0.0
  9
$UCSORTHOREF
  2

  9
$UCSORTHOVIEW
 70
     0
  9
$UCSORGTOP
 10
0.0
 20
0.0
 30
0.0
  9
$UCSORGBOTTOM
 10
0.0
 20
0.0
 30
0.0
  9
$UCSORGLEFT
 10
0.0
 20
0.0
 30
0.0
  9
$UCSORGRIGHT
 10
0.0
 20
0.0
 30
0.0
  9
$UCSORGFRONT
 10
0.0
 20
0.0
 30
0.0
  9
$UCSORGBACK
 10
0.0
 20
0.0
 30
0.0
  9
$PUCSBASE
  2

  9
$PUCSNAME
  2

  9
$PUCSORG
 10
0.0
 20
0.0
 30
0.0
  9
$PUCSXDIR
 10
1.0
 20
0.0
 30
0.0
  9
$PUCSYDIR
 10
0.0
 20
1.0
 30
0.0
  9
$PUCSORTHOREF
  2

  9
$PUCSORTHOVIEW
 70
     0
  9
$PUCSORGTOP
 10
0.0
 20
0.0
 30
0.0
  9
$PUCSORGBOTTOM
 10
0.0
 20
0.0
 30
0.0
  9
$PUCSORGLEFT
 10
0.0
 20
0.0
 30
0.0
  9
$PUCSORGRIGHT
 10
0.0
 20
0.0
 30
0.0
  9
$PUCSORGFRONT
 10
0.0
 20
0.0
 30
0.0
  9
$PUCSORGBACK
 10
0.0
 20
0.0
 30
0.0
  9
$USERI1
 70
     0
  9
$USERI2
 70
     0
  9
$USERI3
 70
     0
  9
$USERI4
 70
     0
  9
$USERI5
 70
     0
  9
$USERR1
 40
0.0
  9
$USERR2
 40
0.0
  9
$USERR3
 40
0.0
  9
$USERR4
 40
0.0
  9
$USERR5
 40
0.0
  9
$WORLDVIEW
 70
     1
  9
$SHADEDGE
 70
     3
  9
$SHADEDIF
 70
    70
  9
$TILEMODE
 70
     1
  9
$MAXACTVP
 70
    64
  9
$PINSBASE
 10
0.0
 20
0.0
 30
0.0
  9
$PLIMCHECK
 70
     0
  9
$PEXTMIN
 10
1.000000000000000E+20
 20
1.000000000000000E+20
 30
1.000000000000000E+20
  9
$PEXTMAX
 10
-1.000000000000000E+20
 20
-1.000000000000000E+20
 30
-1.000000000000000E+20
  9
$PLIMMIN
 10
0.0
 20
0.0
  9
$PLIMMAX
 10
12.0
 20
9.0
  9
$UNITMODE
 70
     0
  9
$VISRETAIN
 70
     1
  9
$PLINEGEN
 70
     0
  9
$PSLTSCALE
 70
     1
  9
$TREEDEPTH
 70
  3020
  9
$CMLSTYLE
  2
Standard
  9
$CMLJUST
 70
     0
  9
$CMLSCALE
 40
1.0
  9
$PROXYGRAPHICS
 70
     1
  9
$MEASUREMENT
 70
     0
  9
$CELWEIGHT
370
    -1
  9
$ENDCAPS
280
     0
  9
$JOINSTYLE
280
     0
  9
$LWDISPLAY
290
     1
  9
$INSUNITS
 70
     1
  9
$HYPERLINKBASE
  1

  9
$STYLESHEET
  1

  9
$XEDIT
290
     1
  9
$CEPSNTYPE
380
     0
  9
$PSTYLEMODE
290
     1
  9
$FINGERPRINTGUID
  2
{4A03CFD6-D1C3-0C47-8605-FB2001FE7295}
  9
$VERSIONGUID
  2
{11982024-690A-F849-9018-0C44E7513451}
  9
$EXTNAMES
290
     1
  9
$PSVPSCALE
 40
0.0
  9
$OLESTARTUP
290
     0
  9
$SORTENTS
280
   127
  9
$INDEXCTL
280
     0
  9
$HIDETEXT
280
     1
  9
$XCLIPFRAME
280
     2
  9
$HALOGAP
280
     0
  9
$OBSCOLOR
 70
   257
  9
$OBSLTYPE
280
     0
  9
$INTERSECTIONDISPLAY
280
     0
  9
$INTERSECTIONCOLOR
 70
   257
  9
$DIMASSOC
280
     2
  9
$PROJECTNAME
  1

  9
$CAMERADISPLAY
290
     0
  9
$LENSLENGTH
 40
50.0
  9
$CAMERAHEIGHT
 40
0.0
  9
$STEPSPERSEC
 40
2.0
  9
$STEPSIZE
 40
6.0
  9
$3DDWFPREC
 40
2.0
  9
$PSOLWIDTH
 40
0.25
  9
$PSOLHEIGHT
 40
4.0
  9
$LOFTANG1
 40
1.570796326794896
  9
$LOFTANG2
 40
1.570796326794896
  9
$LOFTMAG1
 40
0.0
  9
$LOFTMAG2
 40
0.0
  9
$LOFTPARAM
 70
     7
  9
$LOFTNORMALS
280
     1
  9
$LATITUDE
 40
37.795
  9
$LONGITUDE
 40
-122.394
  9
$NORTHDIRECTION
 40
0.0
  9
$TIMEZONE
 70
 -8000
  9
$LIGHTGLYPHDISPLAY
280
     1
  9
$TILEMODELIGHTSYNCH
280
     1
  9
$CMATERIAL
347
11
  9
$SOLIDHIST
280
     0
  9
$SHOWHIST
280
     1
  9
$DWFFRAME
280
     2
  9
$DGNFRAME
280
     0
  9
$REALWORLDSCALE
290
     1
  9
$INTERFERECOLOR
 62
     1
  9
$INTERFEREOBJVS
345
33
  9
$INTERFEREVPVS
346
30
  9
$CSHADOW
280
     0
  9
$SHADOWPLANELOCATION
 40
0.0
  0
ENDSEC
  0
SECTION
  2
CLASSES
  0
CLASS
  1
ACDBDICTIONARYWDFLT
  2
AcDbDictionaryWithDefault
  3
ObjectDBX Classes
 90
        0
 91
        1
280
     0
281
     0
  0
CLASS
  1
MATERIAL
  2
AcDbMaterial
  3
ObjectDBX Classes
 90
     1153
 91
        3
280
     0
281
     0
  0
CLASS
  1
VISUALSTYLE
  2
AcDbVisualStyle
  3
ObjectDBX Classes
 90
     4095
 91
       24
280
     0
281
     0
  0
CLASS
  1
SCALE
  2
AcDbScale
  3
ObjectDBX Classes
 90
     1153
 91
       17
280
     0
281
     0
  0
CLASS
  1
TABLESTYLE
  2
AcDbTableStyle
  3
ObjectDBX Classes
 90
     4095
 91
        1
280
     0
281
     0
  0
CLASS
  1
MLEADERSTYLE
  2
AcDbMLeaderStyle
  3
ACDB_MLEADERSTYLE_CLASS
 90
     4095
 91
        1
280
     0
281
     0
  0
CLASS
  1
ACDBSECTIONVIEWSTYLE
  2
AcDbSectionViewStyle
  3
ObjectDBX Classes
 90
     1025
 91
        1
280
     0
281
     0
  0
CLASS
  1
ACDBDETAILVIEWSTYLE
  2
AcDbDetailViewStyle
  3
ObjectDBX Classes
 90
     1025
 91
        1
280
     0
281
     0
  0
CLASS
  1
DICTIONARYVAR
  2
AcDbDictionaryVar
  3
ObjectDBX Classes
 90
        0
 91
        5
280
     0
281
     0
  0
CLASS
  1
CELLSTYLEMAP
  2
AcDbCellStyleMap
  3
ObjectDBX Classes
 90
     1152
 91
        1
280
     0
281
     0
  0
ENDSEC
  0
SECTION
  2
TABLES
  0
TABLE
  2
VPORT
  5
8
330
0
100
AcDbSymbolTable
 70
     1
  0
VPORT
  5
57
330
8
100
AcDbSymbolTableRecord
100
AcDbViewportTableRecord
  2
*Active
 70
     0
 10
0.0
 20
0.0
 11
1.0
 21
1.0
 12
0.0
 22
0.0
 13
0.0
 23
0.0
 14
1.0
 24
1.0
 15
0.0
 25
0.0
 16
0.0
 26
0.0
 36
1.0
 17
4.250525649476862
 27
6.80439913366197
 37
0.0
 40
11.92677165354329
 41
0.7070707070707068
 42
50.0
 43
0.0
 44
0.0
 50
0.0
 51
0.0
 71
     0
 72
   100
 73
     1
 74
     1
 75
     0
 76
     0
 77
     0
 78
     0
281
     0
 65
     1
110
0.0
120
0.0
130
0.0
111
1.0
121
0.0
131
0.0
112
0.0
122
1.0
132
0.0
 79
     0
146
0.0
 60
     3
 61
     5
292
     1
282
     1
141
0.0
142
0.0
 63
   250
421
  3355443
  0
ENDTAB
  0
TABLE
  2
LTYPE
  5
5
330
0
100
AcDbSymbolTable
 70
     1
  0
LTYPE
  5
5B
330
5
100
AcDbSymbolTableRecord
100
AcDbLinetypeTableRecord
  2
ByBlock
 70
     0
  3

 72
    65
 73
     0
 40
0.0
  0
LTYPE
  5
5C
330
5
100
AcDbSymbolTableRecord
100
AcDbLinetypeTableRecord
  2
ByLayer
 70
     0
  3

 72
    65
 73
     0
 40
0.0
  0
LTYPE
  5
5D
330
5
100
AcDbSymbolTableRecord
100
AcDbLinetypeTableRecord
  2
Continuous
 70
     0
  3
Solid line
 72
    65
 73
     0
 40
0.0
  0
ENDTAB
  0
TABLE
  2
LAYER
  5
2
330
0
100
AcDbSymbolTable
 70
     3
  0
LAYER
  5
54
330
2
100
AcDbSymbolTableRecord
100
AcDbLayerTableRecord
  2
0
 70
     0
 62
     7
  6
Continuous
370
    -3
390
F
347
21
348
0
  0
LAYER
  5
78
330
2
100
AcDbSymbolTableRecord
100
AcDbLayerTableRecord
  2
Layer 1
 70
     0
 62
     7
  6
Continuous
370
     0
390
F
347
21
348
0
  0
LAYER
  5
FC
330
2
100
AcDbSymbolTableRecord
100
AcDbLayerTableRecord
  2
callout
 70
     0
 62
     7
  6
Continuous
370
     0
390
F
347
21
348
0
  0
ENDTAB
  0
TABLE
  2
STYLE
  5
3
330
0
100
AcDbSymbolTable
 70
     2
  0
STYLE
  5
55
330
3
100
AcDbSymbolTableRecord
100
AcDbTextStyleTableRecord
  2
Standard
 70
     0
 40
0.0
 41
1.0
 50
0.0
 71
     0
 42
0.2
  3
txt
  4

  0
STYLE
  5
5A
330
3
100
AcDbSymbolTableRecord
100
AcDbTextStyleTableRecord
  2
Annotative
 70
     0
 40
0.0
 41
1.0
 50
0.0
 71
     0
 42
0.2
  3
txt
  4

1001
AcadAnnotative
1000
AnnotativeData
1002
{
1070
     1
1070
     1
1002
}
  0
ENDTAB
  0
TABLE
  2
VIEW
  5
6
330
0
100
AcDbSymbolTable
 70
     0
  0
ENDTAB
  0
TABLE
  2
UCS
  5
7
330
0
100
AcDbSymbolTable
 70
     0
  0
ENDTAB
  0
TABLE
  2
APPID
  5
9
330
0
100
AcDbSymbolTable
 70
     2
  0
APPID
  5
56
330
9
100
AcDbSymbolTableRecord
100
AcDbRegAppTableRecord
  2
ACAD
 70
     0
  0
APPID
  5
5E
330
9
100
AcDbSymbolTableRecord
100
AcDbRegAppTableRecord
  2
AcadAnnotative
 70
     0
  0
ENDTAB
  0
TABLE
  2
DIMSTYLE
  5
A
330
0
100
AcDbSymbolTable
 70
     2
100
AcDbDimStyleTable
 71
     0
  0
DIMSTYLE
105
58
330
A
100
AcDbSymbolTableRecord
100
AcDbDimStyleTableRecord
  2
Standard
 70
     0
340
55
  0
DIMSTYLE
105
59
330
A
100
AcDbSymbolTableRecord
100
AcDbDimStyleTableRecord
  2
Annotative
 70
     0
340
55
1001
AcadAnnotative
1000
AnnotativeData
1002
{
1070
     1
1070
     1
1002
}
  0
ENDTAB
  0
TABLE
  2
BLOCK_RECORD
  5
1
330
0
100
AcDbSymbolTable
 70
     1
  0
BLOCK_RECORD
  5
70
330
1
100
AcDbSymbolTableRecord
100
AcDbBlockTableRecord
  2
*Model_Space
340
73
 70
     0
280
     1
281
     0
  0
BLOCK_RECORD
  5
6C
330
1
100
AcDbSymbolTableRecord
100
AcDbBlockTableRecord
  2
*Paper_Space
340
6F
 70
     0
280
     1
281
     0
  0
BLOCK_RECORD
  5
74
330
1
100
AcDbSymbolTableRecord
100
AcDbBlockTableRecord
  2
*Paper_Space0
340
77
 70
     0
280
     1
281
     0
  0
ENDTAB
  0
ENDSEC
  0
SECTION
  2
BLOCKS
  0
BLOCK
  5
71
330
70
100
AcDbEntity
  8
0
100
AcDbBlockBegin
  2
*Model_Space
 70
     0
 10
0.0
 20
0.0
 30
0.0
  3
*Model_Space
  1

  0
ENDBLK
  5
72
330
70
100
AcDbEntity
  8
0
100
AcDbBlockEnd
  0
BLOCK
  5
6D
330
6C
100
AcDbEntity
 67
     1
  8
0
100
AcDbBlockBegin
  2
*Paper_Space
 70
     0
 10
0.0
 20
0.0
 30
0.0
  3
*Paper_Space
  1

  0
ENDBLK
  5
6E
330
6C
100
AcDbEntity
 67
     1
  8
0
100
AcDbBlockEnd
  0
BLOCK
  5
75
330
74
100
AcDbEntity
 67
     1
  8
0
100
AcDbBlockBegin
  2
*Paper_Space0
 70
     0
 10
0.0
 20
0.0
 30
0.0
  3
*Paper_Space0
  1

  0
ENDBLK
  5
76
330
74
100
AcDbEntity
 67
     1
  8
0
100
AcDbBlockEnd
  0
ENDSEC
  0
SECTION
  2
ENTITIES
  0
LWPOLYLINE
  5
79
330
70
100
AcDbEntity
  8
Layer 1
 62
   250
420
  2301728
370
    40
100
AcDbPolyline
 90
       14
 70
     1
 43
0.0
 10
5.583451979654506
 20
8.94118570523738
 10
5.583451979654506
 20
7.74882792718165
 10
5.680957538969171
 20
7.598343011354257
 10
5.514953638209842
 20
7.503445456102452
 10
5.583451979654506
 20
7.398664137227215
 10
5.583451979654506
 20
6.249653962214071
 10
4.976400950640835
 20
5.817980166445496
 10
2.81500162743781
 20
7.068133629852455
 10
2.81500162743781
 20
9.05819045099353
 10
2.761300175434409
 20
9.10726985139475
 10
2.868749607070475
 20
9.184255811923851
 10
2.81500162743781
 20
9.245907675340731
 10
2.81500162743781
 20
9.406501214609154
 10
3.411594767873566
 20
9.561738391655833
  0
HATCH
  5
7A
330
70
100
AcDbEntity
  8
Layer 1
 62
    43
420
 15510108
440
 33554687
100
AcDbHatch
 10
0.0
 20
0.0
 30
0.0
210
0.0
220
0.0
230
1.0
  2
SOLID
 70
     1
 71
     1
 91
        1
 92
        1
 93
       14
 72
     1
 10
5.583451979654506
 20
8.94118570523738
 11
5.583451979654506
 21
7.74882792718165
 72
     1
 10
5.583451979654506
 20
7.74882792718165
 11
5.680957538969171
 21
7.598343011354257
 72
     1
 10
5.680957538969171
 20
7.598343011354257
 11
5.514953638209842
 21
7.503445456102452
 72
     1
 10
5.514953638209842
 20
7.503445456102452
 11
5.583451979654506
 21
7.398664137227215
 72
     1
 10
5.583451979654506
 20
7.398664137227215
 11
5.583451979654506
 21
6.249653962214071
 72
     1
 10
5.583451979654506
 20
6.249653962214071
 11
4.976400950640835
 21
5.817980166445496
 72
     1
 10
4.976400950640835
 20
5.817980166445496
 11
2.81500162743781
 21
7.068133629852455
 72
     1
 10
2.81500162743781
 20
7.068133629852455
 11
2.81500162743781
 21
9.05819045099353
 72
     1
 10
2.81500162743781
 20
9.05819045099353
 11
2.761300175434409
 21
9.10726985139475
 72
     1
 10
2.761300175434409
 20
9.10726985139475
 11
2.868749607070475
 21
9.184255811923851
 72
     1
 10
2.868749607070475
 20
9.184255811923851
 11
2.81500162743781
 21
9.245907675340731
 72
     1
 10
2.81500162743781
 20
9.245907675340731
 11
2.81500162743781
 21
9.406501214609154
 72
     1
 10
2.81500162743781
 20
9.406501214609154
 11
3.411594767873566
 21
9.561738391655833
 72
     1
 10
3.411594767873566
 20
9.561738391655833
 11
5.583451979654506
 21
8.94118570523738
 97
        1
330
79
 75
     2
 76
     1
 98
        1
 10
0.0
 20
0.0
450
        0
451
        0
460
0.0
461
0.0
452
        0
462
0.0
453
        0
470

  0
LWPOLYLINE
  5
7B
330
70
100
AcDbEntity
  8
Layer 1
 62
   250
420
  2301728
370
    40
100
AcDbPolyline
 90
       10
 70
     1
 43
0.0
 10
2.44202608340533
 20
6.953700119404705
 10
2.44202608340533
 20
7.729375874902706
 10
2.507101185836101
 20
7.826062240345095
 10
2.360942304409591
 20
7.901524523901381
 10
2.44202608340533
 20
8.019367848896283
 10
2.44202608340533
 20
8.799057519943895
 10
3.587760688538512
 20
9.149137406981328
 10
4.266145977591678
 20
8.926157014743061
 10
4.266145977591678
 20
7.152086888609838
 10
3.09889554459509
 20
6.549180663696334
  0
HATCH
  5
7C
330
70
100
AcDbEntity
  8
Layer 1
 62
    43
420
 15510108
440
 33554687
100
AcDbHatch
 10
0.0
 20
0.0
 30
0.0
210
0.0
220
0.0
230
1.0
  2
SOLID
 70
     1
 71
     1
 91
        1
 92
        1
 93
       10
 72
     1
 10
2.44202608340533
 20
6.953700119404705
 11
2.44202608340533
 21
7.729375874902706
 72
     1
 10
2.44202608340533
 20
7.729375874902706
 11
2.507101185836101
 21
7.826062240345095
 72
     1
 10
2.507101185836101
 20
7.826062240345095
 11
2.360942304409591
 21
7.901524523901381
 72
     1
 10
2.360942304409591
 20
7.901524523901381
 11
2.44202608340533
 21
8.019367848896283
 72
     1
 10
2.44202608340533
 20
8.019367848896283
 11
2.44202608340533
 21
8.799057519943895
 72
     1
 10
2.44202608340533
 20
8.799057519943895
 11
3.587760688538512
 21
9.149137406981328
 72
     1
 10
3.587760688538512
 20
9.149137406981328
 11
4.266145977591678
 21
8.926157014743061
 72
     1
 10
4.266145977591678
 20
8.926157014743061
 11
4.266145977591678
 21
7.152086888609838
 72
     1
 10
4.266145977591678
 20
7.152086888609838
 11
3.09889554459509
 21
6.549180663696334
 72
     1
 10
3.09889554459509
 20
6.549180663696334
 11
2.44202608340533
 21
6.953700119404705
 97
        1
330
7B
 75
     2
 76
     1
 98
        1
 10
0.0
 20
0.0
450
        0
451
        0
460
0.0
461
0.0
452
        0
462
0.0
453
        0
470

  0
LWPOLYLINE
  5
7D
330
70
100
AcDbEntity
  8
Layer 1
 62
   250
420
  2301728
370
    30
100
AcDbPolyline
 90
        6
 70
     0
 43
0.0
 10
3.09889554459509
 20
6.549180663696334
 10
3.09889554459509
 20
7.372657589071662
 10
3.191349610729717
 20
7.51135917923457
 10
3.005716084909674
 20
7.567701666063233
 10
3.09889554459509
 20
7.697241057688984
 10
3.09889554459509
 20
8.524621146763466
  0
LWPOLYLINE
  5
7E
330
70
100
AcDbEntity
  8
Layer 1
 62
   250
420
  2301728
370
    30
100
AcDbPolyline
 90
        3
 70
     0
 43
0.0
 10
2.44220731370606
 20
8.799057519943895
 10
3.09889554459509
 20
8.524815801530923
 10
4.266145977591678
 20
8.926237561543377
  0
LINE
  5
7F
330
70
100
AcDbEntity
  8
Layer 1
 62
   250
420
  2301728
370
    30
100
AcDbLine
 10
2.442385187890117
 20
8.019398053946398
 30
0.0
 11
3.098764419870639
 21
7.697355165656087
 31
0.0
  0
LINE
  5
80
330
70
100
AcDbEntity
  8
Layer 1
 62
   250
420
  2301728
370
    30
100
AcDbLine
 10
2.507164952053017
 20
7.825981693544766
 30
0.0
 11
3.005635538109345
 21
7.567782212863562
 31
0.0
  0
LINE
  5
81
330
70
100
AcDbEntity
  8
Layer 1
 62
   250
420
  2301728
370
    30
100
AcDbLine
 10
2.442254299339588
 20
7.729459777819707
 30
0.0
 11
3.098828422259783
 21
7.372905941706006
 31
0.0
  0
SPLINE
  5
82
330
70
100
AcDbEntity
  8
Layer 1
 62
   250
420
  2301728
370
    18
100
AcDbSpline
210
0.0
220
0.0
230
1.0
 70
     8
 71
     3
 72
    23
 73
    19
 74
     0
 42
0.0000000001
 43
0.0000000001
 40
0.0
 40
0.0
 40
0.0
 40
0.0
 40
1.0
 40
1.0
 40
1.0
 40
2.0
 40
2.0
 40
2.0
 40
3.0
 40
3.0
 40
3.0
 40
4.0
 40
4.0
 40
4.0
 40
5.0
 40
5.0
 40
5.0
 40
6.0
 40
6.0
 40
6.0
 40
6.0
 10
2.514276563298544
 20
6.910355872478791
 30
0.0
 10
2.512343440090704
 20
6.933956084974574
 30
0.0
 10
2.504624371726044
 20
6.954666681008625
 30
0.0
 10
2.505590933329964
 20
6.984032701961141
 30
0.0
 10
2.506527289883769
 20
7.013415503497046
 30
0.0
 10
2.519555734836646
 20
7.046634745513667
 30
0.0
 10
2.513769789679852
 20
7.074080668609919
 30
0.0
 10
2.508000625106407
 20
7.101530346937983
 30
0.0
 10
2.504151159274127
 20
7.208916012357134
 30
0.0
 10
2.50752741265449
 20
7.235905902700007
 30
0.0
 10
2.510886885451491
 20
7.262862231876068
 30
0.0
 10
2.522928632100324
 20
7.390471856410663
 30
0.0
 10
2.517636036095521
 20
7.4126423632006
 30
0.0
 10
2.512343440090704
 20
7.434782664940459
 30
0.0
 10
2.508983967293741
 20
7.490662007667246
 30
0.0
 10
2.50847719367501
 20
7.508459494422809
 30
0.0
 10
2.508000625106407
 20
7.526257392409799
 30
0.0
 10
2.503184818795211
 20
7.680363146903787
 30
0.0
 10
2.49980834428983
 20
7.697241057688984
 30
0.0
  0
SPLINE
  5
83
330
70
100
AcDbEntity
  8
Layer 1
 62
   250
420
  2301728
370
    18
100
AcDbSpline
210
0.0
220
0.0
230
1.0
 70
     8
 71
     3
 72
     8
 73
     4
 74
     0
 42
0.0000000001
 43
0.0000000001
 40
0.0
 40
0.0
 40
0.0
 40
0.0
 40
1.0
 40
1.0
 40
1.0
 40
1.0
 10
2.499331775721227
 20
7.699650749465401
 30
0.0
 10
2.506527289883769
 20
7.708796583261927
 30
0.0
 10
2.571568831147727
 20
7.772820805329021
 30
0.0
 10
2.58120424213684
 20
7.787272243754336
 30
0.0
  0
SPLINE
  5
84
330
70
100
AcDbEntity
  8
Layer 1
 62
   250
420
  2301728
370
    18
100
AcDbSpline
210
0.0
220
0.0
230
1.0
 70
     8
 71
     3
 72
    26
 73
    22
 74
     0
 42
0.0000000001
 43
0.0000000001
 40
0.0
 40
0.0
 40
0.0
 40
0.0
 40
1.0
 40
1.0
 40
1.0
 40
2.0
 40
2.0
 40
2.0
 40
3.0
 40
3.0
 40
3.0
 40
4.0
 40
4.0
 40
4.0
 40
5.0
 40
5.0
 40
5.0
 40
6.0
 40
6.0
 40
6.0
 40
7.0
 40
7.0
 40
7.0
 40
7.0
 10
2.596622242166075
 20
6.85929255718823
 30
0.0
 10
2.596622242166075
 20
6.884349324323276
 30
0.0
 10
2.595165687526837
 20
6.924793886437391
 30
0.0
 10
2.590822872542541
 20
6.949374481661934
 30
0.0
 10
2.586496838141644
 20
6.973941256382254
 30
0.0
 10
2.59757537930328
 20
7.028330086024247
 30
0.0
 10
2.592772776333781
 20
7.050960380799424
 30
0.0
 10
2.587939968314167
 20
7.073607456158002
 30
0.0
 10
2.573501954355581
 20
7.120801168916196
 30
0.0
 10
2.576384858583941
 20
7.144908155030697
 30
0.0
 10
2.579271118928987
 20
7.168965201600447
 30
0.0
 10
2.579761111964317
 20
7.260912328084828
 30
0.0
 10
2.578777769776984
 20
7.292705226728558
 30
0.0
 10
2.577827988756464
 20
7.324497314709547
 30
0.0
 10
2.559996940834101
 20
7.466082218812074
 30
0.0
 10
2.564816324387
 20
7.496414391657253
 30
0.0
 10
2.569649132406614
 20
7.52676375479709
 30
0.0
 10
2.577827988756464
 20
7.57299426206805
 30
0.0
 10
2.577334639604461
 20
7.59224830346285
 30
0.0
 10
2.576861427152544
 20
7.611536319410194
 30
0.0
 10
2.571092262579137
 20
7.643294838170024
 30
0.0
 10
2.569649132406614
 20
7.660155968371782
 30
0.0
  0
SPLINE
  5
85
330
70
100
AcDbEntity
  8
Layer 1
 62
   250
420
  2301728
370
    18
100
AcDbSpline
210
0.0
220
0.0
230
1.0
 70
     8
 71
     3
 72
     8
 73
     4
 74
     0
 42
0.0000000001
 43
0.0000000001
 40
0.0
 40
0.0
 40
0.0
 40
0.0
 40
1.0
 40
1.0
 40
1.0
 40
1.0
 10
2.569159139371284
 20
7.661615879127705
 30
0.0
 10
2.583627358379999
 20
7.677020454690224
 30
0.0
 10
2.636593591828298
 20
7.734326147006135
 30
0.0
 10
2.648635338477169
 20
7.752613626797015
 30
0.0
  0
SPLINE
  5
86
330
70
100
AcDbEntity
  8
Layer 1
 62
   250
420
  2301728
370
    18
100
AcDbSpline
210
0.0
220
0.0
230
1.0
 70
     8
 71
     3
 72
     8
 73
     4
 74
     0
 42
0.0000000001
 43
0.0000000001
 40
0.0
 40
0.0
 40
0.0
 40
0.0
 40
1.0
 40
1.0
 40
1.0
 40
1.0
 10
2.708827291138113
 20
7.720824489601327
 30
0.0
 10
2.696308975920639
 20
7.702043660658469
 30
0.0
 10
2.632740769879319
 20
7.652913468575724
 30
0.0
 10
2.625498270083261
 20
7.630316734967347
 30
0.0
  0
SPLINE
  5
87
330
70
100
AcDbEntity
  8
Layer 1
 62
   250
420
  2301728
370
    18
100
AcDbSpline
210
0.0
220
0.0
230
1.0
 70
     8
 71
     3
 72
    26
 73
    22
 74
     0
 42
0.0000000001
 43
0.0000000001
 40
0.0
 40
0.0
 40
0.0
 40
0.0
 40
1.0
 40
1.0
 40
1.0
 40
2.0
 40
2.0
 40
2.0
 40
3.0
 40
3.0
 40
3.0
 40
4.0
 40
4.0
 40
4.0
 40
5.0
 40
5.0
 40
5.0
 40
6.0
 40
6.0
 40
6.0
 40
7.0
 40
7.0
 40
7.0
 40
7.0
 10
2.625021701514671
 20
7.629806605231944
 30
0.0
 10
2.625498270083261
 20
7.591298935316823
 30
0.0
 10
2.626464831687194
 20
7.553723440089836
 30
0.0
 10
2.625498270083261
 20
7.532056350801907
 30
0.0
 10
2.624531708479341
 20
7.51039261763065
 30
0.0
 10
2.618272550870604
 20
7.49402148046421
 30
0.0
 10
2.626941400255784
 20
7.462688775137053
 30
0.0
 10
2.635610249640977
 20
7.431406411560096
 30
0.0
 10
2.639966489091989
 20
7.421281007535664
 30
0.0
 10
2.638033590415716
 20
7.398664137227215
 30
0.0
 10
2.636100242676295
 20
7.376033842452038
 30
0.0
 10
2.618762543905934
 20
7.298981165079275
 30
0.0
 10
2.629841085067558
 20
7.260912328084828
 30
0.0
 10
2.640919850833647
 20
7.222894238330531
 30
0.0
 10
2.666909393801334
 20
7.14777427867567
 30
0.0
 10
2.667382606253252
 20
7.109725983871258
 30
0.0
 10
2.667892735988655
 20
7.071674332950149
 30
0.0
 10
2.664993051176881
 20
6.979233455108328
 30
0.0
 10
2.666909393801334
 20
6.946457619608647
 30
0.0
 10
2.668842742319043
 20
6.913732521616907
 30
0.0
 10
2.674151893597392
 20
6.833319963925835
 30
0.0
 10
2.670775640217016
 20
6.813558755185946
 30
0.0
  0
SPLINE
  5
88
330
70
100
AcDbEntity
  8
Layer 1
 62
   250
420
  2301728
370
    18
100
AcDbSpline
210
0.0
220
0.0
230
1.0
 70
     8
 71
     3
 72
    29
 73
    25
 74
     0
 42
0.0000000001
 43
0.0000000001
 40
0.0
 40
0.0
 40
0.0
 40
0.0
 40
1.0
 40
1.0
 40
1.0
 40
2.0
 40
2.0
 40
2.0
 40
3.0
 40
3.0
 40
3.0
 40
4.0
 40
4.0
 40
4.0
 40
5.0
 40
5.0
 40
5.0
 40
6.0
 40
6.0
 40
6.0
 40
7.0
 40
7.0
 40
7.0
 40
8.0
 40
8.0
 40
8.0
 40
8.0
 10
2.767559333043145
 20
6.754333364128923
 30
0.0
 10
2.769036024382469
 20
6.7769804394875
 30
0.0
 10
2.769509236834386
 20
6.811149063409502
 30
0.0
 10
2.766609552022613
 20
6.836662262413053
 30
0.0
 10
2.763723291677567
 20
6.862212378700077
 30
0.0
 10
2.761790168469727
 20
6.918551509412054
 30
0.0
 10
2.760333613830475
 20
6.942131585207751
 30
0.0
 10
2.758890483657953
 20
6.965745222170248
 30
0.0
 10
2.746372168440491
 20
7.036539147424226
 30
0.0
 10
2.753121319084546
 20
7.066854949397262
 30
0.0
 10
2.759873825845286
 20
7.097187531953699
 30
0.0
 10
2.762249956454929
 20
7.13813886768657
 30
0.0
 10
2.756007579429592
 20
7.173750621781082
 30
0.0
 10
2.74974506570417
 20
7.209426142092537
 30
0.0
 10
2.733377284654415
 20
7.25756963587129
 30
0.0
 10
2.729047894136846
 20
7.27777681440327
 30
0.0
 10
2.724691654685834
 20
7.298014197985404
 30
0.0
 10
2.717006147487975
 20
7.324497314709547
 30
0.0
 10
2.719905832299748
 20
7.347161170651524
 30
0.0
 10
2.722788736528109
 20
7.369757904259901
 30
0.0
 10
2.721822174924189
 20
7.407809555180998
 30
0.0
 10
2.713136544955609
 20
7.439125479924755
 30
0.0
 10
2.704467695570428
 20
7.470424624085138
 30
0.0
 10
2.704467695570428
 20
7.56047259073389
 30
0.0
 10
2.706894167930272
 20
7.585512577285523
 30
0.0
  0
SPLINE
  5
89
330
70
100
AcDbEntity
  8
Layer 1
 62
   250
420
  2301728
370
    18
100
AcDbSpline
210
0.0
220
0.0
230
1.0
 70
     8
 71
     3
 72
    32
 73
    28
 74
     0
 42
0.0000000001
 43
0.0000000001
 40
0.0
 40
0.0
 40
0.0
 40
0.0
 40
1.0
 40
1.0
 40
1.0
 40
2.0
 40
2.0
 40
2.0
 40
3.0
 40
3.0
 40
3.0
 40
4.0
 40
4.0
 40
4.0
 40
5.0
 40
5.0
 40
5.0
 40
6.0
 40
6.0
 40
6.0
 40
7.0
 40
7.0
 40
7.0
 40
8.0
 40
8.0
 40
8.0
 40
9.0
 40
9.0
 40
9.0
 40
9.0
 10
2.82920784034334
 20
6.716775062359829
 30
0.0
 10
2.82920784034334
 20
6.736505672323245
 30
0.0
 10
2.831600751536383
 20
6.775523884848261
 30
0.0
 10
2.826308155531566
 20
6.800070522247879
 30
0.0
 10
2.821015559526749
 20
6.824633940230897
 30
0.0
 10
2.821015559526749
 20
6.850640488386438
 30
0.0
 10
2.821982350309174
 20
6.869897885897936
 30
0.0
 10
2.822948682734603
 20
6.889168707876137
 30
0.0
 10
2.828241278739407
 20
6.915648468483608
 30
0.0
 10
2.821982350309174
 20
6.943557934796873
 30
0.0
 10
2.815706411958507
 20
6.971514386743668
 30
0.0
 10
2.811870141572967
 20
7.025460606262602
 30
0.0
 10
2.812363490724969
 20
7.050483812230822
 30
0.0
 10
2.8128367031769
 20
7.075540579365842
 30
0.0
 10
2.808003895157285
 20
7.130436981137436
 30
0.0
 10
2.809447025329808
 20
7.154493224269597
 30
0.0
 10
2.810903579969047
 20
7.178600210384097
 30
0.0
 10
2.821015559526749
 20
7.208916012357134
 30
0.0
 10
2.815246394953343
 20
7.233482786456836
 30
0.0
 10
2.809447025329808
 20
7.258029423856466
 30
0.0
 10
2.79692535399565
 20
7.308126177543107
 30
0.0
 10
2.790682976970313
 20
7.329313342145761
 30
0.0
 10
2.784437243828304
 20
7.350520643448525
 30
0.0
 10
2.768035901611736
 20
7.4126423632006
 30
0.0
 10
2.765642990418692
 20
7.438618706306025
 30
0.0
 10
2.763233298642249
 20
7.464642035044978
 30
0.0
 10
2.754581229840469
 20
7.531106569781386
 30
0.0
 10
2.759367052226555
 20
7.557096337353527
 30
0.0
  0
SPLINE
  5
8A
330
70
100
AcDbEntity
  8
Layer 1
 62
   250
420
  2301728
370
    18
100
AcDbSpline
210
0.0
220
0.0
230
1.0
 70
     8
 71
     3
 72
    29
 73
    25
 74
     0
 42
0.0000000001
 43
0.0000000001
 40
0.0
 40
0.0
 40
0.0
 40
0.0
 40
1.0
 40
1.0
 40
1.0
 40
2.0
 40
2.0
 40
2.0
 40
3.0
 40
3.0
 40
3.0
 40
4.0
 40
4.0
 40
4.0
 40
5.0
 40
5.0
 40
5.0
 40
6.0
 40
6.0
 40
6.0
 40
7.0
 40
7.0
 40
7.0
 40
8.0
 40
8.0
 40
8.0
 40
8.0
 10
2.841746292260886
 20
7.511818967219773
 30
0.0
 10
2.846072326661783
 20
7.478586699851575
 30
0.0
 10
2.848972011473544
 20
7.444894644498162
 30
0.0
 10
2.85424782689496
 20
7.417921943233345
 30
0.0
 10
2.859540422899764
 20
7.390978630029356
 30
0.0
 10
2.866769498229107
 20
7.367841561635461
 30
0.0
 10
2.866292929660504
 20
7.339408541120064
 30
0.0
 10
2.865816361091901
 20
7.311025862354881
 30
0.0
 10
2.881220936654421
 20
7.297540985533487
 30
0.0
 10
2.875438347614286
 20
7.259489334612415
 30
0.0
 10
2.86965240245748
 20
7.221467888741408
 30
0.0
 10
2.872568867852641
 20
7.196888093085842
 30
0.0
 10
2.870142625887915
 20
7.181483517134172
 30
0.0
 10
2.867719279249627
 20
7.166065114583235
 30
0.0
 10
2.857134087240006
 20
7.13813886768657
 30
0.0
 10
2.860506984503697
 20
7.100580565917475
 30
0.0
 10
2.863866687537236
 20
7.063005483564968
 30
0.0
 10
2.872062094233923
 20
7.013415503497046
 30
0.0
 10
2.86965240245748
 20
6.984985839098347
 30
0.0
 10
2.867259491264424
 20
6.956586379749751
 30
0.0
 10
2.865343378913861
 20
6.87424070088222
 30
0.0
 10
2.865816361091901
 20
6.836189049961123
 30
0.0
 10
2.866292929660504
 20
6.798154179623439
 30
0.0
 10
2.886500108192522
 20
6.706646302218725
 30
0.0
 10
2.883630628430864
 20
6.682589657854426
 30
0.0
  0
SPLINE
  5
8B
330
70
100
AcDbEntity
  8
Layer 1
 62
   250
420
  2301728
370
    18
100
AcDbSpline
210
0.0
220
0.0
230
1.0
 70
     8
 71
     3
 72
    29
 73
    25
 74
     0
 42
0.0000000001
 43
0.0000000001
 40
0.0
 40
0.0
 40
0.0
 40
0.0
 40
1.0
 40
1.0
 40
1.0
 40
2.0
 40
2.0
 40
2.0
 40
3.0
 40
3.0
 40
3.0
 40
4.0
 40
4.0
 40
4.0
 40
5.0
 40
5.0
 40
5.0
 40
6.0
 40
6.0
 40
6.0
 40
7.0
 40
7.0
 40
7.0
 40
8.0
 40
8.0
 40
8.0
 40
8.0
 10
2.944295793543738
 20
6.645014575501932
 30
0.0
 10
2.944295793543738
 20
6.687409041407325
 30
0.0
 10
2.945262355147658
 20
6.724950953581734
 30
0.0
 10
2.939496546690924
 20
6.759625960133739
 30
0.0
 10
2.933693820950717
 20
6.79430135767446
 30
0.0
 10
2.928891217981218
 20
6.817868009003442
 30
0.0
 10
2.93418717010272
 20
6.836662262413053
 30
0.0
 10
2.939496546690924
 20
6.855459871939337
 30
0.0
 10
2.942379450919297
 20
6.917108379239531
 30
0.0
 10
2.938053416518401
 20
6.940232023166749
 30
0.0
 10
2.933693820950717
 20
6.96332210592709
 30
0.0
 10
2.926991655940178
 20
7.021594359846908
 30
0.0
 10
2.931777478326264
 20
7.045667784794608
 30
0.0
 10
2.936576725179078
 20
7.069754634209036
 30
0.0
 10
2.932744039930197
 20
7.121767730520117
 30
0.0
 10
2.931777478326264
 20
7.145351162432499
 30
0.0
 10
2.930810916722343
 20
7.168965201600447
 30
0.0
 10
2.930334348153741
 20
7.250343916658594
 30
0.0
 10
2.926025094336258
 20
7.274907334641625
 30
0.0
 10
2.921665498768561
 20
7.299457328157927
 30
0.0
 10
2.91106352617554
 20
7.353880116245464
 30
0.0
 10
2.912536861398178
 20
7.383262917781368
 30
0.0
 10
2.913963210987301
 20
7.4126423632006
 30
0.0
 10
2.915866129145026
 20
7.455496617091196
 30
0.0
 10
2.911553519210858
 20
7.473801287371744
 30
0.0
  0
SPLINE
  5
8C
330
70
100
AcDbEntity
  8
Layer 1
 62
   250
420
  2301728
370
    18
100
AcDbSpline
210
0.0
220
0.0
230
1.0
 70
     8
 71
     3
 72
    23
 73
    19
 74
     0
 42
0.0000000001
 43
0.0000000001
 40
0.0
 40
0.0
 40
0.0
 40
0.0
 40
1.0
 40
1.0
 40
1.0
 40
2.0
 40
2.0
 40
2.0
 40
3.0
 40
3.0
 40
3.0
 40
4.0
 40
4.0
 40
4.0
 40
5.0
 40
5.0
 40
5.0
 40
6.0
 40
6.0
 40
6.0
 40
6.0
 10
2.980904314292337
 20
7.436699007564912
 30
0.0
 10
2.990066512829495
 20
7.405416643987942
 30
0.0
 10
2.992932636474455
 20
7.347617602520042
 30
0.0
 10
2.993916212183686
 20
7.321611054364502
 30
0.0
 10
2.994835554632181
 20
7.295604506208948
 30
0.0
 10
3.00160171957571
 20
7.259012766043787
 30
0.0
 10
3.000144931220397
 20
7.232516224852916
 30
0.0
 10
2.998701801047875
 20
7.206033108128773
 30
0.0
 10
2.991966074870535
 20
7.110199597044103
 30
0.0
 10
2.996785458423434
 20
7.086125771375476
 30
0.0
 10
3.00160171957571
 20
7.062069127011176
 30
0.0
 10
3.010763918344359
 20
6.982592927905291
 30
0.0
 10
3.012680027021272
 20
6.938265735169554
 30
0.0
 10
3.014613150229112
 20
6.89396795472895
 30
0.0
 10
3.008830561188978
 20
6.796204275832185
 30
0.0
 10
3.013156595589874
 20
6.755776494301446
 30
0.0
 10
3.017499410574158
 20
6.715331932187305
 30
0.0
 10
3.027134821563271
 20
6.621924492741552
 30
0.0
 10
3.023758568182895
 20
6.595884383419236
 30
0.0
  0
SPLINE
  5
8D
330
70
100
AcDbEntity
  8
Layer 1
 62
   250
420
  2301728
370
    18
100
AcDbSpline
210
0.0
220
0.0
230
1.0
 70
     8
 71
     3
 72
    23
 73
    19
 74
     0
 42
0.0000000001
 43
0.0000000001
 40
0.0
 40
0.0
 40
0.0
 40
0.0
 40
1.0
 40
1.0
 40
1.0
 40
2.0
 40
2.0
 40
2.0
 40
3.0
 40
3.0
 40
3.0
 40
4.0
 40
4.0
 40
4.0
 40
5.0
 40
5.0
 40
5.0
 40
6.0
 40
6.0
 40
6.0
 40
6.0
 10
3.09600928417712
 20
6.717724843380361
 30
0.0
 10
3.09600928417712
 20
6.745188337675105
 30
0.0
 10
3.092142801660429
 20
6.797201042486234
 30
0.0
 10
3.088290215617449
 20
6.827536981159355
 30
0.0
 10
3.084440513879169
 20
6.857853177478495
 30
0.0
 10
3.078181356270432
 20
6.89975389988577
 30
0.0
 10
3.07724499971664
 20
6.926743790228631
 30
0.0
 10
3.076248233062591
 20
6.953700119404705
 30
0.0
 10
3.077016783782381
 20
6.990785208721868
 30
0.0
 10
3.071969184295224
 20
7.040734293274592
 30
0.0
 10
3.066921584808066
 20
7.090716938994104
 30
0.0
 10
3.070888514724174
 20
7.179059998369299
 30
0.0
 10
3.065840915237016
 20
7.215668519117873
 30
0.0
 10
3.060776535166471
 20
7.252277039866448
 30
0.0
 10
3.056695497283233
 20
7.260207543581966
 30
0.0
 10
3.058548073690758
 20
7.296097855360963
 30
0.0
 10
3.060417430681645
 20
7.331984811023263
 30
0.0
 10
3.061072108652739
 20
7.375429741449579
 30
0.0
 10
3.058910534292231
 20
7.39424077544259
 30
0.0
  0
SPLINE
  5
8E
330
70
100
AcDbEntity
  8
Layer 1
 62
   250
420
  2301728
370
    18
100
AcDbSpline
210
0.0
220
0.0
230
1.0
 70
     8
 71
     3
 72
    11
 73
     7
 74
     0
 42
0.0000000001
 43
0.0000000001
 40
0.0
 40
0.0
 40
0.0
 40
0.0
 40
1.0
 40
1.0
 40
1.0
 40
2.0
 40
2.0
 40
2.0
 40
2.0
 10
2.413136631021416
 20
7.875601878662816
 30
0.0
 10
2.42855463105065
 20
7.89407058875444
 30
0.0
 10
2.442338421844485
 20
7.899118188241585
 30
0.0
 10
2.448530237531725
 20
7.92225525663548
 30
0.0
 10
2.454742409506934
 20
7.945378900562673
 30
0.0
 10
2.480077734326426
 20
7.982346525796022
 30
0.0
 10
2.493975413499495
 20
7.993522394341387
 30
0.0
  0
SPLINE
  5
8F
330
70
100
AcDbEntity
  8
Layer 1
 62
   250
420
  2301728
370
    18
100
AcDbSpline
210
0.0
220
0.0
230
1.0
 70
     8
 71
     3
 72
    11
 73
     7
 74
     0
 42
0.0000000001
 43
0.0000000001
 40
0.0
 40
0.0
 40
0.0
 40
0.0
 40
1.0
 40
1.0
 40
1.0
 40
2.0
 40
2.0
 40
2.0
 40
2.0
 10
2.499398898054841
 20
7.830569505046721
 30
0.0
 10
2.508671848442468
 20
7.842121258660275
 30
0.0
 10
2.540219345237169
 20
7.875175651844415
 30
0.0
 10
2.545642829792515
 20
7.889875442904073
 30
0.0
 10
2.551049533764461
 20
7.904541672796931
 30
0.0
 10
2.577646758455734
 20
7.940002401640842
 30
0.0
 10
2.589202091483949
 20
7.946919358118925
 30
0.0
  0
SPLINE
  5
90
330
70
100
AcDbEntity
  8
Layer 1
 62
   250
420
  2301728
370
    18
100
AcDbSpline
210
0.0
220
0.0
230
1.0
 70
     8
 71
     3
 72
    11
 73
     7
 74
     0
 42
0.0000000001
 43
0.0000000001
 40
0.0
 40
0.0
 40
0.0
 40
0.0
 40
1.0
 40
1.0
 40
1.0
 40
2.0
 40
2.0
 40
2.0
 40
2.0
 10
2.559114282147182
 20
7.800055692189554
 30
0.0
 10
2.578368323541995
 20
7.817803255791406
 30
0.0
 10
2.604898425899667
 20
7.846776192495831
 30
0.0
 10
2.60920767971715
 20
7.859458957430635
 30
0.0
 10
2.613469947901118
 20
7.872158502948839
 30
0.0
 10
2.645064430329334
 20
7.906491576588172
 30
0.0
 10
2.656995650138342
 20
7.913374971899454
 30
0.0
  0
SPLINE
  5
91
330
70
100
AcDbEntity
  8
Layer 1
 62
   250
420
  2301728
370
    18
100
AcDbSpline
210
0.0
220
0.0
230
1.0
 70
     8
 71
     3
 72
    11
 73
     7
 74
     0
 42
0.0000000001
 43
0.0000000001
 40
0.0
 40
0.0
 40
0.0
 40
0.0
 40
1.0
 40
1.0
 40
1.0
 40
2.0
 40
2.0
 40
2.0
 40
2.0
 10
2.60920767971715
 20
7.774294140551672
 30
0.0
 10
2.632643442495603
 20
7.792846753560297
 30
0.0
 10
2.650061688066291
 20
7.814738702665812
 30
0.0
 10
2.658126436449012
 20
7.832093182019573
 30
0.0
 10
2.666187828715073
 20
7.849397319623133
 30
0.0
 10
2.690472689013631
 20
7.884861404583729
 30
0.0
 10
2.699732214934531
 20
7.892577537317164
 30
0.0
  0
SPLINE
  5
92
330
70
100
AcDbEntity
  8
Layer 1
 62
   250
420
  2301728
370
    18
100
AcDbSpline
210
0.0
220
0.0
230
1.0
 70
     8
 71
     3
 72
    11
 73
     7
 74
     0
 42
0.0000000001
 43
0.0000000001
 40
0.0
 40
0.0
 40
0.0
 40
0.0
 40
1.0
 40
1.0
 40
1.0
 40
2.0
 40
2.0
 40
2.0
 40
2.0
 10
2.664697712909021
 20
7.744666342498097
 30
0.0
 10
2.676675693340965
 20
7.754301753487197
 30
0.0
 10
2.687801220136116
 20
7.762789372571647
 30
0.0
 10
2.701306233657596
 20
7.785127685195637
 30
0.0
 10
2.714777686012262
 20
7.807462641702941
 30
0.0
 10
2.742895231559714
 20
7.850971338346185
 30
0.0
 10
2.760219505863346
 20
7.862902333144612
 30
0.0
  0
SPLINE
  5
93
330
70
100
AcDbEntity
  8
Layer 1
 62
   250
420
  2301728
370
    18
100
AcDbSpline
210
0.0
220
0.0
230
1.0
 70
     8
 71
     3
 72
    11
 73
     7
 74
     0
 42
0.0000000001
 43
0.0000000001
 40
0.0
 40
0.0
 40
0.0
 40
0.0
 40
1.0
 40
1.0
 40
1.0
 40
2.0
 40
2.0
 40
2.0
 40
2.0
 10
2.734048507990476
 20
7.709155271903973
 30
0.0
 10
2.75636668391438
 20
7.720723806100926
 30
0.0
 10
2.767149886808182
 20
7.730688116524699
 30
0.0
 10
2.77949032784156
 20
7.753090195365618
 30
0.0
 10
2.791830768874976
 20
7.775492274206524
 30
0.0
 10
2.810658583451388
 20
7.82009842100423
 30
0.0
 10
2.825717478995834
 20
7.830143278228357
 30
0.0
  0
SPLINE
  5
94
330
70
100
AcDbEntity
  8
Layer 1
 62
   250
420
  2301728
370
    18
100
AcDbSpline
210
0.0
220
0.0
230
1.0
 70
     8
 71
     3
 72
    11
 73
     7
 74
     0
 42
0.0000000001
 43
0.0000000001
 40
0.0
 40
0.0
 40
0.0
 40
0.0
 40
1.0
 40
1.0
 40
1.0
 40
2.0
 40
2.0
 40
2.0
 40
2.0
 10
2.809527572130125
 20
7.669908843444696
 30
0.0
 10
2.8295703009448
 20
7.689589111657899
 30
0.0
 10
2.844612415905847
 20
7.700355533968263
 30
0.0
 10
2.857328742007464
 20
7.723855062963631
 30
0.0
 10
2.870011506942268
 20
7.747304250208799
 30
0.0
 10
2.894266162190698
 20
7.781637323848144
 30
0.0
 10
2.909687518336618
 20
7.789339611629391
 30
0.0
  0
SPLINE
  5
95
330
70
100
AcDbEntity
  8
Layer 1
 62
   250
420
  2301728
370
    18
100
AcDbSpline
210
0.0
220
0.0
230
1.0
 70
     8
 71
     3
 72
    11
 73
     7
 74
     0
 42
0.0000000001
 43
0.0000000001
 40
0.0
 40
0.0
 40
0.0
 40
0.0
 40
1.0
 40
1.0
 40
1.0
 40
2.0
 40
2.0
 40
2.0
 40
2.0
 10
2.877009010220667
 20
7.634807219085574
 30
0.0
 10
2.892413585783186
 20
7.645999868214326
 30
0.0
 10
2.91324164590104
 20
7.669056389807906
 30
0.0
 10
2.921665498768561
 20
7.683739400284164
 30
0.0
 10
2.930089351636082
 20
7.698422410760409
 30
0.0
 10
2.962848406552362
 20
7.7477472576106
 30
0.0
 10
2.973252368261253
 20
7.758513679920952
 30
0.0
  0
SPLINE
  5
96
330
70
100
AcDbEntity
  8
Layer 1
 62
   250
420
  2301728
370
    18
100
AcDbSpline
210
0.0
220
0.0
230
1.0
 70
     8
 71
     3
 72
    11
 73
     7
 74
     0
 42
0.0000000001
 43
0.0000000001
 40
0.0
 40
0.0
 40
0.0
 40
0.0
 40
1.0
 40
1.0
 40
1.0
 40
2.0
 40
2.0
 40
2.0
 40
2.0
 10
2.939379314751299
 20
7.602833495472483
 30
0.0
 10
2.955555797558948
 20
7.612848147646458
 30
0.0
 10
2.985247129276608
 20
7.644868856893076
 30
0.0
 10
2.993278549998345
 20
7.65565205978684
 30
0.0
 10
3.001356489341977
 20
7.666401701513803
 30
0.0
 10
3.030739290877893
 20
7.716482090653938
 30
0.0
 10
3.042291044491447
 20
7.724197386865019
 30
0.0
  0
SPLINE
  5
97
330
70
100
AcDbEntity
  8
Layer 1
 62
   250
420
  2301728
370
    18
100
AcDbSpline
210
0.0
220
0.0
230
1.0
 70
     8
 71
     3
 72
    11
 73
     7
 74
     0
 42
0.0000000001
 43
0.0000000001
 40
0.0
 40
0.0
 40
0.0
 40
0.0
 40
1.0
 40
1.0
 40
1.0
 40
2.0
 40
2.0
 40
2.0
 40
2.0
 10
3.058417185140228
 20
7.395240898213311
 30
0.0
 10
3.072707529964923
 20
7.409430967817696
 30
0.0
 10
3.076117344512062
 20
7.419918424163496
 30
0.0
 10
3.088816890030266
 20
7.438403914838494
 30
0.0
 10
3.10153321613187
 20
7.456872624930105
 30
0.0
 10
3.138061427243441
 20
7.512621079106363
 30
0.0
 10
3.153888636344352
 20
7.522682716913865
 30
0.0
  0
SPLINE
  5
98
330
70
100
AcDbEntity
  8
Layer 1
 62
   250
420
  2301728
370
    18
100
AcDbSpline
210
0.0
220
0.0
230
1.0
 70
     8
 71
     3
 72
    11
 73
     7
 74
     0
 42
0.0000000001
 43
0.0000000001
 40
0.0
 40
0.0
 40
0.0
 40
0.0
 40
1.0
 40
1.0
 40
1.0
 40
2.0
 40
2.0
 40
2.0
 40
2.0
 10
2.982887779250366
 20
7.436829896115441
 30
0.0
 10
2.999013919899147
 20
7.448022545244194
 30
0.0
 10
3.004420857658361
 20
7.460725446879084
 30
0.0
 10
3.020644091903591
 20
7.481127280178547
 30
0.0
 10
3.036803793719172
 20
7.501545894061412
 30
0.0
 10
3.055302708860911
 20
7.54121854933909
 30
0.0
 10
3.070707284423431
 20
7.547756264632286
 30
0.0
  0
SPLINE
  5
99
330
70
100
AcDbEntity
  8
Layer 1
 62
   250
420
  2301728
370
    18
100
AcDbSpline
210
0.0
220
0.0
230
1.0
 70
     8
 71
     3
 72
    11
 73
     7
 74
     0
 42
0.0000000001
 43
0.0000000001
 40
0.0
 40
0.0
 40
0.0
 40
0.0
 40
1.0
 40
1.0
 40
1.0
 40
2.0
 40
2.0
 40
2.0
 40
2.0
 10
2.91121119530947
 20
7.475358115605128
 30
0.0
 10
2.928582455246631
 20
7.495759948904606
 30
0.0
 10
2.933170498735939
 20
7.494628937583367
 30
0.0
 10
2.945510707782002
 20
7.518866812248372
 30
0.0
 10
2.957847792698746
 20
7.54313489196353
 30
0.0
 10
2.969040441827499
 20
7.567094208944126
 30
0.0
 10
2.986378140597859
 20
7.577498170652991
 30
0.0
  0
SPLINE
  5
9A
330
70
100
AcDbEntity
  8
Layer 1
 62
   250
420
  2301728
370
    18
100
AcDbSpline
210
0.0
220
0.0
230
1.0
 70
     8
 71
     3
 72
    11
 73
     7
 74
     0
 42
0.0000000001
 43
0.0000000001
 40
0.0
 40
0.0
 40
0.0
 40
0.0
 40
1.0
 40
1.0
 40
1.0
 40
2.0
 40
2.0
 40
2.0
 40
2.0
 10
2.84154851104952
 20
7.512738543190177
 30
0.0
 10
2.860376326101585
 20
7.527713535817611
 30
0.0
 10
2.86308112599747
 20
7.550115614658529
 30
0.0
 10
2.875797452099075
 20
7.559720820597513
 30
0.0
 10
2.888496997617292
 20
7.56938643663673
 30
0.0
 10
2.91091585704161
 20
7.596607899030547
 30
0.0
 10
2.921665498768561
 20
7.610898657224853
 30
0.0
  0
SPLINE
  5
9B
330
70
100
AcDbEntity
  8
Layer 1
 62
   250
420
  2301728
370
    18
100
AcDbSpline
210
0.0
220
0.0
230
1.0
 70
     8
 71
     3
 72
    11
 73
     7
 74
     0
 42
0.0000000001
 43
0.0000000001
 40
0.0
 40
0.0
 40
0.0
 40
0.0
 40
1.0
 40
1.0
 40
1.0
 40
2.0
 40
2.0
 40
2.0
 40
2.0
 10
2.759447599026884
 20
7.55852268694265
 30
0.0
 10
2.776768517213844
 20
7.572453927282518
 30
0.0
 10
2.789535185065662
 20
7.579743412712105
 30
0.0
 10
2.799529929150871
 20
7.601702897288557
 30
0.0
 10
2.809527572130125
 20
7.623695116757137
 30
0.0
 10
2.827587065306829
 20
7.643345179920224
 30
0.0
 10
2.841467734576427
 20
7.652571144674336
 30
0.0
  0
SPLINE
  5
9C
330
70
100
AcDbEntity
  8
Layer 1
 62
   250
420
  2301728
370
    18
100
AcDbSpline
210
0.0
220
0.0
230
1.0
 70
     8
 71
     3
 72
    11
 73
     7
 74
     0
 42
0.0000000001
 43
0.0000000001
 40
0.0
 40
0.0
 40
0.0
 40
0.0
 40
1.0
 40
1.0
 40
1.0
 40
2.0
 40
2.0
 40
2.0
 40
2.0
 10
2.70555172125815
 20
7.586693930356974
 30
0.0
 10
2.716710809220115
 20
7.59983648327698
 30
0.0
 10
2.724839323819765
 20
7.605914410584975
 30
0.0
 10
2.737914754406169
 20
7.624040796775211
 30
0.0
 10
2.750959979942434
 20
7.642163826848761
 30
0.0
 10
2.772130363961688
 20
7.672268193470939
 30
0.0
 10
2.785618596899767
 20
7.680739447105956
 30
0.0
  0
SPLINE
  5
9D
330
70
100
AcDbEntity
  8
Layer 1
 62
   250
420
  2301728
370
    18
100
AcDbSpline
210
0.0
220
0.0
230
1.0
 70
     8
 71
     3
 72
    11
 73
     7
 74
     0
 42
0.0000000001
 43
0.0000000001
 40
0.0
 40
0.0
 40
0.0
 40
0.0
 40
1.0
 40
1.0
 40
1.0
 40
2.0
 40
2.0
 40
2.0
 40
2.0
 10
2.490907922853706
 20
7.996227424385702
 30
0.0
 10
2.490907922853706
 20
8.012779791852873
 30
0.0
 10
2.489337260247339
 20
8.033181625152337
 30
0.0
 10
2.483977541908921
 20
8.042817036141437
 30
0.0
 10
2.478634604153903
 20
8.052452447130537
 30
0.0
 10
2.445039876184232
 20
8.100679843826304
 30
0.0
 10
2.442764429074991
 20
8.126082290979359
 30
0.0
  0
SPLINE
  5
9E
330
70
100
AcDbEntity
  8
Layer 1
 62
   250
420
  2301728
370
    18
100
AcDbSpline
210
0.0
220
0.0
230
1.0
 70
     8
 71
     3
 72
    29
 73
    25
 74
     0
 42
0.0000000001
 43
0.0000000001
 40
0.0
 40
0.0
 40
0.0
 40
0.0
 40
1.0
 40
1.0
 40
1.0
 40
2.0
 40
2.0
 40
2.0
 40
3.0
 40
3.0
 40
3.0
 40
4.0
 40
4.0
 40
4.0
 40
5.0
 40
5.0
 40
5.0
 40
6.0
 40
6.0
 40
6.0
 40
7.0
 40
7.0
 40
7.0
 40
8.0
 40
8.0
 40
8.0
 40
8.0
 10
2.590329523390538
 20
7.948067150023575
 30
0.0
 10
2.592641887783252
 20
7.973892467878386
 30
0.0
 10
2.598411052356671
 20
8.003584032148889
 30
0.0
 10
2.588789065834286
 20
8.025133657353004
 30
0.0
 10
2.579136874261785
 20
8.046666501973732
 30
0.0
 10
2.559114282147182
 20
8.07865700617026
 30
0.0
 10
2.553328336990375
 20
8.098679598284824
 30
0.0
 10
2.547542391833556
 20
8.118722327099501
 30
0.0
 10
2.541414122775348
 20
8.140681398538617
 30
0.0
 10
2.533711834994088
 20
8.159969001100231
 30
0.0
 10
2.525996122746139
 20
8.179223470221737
 30
0.0
 10
2.522092959046972
 20
8.198118407609095
 30
0.0
 10
2.512866994292835
 20
8.220456292029073
 30
0.0
 10
2.503657810122124
 20
8.242791248536352
 30
0.0
 10
2.488189468342675
 20
8.273600399661392
 30
0.0
 10
2.489763487065765
 20
8.294019013544255
 30
0.0
 10
2.491334149672108
 20
8.314437627427119
 30
0.0
 10
2.496381749159253
 20
8.357224758984102
 30
0.0
 10
2.49213961767537
 20
8.376478800378915
 30
0.0
 10
2.487827007741202
 20
8.395766402940516
 30
0.0
 10
2.483208991189131
 20
8.513559822358008
 30
0.0
 10
2.483977541908921
 20
8.539025599555252
 30
0.0
 10
2.484762873212111
 20
8.564475032341874
 30
0.0
 10
2.476275254127661
 20
8.762892006597123
 30
0.0
 10
2.479356389763211
 20
8.783703286131588
 30
0.0
  0
SPLINE
  5
9F
330
70
100
AcDbEntity
  8
Layer 1
 62
   250
420
  2301728
370
    18
100
AcDbSpline
210
0.0
220
0.0
230
1.0
 70
     8
 71
     3
 72
    29
 73
    25
 74
     0
 42
0.0000000001
 43
0.0000000001
 40
0.0
 40
0.0
 40
0.0
 40
0.0
 40
1.0
 40
1.0
 40
1.0
 40
2.0
 40
2.0
 40
2.0
 40
3.0
 40
3.0
 40
3.0
 40
4.0
 40
4.0
 40
4.0
 40
5.0
 40
5.0
 40
5.0
 40
6.0
 40
6.0
 40
6.0
 40
7.0
 40
7.0
 40
7.0
 40
8.0
 40
8.0
 40
8.0
 40
8.0
 10
2.5237173195202
 20
8.764808349221564
 30
0.0
 10
2.524059865073922
 20
8.736341767539379
 30
0.0
 10
2.537138430124665
 20
8.698964696071016
 30
0.0
 10
2.531352484967846
 20
8.66850122496405
 30
0.0
 10
2.525583320394439
 20
8.63803439774041
 30
0.0
 10
2.525274557659852
 20
8.599083307548994
 30
0.0
 10
2.530630919881585
 20
8.564834136826663
 30
0.0
 10
2.535990638220002
 20
8.530584966104331
 30
0.0
 10
2.546035495444142
 20
8.461610056091078
 30
0.0
 10
2.544119152819664
 20
8.435405497051394
 30
0.0
 10
2.542202810195223
 20
8.409221074711796
 30
0.0
 10
2.539843460168981
 20
8.378838150405183
 30
0.0
 10
2.549478871158081
 20
8.357224758984102
 30
0.0
 10
2.559114282147182
 20
8.335608011446373
 30
0.0
 10
2.569159139371284
 20
8.293297879066484
 30
0.0
 10
2.583775027513941
 20
8.269747577712411
 30
0.0
 10
2.598411052356671
 20
8.246231268133644
 30
0.0
 10
2.628790620546624
 20
8.191137684737757
 30
0.0
 10
2.63152921175774
 20
8.16226458490957
 30
0.0
 10
2.634234241802055
 20
8.133371776408946
 30
0.0
 10
2.636167365009896
 20
8.057909492852697
 30
0.0
 10
2.640016830842189
 20
8.033607851970726
 30
0.0
 10
2.643852872207793
 20
8.009289430505379
 30
0.0
 10
2.658485540933813
 20
7.935790475207087
 30
0.0
 10
2.65735452961255
 20
7.914160303202631
 30
0.0
  0
SPLINE
  5
A0
330
70
100
AcDbEntity
  8
Layer 1
 62
   250
420
  2301728
370
    18
100
AcDbSpline
210
0.0
220
0.0
230
1.0
 70
     8
 71
     3
 72
    38
 73
    34
 74
     0
 42
0.0000000001
 43
0.0000000001
 40
0.0
 40
0.0
 40
0.0
 40
0.0
 40
1.0
 40
1.0
 40
1.0
 40
2.0
 40
2.0
 40
2.0
 40
3.0
 40
3.0
 40
3.0
 40
4.0
 40
4.0
 40
4.0
 40
5.0
 40
5.0
 40
5.0
 40
6.0
 40
6.0
 40
6.0
 40
7.0
 40
7.0
 40
7.0
 40
8.0
 40
8.0
 40
8.0
 40
9.0
 40
9.0
 40
9.0
 40
10.0
 40
10.0
 40
10.0
 40
11.0
 40
11.0
 40
11.0
 40
11.0
 10
2.703568256300109
 20
7.895641251360807
 30
0.0
 10
2.704729472671488
 20
7.924550840444807
 30
0.0
 10
2.703944141368297
 20
7.96805953708805
 30
0.0
 10
2.701648557558983
 20
8.000439350819457
 30
0.0
 10
2.699373110449742
 20
8.032835945134264
 30
0.0
 10
2.705138918906476
 20
8.064088103661106
 30
0.0
 10
2.695520288500776
 20
8.102186740215717
 30
0.0
 10
2.685868096928275
 20
8.140288732887029
 30
0.0
 10
2.686247338113149
 20
8.160707346769893
 30
0.0
 10
2.68124672425952
 20
8.18458276083345
 30
0.0
 10
2.676249466522563
 20
8.208474955480419
 30
0.0
 10
2.673906897079733
 20
8.228158579810294
 30
0.0
 10
2.673906897079733
 20
8.246623933785233
 30
0.0
 10
2.673906897079733
 20
8.265126205043669
 30
0.0
 10
2.675037908400983
 20
8.294445240362644
 30
0.0
 10
2.66504003681041
 20
8.320612882118842
 30
0.0
 10
2.655062301919921
 20
8.346834221741927
 30
0.0
 10
2.649276581578697
 20
8.384197868743562
 30
0.0
 10
2.635002792521845
 20
8.40730137597067
 30
0.0
 10
2.620746008863976
 20
8.430425019897837
 30
0.0
 10
2.613043721082716
 20
8.437701080860708
 30
0.0
 10
2.606113340137931
 20
8.463512974248789
 30
0.0
 10
2.599196383659861
 20
8.489371853270414
 30
0.0
 10
2.588413180766097
 20
8.50167916900965
 30
0.0
 10
2.590329523390538
 20
8.527094604756838
 30
0.0
 10
2.592266002715064
 20
8.552493695793247
 30
0.0
 10
2.596917580433935
 20
8.598787969281122
 30
0.0
 10
2.590329523390538
 20
8.616488128652967
 30
0.0
 10
2.583775027513941
 20
8.634184931908116
 30
0.0
 10
2.586087391906656
 20
8.659600803527938
 30
0.0
 10
2.588003734531096
 20
8.674663055189082
 30
0.0
 10
2.589953638322349
 20
8.689705170150103
 30
0.0
 10
2.586429715808043
 20
8.723561675220846
 30
0.0
 10
2.58529870448678
 20
8.738966250783352
 30
0.0
  0
SPLINE
  5
A1
330
70
100
AcDbEntity
  8
Layer 1
 62
   250
420
  2301728
370
    18
100
AcDbSpline
210
0.0
220
0.0
230
1.0
 70
     8
 71
     3
 72
    32
 73
    28
 74
     0
 42
0.0000000001
 43
0.0000000001
 40
0.0
 40
0.0
 40
0.0
 40
0.0
 40
1.0
 40
1.0
 40
1.0
 40
2.0
 40
2.0
 40
2.0
 40
3.0
 40
3.0
 40
3.0
 40
4.0
 40
4.0
 40
4.0
 40
5.0
 40
5.0
 40
5.0
 40
6.0
 40
6.0
 40
6.0
 40
7.0
 40
7.0
 40
7.0
 40
8.0
 40
8.0
 40
8.0
 40
9.0
 40
9.0
 40
9.0
 40
9.0
 10
2.658894987168802
 20
8.707781214590138
 30
0.0
 10
2.668563959324715
 20
8.679693874092814
 30
0.0
 10
2.675873581454374
 20
8.659993469179527
 30
0.0
 10
2.678971277150278
 20
8.635758950631169
 30
0.0
 10
2.682018631095982
 20
8.611487514799339
 30
0.0
 10
2.686656784348138
 20
8.585235970126126
 30
0.0
 10
2.696651299822039
 20
8.562901013618821
 30
0.0
 10
2.706649171412613
 20
8.540596262161631
 30
0.0
 10
2.723265305096712
 20
8.506266544638972
 30
0.0
 10
2.725544108322626
 20
8.475440612930531
 30
0.0
 10
2.727836336015267
 20
8.444618037338777
 30
0.0
 10
2.729376793571519
 20
8.420068043822475
 30
0.0
 10
2.727477231530466
 20
8.393833279732676
 30
0.0
 10
2.725544108322626
 20
8.367581735059463
 30
0.0
 10
2.723181402179698
 20
8.330265073691355
 30
0.0
 10
2.727836336015267
 20
8.307487109782249
 30
0.0
 10
2.73247471618476
 20
8.284742707039942
 30
0.0
 10
2.737914754406169
 20
8.253540890263314
 30
0.0
 10
2.73712942310298
 20
8.22774577745862
 30
0.0
 10
2.736323955099704
 20
8.201903679020409
 30
0.0
 10
2.734048507990476
 20
8.156841100354199
 30
0.0
 10
2.74096210835186
 20
8.125639283577571
 30
0.0
 10
2.747879292136417
 20
8.094484452434459
 30
0.0
 10
2.75448390245674
 20
8.074837745388069
 30
0.0
 10
2.752171538064026
 20
8.04435749369769
 30
0.0
 10
2.749812188037783
 20
8.013941008224252
 30
0.0
 10
2.754860015007781
 20
7.893708128152966
 30
0.0
 10
2.761021617749936
 20
7.863670883864389
 30
0.0
  0
SPLINE
  5
A2
330
70
100
AcDbEntity
  8
Layer 1
 62
   250
420
  2301728
370
    18
100
AcDbSpline
210
0.0
220
0.0
230
1.0
 70
     8
 71
     3
 72
    32
 73
    28
 74
     0
 42
0.0000000001
 43
0.0000000001
 40
0.0
 40
0.0
 40
0.0
 40
0.0
 40
1.0
 40
1.0
 40
1.0
 40
2.0
 40
2.0
 40
2.0
 40
3.0
 40
3.0
 40
3.0
 40
4.0
 40
4.0
 40
4.0
 40
5.0
 40
5.0
 40
5.0
 40
6.0
 40
6.0
 40
6.0
 40
7.0
 40
7.0
 40
7.0
 40
8.0
 40
8.0
 40
8.0
 40
9.0
 40
9.0
 40
9.0
 40
9.0
 10
2.827291497718887
 20
7.831338055766511
 30
0.0
 10
2.82684871961851
 20
7.862607414605084
 30
0.0
 10
2.833829442489875
 20
7.895641251360807
 30
0.0
 10
2.827291497718887
 20
7.931105757780136
 30
0.0
 10
2.82070344067549
 20
7.966549284581914
 30
0.0
 10
2.818015191214574
 20
7.982725766980895
 30
0.0
 10
2.816853974843196
 20
8.003929712166963
 30
0.0
 10
2.815706411958507
 20
8.025133657353004
 30
0.0
 10
2.810739359146193
 20
8.058285377920885
 30
0.0
 10
2.81378648419742
 20
8.082899137654116
 30
0.0
 10
2.816853974843196
 20
8.107512897387335
 30
0.0
 10
2.825717478995834
 20
8.145336332374174
 30
0.0
 10
2.813393818545819
 20
8.175356796079338
 30
0.0
 10
2.801040181695144
 20
8.205394040367915
 30
0.0
 10
2.795599687906941
 20
8.230877034321338
 30
0.0
 10
2.797187131096709
 20
8.258981155402048
 30
0.0
 10
2.798761149819774
 20
8.287102057066185
 30
0.0
 10
2.804577300026708
 20
8.345243422435475
 30
0.0
 10
2.798385264751573
 20
8.369135617082443
 30
0.0
 10
2.792189873359764
 20
8.393044592312801
 30
0.0
 10
2.781423451049401
 20
8.428082450455008
 30
0.0
 10
2.782554462370664
 20
8.451172533215373
 30
0.0
 10
2.783702254275314
 20
8.474309601609281
 30
0.0
 10
2.78796116634261
 20
8.506330310855901
 30
0.0
 10
2.78219200176919
 20
8.535599004424687
 30
0.0
 10
2.776409412729056
 20
8.564834136826663
 30
0.0
 10
2.770576481938721
 20
8.637199163983192
 30
0.0
 10
2.772919051381563
 20
8.660715034265788
 30
0.0
  0
SPLINE
  5
A3
330
70
100
AcDbEntity
  8
Layer 1
 62
   250
420
  2301728
370
    18
100
AcDbSpline
210
0.0
220
0.0
230
1.0
 70
     8
 71
     3
 72
    29
 73
    25
 74
     0
 42
0.0000000001
 43
0.0000000001
 40
0.0
 40
0.0
 40
0.0
 40
0.0
 40
1.0
 40
1.0
 40
1.0
 40
2.0
 40
2.0
 40
2.0
 40
3.0
 40
3.0
 40
3.0
 40
4.0
 40
4.0
 40
4.0
 40
5.0
 40
5.0
 40
5.0
 40
6.0
 40
6.0
 40
6.0
 40
7.0
 40
7.0
 40
7.0
 40
8.0
 40
8.0
 40
8.0
 40
8.0
 10
2.831862528637442
 20
8.636101274532556
 30
0.0
 10
2.844548649688931
 20
8.603016676298288
 30
0.0
 10
2.857379083757665
 20
8.584155300555076
 30
0.0
 10
2.858114073310641
 20
8.552919922611636
 30
0.0
 10
2.858818857813503
 20
8.521671120201492
 30
0.0
 10
2.852314703687106
 20
8.490861969076451
 30
0.0
 10
2.85459350691302
 20
8.456186571535731
 30
0.0
 10
2.856902515189062
 20
8.421511173994998
 30
0.0
 10
2.864588022386922
 20
8.337541134654214
 30
0.0
 10
2.864588022386922
 20
8.307487109782249
 30
0.0
 10
2.864588022386922
 20
8.277466646077073
 30
0.0
 10
2.858459753328714
 20
8.183075864443997
 30
0.0
 10
2.865031029788724
 20
8.153397724640221
 30
0.0
 10
2.87156874508192
 20
8.123719584836445
 30
0.0
 10
2.879304824656552
 20
8.079049671821824
 30
0.0
 10
2.879633493464653
 20
8.051304655225887
 30
0.0
 10
2.880026159116242
 20
8.023546214163236
 30
0.0
 10
2.878140021541917
 20
7.996999331222164
 30
0.0
 10
2.885073758603387
 20
7.975040259783049
 30
0.0
 10
2.891970578381384
 20
7.95309796892732
 30
0.0
 10
2.90696570770894
 20
7.930007886166978
 30
0.0
 10
2.90696570770894
 20
7.908407919212625
 30
0.0
 10
2.90696570770894
 20
7.886794527791569
 30
0.0
 10
2.913537215660287
 20
7.814017137579551
 30
0.0
 10
2.91121119530947
 20
7.790124942932581
 30
0.0
  0
SPLINE
  5
A4
330
70
100
AcDbEntity
  8
Layer 1
 62
   250
420
  2301728
370
    18
100
AcDbSpline
210
0.0
220
0.0
230
1.0
 70
     8
 71
     3
 72
    35
 73
    31
 74
     0
 42
0.0000000001
 43
0.0000000001
 40
0.0
 40
0.0
 40
0.0
 40
0.0
 40
1.0
 40
1.0
 40
1.0
 40
2.0
 40
2.0
 40
2.0
 40
3.0
 40
3.0
 40
3.0
 40
4.0
 40
4.0
 40
4.0
 40
5.0
 40
5.0
 40
5.0
 40
6.0
 40
6.0
 40
6.0
 40
7.0
 40
7.0
 40
7.0
 40
8.0
 40
8.0
 40
8.0
 40
9.0
 40
9.0
 40
9.0
 40
10.0
 40
10.0
 40
10.0
 40
10.0
 10
2.973336271178267
 20
7.759285586757426
 30
0.0
 10
2.973695375663055
 20
7.781996428332932
 30
0.0
 10
2.975547952070579
 20
7.807888868521343
 30
0.0
 10
2.97054733821695
 20
7.835190877715477
 30
0.0
 10
2.965533299896593
 20
7.862540292269764
 30
0.0
 10
2.955505223255904
 20
7.876075091114734
 30
0.0
 10
2.957079241978956
 20
7.902621974055805
 30
0.0
 10
2.958636480118608
 20
7.92915543253015
 30
0.0
 10
2.96976200691376
 20
7.947654347671901
 30
0.0
 10
2.962848406552362
 20
7.971549898435543
 30
0.0
 10
2.955914669490892
 20
7.995425312499112
 30
0.0
 10
2.944295793543738
 20
8.029708468337881
 30
0.0
 10
2.945510707782002
 20
8.056301912962831
 30
0.0
 10
2.946705485320181
 20
8.082899137654116
 30
0.0
 10
2.954424553684841
 20
8.08519472146343
 30
0.0
 10
2.946705485320181
 20
8.107170573485948
 30
0.0
 10
2.939003197538921
 20
8.129146425508464
 30
0.0
 10
2.925172640699467
 20
8.169997077740919
 30
0.0
 10
2.922830071256624
 20
8.196560741265392
 30
0.0
 10
2.920484377363954
 20
8.223110980323149
 30
0.0
 10
2.928958340314832
 20
8.300164063185864
 30
0.0
 10
2.919322929325719
 20
8.328694411084976
 30
0.0
 10
2.909687518336618
 20
8.357224758984102
 30
0.0
 10
2.907049610625916
 20
8.391833467288909
 30
0.0
 10
2.907391934527304
 20
8.413808886213738
 30
0.0
 10
2.907767819595493
 20
8.435767957652867
 30
0.0
 10
2.915520449126953
 20
8.490486084008264
 30
0.0
 10
2.913177879684124
 20
8.512458579914108
 30
0.0
 10
2.910818761080577
 20
8.534434868636758
 30
0.0
 10
2.903542468695011
 20
8.584155300555076
 30
0.0
 10
2.906623615124241
 20
8.60457391443794
 30
0.0
  0
SPLINE
  5
A5
330
70
100
AcDbEntity
  8
Layer 1
 62
   250
420
  2301728
370
    18
100
AcDbSpline
210
0.0
220
0.0
230
1.0
 70
     8
 71
     3
 72
    29
 73
    25
 74
     0
 42
0.0000000001
 43
0.0000000001
 40
0.0
 40
0.0
 40
0.0
 40
0.0
 40
1.0
 40
1.0
 40
1.0
 40
2.0
 40
2.0
 40
2.0
 40
3.0
 40
3.0
 40
3.0
 40
4.0
 40
4.0
 40
4.0
 40
5.0
 40
5.0
 40
5.0
 40
6.0
 40
6.0
 40
6.0
 40
7.0
 40
7.0
 40
7.0
 40
8.0
 40
8.0
 40
8.0
 40
8.0
 10
2.980971436625913
 20
8.565982366228404
 30
0.0
 10
2.984807477991492
 20
8.538646358370378
 30
0.0
 10
2.99365420156073
 20
8.494711434908746
 30
0.0
 10
2.990590067031626
 20
8.463922855402618
 30
0.0
 10
2.987542713085922
 20
8.433080142331631
 30
0.0
 10
2.981709782295587
 20
8.361779009319256
 30
0.0
 10
2.98788503698731
 20
8.320203435883854
 30
0.0
 10
2.994063647795718
 20
8.278614437981735
 30
0.0
 10
2.999440146717536
 20
8.209639527968509
 30
0.0
 10
3.002947288648442
 20
8.188435582782416
 30
0.0
 10
3.006420869412535
 20
8.16724506206309
 30
0.0
 10
3.01872774927915
 20
8.139912847818827
 30
0.0
 10
3.01949629999894
 20
8.109872247413578
 30
0.0
 10
3.020268206835402
 20
8.079851783708413
 30
0.0
 10
3.014072815443594
 20
8.057449704867496
 30
0.0
 10
3.021415998740053
 20
8.03816210230588
 30
0.0
 10
3.028755825919852
 20
8.018924841494481
 30
0.0
 10
3.039112801995214
 20
7.988820474872302
 30
0.0
 10
3.038753932165036
 20
7.964992046442262
 30
0.0
 10
3.038374456325553
 20
7.941150193545531
 30
0.0
 10
3.028755825919852
 20
7.873651974871563
 30
0.0
 10
3.034525225041041
 20
7.844417261738398
 30
0.0
 10
3.040310935650078
 20
7.815148148900801
 30
0.0
 10
3.045291412803622
 20
7.749663600235041
 30
0.0
 10
3.044160401482359
 20
7.72462361368342
 30
0.0
  0
SPLINE
  5
A6
330
70
100
AcDbEntity
  8
Layer 1
 62
   250
420
  2301728
370
    18
100
AcDbSpline
210
0.0
220
0.0
230
1.0
 70
     8
 71
     3
 72
    20
 73
    16
 74
     0
 42
0.0000000001
 43
0.0000000001
 40
0.0
 40
0.0
 40
0.0
 40
0.0
 40
1.0
 40
1.0
 40
1.0
 40
2.0
 40
2.0
 40
2.0
 40
3.0
 40
3.0
 40
3.0
 40
4.0
 40
4.0
 40
4.0
 40
5.0
 40
5.0
 40
5.0
 40
5.0
 10
3.098828422259783
 20
7.987803571518169
 30
0.0
 10
3.098764419870639
 20
8.014776681277641
 30
0.0
 10
3.096240620127066
 20
8.07441194364863
 30
0.0
 10
3.091176476035419
 20
8.10331775153698
 30
0.0
 10
3.086128640569351
 20
8.132227340620968
 30
0.0
 10
3.081540829067433
 20
8.171587877047386
 30
0.0
 10
3.073821760702735
 20
8.195433514197045
 30
0.0
 10
3.066136253504888
 20
8.219258158374183
 30
0.0
 10
3.064515249148307
 20
8.254393343900106
 30
0.0
 10
3.057222407602037
 20
8.276318854172421
 30
0.0
 10
3.049946346639178
 20
8.298227583861336
 30
0.0
 10
3.041881598256445
 20
8.307913336600638
 30
0.0
 10
3.044945732785549
 20
8.324482484651221
 30
0.0
 10
3.048013223431338
 20
8.34103149600172
 30
0.0
 10
3.046882212110075
 20
8.513952051836831
 30
0.0
 10
3.040310935650078
 20
8.548627449377551
 30
0.0
  0
LWPOLYLINE
  5
A7
330
70
100
AcDbEntity
  8
Layer 1
 62
   250
420
  2301728
370
    30
100
AcDbPolyline
 90
        6
 70
     0
 43
0.0
 10
4.976400950640835
 20
5.818178177329627
 10
4.976400950640835
 20
7.046224900163539
 10
4.861004234705837
 20
7.232516224852916
 10
5.079413596025561
 20
7.254193382490888
 10
4.976400950640835
 20
7.417525512970428
 10
4.976400950640835
 20
8.694128531934728
  0
LWPOLYLINE
  5
A8
330
70
100
AcDbEntity
  8
Layer 1
 62
   250
420
  2301728
370
    30
100
AcDbPolyline
 90
        3
 70
     0
 43
0.0
 10
2.815313517286944
 20
9.406421126537173
 10
4.976434511807635
 20
8.694376884569059
 10
5.583354652270776
 20
8.94105481668685
  0
LINE
  5
A9
330
70
100
AcDbEntity
  8
Layer 1
 62
   250
420
  2301728
370
    30
100
AcDbLine
 10
5.583354652270776
 20
7.748878268931851
 30
0.0
 11
4.976434511807635
 21
7.417444966170099
 31
0.0
  0
LINE
  5
AA
330
70
100
AcDbEntity
  8
Layer 1
 62
   250
420
  2301728
370
    30
100
AcDbLine
 10
5.079608537003978
 20
7.254294065991302
 30
0.0
 11
5.514920077043016
 21
7.503526002902819
 31
0.0
  0
LINE
  5
AB
330
70
100
AcDbEntity
  8
Layer 1
 62
   250
420
  2301728
370
    30
100
AcDbLine
 10
4.976501634141237
 20
7.046224900163539
 30
0.0
 11
5.583354652270776
 21
7.398714478977416
 31
0.0
  0
SPLINE
  5
AC
330
70
100
AcDbEntity
  8
Layer 1
 62
   250
420
  2301728
370
    18
100
AcDbSpline
210
0.0
220
0.0
230
1.0
 70
     8
 71
     3
 72
    41
 73
    37
 74
     0
 42
0.0000000001
 43
0.0000000001
 40
0.0
 40
0.0
 40
0.0
 40
0.0
 40
1.0
 40
1.0
 40
1.0
 40
2.0
 40
2.0
 40
2.0
 40
3.0
 40
3.0
 40
3.0
 40
4.0
 40
4.0
 40
4.0
 40
5.0
 40
5.0
 40
5.0
 40
6.0
 40
6.0
 40
6.0
 40
7.0
 40
7.0
 40
7.0
 40
8.0
 40
8.0
 40
8.0
 40
9.0
 40
9.0
 40
9.0
 40
10.0
 40
10.0
 40
10.0
 40
11.0
 40
11.0
 40
11.0
 40
12.0
 40
12.0
 40
12.0
 40
12.0
 10
5.090589464570913
 20
5.898785387756762
 30
0.0
 10
5.090589464570913
 20
5.912256840111441
 30
0.0
 10
5.091931911243035
 20
5.964350483222864
 30
0.0
 10
5.084199418411672
 20
5.991897488934657
 30
0.0
 10
5.076527335680515
 20
6.019461648396423
 30
0.0
 10
5.077185134549861
 20
6.041914069554738
 30
0.0
 10
5.079084696590901
 20
6.067608125125249
 30
0.0
 10
5.081018106045272
 20
6.09328577384613
 30
0.0
 10
5.082950943006582
 20
6.146594331195804
 30
0.0
 10
5.078396692671453
 20
6.174221883707938
 30
0.0
 10
5.073906208553226
 20
6.201852792336745
 30
0.0
 10
5.086162746669615
 20
6.233890282166763
 30
0.0
 10
5.077185134549861
 20
6.269874565212805
 30
0.0
 10
5.068137043979807
 20
6.305878984958919
 30
0.0
 10
5.056635632116467
 20
6.362154731277668
 30
0.0
 10
5.06237123552306
 20
6.383522744357365
 30
0.0
 10
5.069351958218072
 20
6.409888396997693
 30
0.0
 10
5.076396447129986
 20
6.45924718929114
 30
0.0
 10
5.072006646512186
 20
6.48174621123932
 30
0.0
 10
5.06754972356076
 20
6.504279178630768
 30
0.0
 10
5.067482601227159
 20
6.532467202628506
 30
0.0
 10
5.075872892927868
 20
6.545331584315198
 30
0.0
 10
5.084199418411672
 20
6.558211973682987
 30
0.0
 10
5.10215799876788
 20
6.584560845739916
 30
0.0
 10
5.099013317438448
 20
6.604439124837262
 30
0.0
 10
5.095801513775414
 20
6.624317403934607
 30
0.0
 10
5.082950943006582
 20
6.695584931887373
 30
0.0
 10
5.074560651305874
 20
6.718691404984282
 30
0.0
 10
5.066170359605166
 20
6.741815048911449
 30
0.0
 10
5.041197495387146
 20
6.847757584158077
 30
0.0
 10
5.03667345010212
 20
6.880499858490956
 30
0.0
 10
5.032182965983893
 20
6.913258913407237
 30
0.0
 10
5.03149496206442
 20
6.954962019276485
 30
0.0
 10
5.023762754033188
 20
6.97297429749959
 30
0.0
 10
5.016093742618598
 20
6.990932877855811
 30
0.0
 10
5.006424770462697
 20
7.041586746911383
 30
0.0
 10
5.005867655093752
 20
7.062186591094991
 30
0.0
  0
SPLINE
  5
AD
330
70
100
AcDbEntity
  8
Layer 1
 62
   250
420
  2301728
370
    18
100
AcDbSpline
210
0.0
220
0.0
230
1.0
 70
     8
 71
     3
 72
    38
 73
    34
 74
     0
 42
0.0000000001
 43
0.0000000001
 40
0.0
 40
0.0
 40
0.0
 40
0.0
 40
1.0
 40
1.0
 40
1.0
 40
2.0
 40
2.0
 40
2.0
 40
3.0
 40
3.0
 40
3.0
 40
4.0
 40
4.0
 40
4.0
 40
5.0
 40
5.0
 40
5.0
 40
6.0
 40
6.0
 40
6.0
 40
7.0
 40
7.0
 40
7.0
 40
8.0
 40
8.0
 40
8.0
 40
9.0
 40
9.0
 40
9.0
 40
10.0
 40
10.0
 40
10.0
 40
11.0
 40
11.0
 40
11.0
 40
11.0
 10
5.086132541619513
 20
7.109051404418512
 30
0.0
 10
5.089441959125602
 20
7.0731308875894
 30
0.0
 10
5.096979510730205
 20
7.044963000291747
 30
0.0
 10
5.099600637857494
 20
7.008958580545632
 30
0.0
 10
5.102225121101481
 20
6.97297429749959
 30
0.0
 10
5.114384331834167
 20
6.899838198209522
 30
0.0
 10
5.123395505120722
 20
6.876043330345155
 30
0.0
 10
5.132376473357175
 20
6.852248462480815
 30
0.0
 10
5.145878130761982
 20
6.759888129106116
 30
0.0
 10
5.156104218286801
 20
6.737341345376635
 30
0.0
 10
5.166397716548645
 20
6.714838583035303
 30
0.0
 10
5.181110643671622
 20
6.677639385751009
 30
0.0
 10
5.181802292500353
 20
6.648733541846998
 30
0.0
 10
5.182389324126814
 20
6.619860480983182
 30
0.0
 10
5.187537607114387
 20
6.593491859893939
 30
0.0
 10
5.180489762085774
 20
6.574203869664554
 30
0.0
 10
5.173441917057162
 20
6.554966608853153
 30
0.0
 10
5.169609231808281
 20
6.536971111213447
 30
0.0
 10
5.169609231808281
 20
6.522207939803857
 30
0.0
 10
5.169609231808281
 20
6.507474587205201
 30
0.0
 10
5.15033840983008
 20
6.441318429708593
 30
0.0
 10
5.15223797187112
 20
6.403431228504826
 30
0.0
 10
5.154204656245761
 20
6.365594369051272
 30
0.0
 10
5.156074013236699
 20
6.301962396793024
 30
0.0
 10
5.160561141238227
 20
6.275660510369611
 30
0.0
 10
5.165118747690055
 20
6.249358623946199
 30
0.0
 10
5.151647295335401
 20
6.168372549262559
 30
0.0
 10
5.163840067234862
 20
6.148527454403683
 30
0.0
 10
5.175999277967548
 20
6.128649175306311
 30
0.0
 10
5.185013807370801
 20
6.106132988498276
 30
0.0
 10
5.185013807370801
 20
6.079176659322203
 30
0.0
 10
5.185013807370801
 20
6.05222033014613
 30
0.0
 10
5.18304712299616
 20
5.989964365726816
 30
0.0
 10
5.190846738161149
 20
5.970693543748603
 30
0.0
  0
SPLINE
  5
AE
330
70
100
AcDbEntity
  8
Layer 1
 62
   250
420
  2301728
370
    18
100
AcDbSpline
210
0.0
220
0.0
230
1.0
 70
     8
 71
     3
 72
    47
 73
    43
 74
     0
 42
0.0000000001
 43
0.0000000001
 40
0.0
 40
0.0
 40
0.0
 40
0.0
 40
1.0
 40
1.0
 40
1.0
 40
2.0
 40
2.0
 40
2.0
 40
3.0
 40
3.0
 40
3.0
 40
4.0
 40
4.0
 40
4.0
 40
5.0
 40
5.0
 40
5.0
 40
6.0
 40
6.0
 40
6.0
 40
7.0
 40
7.0
 40
7.0
 40
8.0
 40
8.0
 40
8.0
 40
9.0
 40
9.0
 40
9.0
 40
10.0
 40
10.0
 40
10.0
 40
11.0
 40
11.0
 40
11.0
 40
12.0
 40
12.0
 40
12.0
 40
13.0
 40
13.0
 40
13.0
 40
14.0
 40
14.0
 40
14.0
 40
14.0
 10
5.28268015888385
 20
6.03678219341681
 30
0.0
 10
5.280059031756536
 20
6.05992261792739
 30
0.0
 10
5.276847519287128
 20
6.100350399458142
 30
0.0
 10
5.272980981677821
 20
6.135713800918324
 30
0.0
 10
5.269111379145442
 20
6.171026860628304
 30
0.0
 10
5.267245378271202
 20
6.212699761447424
 30
0.0
 10
5.264063779658297
 20
6.239052368334922
 30
0.0
 10
5.260788209778334
 20
6.265417642261379
 30
0.0
 10
5.26209709528363
 20
6.311057472996607
 30
0.0
 10
5.257576406115301
 20
6.323216683729279
 30
0.0
 10
5.253052651422775
 20
6.335359113878565
 30
0.0
 10
5.23499309697364
 20
6.360466222763786
 30
0.0
 10
5.235714662059914
 20
6.386768109187199
 30
0.0
 10
5.236339189932727
 20
6.413083420077327
 30
0.0
 10
5.249249880631496
 20
6.435569401835259
 30
0.0
 10
5.24980699600044
 20
6.458035246893094
 30
0.0
 10
5.250494999919888
 20
6.480501091950941
 30
0.0
 10
5.258163726534348
 20
6.551704463439906
 30
0.0
 10
5.256918607245956
 20
6.572287527040113
 30
0.0
 10
5.255639926790763
 20
6.59288775887622
 30
0.0
 10
5.244071392593822
 20
6.617269558905995
 30
0.0
 10
5.242171830552782
 20
6.630757791844075
 30
0.0
 10
5.240205146178115
 20
6.644225888082068
 30
0.0
 10
5.239550703425467
 20
6.673068354832454
 30
0.0
 10
5.242171830552782
 20
6.691735075808209
 30
0.0
 10
5.244729481845397
 20
6.710381660083889
 30
0.0
 10
5.242074503169052
 20
6.724490774607816
 30
0.0
 10
5.237648075471067
 20
6.739878569586935
 30
0.0
 10
5.2331270960994
 20
6.755299925732843
 30
0.0
 10
5.222179443488307
 20
6.782994600578578
 30
0.0
 10
5.221065212750444
 20
6.806692140458115
 30
0.0
 10
5.219689204911522
 20
6.830419885387716
 30
0.0
 10
5.20998667158882
 20
6.865800067431298
 30
0.0
 10
5.202972387727034
 20
6.885678346528644
 30
0.0
 10
5.195894337648294
 20
6.905556625625977
 30
0.0
 10
5.190779615827548
 20
6.939608181875579
 30
0.0
 10
5.187537607114387
 20
6.968500593964765
 30
0.0
 10
5.184322447334655
 20
6.997406826932079
 30
0.0
 10
5.187601373331315
 20
7.019201448653865
 30
0.0
 10
5.179244642797382
 20
7.046812220582586
 30
0.0
 10
5.170854351096673
 20
7.074443129211393
 30
0.0
 10
5.158594456863586
 20
7.132863052265179
 30
0.0
 10
5.159906698485579
 20
7.152086888609838
 30
0.0
  0
SPLINE
  5
AF
330
70
100
AcDbEntity
  8
Layer 1
 62
   250
420
  2301728
370
    18
100
AcDbSpline
210
0.0
220
0.0
230
1.0
 70
     8
 71
     3
 72
    47
 73
    43
 74
     0
 42
0.0000000001
 43
0.0000000001
 40
0.0
 40
0.0
 40
0.0
 40
0.0
 40
1.0
 40
1.0
 40
1.0
 40
2.0
 40
2.0
 40
2.0
 40
3.0
 40
3.0
 40
3.0
 40
4.0
 40
4.0
 40
4.0
 40
5.0
 40
5.0
 40
5.0
 40
6.0
 40
6.0
 40
6.0
 40
7.0
 40
7.0
 40
7.0
 40
8.0
 40
8.0
 40
8.0
 40
9.0
 40
9.0
 40
9.0
 40
10.0
 40
10.0
 40
10.0
 40
11.0
 40
11.0
 40
11.0
 40
12.0
 40
12.0
 40
12.0
 40
13.0
 40
13.0
 40
13.0
 40
14.0
 40
14.0
 40
14.0
 40
14.0
 10
5.214574483090776
 20
7.183567263070964
 30
0.0
 10
5.221588766952562
 20
7.145710266917287
 30
0.0
 10
5.229257783558396
 20
7.109772969504774
 30
0.0
 10
5.239550703425467
 20
7.080242498834927
 30
0.0
 10
5.24980699600044
 20
7.050665042531591
 30
0.0
 10
5.26786625985705
 20
6.99162088177526
 30
0.0
 10
5.273635424430469
 20
6.960123726730771
 30
0.0
 10
5.279404589003888
 20
6.928660132853084
 30
0.0
 10
5.283203713085968
 20
6.915239022248619
 30
0.0
 10
5.289627320412035
 20
6.891447906296851
 30
0.0
 10
5.296084488904903
 20
6.867682848888938
 30
0.0
 10
5.299954091437282
 20
6.829208327266137
 30
0.0
 10
5.307656671190468
 20
6.814394428239337
 30
0.0
 10
5.315325105833001
 20
6.799577173095876
 30
0.0
 10
5.31984579500133
 20
6.791237223145369
 30
0.0
 10
5.316046963103139
 20
6.780323131701075
 30
0.0
 10
5.312113302169968
 20
6.769459382006983
 30
0.0
 10
5.305099018308156
 20
6.762394756394971
 30
0.0
 10
5.305099018308156
 20
6.744402614871963
 30
0.0
 10
5.305099018308156
 20
6.726410473348929
 30
0.0
 10
5.300608825983797
 20
6.709727217331229
 30
0.0
 10
5.30961970747651
 20
6.68662035398745
 30
0.0
 10
5.318536909496034
 20
6.663483285593555
 30
0.0
 10
5.332038566900816
 20
6.62749564643084
 30
0.0
 10
5.328172320485135
 20
6.603126883215268
 30
0.0
 10
5.324303010345172
 20
6.578744695532981
 30
0.0
 10
5.316701113671923
 20
6.574203869664554
 30
0.0
 10
5.321812479375997
 20
6.543394718539515
 30
0.0
 10
5.326860078863142
 20
6.51257214294776
 30
0.0
 10
5.332662804603361
 20
6.497184347968641
 30
0.0
 10
5.336562612185844
 20
6.47021123820918
 30
0.0
 10
5.340395297434749
 20
6.443238512321764
 30
0.0
 10
5.344231338800303
 20
6.442580329580373
 30
0.0
 10
5.346198023174943
 20
6.400877223711126
 30
0.0
 10
5.348097878209551
 20
6.359153981141793
 30
0.0
 10
5.353276073253684
 20
6.33281853355158
 30
0.0
 10
5.353276073253684
 20
6.309728450791238
 30
0.0
 10
5.353276073253684
 20
6.286608542895944
 30
0.0
 10
5.351279183828915
 20
6.253127542978163
 30
0.0
 10
5.353866749789403
 20
6.235215948255472
 30
0.0
 10
5.356488170122221
 20
6.217257367899264
 30
0.0
 10
5.375825821228519
 20
6.160800773103472
 30
0.0
 10
5.372516690181757
 20
6.09908849958635
 30
0.0
  0
SPLINE
  5
B0
330
70
100
AcDbEntity
  8
Layer 1
 62
   250
420
  2301728
370
    18
100
AcDbSpline
210
0.0
220
0.0
230
1.0
 70
     8
 71
     3
 72
    44
 73
    40
 74
     0
 42
0.0000000001
 43
0.0000000001
 40
0.0
 40
0.0
 40
0.0
 40
0.0
 40
1.0
 40
1.0
 40
1.0
 40
2.0
 40
2.0
 40
2.0
 40
3.0
 40
3.0
 40
3.0
 40
4.0
 40
4.0
 40
4.0
 40
5.0
 40
5.0
 40
5.0
 40
6.0
 40
6.0
 40
6.0
 40
7.0
 40
7.0
 40
7.0
 40
8.0
 40
8.0
 40
8.0
 40
9.0
 40
9.0
 40
9.0
 40
10.0
 40
10.0
 40
10.0
 40
11.0
 40
11.0
 40
11.0
 40
12.0
 40
12.0
 40
12.0
 40
13.0
 40
13.0
 40
13.0
 40
13.0
 10
5.460514069538905
 20
6.161982126174923
 30
0.0
 10
5.457302265875871
 20
6.202443468872464
 30
0.0
 10
5.438622120433389
 20
6.228809121512805
 30
0.0
 10
5.444391285006783
 20
6.271220368001599
 30
0.0
 10
5.450126888413402
 20
6.313581272740179
 30
0.0
 10
5.452157339004972
 20
6.332180871382332
 30
0.0
 10
5.447012412134098
 20
6.353368035984986
 30
0.0
 10
5.441800658290276
 20
6.374541776120913
 30
0.0
 10
5.439343685519639
 20
6.402793566335566
 30
0.0
 10
5.44052168247443
 20
6.43166623813608
 30
0.0
 10
5.441800658290276
 20
6.460559046636666
 30
0.0
 10
5.457829176194662
 20
6.502295713672727
 30
0.0
 10
5.447603088669842
 20
6.526057019769154
 30
0.0
 10
5.437377001144997
 20
6.549851887032395
 30
0.0
 10
5.428298705524816
 20
6.558211973682987
 30
0.0
 10
5.427117352453351
 20
6.579382357702241
 30
0.0
 10
5.425838671998159
 20
6.600586302888295
 30
0.0
 10
5.429641152196936
 20
6.620464581985666
 30
0.0
 10
5.431607836571578
 20
6.640376811101961
 30
0.0
 10
5.433511049880583
 20
6.660318467564037
 30
0.0
 10
5.44052168247443
 20
6.662812062257494
 30
0.0
 10
5.432852955859971
 20
6.691735075808209
 30
0.0
 10
5.425120757967912
 20
6.720607747608722
 30
0.0
 10
5.414172810417489
 20
6.756545045021235
 30
0.0
 10
5.411682571840729
 20
6.784192734233442
 30
0.0
 10
5.409091649763543
 20
6.811803506162164
 30
0.0
 10
5.405225403347836
 20
6.831107889307177
 30
0.0
 10
5.400144242693891
 20
6.854197972067544
 30
0.0
 10
5.394999315823016
 20
6.877304835411323
 30
0.0
 10
5.389196590082797
 20
6.915782713150822
 30
0.0
 10
5.38087342071569
 20
6.940232023166749
 30
0.0
 10
5.372416006681356
 20
6.964647772015799
 30
0.0
 10
5.366781086775163
 20
6.989704539150819
 30
0.0
 10
5.35839079507443
 20
7.023725493938892
 30
0.0
 10
5.35006426959065
 20
7.057712887560164
 30
0.0
 10
5.332072128067617
 20
7.125801782769826
 30
0.0
 10
5.329514767157257
 20
7.143139481540186
 30
0.0
 10
5.326860078863142
 20
7.160460399727146
 30
0.0
 10
5.303065211599914
 20
7.220142222652699
 30
0.0
 10
5.304411014388707
 20
7.236855683720527
 30
0.0
  0
SPLINE
  5
B1
330
70
100
AcDbEntity
  8
Layer 1
 62
   250
420
  2301728
370
    18
100
AcDbSpline
210
0.0
220
0.0
230
1.0
 70
     8
 71
     3
 72
    38
 73
    34
 74
     0
 42
0.0000000001
 43
0.0000000001
 40
0.0
 40
0.0
 40
0.0
 40
0.0
 40
1.0
 40
1.0
 40
1.0
 40
2.0
 40
2.0
 40
2.0
 40
3.0
 40
3.0
 40
3.0
 40
4.0
 40
4.0
 40
4.0
 40
5.0
 40
5.0
 40
5.0
 40
6.0
 40
6.0
 40
6.0
 40
7.0
 40
7.0
 40
7.0
 40
8.0
 40
8.0
 40
8.0
 40
9.0
 40
9.0
 40
9.0
 40
10.0
 40
10.0
 40
10.0
 40
11.0
 40
11.0
 40
11.0
 40
11.0
 10
5.378252293588375
 20
7.278646048623461
 30
0.0
 10
5.378252293588375
 20
7.243953870499328
 30
0.0
 10
5.393066192615151
 20
7.207311788583965
 30
0.0
 10
5.403946722892643
 20
7.182909464201593
 30
0.0
 10
5.414894375503763
 20
7.158540700986021
 30
0.0
 10
5.437309878811396
 20
7.098187654724419
 30
0.0
 10
5.437900555347115
 20
7.060300453520666
 30
0.0
 10
5.438622120433389
 20
7.022446813483711
 30
0.0
 10
5.450814892332876
 20
6.99162088177526
 30
0.0
 10
5.458547680947983
 20
6.963993329263151
 30
0.0
 10
5.466249672945498
 20
6.936362420634345
 30
0.0
 10
5.491913897199664
 20
6.840055296376817
 30
0.0
 10
5.491913897199664
 20
6.798332053807497
 30
0.0
 10
5.491913897199664
 20
6.756645728521637
 30
0.0
 10
5.511184719177864
 20
6.716100482907095
 30
0.0
 10
5.517608326503932
 20
6.693668199016049
 30
0.0
 10
5.524065494996799
 20
6.671185963005314
 30
0.0
 10
5.550317039670011
 20
6.617205792689067
 30
0.0
 10
5.543927291451356
 20
6.603126883215268
 30
0.0
 10
5.537536947351478
 20
6.58903454927478
 30
0.0
 10
5.529176860700898
 20
6.560749197893287
 30
0.0
 10
5.527901536362378
 20
6.547247540488493
 30
0.0
 10
5.526522172406783
 20
6.533792868717214
 30
0.0
 10
5.524065494996799
 20
6.514522432411846
 30
0.0
 10
5.531113340025411
 20
6.495251224760799
 30
0.0
 10
5.538124267770525
 20
6.475980402782624
 30
0.0
 10
5.545205673965938
 20
6.47214436141702
 30
0.0
 10
5.540748751014512
 20
6.445825694410245
 30
0.0
 10
5.536191144562685
 20
6.419523807986807
 30
0.0
 10
5.531734221611259
 20
6.373904113951665
 30
0.0
 10
5.535570560706319
 20
6.343061401659825
 30
0.0
 10
5.539436509392518
 20
6.312252250534785
 30
0.0
 10
5.54658168180486
 20
6.239115755837966
 30
0.0
 10
5.544024320894473
 20
6.221764632600916
 30
0.0
  0
SPLINE
  5
B2
330
70
100
AcDbEntity
  8
Layer 1
 62
   250
420
  2301728
370
    18
100
AcDbSpline
210
0.0
220
0.0
230
1.0
 70
     8
 71
     3
 72
    23
 73
    19
 74
     0
 42
0.0000000001
 43
0.0000000001
 40
0.0
 40
0.0
 40
0.0
 40
0.0
 40
1.0
 40
1.0
 40
1.0
 40
2.0
 40
2.0
 40
2.0
 40
3.0
 40
3.0
 40
3.0
 40
4.0
 40
4.0
 40
4.0
 40
5.0
 40
5.0
 40
5.0
 40
6.0
 40
6.0
 40
6.0
 40
6.0
 10
5.58315664138662
 20
6.691735075808209
 30
0.0
 10
5.580535514259332
 20
6.727048135518189
 30
0.0
 10
5.566376057985204
 20
6.755954368485504
 30
0.0
 10
5.561919135033778
 20
6.777144889204842
 30
0.0
 10
5.557398445865424
 20
6.798332053807497
 30
0.0
 10
5.559298306235379
 20
6.822126921070725
 30
0.0
 10
5.555495527707711
 20
6.837515109882183
 30
0.0
 10
5.551595720125204
 20
6.852953247001474
 30
0.0
 10
5.542648313055551
 20
6.908063644786162
 30
0.0
 10
5.531113340025411
 20
6.942131585207751
 30
0.0
 10
5.51951124466167
 20
6.976216306212752
 30
0.0
 10
5.508627358267504
 20
7.034606024216385
 30
0.0
 10
5.504828531138324
 20
7.053860065611186
 30
0.0
 10
5.500958631653045
 20
7.0731308875894
 30
0.0
 10
5.484866052171051
 20
7.149563088866266
 30
0.0
 10
5.481000102106286
 20
7.18743350948662
 30
0.0
 10
5.477163764389792
 20
7.225320710690387
 30
0.0
 10
5.464907226273377
 20
7.290181021653615
 30
0.0
 10
5.450814892332876
 20
7.321023733945442
 30
0.0
  0
SPLINE
  5
B3
330
70
100
AcDbEntity
  8
Layer 1
 62
   250
420
  2301728
370
    18
100
AcDbSpline
210
0.0
220
0.0
230
1.0
 70
     8
 71
     3
 72
    17
 73
    13
 74
     0
 42
0.0000000001
 43
0.0000000001
 40
0.0
 40
0.0
 40
0.0
 40
0.0
 40
1.0
 40
1.0
 40
1.0
 40
2.0
 40
2.0
 40
2.0
 40
3.0
 40
3.0
 40
3.0
 40
4.0
 40
4.0
 40
4.0
 40
4.0
 10
5.577323710596298
 20
7.061562353392446
 30
0.0
 10
5.572833226478071
 20
7.08920668648798
 30
0.0
 10
5.565788737566132
 20
7.112967992584407
 30
0.0
 10
5.562576933903098
 20
7.145710266917287
 30
0.0
 10
5.559298306235379
 20
7.178469321833567
 30
0.0
 10
5.565788737566132
 20
7.195807020603941
 30
0.0
 10
5.55418664220239
 20
7.218256085078374
 30
0.0
 10
5.542648313055551
 20
7.240708505669494
 30
0.0
 10
5.535570560706319
 20
7.257358200520406
 30
0.0
 10
5.532324898147003
 20
7.279233369042508
 30
0.0
 10
5.52914665565077
 20
7.301078332514507
 30
0.0
 10
5.526522172406783
 20
7.339032656051863
 30
0.0
 10
5.52144436786951
 20
7.36272683981469
 30
0.0
  0
SPLINE
  5
B4
330
70
100
AcDbEntity
  8
Layer 1
 62
   250
420
  2301728
370
    18
100
AcDbSpline
210
0.0
220
0.0
230
1.0
 70
     8
 71
     3
 72
    11
 73
     7
 74
     0
 42
0.0000000001
 43
0.0000000001
 40
0.0
 40
0.0
 40
0.0
 40
0.0
 40
1.0
 40
1.0
 40
1.0
 40
2.0
 40
2.0
 40
2.0
 40
2.0
 10
4.945494472132066
 20
7.240708505669494
 30
0.0
 10
4.969289339395319
 20
7.2201925644029
 30
0.0
 10
4.987184153534599
 20
7.208556907872345
 30
0.0
 10
5.008421659887466
 20
7.182909464201593
 30
0.0
 10
5.029528277689778
 20
7.157265376647526
 30
0.0
 10
5.06423752221993
 20
7.121948960820859
 30
0.0
 10
5.084199418411672
 20
7.109101746168713
 30
0.0
  0
SPLINE
  5
B5
330
70
100
AcDbEntity
  8
Layer 1
 62
   250
420
  2301728
370
    18
100
AcDbSpline
210
0.0
220
0.0
230
1.0
 70
     8
 71
     3
 72
    11
 73
     7
 74
     0
 42
0.0000000001
 43
0.0000000001
 40
0.0
 40
0.0
 40
0.0
 40
0.0
 40
1.0
 40
1.0
 40
1.0
 40
2.0
 40
2.0
 40
2.0
 40
2.0
 10
5.046966659960566
 20
7.250411038992208
 30
0.0
 10
5.06171343665374
 20
7.237577248806789
 30
0.0
 10
5.079675659339297
 20
7.209949696294668
 30
0.0
 10
5.095801513775414
 20
7.203509308385187
 30
0.0
 10
5.111860819116271
 20
7.197052139892321
 30
0.0
 10
5.143881241337212
 20
7.165588546014633
 30
0.0
 10
5.157416459908795
 20
7.152086888609838
 30
0.0
  0
SPLINE
  5
B6
330
70
100
AcDbEntity
  8
Layer 1
 62
   250
420
  2301728
370
    18
100
AcDbSpline
210
0.0
220
0.0
230
1.0
 70
     8
 71
     3
 72
     8
 73
     4
 74
     0
 42
0.0000000001
 43
0.0000000001
 40
0.0
 40
0.0
 40
0.0
 40
0.0
 40
1.0
 40
1.0
 40
1.0
 40
1.0
 10
5.120774377993433
 20
7.277988249754129
 30
0.0
 10
5.136178953555953
 20
7.254851181360233
 30
0.0
 10
5.191403853530068
 20
7.197052139892321
 30
0.0
 10
5.214510716873847
 20
7.184255266990387
 30
0.0
  0
SPLINE
  5
B7
330
70
100
AcDbEntity
  8
Layer 1
 62
   250
420
  2301728
370
    18
100
AcDbSpline
210
0.0
220
0.0
230
1.0
 70
     8
 71
     3
 72
     8
 73
     4
 74
     0
 42
0.0000000001
 43
0.0000000001
 40
0.0
 40
0.0
 40
0.0
 40
0.0
 40
1.0
 40
1.0
 40
1.0
 40
1.0
 10
5.220934613981044
 20
7.334458269016636
 30
0.0
 10
5.233059973765799
 20
7.317761588532207
 30
0.0
 10
5.290285119281381
 20
7.260650550983768
 30
0.0
 10
5.3056896948439
 20
7.237513482589861
 30
0.0
  0
SPLINE
  5
B8
330
70
100
AcDbEntity
  8
Layer 1
 62
   250
420
  2301728
370
    18
100
AcDbSpline
210
0.0
220
0.0
230
1.0
 70
     8
 71
     3
 72
    11
 73
     7
 74
     0
 42
0.0000000001
 43
0.0000000001
 40
0.0
 40
0.0
 40
0.0
 40
0.0
 40
1.0
 40
1.0
 40
1.0
 40
2.0
 40
2.0
 40
2.0
 40
2.0
 10
5.280649708292255
 20
7.367905327852376
 30
0.0
 10
5.297953845895815
 20
7.36148172052631
 30
0.0
 10
5.327450755398861
 20
7.332478160175266
 30
0.0
 10
5.333907923891754
 20
7.319694711740061
 30
0.0
 10
5.340395297434749
 20
7.306864277671352
 30
0.0
 10
5.355145723416171
 20
7.28641210262165
 30
0.0
 10
5.375104256142271
 20
7.278038996465207
 30
0.0
  0
SPLINE
  5
B9
330
70
100
AcDbEntity
  8
Layer 1
 62
   250
420
  2301728
370
    18
100
AcDbSpline
210
0.0
220
0.0
230
1.0
 70
     8
 71
     3
 72
    11
 73
     7
 74
     0
 42
0.0000000001
 43
0.0000000001
 40
0.0
 40
0.0
 40
0.0
 40
0.0
 40
1.0
 40
1.0
 40
1.0
 40
2.0
 40
2.0
 40
2.0
 40
2.0
 10
5.354490987491948
 20
7.4108740980267
 30
0.0
 10
5.37572849384479
 20
7.398060036224755
 30
0.0
 10
5.39113306940731
 20
7.376869515505429
 30
0.0
 10
5.39883535718857
 20
7.366579661763668
 30
0.0
 10
5.406504083803029
 20
7.35628645190526
 30
0.0
 10
5.436131881856605
 20
7.326789542402188
 30
0.0
 10
5.448979096508739
 20
7.321611054364502
 30
0.0
  0
SPLINE
  5
BA
330
70
100
AcDbEntity
  8
Layer 1
 62
   250
420
  2301728
370
    18
100
AcDbSpline
210
0.0
220
0.0
230
1.0
 70
     8
 71
     3
 72
    11
 73
     7
 74
     0
 42
0.0000000001
 43
0.0000000001
 40
0.0
 40
0.0
 40
0.0
 40
0.0
 40
1.0
 40
1.0
 40
1.0
 40
2.0
 40
2.0
 40
2.0
 40
2.0
 10
5.422563102118197
 20
7.449402318489697
 30
0.0
 10
5.438554998099789
 20
7.439779922677416
 30
0.0
 10
5.451469335085524
 20
7.42888261181651
 30
0.0
 10
5.46362854581821
 20
7.415397734995116
 30
0.0
 10
5.475918645101399
 20
7.401892721473649
 30
0.0
 10
5.506660673892838
 20
7.371657466300941
 30
0.0
 10
5.520756363950062
 20
7.36272683981469
 30
0.0
  0
SPLINE
  5
BB
330
70
100
AcDbEntity
  8
Layer 1
 62
   250
420
  2301728
370
    18
100
AcDbSpline
210
0.0
220
0.0
230
1.0
 70
     8
 71
     3
 72
    11
 73
     7
 74
     0
 42
0.0000000001
 43
0.0000000001
 40
0.0
 40
0.0
 40
0.0
 40
0.0
 40
1.0
 40
1.0
 40
1.0
 40
2.0
 40
2.0
 40
2.0
 40
2.0
 10
5.027071600279819
 20
7.444532183896702
 30
0.0
 10
5.03477388806108
 20
7.423361799877447
 30
0.0
 10
5.051225572027836
 20
7.397895586507451
 30
0.0
 10
5.065187017417833
 20
7.381326438456855
 30
0.0
 10
5.079084696590901
 20
7.364777427106345
 30
0.0
 10
5.125429311828989
 20
7.298212208869535
 30
0.0
 10
5.131916685371985
 20
7.284281373648266
 30
0.0
  0
SPLINE
  5
BC
330
70
100
AcDbEntity
  8
Layer 1
 62
   250
420
  2301728
370
    18
100
AcDbSpline
210
0.0
220
0.0
230
1.0
 70
     8
 71
     3
 72
    11
 73
     7
 74
     0
 42
0.0000000001
 43
0.0000000001
 40
0.0
 40
0.0
 40
0.0
 40
0.0
 40
1.0
 40
1.0
 40
1.0
 40
2.0
 40
2.0
 40
2.0
 40
2.0
 10
5.08521325200162
 20
7.476143446908318
 30
0.0
 10
5.099536871640566
 20
7.467279942755681
 30
0.0
 10
5.120707255659832
 20
7.449596563967247
 30
0.0
 10
5.130738688417194
 20
7.421066216068133
 30
0.0
 10
5.140112322305236
 20
7.394093514201345
 30
0.0
 10
5.18527558447186
 20
7.334753607284508
 30
0.0
 10
5.201170153069697
 20
7.323970404390744
 30
0.0
  0
SPLINE
  5
BD
330
70
100
AcDbEntity
  8
Layer 1
 62
   250
420
  2301728
370
    18
100
AcDbSpline
210
0.0
220
0.0
230
1.0
 70
     8
 71
     3
 72
    11
 73
     7
 74
     0
 42
0.0000000001
 43
0.0000000001
 40
0.0
 40
0.0
 40
0.0
 40
0.0
 40
1.0
 40
1.0
 40
1.0
 40
2.0
 40
2.0
 40
2.0
 40
2.0
 10
5.151452640567943
 20
7.512329507834755
 30
0.0
 10
5.159547594000792
 20
7.491910483072311
 30
0.0
 10
5.168495001070419
 20
7.460299220060682
 30
0.0
 10
5.192746300202188
 20
7.442961521290347
 30
0.0
 10
5.217000955450632
 20
7.425637246986676
 30
0.0
 10
5.255082811421844
 20
7.373919488943455
 30
0.0
 10
5.262818951209106
 20
7.359713047035799
 30
0.0
  0
SPLINE
  5
BE
330
70
100
AcDbEntity
  8
Layer 1
 62
   250
420
  2301728
370
    18
100
AcDbSpline
210
0.0
220
0.0
230
1.0
 70
     8
 71
     3
 72
    11
 73
     7
 74
     0
 42
0.0000000001
 43
0.0000000001
 40
0.0
 40
0.0
 40
0.0
 40
0.0
 40
1.0
 40
1.0
 40
1.0
 40
2.0
 40
2.0
 40
2.0
 40
2.0
 10
5.223521890160427
 20
7.551263406563192
 30
0.0
 10
5.243940504043292
 20
7.537352302923395
 30
0.0
 10
5.267473594205461
 20
7.523568731717457
 30
0.0
 10
5.279008567235601
 20
7.494253052515154
 30
0.0
 10
5.29054689638244
 20
7.464934017196165
 30
0.0
 10
5.332498354886031
 20
7.418773988375492
 30
0.0
 10
5.345640907806025
 20
7.406433547342076
 30
0.0
  0
SPLINE
  5
BF
330
70
100
AcDbEntity
  8
Layer 1
 62
   250
420
  2301728
370
    18
100
AcDbSpline
210
0.0
220
0.0
230
1.0
 70
     8
 71
     3
 72
    11
 73
     7
 74
     0
 42
0.0000000001
 43
0.0000000001
 40
0.0
 40
0.0
 40
0.0
 40
0.0
 40
1.0
 40
1.0
 40
1.0
 40
2.0
 40
2.0
 40
2.0
 40
2.0
 10
5.298544522431559
 20
7.592493299980509
 30
0.0
 10
5.314012864211008
 20
7.567094208944126
 30
0.0
 10
5.326400290877952
 20
7.538859199312847
 30
0.0
 10
5.34488578155295
 20
7.525780412609769
 30
0.0
 10
5.363404833394775
 20
7.512738543190177
 30
0.0
 10
5.405453913724563
 20
7.46144365584866
 30
0.0
 10
5.413122345896554
 20
7.445679975801352
 30
0.0
  0
SPLINE
  5
C0
330
70
100
AcDbEntity
  8
Layer 1
 62
   250
420
  2301728
370
    18
100
AcDbSpline
210
0.0
220
0.0
230
1.0
 70
     8
 71
     3
 72
    11
 73
     7
 74
     0
 42
0.0000000001
 43
0.0000000001
 40
0.0
 40
0.0
 40
0.0
 40
0.0
 40
1.0
 40
1.0
 40
1.0
 40
2.0
 40
2.0
 40
2.0
 40
2.0
 10
5.393851523918353
 20
7.644063388889813
 30
0.0
 10
5.410762995870324
 20
7.63174308455647
 30
0.0
 10
5.430822505268401
 20
7.629088810091515
 30
0.0
 10
5.43852479304966
 20
7.603259722290872
 30
0.0
 10
5.44622708083092
 20
7.577451185019462
 30
0.0
 10
5.491323220663919
 20
7.510459739964264
 30
0.0
 10
5.504828531138324
 20
7.498495183999036
 30
0.0
  0
SPLINE
  5
C1
330
70
100
AcDbEntity
  8
Layer 1
 62
   250
420
  2301728
370
    18
100
AcDbSpline
210
0.0
220
0.0
230
1.0
 70
     8
 71
     3
 72
    11
 73
     7
 74
     0
 42
0.0000000001
 43
0.0000000001
 40
0.0
 40
0.0
 40
0.0
 40
0.0
 40
1.0
 40
1.0
 40
1.0
 40
2.0
 40
2.0
 40
2.0
 40
2.0
 10
5.457369388209472
 20
7.679544254433797
 30
0.0
 10
5.471200241152296
 20
7.66412289828789
 30
0.0
 10
5.488963870637689
 20
7.654913714117178
 30
0.0
 10
5.505153777503386
 20
7.624450243010212
 30
0.0
 10
5.521343684369108
 20
7.594000196369961
 30
0.0
 10
5.553364393615715
 20
7.545413695189444
 30
0.0
 10
5.565261827247341
 20
7.532368469653166
 30
0.0
  0
SPLINE
  5
C2
330
70
100
AcDbEntity
  8
Layer 1
 62
   250
420
  2301728
370
    18
100
AcDbSpline
210
0.0
220
0.0
230
1.0
 70
     8
 71
     3
 72
    11
 73
     7
 74
     0
 42
0.0000000001
 43
0.0000000001
 40
0.0
 40
0.0
 40
0.0
 40
0.0
 40
1.0
 40
1.0
 40
1.0
 40
2.0
 40
2.0
 40
2.0
 40
2.0
 10
5.515970838798365
 20
7.711155517445426
 30
0.0
 10
5.535962928628426
 20
7.690327457327598
 30
0.0
 10
5.55601908190983
 20
7.677691678026285
 30
0.0
 10
5.567557411056642
 20
7.646426095032729
 30
0.0
 10
5.579092384086808
 20
7.6151907170893
 30
0.0
 10
5.603806827320441
 20
7.578629181974242
 30
0.0
 10
5.621503630575589
 20
7.56516108573626
 30
0.0
  0
SPLINE
  5
C3
330
70
100
AcDbEntity
  8
Layer 1
 62
   250
420
  2301728
370
    18
100
AcDbSpline
210
0.0
220
0.0
230
1.0
 70
     8
 71
     3
 72
    26
 73
    22
 74
     0
 42
0.0000000001
 43
0.0000000001
 40
0.0
 40
0.0
 40
0.0
 40
0.0
 40
1.0
 40
1.0
 40
1.0
 40
2.0
 40
2.0
 40
2.0
 40
3.0
 40
3.0
 40
3.0
 40
4.0
 40
4.0
 40
4.0
 40
5.0
 40
5.0
 40
5.0
 40
6.0
 40
6.0
 40
6.0
 40
7.0
 40
7.0
 40
7.0
 40
7.0
 10
5.503579758780333
 20
8.908080970303027
 30
0.0
 10
5.507086900711227
 20
8.886517920632185
 30
0.0
 10
5.508563592050576
 20
8.864951514844657
 30
0.0
 10
5.519051456676455
 20
8.851496843073391
 30
0.0
 10
5.529472198968758
 20
8.837995630037312
 30
0.0
 10
5.528163313463437
 20
8.833306690666226
 30
0.0
 10
5.540221840695721
 20
8.822181163871087
 30
0.0
 10
5.552186396660949
 20
8.811035500375851
 30
0.0
 10
5.55398863131826
 20
8.813331084185165
 30
0.0
 10
5.556347981344489
 20
8.790190659674584
 30
0.0
 10
5.558707331370745
 20
8.767100576914206
 30
0.0
 10
5.555626416258241
 20
8.737409012643713
 30
0.0
 10
5.555233750606626
 20
8.721645332596406
 30
0.0
 10
5.554841084955038
 20
8.705861515849012
 30
0.0
 10
5.552515296095609
 20
8.690802620304566
 30
0.0
 10
5.55828110455233
 20
8.670417567588502
 30
0.0
 10
5.56408383029255
 20
8.650015734289025
 30
0.0
 10
5.566376057985204
 20
8.624549520919016
 30
0.0
 10
5.56598339233359
 20
8.605295479524203
 30
0.0
 10
5.565657849015602
 20
8.586038082012716
 30
0.0
 10
5.573326874313352
 20
8.518227744487514
 30
0.0
 10
5.582961986619162
 20
8.487421949479159
 30
0.0
  0
SPLINE
  5
C4
330
70
100
AcDbEntity
  8
Layer 1
 62
   250
420
  2301728
370
    18
100
AcDbSpline
210
0.0
220
0.0
230
1.0
 70
     8
 71
     3
 72
    44
 73
    40
 74
     0
 42
0.0000000001
 43
0.0000000001
 40
0.0
 40
0.0
 40
0.0
 40
0.0
 40
1.0
 40
1.0
 40
1.0
 40
2.0
 40
2.0
 40
2.0
 40
3.0
 40
3.0
 40
3.0
 40
4.0
 40
4.0
 40
4.0
 40
5.0
 40
5.0
 40
5.0
 40
6.0
 40
6.0
 40
6.0
 40
7.0
 40
7.0
 40
7.0
 40
8.0
 40
8.0
 40
8.0
 40
9.0
 40
9.0
 40
9.0
 40
10.0
 40
10.0
 40
10.0
 40
11.0
 40
11.0
 40
11.0
 40
12.0
 40
12.0
 40
12.0
 40
13.0
 40
13.0
 40
13.0
 40
13.0
 10
5.450422226681262
 20
8.886517920632185
 30
0.0
 10
5.450422226681262
 20
8.866851076885698
 30
0.0
 10
5.449207312442998
 20
8.840223647144309
 30
0.0
 10
5.453566908010694
 20
8.818328785793999
 30
0.0
 10
5.457795615027862
 20
8.796419612233194
 30
0.0
 10
5.453828685111753
 20
8.784783955702639
 30
0.0
 10
5.469693048659488
 20
8.75283036878962
 30
0.0
 10
5.485523851040397
 20
8.72085664517653
 30
0.0
 10
5.498206615975201
 20
8.724300020890508
 30
0.0
 10
5.498206615975201
 20
8.693114984697279
 30
0.0
 10
5.498206615975201
 20
8.661929948504052
 30
0.0
 10
5.498991947278378
 20
8.64195098590633
 30
0.0
 10
5.493551978807645
 20
8.616488128652967
 30
0.0
 10
5.488178539334512
 20
8.591038695866346
 30
0.0
 10
5.487326085697708
 20
8.563686344922011
 30
0.0
 10
5.490078101375552
 20
8.539448470256969
 30
0.0
 10
5.492830117053371
 20
8.51516360995841
 30
0.0
 10
5.504334885033409
 20
8.457693467925183
 30
0.0
 10
5.503220654295546
 20
8.427280338568417
 30
0.0
 10
5.502072862390883
 20
8.396880633678367
 30
0.0
 10
5.49827038219213
 20
8.38149283869926
 30
0.0
 10
5.506761357393265
 20
8.350653914581521
 30
0.0
 10
5.515181854144101
 20
8.319844762678181
 30
0.0
 10
5.519444122328068
 20
8.275533522869231
 30
0.0
 10
5.520591914232706
 20
8.248577193693158
 30
0.0
 10
5.521706144970569
 20
8.221617508400413
 30
0.0
 10
5.518591668691265
 20
8.198480440006518
 30
0.0
 10
5.527441748377188
 20
8.170735423410581
 30
0.0
 10
5.536291828063085
 20
8.142977409158991
 30
0.0
 10
5.540221840695721
 20
8.108234462473596
 30
0.0
 10
5.542091197686633
 20
8.070921582212955
 30
0.0
 10
5.544024320894473
 20
8.033607851970726
 30
0.0
 10
5.541403193767185
 20
8.015498246363904
 30
0.0
 10
5.547138797173778
 20
7.997391996873753
 30
0.0
 10
5.552938166797326
 20
7.979266033358903
 30
0.0
 10
5.562509811569498
 20
7.950409719466417
 30
0.0
 10
5.56408383029255
 20
7.924943506096395
 30
0.0
 10
5.565657849015602
 20
7.899510853893186
 30
0.0
 10
5.57712905582884
 20
7.839040343547796
 30
0.0
 10
5.583354652270776
 20
7.818229064013305
 30
0.0
  0
SPLINE
  5
C5
330
70
100
AcDbEntity
  8
Layer 1
 62
   250
420
  2301728
370
    18
100
AcDbSpline
210
0.0
220
0.0
230
1.0
 70
     8
 71
     3
 72
    53
 73
    49
 74
     0
 42
0.0000000001
 43
0.0000000001
 40
0.0
 40
0.0
 40
0.0
 40
0.0
 40
1.0
 40
1.0
 40
1.0
 40
2.0
 40
2.0
 40
2.0
 40
3.0
 40
3.0
 40
3.0
 40
4.0
 40
4.0
 40
4.0
 40
5.0
 40
5.0
 40
5.0
 40
6.0
 40
6.0
 40
6.0
 40
7.0
 40
7.0
 40
7.0
 40
8.0
 40
8.0
 40
8.0
 40
9.0
 40
9.0
 40
9.0
 40
10.0
 40
10.0
 40
10.0
 40
11.0
 40
11.0
 40
11.0
 40
12.0
 40
12.0
 40
12.0
 40
13.0
 40
13.0
 40
13.0
 40
14.0
 40
14.0
 40
14.0
 40
15.0
 40
15.0
 40
15.0
 40
16.0
 40
16.0
 40
16.0
 40
16.0
 10
5.515181854144101
 20
7.712628852668077
 30
0.0
 10
5.51354406920412
 20
7.735769277178658
 30
0.0
 10
5.511775692842016
 20
7.770427894135978
 30
0.0
 10
5.504828531138324
 20
7.79548507930369
 30
0.0
 10
5.497814247099287
 20
7.820538072289372
 30
0.0
 10
5.492437451401782
 20
7.841352707940485
 30
0.0
 10
5.491584997765003
 20
7.861392080638475
 30
0.0
 10
5.49086343267873
 20
7.881435229657123
 30
0.0
 10
5.495125700862697
 20
7.912569503896179
 30
0.0
 10
5.488571204986101
 20
7.932236347642653
 30
0.0
 10
5.482016709109504
 20
7.951933396439269
 30
0.0
 10
5.476969109622333
 20
7.98344733206717
 30
0.0
 10
5.476576443970745
 20
8.006242076559676
 30
0.0
 10
5.476247544536085
 20
8.028970122649575
 30
0.0
 10
5.481687809674818
 20
8.043964828046101
 30
0.0
 10
5.477032875839262
 20
8.067857022693058
 30
0.0
 10
5.472381298120378
 20
8.091749217340026
 30
0.0
 10
5.470414613745737
 20
8.131831318852693
 30
0.0
 10
5.465038114823932
 20
8.149202578789893
 30
0.0
 10
5.459664972018773
 20
8.166540277560228
 30
0.0
 10
5.458547680947983
 20
8.173799557939686
 30
0.0
 10
5.458547680947983
 20
8.195792190545615
 30
0.0
 10
5.458547680947983
 20
8.217751690684748
 30
0.0
 10
5.450814892332876
 20
8.242365021717949
 30
0.0
 10
5.448979096508739
 20
8.267405008269582
 30
0.0
 10
5.447012412134098
 20
8.292444994821202
 30
0.0
 10
5.454288473096968
 20
8.319844762678181
 30
0.0
 10
5.446586185315709
 20
8.344901098534085
 30
0.0
 10
5.438883897534449
 20
8.369924304502307
 30
0.0
 10
5.441964812646952
 20
8.382214403785521
 30
0.0
 10
5.438883897534449
 20
8.40802294105693
 30
0.0
 10
5.435739216205016
 20
8.43385204918761
 30
0.0
 10
5.438162332448174
 20
8.451548418283563
 30
0.0
 10
5.434688751684082
 20
8.475440612930531
 30
0.0
 10
5.431181609753189
 20
8.499332807577502
 30
0.0
 10
5.429315903924234
 20
8.545153868613459
 30
0.0
 10
5.429641152196936
 20
8.567915051939166
 30
0.0
 10
5.430003612798397
 20
8.590659454681473
 30
0.0
 10
5.439343685519639
 20
8.627989540516308
 30
0.0
 10
5.42888938206056
 20
8.64575346610507
 30
0.0
 10
5.418465283651585
 20
8.663483830527018
 30
0.0
 10
5.39997979297656
 20
8.686970375609183
 30
0.0
 10
5.395687613938232
 20
8.701240143180257
 30
0.0
 10
5.391492467981884
 20
8.715513707421512
 30
0.0
 10
5.383756324944038
 20
8.733572971278135
 30
0.0
 10
5.383035053733894
 20
8.757434960874977
 30
0.0
 10
5.382215867387786
 20
8.781360716688746
 30
0.0
 10
5.383756324944038
 20
8.839582628858364
 30
0.0
 10
5.379561179093697
 20
8.8576754538818
 30
0.0
  0
SPLINE
  5
C6
330
70
100
AcDbEntity
  8
Layer 1
 62
   250
420
  2301728
370
    18
100
AcDbSpline
210
0.0
220
0.0
230
1.0
 70
     8
 71
     3
 72
    59
 73
    55
 74
     0
 42
0.0000000001
 43
0.0000000001
 40
0.0
 40
0.0
 40
0.0
 40
0.0
 40
1.0
 40
1.0
 40
1.0
 40
2.0
 40
2.0
 40
2.0
 40
3.0
 40
3.0
 40
3.0
 40
4.0
 40
4.0
 40
4.0
 40
5.0
 40
5.0
 40
5.0
 40
6.0
 40
6.0
 40
6.0
 40
7.0
 40
7.0
 40
7.0
 40
8.0
 40
8.0
 40
8.0
 40
9.0
 40
9.0
 40
9.0
 40
10.0
 40
10.0
 40
10.0
 40
11.0
 40
11.0
 40
11.0
 40
12.0
 40
12.0
 40
12.0
 40
13.0
 40
13.0
 40
13.0
 40
14.0
 40
14.0
 40
14.0
 40
15.0
 40
15.0
 40
15.0
 40
16.0
 40
16.0
 40
16.0
 40
17.0
 40
17.0
 40
17.0
 40
18.0
 40
18.0
 40
18.0
 40
18.0
 10
5.289432957156147
 20
8.820670911364951
 30
0.0
 10
5.289432957156147
 20
8.794469708441953
 30
0.0
 10
5.281337712211729
 20
8.767100576914206
 30
0.0
 10
5.289432957156147
 20
8.748618442355866
 30
0.0
 10
5.297494057910625
 20
8.730149732264242
 30
0.0
 10
5.302870556832456
 20
8.710452683467639
 30
0.0
 10
5.30477041077246
 20
8.695048107905121
 30
0.0
 10
5.306703242081336
 20
8.6796099711758
 30
0.0
 10
5.30863972140585
 20
8.670793892801535
 30
0.0
 10
5.3174864449751
 20
8.648442155146174
 30
0.0
 10
5.326336524661024
 20
8.626123978658458
 30
0.0
 10
5.335971935650124
 20
8.591086119631135
 30
0.0
 10
5.341479323122459
 20
8.585645416361128
 30
0.0
 10
5.346818904760817
 20
8.580255492972582
 30
0.0
 10
5.35839079507443
 20
8.577158235056066
 30
0.0
 10
5.35839079507443
 20
8.554836265236088
 30
0.0
 10
5.35839079507443
 20
8.532518089312183
 30
0.0
 10
5.341479323122459
 20
8.528289382295017
 30
0.0
 10
5.343345323996699
 20
8.504789853299648
 30
0.0
 10
5.345278740126862
 20
8.481243338670752
 30
0.0
 10
5.351047611777958
 20
8.428116011621808
 30
0.0
 10
5.351047611777958
 20
8.406533258719921
 30
0.0
 10
5.351047611777958
 20
8.384919866752902
 30
0.0
 10
5.352554508167409
 20
8.366876950556603
 30
0.0
 10
5.357209442002966
 20
8.345653300601572
 30
0.0
 10
5.361830814671722
 20
8.324482484651221
 30
0.0
 10
5.36609308285569
 20
8.30521209358249
 30
0.0
 10
5.367237518643681
 20
8.282463903814029
 30
0.0
 10
5.368351749381518
 20
8.259703150248116
 30
0.0
 10
5.372254913080698
 20
8.232024826225988
 30
0.0
 10
5.376087892030201
 20
8.218536593287947
 30
0.0
 10
5.379957200861958
 20
8.205051716466515
 30
0.0
 10
5.386937923556969
 20
8.181159521819557
 30
0.0
 10
5.388377697612794
 20
8.157250546589187
 30
0.0
 10
5.389951716335846
 20
8.133371776408946
 30
0.0
 10
5.401587372866414
 20
8.092977556045019
 30
0.0
 10
5.401849149967473
 20
8.065578219467145
 30
0.0
 10
5.402241815619062
 20
8.03816210230588
 30
0.0
 10
5.397717770334034
 20
8.031329048744812
 30
0.0
 10
5.403815834342114
 20
8.012434111834799
 30
0.0
 10
5.409944103400321
 20
7.993522394341387
 30
0.0
 10
5.417646391181581
 20
7.949557265829626
 30
0.0
 10
5.421512637597288
 20
7.921469925332303
 30
0.0
 10
5.425382240129642
 20
7.893349444173104
 30
0.0
 10
5.424694236210194
 20
7.878712998825449
 30
0.0
 10
5.427741590155897
 20
7.856770707969758
 30
0.0
 10
5.430822505268401
 20
7.834781431480475
 30
0.0
 10
5.440458211584275
 20
7.810526776232045
 30
0.0
 10
5.442391039465342
 20
7.786634581585088
 30
0.0
 10
5.444260396456254
 20
7.762742386938119
 30
0.0
 10
5.439605462620698
 20
7.754301753487197
 30
0.0
 10
5.443538831370005
 20
7.735030931508996
 30
0.0
 10
5.447341311568758
 20
7.715760109530783
 30
0.0
 10
5.454288473096968
 20
7.690767108612678
 30
0.0
 10
5.457369388209472
 20
7.680739447105956
 30
0.0
  0
SPLINE
  5
C7
330
70
100
AcDbEntity
  8
Layer 1
 62
   250
420
  2301728
370
    18
100
AcDbSpline
210
0.0
220
0.0
230
1.0
 70
     8
 71
     3
 72
    50
 73
    46
 74
     0
 42
0.0000000001
 43
0.0000000001
 40
0.0
 40
0.0
 40
0.0
 40
0.0
 40
1.0
 40
1.0
 40
1.0
 40
2.0
 40
2.0
 40
2.0
 40
3.0
 40
3.0
 40
3.0
 40
4.0
 40
4.0
 40
4.0
 40
5.0
 40
5.0
 40
5.0
 40
6.0
 40
6.0
 40
6.0
 40
7.0
 40
7.0
 40
7.0
 40
8.0
 40
8.0
 40
8.0
 40
9.0
 40
9.0
 40
9.0
 40
10.0
 40
10.0
 40
10.0
 40
11.0
 40
11.0
 40
11.0
 40
12.0
 40
12.0
 40
12.0
 40
13.0
 40
13.0
 40
13.0
 40
14.0
 40
14.0
 40
14.0
 40
15.0
 40
15.0
 40
15.0
 40
15.0
 10
5.394244483729253
 20
7.645999868214326
 30
0.0
 10
5.395358420307805
 20
7.663367772034815
 30
0.0
 10
5.394244483729253
 20
7.688082215268448
 30
0.0
 10
5.386444574404953
 20
7.708074602332922
 30
0.0
 10
5.378775847790493
 20
7.728066989397397
 30
0.0
 10
5.374939806424941
 20
7.756597337296511
 30
0.0
 10
5.373006683217075
 20
7.776999170595975
 30
0.0
 10
5.371107121176034
 20
7.797417784478839
 30
0.0
 10
5.369533102452982
 20
7.830928609531509
 30
0.0
 10
5.362585940924796
 20
7.850182650926322
 30
0.0
 10
5.355668984446714
 20
7.869473609604609
 30
0.0
 10
5.346788992671159
 20
7.899181954458513
 30
0.0
 10
5.345640907806025
 20
7.919976453409566
 30
0.0
 10
5.344459554734561
 20
7.940723966727103
 30
0.0
 10
5.33256212110296
 20
7.979675056918519
 30
0.0
 10
5.328632400972158
 20
8.001241462706047
 30
0.0
 10
5.324829628271572
 20
8.022791087910162
 30
0.0
 10
5.329451000940328
 20
8.054368789754992
 30
0.0
 10
5.323322731882121
 20
8.080197463726486
 30
0.0
 10
5.317160901657112
 20
8.106006000997883
 30
0.0
 10
5.309032679064127
 20
8.122229469030394
 30
0.0
 10
5.30863972140585
 20
8.14374553306772
 30
0.0
 10
5.30831082197119
 20
8.165329146814364
 30
0.0
 10
5.309425052709053
 20
8.2123747630629
 30
0.0
 10
5.299789641719952
 20
8.231222714339399
 30
0.0
 10
5.290217996947754
 20
8.25008409008261
 30
0.0
 10
5.285959084880484
 20
8.272452607756727
 30
0.0
 10
5.285959084880484
 20
8.29016619159529
 30
0.0
 10
5.285959084880484
 20
8.307849570383723
 30
0.0
 10
5.278552135367085
 20
8.332610999250871
 30
0.0
 10
5.27704188286096
 20
8.347585991878316
 30
0.0
 10
5.275534986471509
 20
8.362581121205835
 30
0.0
 10
5.267473594205461
 20
8.40766383657213
 30
0.0
 10
5.26786625985705
 20
8.428867781758198
 30
0.0
 10
5.268258925508638
 20
8.450041521894124
 30
0.0
 10
5.26786625985705
 20
8.477014631653585
 30
0.0
 10
5.262459555885116
 20
8.491647300379643
 30
0.0
 10
5.257049495796485
 20
8.506266544638972
 30
0.0
 10
5.247742984242045
 20
8.554050933932899
 30
0.0
 10
5.238500238904533
 20
8.578335794231456
 30
0.0
 10
5.229257783558396
 20
8.602590449479899
 30
0.0
 10
5.217034516617432
 20
8.631479901863801
 30
0.0
 10
5.215853163545968
 20
8.649606288054036
 30
0.0
 10
5.214641605424376
 20
8.667729318127587
 30
0.0
 10
5.197663011138804
 20
8.76751337926588
 30
0.0
 10
5.199237029861857
 20
8.784079171199778
 30
0.0
  0
SPLINE
  5
C8
330
70
100
AcDbEntity
  8
Layer 1
 62
   250
420
  2301728
370
    18
100
AcDbSpline
210
0.0
220
0.0
230
1.0
 70
     8
 71
     3
 72
    50
 73
    46
 74
     0
 42
0.0000000001
 43
0.0000000001
 40
0.0
 40
0.0
 40
0.0
 40
0.0
 40
1.0
 40
1.0
 40
1.0
 40
2.0
 40
2.0
 40
2.0
 40
3.0
 40
3.0
 40
3.0
 40
4.0
 40
4.0
 40
4.0
 40
5.0
 40
5.0
 40
5.0
 40
6.0
 40
6.0
 40
6.0
 40
7.0
 40
7.0
 40
7.0
 40
8.0
 40
8.0
 40
8.0
 40
9.0
 40
9.0
 40
9.0
 40
10.0
 40
10.0
 40
10.0
 40
11.0
 40
11.0
 40
11.0
 40
12.0
 40
12.0
 40
12.0
 40
13.0
 40
13.0
 40
13.0
 40
14.0
 40
14.0
 40
14.0
 40
15.0
 40
15.0
 40
15.0
 40
15.0
 10
5.121757720180741
 20
8.752518249938361
 30
0.0
 10
5.122543051483944
 20
8.729770491079369
 30
0.0
 10
5.124902401510174
 20
8.701978488849919
 30
0.0
 10
5.123788170772336
 20
8.683492998174894
 30
0.0
 10
5.122610173817545
 20
8.665010863616556
 30
0.0
 10
5.11789147376506
 20
8.641524759087904
 30
0.0
 10
5.120251111028943
 20
8.623401729014352
 30
0.0
 10
5.122610173817545
 20
8.605295479524203
 30
0.0
 10
5.124902401510174
 20
8.575976444205213
 30
0.0
 10
5.132574484241305
 20
8.560212764157906
 30
0.0
 10
5.140306977072693
 20
8.544449084110599
 30
0.0
 10
5.148435491672342
 20
8.528960605631077
 30
0.0
 10
5.155352448150424
 20
8.504346845897845
 30
0.0
 10
5.16226604851181
 20
8.479719661697901
 30
0.0
 10
5.164954586339692
 20
8.471967032166439
 30
0.0
 10
5.166135651044188
 20
8.444618037338777
 30
0.0
 10
5.167249881782051
 20
8.417316028144643
 30
0.0
 10
5.178851977145793
 20
8.372642759013336
 30
0.0
 10
5.176556393336491
 20
8.349522471202842
 30
0.0
 10
5.174197043310237
 20
8.326415607859063
 30
0.0
 10
5.173412000587682
 20
8.283168688316891
 30
0.0
 10
5.17691549782128
 20
8.264340873740467
 30
0.0
 10
5.180422639752173
 20
8.245509703047382
 30
0.0
 10
5.183963342849867
 20
8.195433514197045
 30
0.0
 10
5.193927653273653
 20
8.162657250561133
 30
0.0
 10
5.203891963697413
 20
8.129931756811654
 30
0.0
 10
5.210772002891998
 20
8.107905988964009
 30
0.0
 10
5.211560690311872
 20
8.081341899514452
 30
0.0
 10
5.212379582781876
 20
8.054812221740625
 30
0.0
 10
5.209658061650416
 20
8.03390361429423
 30
0.0
 10
5.217000955450632
 20
8.017008498870065
 30
0.0
 10
5.224277016413477
 20
8.000080246334668
 30
0.0
 10
5.238171339469873
 20
7.963847610654283
 30
0.0
 10
5.240107818794386
 20
7.933793585782318
 30
0.0
 10
5.242040942002252
 20
7.903769765960468
 30
0.0
 10
5.238960026889748
 20
7.884777501666727
 30
0.0
 10
5.243940504043292
 20
7.864835456352452
 30
0.0
 10
5.248954542363637
 20
7.844826288704577
 30
0.0
 10
5.261345325147254
 20
7.789369816679519
 30
0.0
 10
5.26596669781601
 20
7.767806767008677
 30
0.0
 10
5.270487386984364
 20
7.746190019470948
 30
0.0
 10
5.279008567235601
 20
7.718069117806812
 30
0.0
 10
5.280844363059713
 20
7.696865172620769
 30
0.0
 10
5.282811047434379
 20
7.675691432484831
 30
0.0
 10
5.297823249068819
 20
7.611683575158394
 30
0.0
 10
5.297823249068819
 20
7.59323164565017
 30
0.0
  0
SPLINE
  5
C9
330
70
100
AcDbEntity
  8
Layer 1
 62
   250
420
  2301728
370
    18
100
AcDbSpline
210
0.0
220
0.0
230
1.0
 70
     8
 71
     3
 72
    44
 73
    40
 74
     0
 42
0.0000000001
 43
0.0000000001
 40
0.0
 40
0.0
 40
0.0
 40
0.0
 40
1.0
 40
1.0
 40
1.0
 40
2.0
 40
2.0
 40
2.0
 40
3.0
 40
3.0
 40
3.0
 40
4.0
 40
4.0
 40
4.0
 40
5.0
 40
5.0
 40
5.0
 40
6.0
 40
6.0
 40
6.0
 40
7.0
 40
7.0
 40
7.0
 40
8.0
 40
8.0
 40
8.0
 40
9.0
 40
9.0
 40
9.0
 40
10.0
 40
10.0
 40
10.0
 40
11.0
 40
11.0
 40
11.0
 40
12.0
 40
12.0
 40
12.0
 40
13.0
 40
13.0
 40
13.0
 40
13.0
 10
5.050900028709848
 20
8.723937560289034
 30
0.0
 10
5.05476627512553
 20
8.69388397614519
 30
0.0
 10
5.057125625151784
 20
8.687409586340789
 30
0.0
 10
5.054373609473941
 20
8.647293923661322
 30
0.0
 10
5.051685645518571
 20
8.607211822148656
 30
0.0
 10
5.048638006067347
 20
8.59715018434114
 30
0.0
 10
5.052504252483029
 20
8.575600559137026
 30
0.0
 10
5.056340293848607
 20
8.554050933932899
 30
0.0
 10
5.061975213754799
 20
8.515952297378285
 30
0.0
 10
5.056665837166595
 20
8.48050499300109
 30
0.0
 10
5.051326255528238
 20
8.445057688623894
 30
0.0
 10
5.050997356093577
 20
8.419578050787157
 30
0.0
 10
5.05207802566464
 20
8.398404310651232
 30
0.0
 10
5.053323144953006
 20
8.377217146048577
 30
0.0
 10
5.061975213754799
 20
8.330969858194217
 30
0.0
 10
5.068204166313408
 20
8.300164063185864
 30
0.0
 10
5.074429762755344
 20
8.269321350894022
 30
0.0
 10
5.07947736224249
 20
8.265864550713331
 30
0.0
 10
5.082101845486477
 20
8.23546484582328
 30
0.0
 10
5.08485386116432
 20
8.205051716466515
 30
0.0
 10
5.09370422741727
 20
8.156841100354199
 30
0.0
 10
5.097929291750713
 20
8.122951034116656
 30
0.0
 10
5.102225121101481
 20
8.089044612744322
 30
0.0
 10
5.097929291750713
 20
8.077935866251941
 30
0.0
 10
5.104453582577181
 20
8.052106767112478
 30
0.0
 10
5.111071844670706
 20
8.026247888090868
 30
0.0
 10
5.129426446795201
 20
7.922993602305155
 30
0.0
 10
5.137554961394875
 20
7.899510853893186
 30
0.0
 10
5.145747242211452
 20
7.876028105481205
 30
0.0
 10
5.15456376073055
 20
7.832093182019573
 30
0.0
 10
5.16036648647077
 20
7.805103291676712
 30
0.0
 10
5.166135651044188
 20
7.778130181917238
 30
0.0
 10
5.182980000662559
 20
7.730459900590441
 30
0.0
 10
5.184587869415306
 20
7.700355533968263
 30
0.0
 10
5.186191804325592
 20
7.670268362798916
 30
0.0
 10
5.196548780400942
 20
7.628742716244333
 30
0.0
 10
5.20081104858491
 20
7.609847779334282
 30
0.0
 10
5.205006194435276
 20
7.590922637374141
 30
0.0
 10
5.220081870563135
 20
7.564815405718187
 30
0.0
 10
5.220081870563135
 20
7.55055862206033
 30
0.0
  0
SPLINE
  5
CA
330
70
100
AcDbEntity
  8
Layer 1
 62
   250
420
  2301728
370
    18
100
AcDbSpline
210
0.0
220
0.0
230
1.0
 70
     8
 71
     3
 72
    41
 73
    37
 74
     0
 42
0.0000000001
 43
0.0000000001
 40
0.0
 40
0.0
 40
0.0
 40
0.0
 40
1.0
 40
1.0
 40
1.0
 40
2.0
 40
2.0
 40
2.0
 40
3.0
 40
3.0
 40
3.0
 40
4.0
 40
4.0
 40
4.0
 40
5.0
 40
5.0
 40
5.0
 40
6.0
 40
6.0
 40
6.0
 40
7.0
 40
7.0
 40
7.0
 40
8.0
 40
8.0
 40
8.0
 40
9.0
 40
9.0
 40
9.0
 40
10.0
 40
10.0
 40
10.0
 40
11.0
 40
11.0
 40
11.0
 40
12.0
 40
12.0
 40
12.0
 40
12.0
 10
5.144109457271471
 20
7.50960728632746
 30
0.0
 10
5.1367998351418
 20
7.534647684322471
 30
0.0
 10
5.128312216057363
 20
7.551558744831051
 30
0.0
 10
5.127919550405749
 20
7.579743412712105
 30
0.0
 10
5.127590650971089
 20
7.607897875543029
 30
0.0
 10
5.130312461598805
 20
7.624040796775211
 30
0.0
 10
5.122610173817545
 20
7.640982473777309
 30
0.0
 10
5.114941447203086
 20
7.657994629229682
 30
0.0
 10
5.109105160296065
 20
7.697734406840961
 30
0.0
 10
5.103339351839344
 20
7.719626355946476
 30
0.0
 10
5.097570187265924
 20
7.741552282889023
 30
0.0
 10
5.085900969568556
 20
7.761953699518256
 30
0.0
 10
5.083672508092856
 20
7.790500828000782
 30
0.0
 10
5.081346719233402
 20
7.819014395316495
 30
0.0
 10
5.076396447129986
 20
7.85477381854495
 30
0.0
 10
5.06754972356076
 20
7.874437306174753
 30
0.0
 10
5.058568755324308
 20
7.894134354971356
 30
0.0
 10
5.052014259447711
 20
7.928729205711761
 30
0.0
 10
5.048997110552136
 20
7.955373416036561
 30
0.0
 10
5.045916195439631
 20
7.981953860144433
 30
0.0
 10
5.04408039961552
 20
7.991589271133534
 30
0.0
 10
5.039754365214624
 20
8.012779791852873
 30
0.0
 10
5.035495453147328
 20
8.033983737038926
 30
0.0
 10
5.029333907863247
 20
8.071364164623963
 30
0.0
 10
5.027826726532869
 20
8.091749217340026
 30
0.0
 10
5.026286268976617
 20
8.112168257255664
 30
0.0
 10
5.021990439625849
 20
8.140631056788404
 30
0.0
 10
5.018909524513345
 20
8.155693308449535
 30
0.0
 10
5.015862170567642
 20
8.170735423410581
 30
0.0
 10
5.010519232812637
 20
8.204608709064725
 30
0.0
 10
5.008948570206257
 20
8.221929627251711
 30
0.0
 10
5.007374551483204
 20
8.239300887188846
 30
0.0
 10
4.998917137448895
 20
8.280547561189576
 30
0.0
 10
4.995806301380146
 20
8.29323075673119
 30
0.0
 10
4.992755307223887
 20
8.305963432809397
 30
0.0
 10
4.978105857914417
 20
8.336460465083165
 30
0.0
 10
4.977286965444439
 20
8.355288279659577
 30
0.0
  0
SPLINE
  5
CB
330
70
100
AcDbEntity
  8
Layer 1
 62
   250
420
  2301728
370
    18
100
AcDbSpline
210
0.0
220
0.0
230
1.0
 70
     8
 71
     3
 72
    23
 73
    19
 74
     0
 42
0.0000000001
 43
0.0000000001
 40
0.0
 40
0.0
 40
0.0
 40
0.0
 40
1.0
 40
1.0
 40
1.0
 40
2.0
 40
2.0
 40
2.0
 40
3.0
 40
3.0
 40
3.0
 40
4.0
 40
4.0
 40
4.0
 40
5.0
 40
5.0
 40
5.0
 40
6.0
 40
6.0
 40
6.0
 40
6.0
 10
4.976991627176579
 20
7.942281626607837
 30
0.0
 10
4.987053264984069
 20
7.92225525663548
 30
0.0
 10
4.99511801336679
 20
7.91332463014924
 30
0.0
 10
5.003145844466037
 20
7.880223251331572
 30
0.0
 10
5.011240797898886
 20
7.847135716318107
 30
0.0
 10
5.016288397386056
 20
7.82293098348239
 30
0.0
 10
5.021272230656273
 20
7.790893493652371
 30
0.0
 10
5.026286268976617
 20
7.758872784405753
 30
0.0
 10
5.032021872383236
 20
7.71420287139113
 30
0.0
 10
5.035495453147328
 20
7.684182407685966
 30
0.0
 10
5.038969033911421
 20
7.654128382813988
 30
0.0
 10
5.037069471870381
 20
7.657618744161482
 30
0.0
 10
5.044768403534968
 20
7.632169311374872
 30
0.0
 10
5.052504252483029
 20
7.606703511268518
 30
0.0
 10
5.058239855889647
 20
7.575894359365153
 30
0.0
 10
5.06289507551393
 20
7.545839922007846
 30
0.0
 10
5.06754972356076
 20
7.515819869270406
 30
0.0
 10
5.07744691165092
 20
7.49420271076494
 30
0.0
 10
5.07744691165092
 20
7.473032326745699
 30
0.0
  0
SPLINE
  5
CC
330
70
100
AcDbEntity
  8
Layer 1
 62
   250
420
  2301728
370
    18
100
AcDbSpline
210
0.0
220
0.0
230
1.0
 70
     8
 71
     3
 72
    11
 73
     7
 74
     0
 42
0.0000000001
 43
0.0000000001
 40
0.0
 40
0.0
 40
0.0
 40
0.0
 40
1.0
 40
1.0
 40
1.0
 40
2.0
 40
2.0
 40
2.0
 40
2.0
 10
4.97735408777804
 20
7.595147988274624
 30
0.0
 10
4.986200811347266
 20
7.575894359365153
 30
0.0
 10
4.997477363393045
 20
7.563587067013208
 30
0.0
 10
5.002065174895
 20
7.538563861044975
 30
0.0
 10
5.006589220180027
 20
7.513523874493355
 30
0.0
 10
5.014684173612875
 20
7.463739239657974
 30
0.0
 10
5.018909524513345
 20
7.441421063734069
 30
0.0
  0
SPLINE
  5
CD
330
70
100
AcDbEntity
  8
Layer 1
 62
   250
420
  2301728
370
    40
100
AcDbSpline
210
0.0
220
0.0
230
1.0
 70
     9
 71
     3
 72
    23
 73
    19
 74
     0
 42
0.0000000001
 43
0.0000000001
 40
0.0
 40
0.0
 40
0.0
 40
0.0
 40
1.0
 40
1.0
 40
1.0
 40
2.0
 40
2.0
 40
2.0
 40
3.0
 40
3.0
 40
3.0
 40
4.0
 40
4.0
 40
4.0
 40
5.0
 40
5.0
 40
5.0
 40
6.0
 40
6.0
 40
6.0
 40
6.0
 10
4.33507054585473
 20
7.87589763699475
 30
0.0
 10
4.340937037811878
 20
7.871373171645649
 30
0.0
 10
4.360009848905924
 20
7.852495015319036
 30
0.0
 10
4.367678575520383
 20
7.84612174974317
 30
0.0
 10
4.367943976970915
 20
7.845890177692265
 30
0.0
 10
4.368104802338797
 20
7.845873397108839
 30
0.0
 10
4.368400140606657
 20
7.845661961757969
 30
0.0
 10
4.368400140606657
 20
7.859294507713305
 30
0.0
 10
4.368400140606657
 20
7.881105910018479
 30
0.0
 10
4.368400140606657
 20
7.888483074863769
 30
0.0
 10
4.368400140606657
 20
7.898148691147146
 30
0.0
 10
4.362436321265805
 20
7.893365804251579
 30
0.0
 10
4.358144116016875
 20
7.890774882174392
 30
0.0
 10
4.357650498879694
 20
7.89049674492282
 30
0.0
 10
4.343689053489722
 20
7.882549040191014
 30
0.0
 10
4.333922753950067
 20
7.877058433302054
 30
0.0
 10
4.334315686984912
 20
7.876665767650465
 30
0.0
 10
4.334577196702714
 20
7.876336868215806
 30
0.0
 10
4.33507054585473
 20
7.87589763699475
 30
0.0
  0
SPLINE
  5
CE
330
70
100
AcDbEntity
  8
Layer 1
 62
   250
420
  2301728
370
    40
100
AcDbSpline
210
0.0
220
0.0
230
1.0
 70
     9
 71
     3
 72
    23
 73
    19
 74
     0
 42
0.0000000001
 43
0.0000000001
 40
0.0
 40
0.0
 40
0.0
 40
0.0
 40
1.0
 40
1.0
 40
1.0
 40
2.0
 40
2.0
 40
2.0
 40
3.0
 40
3.0
 40
3.0
 40
4.0
 40
4.0
 40
4.0
 40
5.0
 40
5.0
 40
5.0
 40
6.0
 40
6.0
 40
6.0
 40
6.0
 10
4.34467239567703
 20
7.632051847291058
 30
0.0
 10
4.350471765300577
 20
7.627531158122716
 30
0.0
 10
4.36951437134452
 20
7.608636221212691
 30
0.0
 10
4.37725022029258
 20
7.602246175053424
 30
0.0
 10
4.377511997393639
 20
7.602031383585893
 30
0.0
 10
4.377643154421952
 20
7.60199782241908
 30
0.0
 10
4.377971785378829
 20
7.601786387068234
 30
0.0
 10
4.377971785378829
 20
7.615452494190359
 30
0.0
 10
4.377971785378829
 20
7.637247115912146
 30
0.0
 10
4.377971785378829
 20
7.644637284842133
 30
0.0
 10
4.377971785378829
 20
7.65425968582954
 30
0.0
 10
4.371974404871151
 20
7.649490229561832
 30
0.0
 10
4.367678575520383
 20
7.646916088068046
 30
0.0
 10
4.367222143651866
 20
7.646654310966987
 30
0.0
 10
4.353260698261894
 20
7.638690246084668
 30
0.0
 10
4.343427276388638
 20
7.63318327254491
 30
0.0
 10
4.343917269423956
 20
7.63280697354412
 30
0.0
 10
4.344081986771243
 20
7.632447869059332
 30
0.0
 10
4.34467239567703
 20
7.632051847291058
 30
0.0
  0
SPLINE
  5
CF
330
70
100
AcDbEntity
  8
Layer 1
 62
   250
420
  2301728
370
    40
100
AcDbSpline
210
0.0
220
0.0
230
1.0
 70
     9
 71
     3
 72
    17
 73
    13
 74
     0
 42
0.0000000001
 43
0.0000000001
 40
0.0
 40
0.0
 40
0.0
 40
0.0
 40
1.0
 40
1.0
 40
1.0
 40
2.0
 40
2.0
 40
2.0
 40
3.0
 40
3.0
 40
3.0
 40
4.0
 40
4.0
 40
4.0
 40
4.0
 10
4.299901799161994
 20
7.667499151668253
 30
0.0
 10
4.302066494420791
 20
7.672036621419995
 30
0.0
 10
4.303311613709158
 20
7.676923127306495
 30
0.0
 10
4.303311613709158
 20
7.681819701543038
 30
0.0
 10
4.303311613709158
 20
7.743454784376504
 30
0.0
 10
4.239203337862818
 20
7.745387907584358
 30
0.0
 10
4.239203337862818
 20
7.686998189580751
 30
0.0
 10
4.239203337862818
 20
7.678692215879246
 30
0.0
 10
4.241595984075376
 20
7.670858624465217
 30
0.0
 10
4.245364903107327
 20
7.66432090917202
 30
0.0
 10
4.263065328062503
 20
7.668532835605774
 30
0.0
 10
4.284104557947886
 20
7.670563286197356
 30
0.0
 10
4.299901799161994
 20
7.667499151668253
 30
0.0
  0
SPLINE
  5
D0
330
70
100
AcDbEntity
  8
Layer 1
 62
   250
420
  2301728
370
    40
100
AcDbSpline
210
0.0
220
0.0
230
1.0
 70
     9
 71
     3
 72
    17
 73
    13
 74
     0
 42
0.0000000001
 43
0.0000000001
 40
0.0
 40
0.0
 40
0.0
 40
0.0
 40
1.0
 40
1.0
 40
1.0
 40
2.0
 40
2.0
 40
2.0
 40
3.0
 40
3.0
 40
3.0
 40
4.0
 40
4.0
 40
4.0
 40
4.0
 10
4.114694500160352
 20
8.178766610626514
 30
0.0
 10
4.10735131686388
 20
8.170342757758993
 30
0.0
 10
4.09679968602106
 20
8.158348423943026
 30
0.0
 10
4.092701867554435
 20
8.154364286244142
 30
0.0
 10
4.086603803546355
 20
8.148464233120193
 30
0.0
 10
4.092701867554435
 20
8.145910228326505
 30
0.0
 10
4.096897013404789
 20
8.142698424663471
 30
0.0
 10
4.099585262865704
 20
8.140631056788404
 30
0.0
 10
4.107448644247609
 20
8.135224779431684
 30
0.0
 10
4.114530050443022
 20
8.130341203046656
 30
0.0
 10
4.114530050443022
 20
8.135274694566671
 30
0.0
 10
4.114660938993552
 20
8.162999574462521
 30
0.0
 10
4.114694500160352
 20
8.178766610626514
 30
0.0
  0
SPLINE
  5
D1
330
70
100
AcDbEntity
  8
Layer 1
 62
   250
420
  2301728
370
    40
100
AcDbSpline
210
0.0
220
0.0
230
1.0
 70
    11
 71
     3
 72
    44
 73
    40
 74
     0
 42
0.0000000001
 43
0.0000000001
 40
0.0
 40
0.0
 40
0.0
 40
0.0
 40
1.0
 40
1.0
 40
1.0
 40
2.0
 40
2.0
 40
2.0
 40
3.0
 40
3.0
 40
3.0
 40
4.0
 40
4.0
 40
4.0
 40
5.0
 40
5.0
 40
5.0
 40
6.0
 40
6.0
 40
6.0
 40
7.0
 40
7.0
 40
7.0
 40
8.0
 40
8.0
 40
8.0
 40
9.0
 40
9.0
 40
9.0
 40
10.0
 40
10.0
 40
10.0
 40
11.0
 40
11.0
 40
11.0
 40
12.0
 40
12.0
 40
12.0
 40
13.0
 40
13.0
 40
13.0
 40
13.0
 10
3.819312602778243
 20
6.921075309155639
 30
0.0
 10
3.819312602778243
 20
6.921075309155639
 30
0.0
 10
3.819312602778243
 20
6.980673229164166
 30
0.0
 10
3.819312602778243
 20
6.980673229164166
 30
0.0
 10
3.819312602778243
 20
6.980673229164166
 30
0.0
 10
3.992656029315071
 20
7.337982191530941
 30
0.0
 10
3.992656029315071
 20
7.337982191530941
 30
0.0
 10
3.992656029315071
 20
7.337982191530941
 30
0.0
 10
3.992656029315071
 20
8.570797956167528
 30
0.0
 10
3.992656029315071
 20
8.570797956167528
 30
0.0
 10
3.992656029315071
 20
8.570797956167528
 30
0.0
 10
4.235370387633439
 20
8.669991340770099
 30
0.0
 10
4.252708086403799
 20
8.67674384753084
 30
0.0
 10
4.270075990224287
 20
8.683492998174894
 30
0.0
 10
4.286430346807315
 20
8.686379258519966
 30
0.0
 10
4.297901820083956
 20
8.681559874967053
 30
0.0
 10
4.30953721015112
 20
8.67674384753084
 30
0.0
 10
4.538696213197781
 20
8.593905257713787
 30
0.0
 10
4.538696213197781
 20
8.593905257713787
 30
0.0
 10
4.538696213197781
 20
8.593905257713787
 30
0.0
 10
4.538696213197781
 20
7.349567506311295
 30
0.0
 10
4.538696213197781
 20
7.349567506311295
 30
0.0
 10
4.538696213197781
 20
7.349567506311295
 30
0.0
 10
4.514639840772107
 20
7.328347186773637
 30
0.0
 10
4.514639840772107
 20
7.328347186773637
 30
0.0
 10
4.514639840772107
 20
7.328347186773637
 30
0.0
 10
4.270075990224287
 20
7.14823406666086
 30
0.0
 10
4.270075990224287
 20
7.14823406666086
 30
0.0
 10
4.270075990224287
 20
7.14823406666086
 30
0.0
 10
4.270075990224287
 20
7.126097121037698
 30
0.0
 10
4.270075990224287
 20
7.126097121037698
 30
0.0
 10
4.270075990224287
 20
7.126097121037698
 30
0.0
 10
3.87612830205886
 20
6.913258913407237
 30
0.0
 10
3.853971219735563
 20
6.90072046148969
 30
0.0
 10
3.834468825706418
 20
6.889772808878596
 30
0.0
 10
3.818346295523092
 20
6.893018173708431
 30
0.0
 10
3.788469890486402
 20
6.905556625625977
 30
0.0
 10
3.799075219196108
 20
6.91046998044592
 30
0.0
 10
3.819312602778243
 20
6.921075309155639
 30
0.0
 10
3.819312602778243
 20
6.921075309155639
 30
0.0
  0
HATCH
  5
D2
330
70
100
AcDbEntity
  8
Layer 1
 62
     9
420
 12373463
440
 33554687
100
AcDbHatch
 10
0.0
 20
0.0
 30
0.0
210
0.0
220
0.0
230
1.0
  2
SOLID
 70
     1
 71
     1
 91
        5
 92
        1
 93
        1
 72
     4
 94
        3
 73
     0
 74
     0
 95
       23
 96
       19
 40
0.0
 40
0.0
 40
0.0
 40
0.0
 40
1.0
 40
1.0
 40
1.0
 40
2.0
 40
2.0
 40
2.0
 40
3.0
 40
3.0
 40
3.0
 40
4.0
 40
4.0
 40
4.0
 40
5.0
 40
5.0
 40
5.0
 40
6.0
 40
6.0
 40
6.0
 40
6.0
 10
4.33507054585473
 20
7.87589763699475
 10
4.340937037811878
 20
7.871373171645649
 10
4.360009848905924
 20
7.852495015319036
 10
4.367678575520383
 20
7.84612174974317
 10
4.367943976970915
 20
7.845890177692265
 10
4.368104802338797
 20
7.845873397108839
 10
4.368400140606657
 20
7.845661961757969
 10
4.368400140606657
 20
7.859294507713305
 10
4.368400140606657
 20
7.881105910018479
 10
4.368400140606657
 20
7.888483074863769
 10
4.368400140606657
 20
7.898148691147146
 10
4.362436321265805
 20
7.893365804251579
 10
4.358144116016875
 20
7.890774882174392
 10
4.357650498879694
 20
7.89049674492282
 10
4.343689053489722
 20
7.882549040191014
 10
4.333922753950067
 20
7.877058433302054
 10
4.334315686984912
 20
7.876665767650465
 10
4.334577196702714
 20
7.876336868215806
 10
4.33507054585473
 20
7.87589763699475
 97
        0
 97
        1
330
CD
 92
        1
 93
        1
 72
     4
 94
        3
 73
     0
 74
     0
 95
       23
 96
       19
 40
0.0
 40
0.0
 40
0.0
 40
0.0
 40
1.0
 40
1.0
 40
1.0
 40
2.0
 40
2.0
 40
2.0
 40
3.0
 40
3.0
 40
3.0
 40
4.0
 40
4.0
 40
4.0
 40
5.0
 40
5.0
 40
5.0
 40
6.0
 40
6.0
 40
6.0
 40
6.0
 10
4.34467239567703
 20
7.632051847291058
 10
4.350471765300577
 20
7.627531158122716
 10
4.36951437134452
 20
7.608636221212691
 10
4.37725022029258
 20
7.602246175053424
 10
4.377511997393639
 20
7.602031383585893
 10
4.377643154421952
 20
7.60199782241908
 10
4.377971785378829
 20
7.601786387068234
 10
4.377971785378829
 20
7.615452494190359
 10
4.377971785378829
 20
7.637247115912146
 10
4.377971785378829
 20
7.644637284842133
 10
4.377971785378829
 20
7.65425968582954
 10
4.371974404871151
 20
7.649490229561832
 10
4.367678575520383
 20
7.646916088068046
 10
4.367222143651866
 20
7.646654310966987
 10
4.353260698261894
 20
7.638690246084668
 10
4.343427276388638
 20
7.63318327254491
 10
4.343917269423956
 20
7.63280697354412
 10
4.344081986771243
 20
7.632447869059332
 10
4.34467239567703
 20
7.632051847291058
 97
        0
 97
        1
330
CE
 92
        1
 93
        1
 72
     4
 94
        3
 73
     0
 74
     0
 95
       17
 96
       13
 40
0.0
 40
0.0
 40
0.0
 40
0.0
 40
1.0
 40
1.0
 40
1.0
 40
2.0
 40
2.0
 40
2.0
 40
3.0
 40
3.0
 40
3.0
 40
4.0
 40
4.0
 40
4.0
 40
4.0
 10
4.299901799161994
 20
7.667499151668253
 10
4.302066494420791
 20
7.672036621419995
 10
4.303311613709158
 20
7.676923127306495
 10
4.303311613709158
 20
7.681819701543038
 10
4.303311613709158
 20
7.743454784376504
 10
4.239203337862818
 20
7.745387907584358
 10
4.239203337862818
 20
7.686998189580751
 10
4.239203337862818
 20
7.678692215879246
 10
4.241595984075376
 20
7.670858624465217
 10
4.245364903107327
 20
7.66432090917202
 10
4.263065328062503
 20
7.668532835605774
 10
4.284104557947886
 20
7.670563286197356
 10
4.299901799161994
 20
7.667499151668253
 97
        0
 97
        1
330
CF
 92
        1
 93
        1
 72
     4
 94
        3
 73
     0
 74
     0
 95
       17
 96
       13
 40
0.0
 40
0.0
 40
0.0
 40
0.0
 40
1.0
 40
1.0
 40
1.0
 40
2.0
 40
2.0
 40
2.0
 40
3.0
 40
3.0
 40
3.0
 40
4.0
 40
4.0
 40
4.0
 40
4.0
 10
4.114694500160352
 20
8.178766610626514
 10
4.10735131686388
 20
8.170342757758993
 10
4.09679968602106
 20
8.158348423943026
 10
4.092701867554435
 20
8.154364286244142
 10
4.086603803546355
 20
8.148464233120193
 10
4.092701867554435
 20
8.145910228326505
 10
4.096897013404789
 20
8.142698424663471
 10
4.099585262865704
 20
8.140631056788404
 10
4.107448644247609
 20
8.135224779431684
 10
4.114530050443022
 20
8.130341203046656
 10
4.114530050443022
 20
8.135274694566671
 10
4.114660938993552
 20
8.162999574462521
 10
4.114694500160352
 20
8.178766610626514
 97
        0
 97
        1
330
D0
 92
        1
 93
        1
 72
     4
 94
        3
 73
     0
 74
     0
 95
       44
 96
       40
 40
0.0
 40
0.0
 40
0.0
 40
0.0
 40
1.0
 40
1.0
 40
1.0
 40
2.0
 40
2.0
 40
2.0
 40
3.0
 40
3.0
 40
3.0
 40
4.0
 40
4.0
 40
4.0
 40
5.0
 40
5.0
 40
5.0
 40
6.0
 40
6.0
 40
6.0
 40
7.0
 40
7.0
 40
7.0
 40
8.0
 40
8.0
 40
8.0
 40
9.0
 40
9.0
 40
9.0
 40
10.0
 40
10.0
 40
10.0
 40
11.0
 40
11.0
 40
11.0
 40
12.0
 40
12.0
 40
12.0
 40
13.0
 40
13.0
 40
13.0
 40
13.0
 10
3.819312602778243
 20
6.921075309155639
 10
3.819312602778243
 20
6.921075309155639
 10
3.819312602778243
 20
6.980673229164166
 10
3.819312602778243
 20
6.980673229164166
 10
3.819312602778243
 20
6.980673229164166
 10
3.992656029315071
 20
7.337982191530941
 10
3.992656029315071
 20
7.337982191530941
 10
3.992656029315071
 20
7.337982191530941
 10
3.992656029315071
 20
8.570797956167528
 10
3.992656029315071
 20
8.570797956167528
 10
3.992656029315071
 20
8.570797956167528
 10
4.235370387633439
 20
8.669991340770099
 10
4.252708086403799
 20
8.67674384753084
 10
4.270075990224287
 20
8.683492998174894
 10
4.286430346807315
 20
8.686379258519966
 10
4.297901820083956
 20
8.681559874967053
 10
4.30953721015112
 20
8.67674384753084
 10
4.538696213197781
 20
8.593905257713787
 10
4.538696213197781
 20
8.593905257713787
 10
4.538696213197781
 20
8.593905257713787
 10
4.538696213197781
 20
7.349567506311295
 10
4.538696213197781
 20
7.349567506311295
 10
4.538696213197781
 20
7.349567506311295
 10
4.514639840772107
 20
7.328347186773637
 10
4.514639840772107
 20
7.328347186773637
 10
4.514639840772107
 20
7.328347186773637
 10
4.270075990224287
 20
7.14823406666086
 10
4.270075990224287
 20
7.14823406666086
 10
4.270075990224287
 20
7.14823406666086
 10
4.270075990224287
 20
7.126097121037698
 10
4.270075990224287
 20
7.126097121037698
 10
4.270075990224287
 20
7.126097121037698
 10
3.87612830205886
 20
6.913258913407237
 10
3.853971219735563
 20
6.90072046148969
 10
3.834468825706418
 20
6.889772808878596
 10
3.818346295523092
 20
6.893018173708431
 10
3.788469890486402
 20
6.905556625625977
 10
3.799075219196108
 20
6.91046998044592
 10
3.819312602778243
 20
6.921075309155639
 10
3.819312602778243
 20
6.921075309155639
 97
        0
 97
        1
330
D1
 75
     2
 76
     1
 98
        1
 10
0.0
 20
0.0
450
        0
451
        0
460
0.0
461
0.0
452
        0
462
0.0
453
        0
470

  0
SPLINE
  5
D3
330
70
100
AcDbEntity
  8
Layer 1
 62
   250
420
  2301728
370
    25
100
AcDbSpline
210
0.0
220
0.0
230
1.0
 70
     8
 71
     3
 72
    29
 73
    25
 74
     0
 42
0.0000000001
 43
0.0000000001
 40
0.0
 40
0.0
 40
0.0
 40
0.0
 40
1.0
 40
1.0
 40
1.0
 40
2.0
 40
2.0
 40
2.0
 40
3.0
 40
3.0
 40
3.0
 40
4.0
 40
4.0
 40
4.0
 40
5.0
 40
5.0
 40
5.0
 40
6.0
 40
6.0
 40
6.0
 40
7.0
 40
7.0
 40
7.0
 40
8.0
 40
8.0
 40
8.0
 40
8.0
 10
3.827719675062363
 20
6.894166360876523
 30
0.0
 10
3.835059757013128
 20
6.893380634309904
 30
0.0
 10
3.844171359029132
 20
6.901754145427225
 30
0.0
 10
3.844171359029132
 20
6.911815783234715
 30
0.0
 10
3.844171359029132
 20
6.921860640458817
 30
0.0
 10
3.844171359029132
 20
6.974709409823301
 30
0.0
 10
3.844171359029132
 20
6.974709409823301
 30
0.0
 10
3.844171359029132
 20
6.974709409823301
 30
0.0
 10
4.016138777727038
 20
7.329494572446492
 30
0.0
 10
4.016138777727038
 20
7.329494572446492
 30
0.0
 10
4.016138777727038
 20
7.329494572446492
 30
0.0
 10
4.016138777727038
 20
8.556098165107869
 30
0.0
 10
4.016138777727038
 20
8.556098165107869
 30
0.0
 10
4.016138777727038
 20
8.556098165107869
 30
0.0
 10
4.244250672369477
 20
8.64701536597685
 30
0.0
 10
4.255198324980571
 20
8.651227732061164
 30
0.0
 10
4.266145977591678
 20
8.655422878017512
 30
0.0
 10
4.277157396419675
 20
8.663846731097843
 30
0.0
 10
4.290528165273952
 20
8.659634364694738
 30
0.0
 10
4.303966056461831
 20
8.655422878017512
 30
0.0
 10
4.513659582762859
 20
8.578010250913468
 30
0.0
 10
4.513659582762859
 20
8.578010250913468
 30
0.0
 10
4.513659582762859
 20
8.578010250913468
 30
0.0
 10
4.513659582762859
 20
7.32782322633971
 30
0.0
 10
4.513659582762859
 20
7.32782322633971
 30
0.0
  0
LINE
  5
D4
330
70
100
AcDbEntity
  8
Layer 1
 62
   250
420
  2301728
370
    25
100
AcDbLine
 10
4.538696213197781
 20
8.593723589210576
 30
0.0
 11
4.513820676363492
 21
8.577943128579867
 31
0.0
  0
LINE
  5
D5
330
70
100
AcDbEntity
  8
Layer 1
 62
   250
420
  2301728
370
    25
100
AcDbLine
 10
3.992854040199214
 20
8.570734189950611
 30
0.0
 11
4.016222939991595
 21
8.556165287441482
 31
0.0
  0
LINE
  5
D6
330
70
100
AcDbEntity
  8
Layer 1
 62
   250
420
  2301728
370
    18
100
AcDbLine
 10
4.276174054232367
 20
8.632906251452924
 30
0.0
 11
4.276174054232367
 21
8.618894464312726
 31
0.0
  0
LINE
  5
D7
330
70
100
AcDbEntity
  8
Layer 1
 62
   250
420
  2301728
370
    18
100
AcDbLine
 10
4.276174054232367
 20
8.608668376787893
 30
0.0
 11
4.276174054232367
 21
7.761839591551127
 31
0.0
  0
LINE
  5
D8
330
70
100
AcDbEntity
  8
Layer 1
 62
   250
420
  2301728
370
    18
100
AcDbLine
 10
4.276174054232367
 20
7.603310064041074
 30
0.0
 11
4.276174054232367
 21
7.223535660200493
 31
0.0
  0
LINE
  5
D9
330
70
100
AcDbEntity
  8
Layer 1
 62
   250
420
  2301728
370
    18
100
AcDbLine
 10
4.276174054232367
 20
7.207426299728163
 30
0.0
 11
4.276174054232367
 21
7.18730262093609
 31
0.0
  0
LINE
  5
DA
330
70
100
AcDbEntity
  8
Layer 1
 62
   250
420
  2301728
370
    25
100
AcDbLine
 10
3.819493833078972
 20
6.98080747383138
 30
0.0
 11
3.844090812228803
 21
6.974628863022972
 31
0.0
  0
LINE
  5
DB
330
70
100
AcDbEntity
  8
Layer 1
 62
   250
420
  2301728
370
    25
100
AcDbLine
 10
3.992854040199214
 20
7.338049313864543
 30
0.0
 11
4.016024669759909
 21
7.329494572446492
 31
0.0
  0
SPLINE
  5
DC
330
70
100
AcDbEntity
  8
Layer 1
 62
   250
420
  2301728
370
    40
100
AcDbSpline
210
0.0
220
0.0
230
1.0
 70
     9
 71
     3
 72
    11
 73
     7
 74
     0
 42
0.0000000001
 43
0.0000000001
 40
0.0
 40
0.0
 40
0.0
 40
0.0
 40
1.0
 40
1.0
 40
1.0
 40
2.0
 40
2.0
 40
2.0
 40
2.0
 10
4.118987235338067
 20
7.267960173113427
 30
0.0
 10
4.118987235338067
 20
7.219601887867169
 30
0.0
 10
4.065564308077632
 20
7.219635449033981
 30
0.0
 10
4.065564308077632
 20
7.257160189636262
 30
0.0
 10
4.065564308077632
 20
7.301309904565439
 30
0.0
 10
4.118987235338067
 20
7.307995288992578
 30
0.0
 10
4.118987235338067
 20
7.267960173113427
 30
0.0
  0
HATCH
  5
DD
330
70
100
AcDbEntity
  8
Layer 1
 62
   250
420
  2301728
440
 33554687
100
AcDbHatch
 10
0.0
 20
0.0
 30
0.0
210
0.0
220
0.0
230
1.0
  2
SOLID
 70
     1
 71
     1
 91
        1
 92
        1
 93
        1
 72
     4
 94
        3
 73
     0
 74
     0
 95
       11
 96
        7
 40
0.0
 40
0.0
 40
0.0
 40
0.0
 40
1.0
 40
1.0
 40
1.0
 40
2.0
 40
2.0
 40
2.0
 40
2.0
 10
4.118987235338067
 20
7.267960173113427
 10
4.118987235338067
 20
7.219601887867169
 10
4.065564308077632
 20
7.219635449033981
 10
4.065564308077632
 20
7.257160189636262
 10
4.065564308077632
 20
7.301309904565439
 10
4.118987235338067
 20
7.307995288992578
 10
4.118987235338067
 20
7.267960173113427
 97
        0
 97
        1
330
DC
 75
     2
 76
     1
 98
        1
 10
0.0
 20
0.0
450
        0
451
        0
460
0.0
461
0.0
452
        0
462
0.0
453
        0
470

  0
SPLINE
  5
DE
330
70
100
AcDbEntity
  8
Layer 1
 62
   250
420
  2301728
370
    40
100
AcDbSpline
210
0.0
220
0.0
230
1.0
 70
     9
 71
     3
 72
    11
 73
     7
 74
     0
 42
0.0000000001
 43
0.0000000001
 40
0.0
 40
0.0
 40
0.0
 40
0.0
 40
1.0
 40
1.0
 40
1.0
 40
2.0
 40
2.0
 40
2.0
 40
2.0
 10
4.127736369579944
 20
8.500121494997364
 30
0.0
 10
4.127736369579944
 20
8.451712868000905
 30
0.0
 10
4.074380826596741
 20
8.451776634217834
 30
0.0
 10
4.074380826596741
 20
8.4892879503534
 30
0.0
 10
4.074380826596741
 20
8.533467870332691
 30
0.0
 10
4.127736369579944
 20
8.540153254759831
 30
0.0
 10
4.127736369579944
 20
8.500121494997364
 30
0.0
  0
HATCH
  5
DF
330
70
100
AcDbEntity
  8
Layer 1
 62
   250
420
  2301728
440
 33554687
100
AcDbHatch
 10
0.0
 20
0.0
 30
0.0
210
0.0
220
0.0
230
1.0
  2
SOLID
 70
     1
 71
     1
 91
        1
 92
        1
 93
        1
 72
     4
 94
        3
 73
     0
 74
     0
 95
       11
 96
        7
 40
0.0
 40
0.0
 40
0.0
 40
0.0
 40
1.0
 40
1.0
 40
1.0
 40
2.0
 40
2.0
 40
2.0
 40
2.0
 10
4.127736369579944
 20
8.500121494997364
 10
4.127736369579944
 20
8.451712868000905
 10
4.074380826596741
 20
8.451776634217834
 10
4.074380826596741
 20
8.4892879503534
 10
4.074380826596741
 20
8.533467870332691
 10
4.127736369579944
 20
8.540153254759831
 10
4.127736369579944
 20
8.500121494997364
 97
        0
 97
        1
330
DE
 75
     2
 76
     1
 98
        1
 10
0.0
 20
0.0
450
        0
451
        0
460
0.0
461
0.0
452
        0
462
0.0
453
        0
470

  0
SPLINE
  5
E0
330
70
100
AcDbEntity
  8
Layer 1
 62
   250
420
  2301728
370
    40
100
AcDbSpline
210
0.0
220
0.0
230
1.0
 70
     9
 71
     3
 72
    11
 73
     7
 74
     0
 42
0.0000000001
 43
0.0000000001
 40
0.0
 40
0.0
 40
0.0
 40
0.0
 40
1.0
 40
1.0
 40
1.0
 40
2.0
 40
2.0
 40
2.0
 40
2.0
 10
4.127179254211025
 20
7.264765150033793
 30
0.0
 10
4.127179254211025
 20
7.216406864787573
 30
0.0
 10
4.073726383844094
 20
7.216454253826188
 30
0.0
 10
4.073726383844094
 20
7.253965166556629
 30
0.0
 10
4.073726383844094
 20
7.298128305952533
 30
0.0
 10
4.127179254211025
 20
7.30481369037966
 30
0.0
 10
4.127179254211025
 20
7.264765150033793
 30
0.0
  0
HATCH
  5
E1
330
70
100
AcDbEntity
  8
Layer 1
 62
     9
420
 12373463
440
 33554687
100
AcDbHatch
 10
0.0
 20
0.0
 30
0.0
210
0.0
220
0.0
230
1.0
  2
SOLID
 70
     1
 71
     1
 91
        1
 92
        1
 93
        1
 72
     4
 94
        3
 73
     0
 74
     0
 95
       11
 96
        7
 40
0.0
 40
0.0
 40
0.0
 40
0.0
 40
1.0
 40
1.0
 40
1.0
 40
2.0
 40
2.0
 40
2.0
 40
2.0
 10
4.127179254211025
 20
7.264765150033793
 10
4.127179254211025
 20
7.216406864787573
 10
4.073726383844094
 20
7.216454253826188
 10
4.073726383844094
 20
7.253965166556629
 10
4.073726383844094
 20
7.298128305952533
 10
4.127179254211025
 20
7.30481369037966
 10
4.127179254211025
 20
7.264765150033793
 97
        0
 97
        1
330
E0
 75
     2
 76
     1
 98
        1
 10
0.0
 20
0.0
450
        0
451
        0
460
0.0
461
0.0
452
        0
462
0.0
453
        0
470

  0
SPLINE
  5
E2
330
70
100
AcDbEntity
  8
Layer 1
 62
   250
420
  2301728
370
    40
100
AcDbSpline
210
0.0
220
0.0
230
1.0
 70
     9
 71
     3
 72
    11
 73
     7
 74
     0
 42
0.0000000001
 43
0.0000000001
 40
0.0
 40
0.0
 40
0.0
 40
0.0
 40
1.0
 40
1.0
 40
1.0
 40
2.0
 40
2.0
 40
2.0
 40
2.0
 10
4.135932006513207
 20
8.496939896384446
 30
0.0
 10
4.135932006513207
 20
8.448534625504672
 30
0.0
 10
4.082573368437023
 20
8.448598391721601
 30
0.0
 10
4.082573368437023
 20
8.486076146690367
 30
0.0
 10
4.082573368437023
 20
8.53028962783647
 30
0.0
 10
4.135932006513207
 20
8.536941451096797
 30
0.0
 10
4.135932006513207
 20
8.496939896384446
 30
0.0
  0
HATCH
  5
E3
330
70
100
AcDbEntity
  8
Layer 1
 62
     9
420
 12373463
440
 33554687
100
AcDbHatch
 10
0.0
 20
0.0
 30
0.0
210
0.0
220
0.0
230
1.0
  2
SOLID
 70
     1
 71
     1
 91
        1
 92
        1
 93
        1
 72
     4
 94
        3
 73
     0
 74
     0
 95
       11
 96
        7
 40
0.0
 40
0.0
 40
0.0
 40
0.0
 40
1.0
 40
1.0
 40
1.0
 40
2.0
 40
2.0
 40
2.0
 40
2.0
 10
4.135932006513207
 20
8.496939896384446
 10
4.135932006513207
 20
8.448534625504672
 10
4.082573368437023
 20
8.448598391721601
 10
4.082573368437023
 20
8.486076146690367
 10
4.082573368437023
 20
8.53028962783647
 10
4.135932006513207
 20
8.536941451096797
 10
4.135932006513207
 20
8.496939896384446
 97
        0
 97
        1
330
E2
 75
     2
 76
     1
 98
        1
 10
0.0
 20
0.0
450
        0
451
        0
460
0.0
461
0.0
452
        0
462
0.0
453
        0
470

  0
SPLINE
  5
E4
330
70
100
AcDbEntity
  8
Layer 1
 62
   250
420
  2301728
370
    40
100
AcDbSpline
210
0.0
220
0.0
230
1.0
 70
     9
 71
     3
 72
    23
 73
    19
 74
     0
 42
0.0000000001
 43
0.0000000001
 40
0.0
 40
0.0
 40
0.0
 40
0.0
 40
1.0
 40
1.0
 40
1.0
 40
2.0
 40
2.0
 40
2.0
 40
3.0
 40
3.0
 40
3.0
 40
4.0
 40
4.0
 40
4.0
 40
5.0
 40
5.0
 40
5.0
 40
6.0
 40
6.0
 40
6.0
 40
6.0
 10
4.132095965147641
 20
8.187663675945954
 30
0.0
 10
4.132095965147641
 20
8.18482818521943
 30
0.0
 10
4.131834188046582
 20
8.130948660165788
 30
0.0
 10
4.131834188046582
 20
8.12770329533594
 30
0.0
 10
4.131834188046582
 20
8.124441149922706
 30
0.0
 10
4.130917968192862
 20
8.118541096798757
 30
0.0
 10
4.124524828000403
 20
8.123246372384528
 30
0.0
 10
4.118265408308174
 20
8.1279482918536
 30
0.0
 10
4.101155925472072
 20
8.139453486555693
 30
0.0
 10
4.096897013404789
 20
8.142698424663471
 30
0.0
 10
4.092701867554435
 20
8.145910228326505
 30
0.0
 10
4.086603803546355
 20
8.148464233120193
 30
0.0
 10
4.092701867554435
 20
8.154364286244142
 30
0.0
 10
4.098796575445829
 20
8.16026433936809
 30
0.0
 10
4.119215189328693
 20
8.18392831808079
 30
0.0
 10
4.122000766173337
 20
8.187173682910636
 30
0.0
 10
4.128293484948875
 20
8.194695168508726
 30
0.0
 10
4.132095965147641
 20
8.190482813957398
 30
0.0
 10
4.132095965147641
 20
8.187663675945954
 30
0.0
  0
SPLINE
  5
E5
330
70
100
AcDbEntity
  8
Layer 1
 62
   250
420
  2301728
370
    40
100
AcDbSpline
210
0.0
220
0.0
230
1.0
 70
     9
 71
     3
 72
    14
 73
    10
 74
     0
 42
0.0000000001
 43
0.0000000001
 40
0.0
 40
0.0
 40
0.0
 40
0.0
 40
1.0
 40
1.0
 40
1.0
 40
2.0
 40
2.0
 40
2.0
 40
3.0
 40
3.0
 40
3.0
 40
3.0
 10
4.303311613709158
 20
7.681819701543038
 30
0.0
 10
4.303311613709158
 20
7.663958863280615
 30
0.0
 10
4.28692369595933
 20
7.645966307047526
 30
0.0
 10
4.270666666760007
 20
7.646473494934575
 30
0.0
 10
4.254835864379097
 20
7.646966429818247
 30
0.0
 10
4.239203337862818
 20
7.66545192049327
 30
0.0
 10
4.239203337862818
 20
7.686998189580751
 30
0.0
 10
4.239203337862818
 20
7.745387907584358
 30
0.0
 10
4.303311613709158
 20
7.743454784376504
 30
0.0
 10
4.303311613709158
 20
7.681819701543038
 30
0.0
  0
SPLINE
  5
E6
330
70
100
AcDbEntity
  8
Layer 1
 62
   250
420
  2301728
370
    40
100
AcDbSpline
210
0.0
220
0.0
230
1.0
 70
     9
 71
     3
 72
    23
 73
    19
 74
     0
 42
0.0000000001
 43
0.0000000001
 40
0.0
 40
0.0
 40
0.0
 40
0.0
 40
1.0
 40
1.0
 40
1.0
 40
2.0
 40
2.0
 40
2.0
 40
3.0
 40
3.0
 40
3.0
 40
4.0
 40
4.0
 40
4.0
 40
5.0
 40
5.0
 40
5.0
 40
6.0
 40
6.0
 40
6.0
 40
6.0
 10
4.335298761788989
 20
7.628611827693766
 30
0.0
 10
4.341067926362407
 20
7.631807264671224
 30
0.0
 10
4.367091255101361
 20
7.646556983583258
 30
0.0
 10
4.367678575520383
 20
7.646916088068046
 30
0.0
 10
4.371974404871151
 20
7.649490229561832
 30
0.0
 10
4.377971785378829
 20
7.65425968582954
 30
0.0
 10
4.377971785378829
 20
7.644637284842133
 30
0.0
 10
4.377971785378829
 20
7.634971668802904
 30
0.0
 10
4.377971785378829
 20
7.60044058427944
 30
0.0
 10
4.377971785378829
 20
7.592117414912321
 30
0.0
 10
4.377971785378829
 20
7.583824450595329
 30
0.0
 10
4.37535065825154
 20
7.582384676539491
 30
0.0
 10
4.367614809303479
 20
7.588774722698758
 30
0.0
 10
4.35994608268902
 20
7.595147988274624
 30
0.0
 10
4.340869915478277
 20
7.614042925184636
 30
0.0
 10
4.335036984687929
 20
7.618550603449218
 30
0.0
 10
4.329267820114511
 20
7.62305745458789
 30
0.0
 10
4.32952959721557
 20
7.625416804614133
 30
0.0
 10
4.335298761788989
 20
7.628611827693766
 30
0.0
  0
SPLINE
  5
E7
330
70
100
AcDbEntity
  8
Layer 1
 62
   250
420
  2301728
370
    40
100
AcDbSpline
210
0.0
220
0.0
230
1.0
 70
     9
 71
     3
 72
    23
 73
    19
 74
     0
 42
0.0000000001
 43
0.0000000001
 40
0.0
 40
0.0
 40
0.0
 40
0.0
 40
1.0
 40
1.0
 40
1.0
 40
2.0
 40
2.0
 40
2.0
 40
3.0
 40
3.0
 40
3.0
 40
4.0
 40
4.0
 40
4.0
 40
5.0
 40
5.0
 40
5.0
 40
6.0
 40
6.0
 40
6.0
 40
6.0
 10
4.325727117016817
 20
7.872470621800111
 30
0.0
 10
4.331530110069883
 20
7.875665644879745
 30
0.0
 10
4.357553171495965
 20
7.890398997106204
 30
0.0
 10
4.358144116016875
 20
7.890774882174392
 30
0.0
 10
4.362436321265805
 20
7.893365804251579
 30
0.0
 10
4.368400140606657
 20
7.898148691147146
 30
0.0
 10
4.368400140606657
 20
7.888483074863769
 30
0.0
 10
4.368400140606657
 20
7.87884724349265
 30
0.0
 10
4.368400140606657
 20
7.844302734502459
 30
0.0
 10
4.368400140606657
 20
7.835993408658067
 30
0.0
 10
4.368400140606657
 20
7.827683244701675
 30
0.0
 10
4.365745452312542
 20
7.826243470645837
 30
0.0
 10
4.358043432513972
 20
7.832633516805104
 30
0.0
 10
4.350374437916848
 20
7.83900678238097
 30
0.0
 10
4.331268065655978
 20
7.857884938707583
 30
0.0
 10
4.325532462249358
 20
7.862425764576009
 30
0.0
 10
4.31969953145901
 20
7.866933029277636
 30
0.0
 10
4.31996130856007
 20
7.869275598720478
 30
0.0
 10
4.325727117016817
 20
7.872470621800111
 30
0.0
  0
SPLINE
  5
E8
330
70
100
AcDbEntity
  8
Layer 1
 62
   250
420
  2301728
370
    40
100
AcDbSpline
210
0.0
220
0.0
230
1.0
 70
     9
 71
     3
 72
    11
 73
     7
 74
     0
 42
0.0000000001
 43
0.0000000001
 40
0.0
 40
0.0
 40
0.0
 40
0.0
 40
1.0
 40
1.0
 40
1.0
 40
2.0
 40
2.0
 40
2.0
 40
2.0
 10
4.484817116012461
 20
7.439568896368022
 30
0.0
 10
4.484817116012461
 20
7.39219354426762
 30
0.0
 10
4.433589620895696
 20
7.405597874288686
 30
0.0
 10
4.433589620895696
 20
7.445451759867093
 30
0.0
 10
4.433589620895696
 20
7.488205330257275
 30
0.0
 10
4.484817116012461
 20
7.482077061199106
 30
0.0
 10
4.484817116012461
 20
7.439568896368022
 30
0.0
  0
HATCH
  5
E9
330
70
100
AcDbEntity
  8
Layer 1
 62
   250
420
  2301728
440
 33554687
100
AcDbHatch
 10
0.0
 20
0.0
 30
0.0
210
0.0
220
0.0
230
1.0
  2
SOLID
 70
     1
 71
     1
 91
        1
 92
        1
 93
        1
 72
     4
 94
        3
 73
     0
 74
     0
 95
       11
 96
        7
 40
0.0
 40
0.0
 40
0.0
 40
0.0
 40
1.0
 40
1.0
 40
1.0
 40
2.0
 40
2.0
 40
2.0
 40
2.0
 10
4.484817116012461
 20
7.439568896368022
 10
4.484817116012461
 20
7.39219354426762
 10
4.433589620895696
 20
7.405597874288686
 10
4.433589620895696
 20
7.445451759867093
 10
4.433589620895696
 20
7.488205330257275
 10
4.484817116012461
 20
7.482077061199106
 10
4.484817116012461
 20
7.439568896368022
 97
        0
 97
        1
330
E8
 75
     2
 76
     1
 98
        1
 10
0.0
 20
0.0
450
        0
451
        0
460
0.0
461
0.0
452
        0
462
0.0
453
        0
470

  0
SPLINE
  5
EA
330
70
100
AcDbEntity
  8
Layer 1
 62
   250
420
  2301728
370
    40
100
AcDbSpline
210
0.0
220
0.0
230
1.0
 70
     9
 71
     3
 72
    11
 73
     7
 74
     0
 42
0.0000000001
 43
0.0000000001
 40
0.0
 40
0.0
 40
0.0
 40
0.0
 40
1.0
 40
1.0
 40
1.0
 40
2.0
 40
2.0
 40
2.0
 40
2.0
 10
4.388523416221661
 20
7.379853103234204
 30
0.0
 10
4.388523416221661
 20
7.332478160175266
 30
0.0
 10
4.337265446163629
 20
7.345899677454919
 30
0.0
 10
4.337265446163629
 20
7.385770344623955
 30
0.0
 10
4.337265446163629
 20
7.428506726748322
 30
0.0
 10
4.388523416221661
 20
7.422344896523314
 30
0.0
 10
4.388523416221661
 20
7.379853103234204
 30
0.0
  0
HATCH
  5
EB
330
70
100
AcDbEntity
  8
Layer 1
 62
   250
420
  2301728
440
 33554687
100
AcDbHatch
 10
0.0
 20
0.0
 30
0.0
210
0.0
220
0.0
230
1.0
  2
SOLID
 70
     1
 71
     1
 91
        1
 92
        1
 93
        1
 72
     4
 94
        3
 73
     0
 74
     0
 95
       11
 96
        7
 40
0.0
 40
0.0
 40
0.0
 40
0.0
 40
1.0
 40
1.0
 40
1.0
 40
2.0
 40
2.0
 40
2.0
 40
2.0
 10
4.388523416221661
 20
7.379853103234204
 10
4.388523416221661
 20
7.332478160175266
 10
4.337265446163629
 20
7.345899677454919
 10
4.337265446163629
 20
7.385770344623955
 10
4.337265446163629
 20
7.428506726748322
 10
4.388523416221661
 20
7.422344896523314
 10
4.388523416221661
 20
7.379853103234204
 97
        0
 97
        1
330
EA
 75
     2
 76
     1
 98
        1
 10
0.0
 20
0.0
450
        0
451
        0
460
0.0
461
0.0
452
        0
462
0.0
453
        0
470

  0
SPLINE
  5
EC
330
70
100
AcDbEntity
  8
Layer 1
 62
   250
420
  2301728
370
    40
100
AcDbSpline
210
0.0
220
0.0
230
1.0
 70
     9
 71
     3
 72
    11
 73
     7
 74
     0
 42
0.0000000001
 43
0.0000000001
 40
0.0
 40
0.0
 40
0.0
 40
0.0
 40
1.0
 40
1.0
 40
1.0
 40
2.0
 40
2.0
 40
2.0
 40
2.0
 10
4.392393018754015
 20
7.755483106558661
 30
0.0
 10
4.392393018754015
 20
7.708091798741267
 30
0.0
 10
4.341131692579336
 20
7.721512493520789
 30
0.0
 10
4.341131692579336
 20
7.761383159682609
 30
0.0
 10
4.341131692579336
 20
7.804119949489378
 30
0.0
 10
4.392393018754015
 20
7.797974899847771
 30
0.0
 10
4.392393018754015
 20
7.755483106558661
 30
0.0
  0
HATCH
  5
ED
330
70
100
AcDbEntity
  8
Layer 1
 62
   250
420
  2301728
440
 33554687
100
AcDbHatch
 10
0.0
 20
0.0
 30
0.0
210
0.0
220
0.0
230
1.0
  2
SOLID
 70
     1
 71
     1
 91
        1
 92
        1
 93
        1
 72
     4
 94
        3
 73
     0
 74
     0
 95
       11
 96
        7
 40
0.0
 40
0.0
 40
0.0
 40
0.0
 40
1.0
 40
1.0
 40
1.0
 40
2.0
 40
2.0
 40
2.0
 40
2.0
 10
4.392393018754015
 20
7.755483106558661
 10
4.392393018754015
 20
7.708091798741267
 10
4.341131692579336
 20
7.721512493520789
 10
4.341131692579336
 20
7.761383159682609
 10
4.341131692579336
 20
7.804119949489378
 10
4.392393018754015
 20
7.797974899847771
 10
4.392393018754015
 20
7.755483106558661
 97
        0
 97
        1
330
EC
 75
     2
 76
     1
 98
        1
 10
0.0
 20
0.0
450
        0
451
        0
460
0.0
461
0.0
452
        0
462
0.0
453
        0
470

  0
SPLINE
  5
EE
330
70
100
AcDbEntity
  8
Layer 1
 62
   250
420
  2301728
370
    40
100
AcDbSpline
210
0.0
220
0.0
230
1.0
 70
     9
 71
     3
 72
    11
 73
     7
 74
     0
 42
0.0000000001
 43
0.0000000001
 40
0.0
 40
0.0
 40
0.0
 40
0.0
 40
1.0
 40
1.0
 40
1.0
 40
2.0
 40
2.0
 40
2.0
 40
2.0
 10
4.486750510454359
 20
7.967354752585189
 30
0.0
 10
4.486750510454359
 20
7.920010014576379
 30
0.0
 10
4.435522474212398
 20
7.933431125180845
 30
0.0
 10
4.435522474212398
 20
7.973268230175853
 30
0.0
 10
4.435522474212398
 20
8.016025156682706
 30
0.0
 10
4.486750510454359
 20
8.0098465458743
 30
0.0
 10
4.486750510454359
 20
7.967354752585189
 30
0.0
  0
HATCH
  5
EF
330
70
100
AcDbEntity
  8
Layer 1
 62
   250
420
  2301728
440
 33554687
100
AcDbHatch
 10
0.0
 20
0.0
 30
0.0
210
0.0
220
0.0
230
1.0
  2
SOLID
 70
     1
 71
     1
 91
        1
 92
        1
 93
        1
 72
     4
 94
        3
 73
     0
 74
     0
 95
       11
 96
        7
 40
0.0
 40
0.0
 40
0.0
 40
0.0
 40
1.0
 40
1.0
 40
1.0
 40
2.0
 40
2.0
 40
2.0
 40
2.0
 10
4.486750510454359
 20
7.967354752585189
 10
4.486750510454359
 20
7.920010014576379
 10
4.435522474212398
 20
7.933431125180845
 10
4.435522474212398
 20
7.973268230175853
 10
4.435522474212398
 20
8.016025156682706
 10
4.486750510454359
 20
8.0098465458743
 10
4.486750510454359
 20
7.967354752585189
 97
        0
 97
        1
330
EE
 75
     2
 76
     1
 98
        1
 10
0.0
 20
0.0
450
        0
451
        0
460
0.0
461
0.0
452
        0
462
0.0
453
        0
470

  0
SPLINE
  5
F0
330
70
100
AcDbEntity
  8
Layer 1
 62
   250
420
  2301728
370
    40
100
AcDbSpline
210
0.0
220
0.0
230
1.0
 70
     9
 71
     3
 72
    11
 73
     7
 74
     0
 42
0.0000000001
 43
0.0000000001
 40
0.0
 40
0.0
 40
0.0
 40
0.0
 40
1.0
 40
1.0
 40
1.0
 40
2.0
 40
2.0
 40
2.0
 40
2.0
 10
4.482914197854723
 20
8.254376563316705
 30
0.0
 10
4.482914197854723
 20
8.207001620257768
 30
0.0
 10
4.431656227796716
 20
8.220439511445635
 30
0.0
 10
4.431656227796716
 20
8.260276616440641
 30
0.0
 10
4.431656227796716
 20
8.303013406247423
 30
0.0
 10
4.482914197854723
 20
8.296885137189216
 30
0.0
 10
4.482914197854723
 20
8.254376563316705
 30
0.0
  0
HATCH
  5
F1
330
70
100
AcDbEntity
  8
Layer 1
 62
   250
420
  2301728
440
 33554687
100
AcDbHatch
 10
0.0
 20
0.0
 30
0.0
210
0.0
220
0.0
230
1.0
  2
SOLID
 70
     1
 71
     1
 91
        1
 92
        1
 93
        1
 72
     4
 94
        3
 73
     0
 74
     0
 95
       11
 96
        7
 40
0.0
 40
0.0
 40
0.0
 40
0.0
 40
1.0
 40
1.0
 40
1.0
 40
2.0
 40
2.0
 40
2.0
 40
2.0
 10
4.482914197854723
 20
8.254376563316705
 10
4.482914197854723
 20
8.207001620257768
 10
4.431656227796716
 20
8.220439511445635
 10
4.431656227796716
 20
8.260276616440641
 10
4.431656227796716
 20
8.303013406247423
 10
4.482914197854723
 20
8.296885137189216
 10
4.482914197854723
 20
8.254376563316705
 97
        0
 97
        1
330
F0
 75
     2
 76
     1
 98
        1
 10
0.0
 20
0.0
450
        0
451
        0
460
0.0
461
0.0
452
        0
462
0.0
453
        0
470

  0
SPLINE
  5
F2
330
70
100
AcDbEntity
  8
Layer 1
 62
   250
420
  2301728
370
    40
100
AcDbSpline
210
0.0
220
0.0
230
1.0
 70
     9
 71
     3
 72
    11
 73
     7
 74
     0
 42
0.0000000001
 43
0.0000000001
 40
0.0
 40
0.0
 40
0.0
 40
0.0
 40
1.0
 40
1.0
 40
1.0
 40
2.0
 40
2.0
 40
2.0
 40
2.0
 10
4.474362812553358
 20
7.435010880874718
 30
0.0
 10
4.474362812553358
 20
7.387652718399218
 30
0.0
 10
4.423135047545454
 20
7.401057048420258
 30
0.0
 10
4.423135047545454
 20
7.440911343074049
 30
0.0
 10
4.423135047545454
 20
7.483664504388848
 30
0.0
 10
4.474362812553358
 20
7.477536235330666
 30
0.0
 10
4.474362812553358
 20
7.435010880874718
 30
0.0
  0
HATCH
  5
F3
330
70
100
AcDbEntity
  8
Layer 1
 62
     9
420
 12373463
440
 33554687
100
AcDbHatch
 10
0.0
 20
0.0
 30
0.0
210
0.0
220
0.0
230
1.0
  2
SOLID
 70
     1
 71
     1
 91
        1
 92
        1
 93
        1
 72
     4
 94
        3
 73
     0
 74
     0
 95
       11
 96
        7
 40
0.0
 40
0.0
 40
0.0
 40
0.0
 40
1.0
 40
1.0
 40
1.0
 40
2.0
 40
2.0
 40
2.0
 40
2.0
 10
4.474362812553358
 20
7.435010880874718
 10
4.474362812553358
 20
7.387652718399218
 10
4.423135047545454
 20
7.401057048420258
 10
4.423135047545454
 20
7.440911343074049
 10
4.423135047545454
 20
7.483664504388848
 10
4.474362812553358
 20
7.477536235330666
 10
4.474362812553358
 20
7.435010880874718
 97
        0
 97
        1
330
F2
 75
     2
 76
     1
 98
        1
 10
0.0
 20
0.0
450
        0
451
        0
460
0.0
461
0.0
452
        0
462
0.0
453
        0
470

  0
SPLINE
  5
F4
330
70
100
AcDbEntity
  8
Layer 1
 62
   250
420
  2301728
370
    40
100
AcDbSpline
210
0.0
220
0.0
230
1.0
 70
     9
 71
     3
 72
    11
 73
     7
 74
     0
 42
0.0000000001
 43
0.0000000001
 40
0.0
 40
0.0
 40
0.0
 40
0.0
 40
1.0
 40
1.0
 40
1.0
 40
2.0
 40
2.0
 40
2.0
 40
2.0
 10
4.378035551595758
 20
7.375329057949177
 30
0.0
 10
4.378035551595758
 20
7.327954114890239
 30
0.0
 10
4.326811142704526
 20
7.341358444911305
 30
0.0
 10
4.326811142704526
 20
7.381229111073126
 30
0.0
 10
4.326811142704526
 20
7.423952476413179
 30
0.0
 10
4.378035551595758
 20
7.417804070654887
 30
0.0
 10
4.378035551595758
 20
7.375329057949177
 30
0.0
  0
HATCH
  5
F5
330
70
100
AcDbEntity
  8
Layer 1
 62
     9
420
 12373463
440
 33554687
100
AcDbHatch
 10
0.0
 20
0.0
 30
0.0
210
0.0
220
0.0
230
1.0
  2
SOLID
 70
     1
 71
     1
 91
        1
 92
        1
 93
        1
 72
     4
 94
        3
 73
     0
 74
     0
 95
       11
 96
        7
 40
0.0
 40
0.0
 40
0.0
 40
0.0
 40
1.0
 40
1.0
 40
1.0
 40
2.0
 40
2.0
 40
2.0
 40
2.0
 10
4.378035551595758
 20
7.375329057949177
 10
4.378035551595758
 20
7.327954114890239
 10
4.326811142704526
 20
7.341358444911305
 10
4.326811142704526
 20
7.381229111073126
 10
4.326811142704526
 20
7.423952476413179
 10
4.378035551595758
 20
7.417804070654887
 10
4.378035551595758
 20
7.375329057949177
 97
        0
 97
        1
330
F4
 75
     2
 76
     1
 98
        1
 10
0.0
 20
0.0
450
        0
451
        0
460
0.0
461
0.0
452
        0
462
0.0
453
        0
470

  0
SPLINE
  5
F6
330
70
100
AcDbEntity
  8
Layer 1
 62
   250
420
  2301728
370
    40
100
AcDbSpline
210
0.0
220
0.0
230
1.0
 70
     9
 71
     3
 72
    11
 73
     7
 74
     0
 42
0.0000000001
 43
0.0000000001
 40
0.0
 40
0.0
 40
0.0
 40
0.0
 40
1.0
 40
1.0
 40
1.0
 40
2.0
 40
2.0
 40
2.0
 40
2.0
 10
4.381905422713594
 20
7.750925500106833
 30
0.0
 10
4.381905422713594
 20
7.703550557047896
 30
0.0
 10
4.330710950287033
 20
7.716971667652361
 30
0.0
 10
4.330710950287033
 20
7.756825553230769
 30
0.0
 10
4.330710950287033
 20
7.799579541757061
 30
0.0
 10
4.381905422713594
 20
7.793467635146144
 30
0.0
 10
4.381905422713594
 20
7.750925500106833
 30
0.0
  0
HATCH
  5
F7
330
70
100
AcDbEntity
  8
Layer 1
 62
     9
420
 12373463
440
 33554687
100
AcDbHatch
 10
0.0
 20
0.0
 30
0.0
210
0.0
220
0.0
230
1.0
  2
SOLID
 70
     1
 71
     1
 91
        1
 92
        1
 93
        1
 72
     4
 94
        3
 73
     0
 74
     0
 95
       11
 96
        7
 40
0.0
 40
0.0
 40
0.0
 40
0.0
 40
1.0
 40
1.0
 40
1.0
 40
2.0
 40
2.0
 40
2.0
 40
2.0
 10
4.381905422713594
 20
7.750925500106833
 10
4.381905422713594
 20
7.703550557047896
 10
4.330710950287033
 20
7.716971667652361
 10
4.330710950287033
 20
7.756825553230769
 10
4.330710950287033
 20
7.799579541757061
 10
4.381905422713594
 20
7.793467635146144
 10
4.381905422713594
 20
7.750925500106833
 97
        0
 97
        1
330
F6
 75
     2
 76
     1
 98
        1
 10
0.0
 20
0.0
450
        0
451
        0
460
0.0
461
0.0
452
        0
462
0.0
453
        0
470

  0
SPLINE
  5
F8
330
70
100
AcDbEntity
  8
Layer 1
 62
   250
420
  2301728
370
    40
100
AcDbSpline
210
0.0
220
0.0
230
1.0
 70
     9
 71
     3
 72
    11
 73
     7
 74
     0
 42
0.0000000001
 43
0.0000000001
 40
0.0
 40
0.0
 40
0.0
 40
0.0
 40
1.0
 40
1.0
 40
1.0
 40
2.0
 40
2.0
 40
2.0
 40
2.0
 10
4.476295935761198
 20
7.962830707300162
 30
0.0
 10
4.476295935761198
 20
7.915455764241224
 30
0.0
 10
4.425034609586494
 20
7.928860094262315
 30
0.0
 10
4.425034609586494
 20
7.968713979840698
 30
0.0
 10
4.425034609586494
 20
8.011451193135915
 30
0.0
 10
4.476295935761198
 20
8.005305720005871
 30
0.0
 10
4.476295935761198
 20
7.962830707300162
 30
0.0
  0
HATCH
  5
F9
330
70
100
AcDbEntity
  8
Layer 1
 62
     9
420
 12373463
440
 33554687
100
AcDbHatch
 10
0.0
 20
0.0
 30
0.0
210
0.0
220
0.0
230
1.0
  2
SOLID
 70
     1
 71
     1
 91
        1
 92
        1
 93
        1
 72
     4
 94
        3
 73
     0
 74
     0
 95
       11
 96
        7
 40
0.0
 40
0.0
 40
0.0
 40
0.0
 40
1.0
 40
1.0
 40
1.0
 40
2.0
 40
2.0
 40
2.0
 40
2.0
 10
4.476295935761198
 20
7.962830707300162
 10
4.476295935761198
 20
7.915455764241224
 10
4.425034609586494
 20
7.928860094262315
 10
4.425034609586494
 20
7.968713979840698
 10
4.425034609586494
 20
8.011451193135915
 10
4.476295935761198
 20
8.005305720005871
 10
4.476295935761198
 20
7.962830707300162
 97
        0
 97
        1
330
F8
 75
     2
 76
     1
 98
        1
 10
0.0
 20
0.0
450
        0
451
        0
460
0.0
461
0.0
452
        0
462
0.0
453
        0
470

  0
SPLINE
  5
FA
330
70
100
AcDbEntity
  8
Layer 1
 62
   250
420
  2301728
370
    40
100
AcDbSpline
210
0.0
220
0.0
230
1.0
 70
     9
 71
     3
 72
    11
 73
     7
 74
     0
 42
0.0000000001
 43
0.0000000001
 40
0.0
 40
0.0
 40
0.0
 40
0.0
 40
1.0
 40
1.0
 40
1.0
 40
2.0
 40
2.0
 40
2.0
 40
2.0
 10
4.472426333228844
 20
8.249822312981551
 30
0.0
 10
4.472426333228844
 20
8.202444013805941
 30
0.0
 10
4.421201924337613
 20
8.215881904993807
 30
0.0
 10
4.421201924337613
 20
8.255719009988814
 30
0.0
 10
4.421201924337613
 20
8.298459155912269
 30
0.0
 10
4.472426333228844
 20
8.292330886854061
 30
0.0
 10
4.472426333228844
 20
8.249822312981551
 30
0.0
  0
HATCH
  5
FB
330
70
100
AcDbEntity
  8
Layer 1
 62
     9
420
 12373463
440
 33554687
100
AcDbHatch
 10
0.0
 20
0.0
 30
0.0
210
0.0
220
0.0
230
1.0
  2
SOLID
 70
     1
 71
     1
 91
        1
 92
        1
 93
        1
 72
     4
 94
        3
 73
     0
 74
     0
 95
       11
 96
        7
 40
0.0
 40
0.0
 40
0.0
 40
0.0
 40
1.0
 40
1.0
 40
1.0
 40
2.0
 40
2.0
 40
2.0
 40
2.0
 10
4.472426333228844
 20
8.249822312981551
 10
4.472426333228844
 20
8.202444013805941
 10
4.421201924337613
 20
8.215881904993807
 10
4.421201924337613
 20
8.255719009988814
 10
4.421201924337613
 20
8.298459155912269
 10
4.472426333228844
 20
8.292330886854061
 10
4.472426333228844
 20
8.249822312981551
 97
        0
 97
        1
330
FA
 75
     2
 76
     1
 98
        1
 10
0.0
 20
0.0
450
        0
451
        0
460
0.0
461
0.0
452
        0
462
0.0
453
        0
470

  0
MTEXT
  5
FD
330
70
100
AcDbEntity
  8
callout
100
AcDbMText
 10
3.476418389214409
 20
5.062452740139431
 30
0.0
 40
0.2
 41
0.0
 46
0.0
 71
     7
 72
     1
  1
\C250;\c2105123;\FHelvetica Neue LT Std 55 Roman|b0|i0|c1;\H0.118000;\W1.000000;SIMPSON Strong-Tie\H0.068794;®\H0.118000; ^C
 73
     1
 44
1.0
  0
MTEXT
  5
FE
330
70
100
AcDbEntity
  8
callout
100
AcDbMText
 10
3.148130628797742
 20
4.862447314792208
 30
0.0
 40
0.2
 41
0.0
 46
0.0
 71
     7
 72
     1
  1
\C250;\c2105123;\FHelvetica Neue LT Std 55 Roman|b0|i0|c1;\H0.118000;\W1.000000;HU Face Fix Typical Installation 
 73
     1
 44
1.0
  0
MTEXT
  5
FF
330
70
100
AcDbEntity
  8
callout
100
AcDbMText
 10
4.239208221435546
 20
5.818186018202039
 30
0.0
 40
0.2
 41
0.0
 46
0.0
 71
     7
 72
     1
  1
\C250;\c2105123;\FHelvetica Neue LT Std 57 Condensed|b0|i0|c1;\H0.118000;\W1.000000;HU
 73
     1
 44
1.0
  0
LINE
  5
100
330
70
100
AcDbEntity
  8
callout
 62
   250
420
  2301728
370
    18
100
AcDbLine
 10
4.310110632076227
 20
6.03678219341681
 30
0.0
 11
4.060741526963637
 21
7.00116559951492
 31
0.0
  0
MTEXT
  5
101
330
70
100
AcDbEntity
  8
callout
100
AcDbMText
 10
5.401737001207139
 20
5.720410452948676
 30
0.0
 40
0.2
 41
0.0
 46
0.0
 71
     7
 72
     1
  1
\C250;\c2105123;\FHelvetica Neue LT Std 57 Condensed|b0|i0|c1;\H0.118000;\W1.000000;Beam
 73
     1
 44
1.0
  0
MTEXT
  5
102
330
70
100
AcDbEntity
  8
callout
100
AcDbMText
 10
3.191351784600151
 20
5.818180931939019
 30
0.0
 40
0.2
 41
0.0
 46
0.0
 71
     7
 72
     1
  1
\C250;\c2105123;\FHelvetica Neue LT Std 57 Condensed|b0|i0|c1;\H0.118000;\W1.000000;Joist
 73
     1
 44
1.0
  0
LINE
  5
103
330
70
100
AcDbEntity
  8
callout
 62
   250
420
  2301728
370
    18
100
AcDbLine
 10
5.533516459994845
 20
5.843151267316279
 30
0.0
 11
5.384633198575581
 21
6.120798813430243
 31
0.0
  0
LINE
  5
104
330
70
100
AcDbEntity
  8
callout
 62
   250
420
  2301728
370
    18
100
AcDbLine
 10
3.354176645648875
 20
6.03678219341681
 30
0.0
 11
3.248231887817382
 21
6.626315646701388
 31
0.0
  0
ENDSEC
  0
SECTION
  2
OBJECTS
  0
DICTIONARY
  5
C
330
0
100
AcDbDictionary
281
     1
  3
ACAD_COLOR
350
63
  3
ACAD_DETAILVIEWSTYLE
350
6A
  3
ACAD_GROUP
350
D
  3
ACAD_LAYOUT
350
62
  3
ACAD_MATERIAL
350
10
  3
ACAD_MLEADERSTYLE
350
66
  3
ACAD_MLINESTYLE
350
5F
  3
ACAD_PLOTSETTINGS
350
61
  3
ACAD_PLOTSTYLENAME
350
E
  3
ACAD_SCALELIST
350
42
  3
ACAD_SECTIONVIEWSTYLE
350
68
  3
ACAD_TABLESTYLE
350
64
  3
ACAD_VISUALSTYLE
350
29
  3
ACDB_RECOMPOSE_DATA
350
10D
  3
AcDbVariableDictionary
350
105
  0
DICTIONARY
  5
63
102
{ACAD_REACTORS
330
C
102
}
330
C
100
AcDbDictionary
281
     1
  0
DICTIONARY
  5
6A
102
{ACAD_REACTORS
330
C
102
}
330
C
100
AcDbDictionary
281
     1
  3
Imperial24
350
6B
  0
DICTIONARY
  5
D
102
{ACAD_REACTORS
330
C
102
}
330
C
100
AcDbDictionary
281
     1
  0
DICTIONARY
  5
62
102
{ACAD_REACTORS
330
C
102
}
330
C
100
AcDbDictionary
281
     1
  3
Layout1
350
6F
  3
Layout2
350
77
  3
Model
350
73
  0
DICTIONARY
  5
10
102
{ACAD_REACTORS
330
C
102
}
330
C
100
AcDbDictionary
281
     1
  3
ByBlock
350
19
  3
ByLayer
350
11
  3
Global
350
21
  0
DICTIONARY
  5
66
102
{ACAD_REACTORS
330
C
102
}
330
C
100
AcDbDictionary
281
     1
  3
Standard
350
67
  0
DICTIONARY
  5
5F
102
{ACAD_REACTORS
330
C
102
}
330
C
100
AcDbDictionary
281
     1
  3
Standard
350
60
  0
DICTIONARY
  5
61
102
{ACAD_REACTORS
330
C
102
}
330
C
100
AcDbDictionary
281
     1
  0
ACDBDICTIONARYWDFLT
  5
E
102
{ACAD_REACTORS
330
C
102
}
330
C
100
AcDbDictionary
281
     1
  3
Normal
350
F
100
AcDbDictionaryWithDefault
340
F
  0
DICTIONARY
  5
42
102
{ACAD_REACTORS
330
C
102
}
330
C
100
AcDbDictionary
281
     1
  3
A0
350
43
  3
A1
350
44
  3
A2
350
45
  3
A3
350
46
  3
A4
350
47
  3
A5
350
48
  3
A6
350
49
  3
A7
350
4A
  3
A8
350
4B
  3
A9
350
4C
  3
B0
350
4D
  3
B1
350
4E
  3
B2
350
4F
  3
B3
350
50
  3
B4
350
51
  3
B5
350
52
  3
B6
350
53
  0
DICTIONARY
  5
68
102
{ACAD_REACTORS
330
C
102
}
330
C
100
AcDbDictionary
281
     1
  3
Imperial24
350
69
  0
DICTIONARY
  5
64
102
{ACAD_REACTORS
330
C
102
}
330
C
100
AcDbDictionary
281
     1
  3
Standard
350
65
  0
DICTIONARY
  5
29
102
{ACAD_REACTORS
330
C
102
}
330
C
100
AcDbDictionary
281
     1
  3
2dWireframe
350
2F
  3
Basic
350
2E
  3
Brighten
350
35
  3
ColorChange
350
39
  3
Conceptual
350
32
  3
Dim
350
34
  3
EdgeColorOff
350
41
  3
Facepattern
350
38
  3
Flat
350
2A
  3
FlatWithEdges
350
2B
  3
Gouraud
350
2C
  3
GouraudWithEdges
350
2D
  3
Hidden
350
31
  3
JitterOff
350
3F
  3
Linepattern
350
37
  3
OverhangOff
350
40
  3
Realistic
350
33
  3
Shaded
350
3E
  3
Shaded with edges
350
3D
  3
Shades of Gray
350
3A
  3
Sketchy
350
3B
  3
Thicken
350
36
  3
Wireframe
350
30
  3
X-Ray
350
3C
  0
XRECORD
  5
10D
102
{ACAD_REACTORS
330
C
102
}
330
C
100
AcDbXrecord
280
     1
 90
        1
330
65
  0
DICTIONARY
  5
105
102
{ACAD_REACTORS
330
C
102
}
330
C
100
AcDbDictionary
281
     1
  3
CANNOSCALE
350
10A
  3
CMLEADERSTYLE
350
107
  3
CTABLESTYLE
350
106
  3
CVIEWDETAILSTYLE
350
108
  3
CVIEWSECTIONSTYLE
350
109
  0
ACDBDETAILVIEWSTYLE
  5
6B
102
{ACAD_REACTORS
330
6A
102
}
330
6A
100
AcDbModelDocViewStyle
 70
     0
  3
Imperial24
290
     1
300
Imperial24
 90
        0
100
AcDbDetailViewStyle
 70
     0
 71
     0
 90
        3
 71
     1
340
55
 62
   256
 40
0.24
340
0
 62
   256
 40
0.24
300

 40
0.36
280
     3
 71
     2
340
5D
 90
       25
 62
   256
 71
     3
340
55
 62
   256
 40
0.24
 90
        1
 40
0.75
 90
        1
300
%<\AcVar ViewType \f "%tc1">% %<\AcVar ViewDetailId>%\PSCALE %<\AcVar ViewScale \f "%sn">%
 71
     4
340
5D
 90
       25
 62
   256
340
5D
 90
       25
 62
   256
280
     0
  0
LAYOUT
  5
6F
102
{ACAD_REACTORS
330
62
102
}
330
62
100
AcDbPlotSettings
  1

  2

  4

  6

 40
0.0
 41
0.0
 42
0.0
 43
0.0
 44
0.0
 45
0.0
 46
0.0
 47
0.0
 48
0.0
 49
0.0
140
0.0
141
0.0
142
1.0
143
1.0
 70
   688
 72
     0
 73
     0
 74
     5
  7

 75
    16
147
1.0
 76
     0
 77
     2
 78
   300
148
0.0
149
0.0
100
AcDbLayout
  1
Layout1
 70
     1
 71
     1
 10
0.0
 20
0.0
 11
12.0
 21
9.0
 12
0.0
 22
0.0
 32
0.0
 14
0.0
 24
0.0
 34
0.0
 15
0.0
 25
0.0
 35
0.0
146
0.0
 13
0.0
 23
0.0
 33
0.0
 16
1.0
 26
0.0
 36
0.0
 17
0.0
 27
1.0
 37
0.0
 76
     0
330
6C
  0
LAYOUT
  5
77
102
{ACAD_REACTORS
330
62
102
}
330
62
100
AcDbPlotSettings
  1

  2

  4

  6

 40
0.0
 41
0.0
 42
0.0
 43
0.0
 44
0.0
 45
0.0
 46
0.0
 47
0.0
 48
0.0
 49
0.0
140
0.0
141
0.0
142
1.0
143
1.0
 70
   688
 72
     0
 73
     0
 74
     5
  7

 75
    16
147
1.0
 76
     0
 77
     2
 78
   300
148
0.0
149
0.0
100
AcDbLayout
  1
Layout2
 70
     1
 71
     2
 10
0.0
 20
0.0
 11
12.0
 21
9.0
 12
0.0
 22
0.0
 32
0.0
 14
0.0
 24
0.0
 34
0.0
 15
0.0
 25
0.0
 35
0.0
146
0.0
 13
0.0
 23
0.0
 33
0.0
 16
1.0
 26
0.0
 36
0.0
 17
0.0
 27
1.0
 37
0.0
 76
     0
330
74
  0
LAYOUT
  5
73
102
{ACAD_REACTORS
330
62
102
}
330
62
100
AcDbPlotSettings
  1

  2

  4

  6

 40
0.0
 41
0.0
 42
0.0
 43
0.0
 44
0.0
 45
0.0
 46
0.0
 47
0.0
 48
0.0
 49
0.0
140
0.0
141
0.0
142
1.0
143
1.0
 70
  1712
 72
     0
 73
     0
 74
     0
  7

 75
     0
147
1.0
 76
     0
 77
     2
 78
   300
148
0.0
149
0.0
100
AcDbLayout
  1
Model
 70
     1
 71
     0
 10
0.0
 20
0.0
 11
12.0
 21
9.0
 12
0.0
 22
0.0
 32
0.0
 14
0.0
 24
0.0
 34
0.0
 15
0.0
 25
0.0
 35
0.0
146
0.0
 13
0.0
 23
0.0
 33
0.0
 16
1.0
 26
0.0
 36
0.0
 17
0.0
 27
1.0
 37
0.0
 76
     0
330
70
  0
MATERIAL
  5
19
102
{ACAD_XDICTIONARY
360
1A
102
}
102
{ACAD_REACTORS
330
10
102
}
330
10
100
AcDbMaterial
  1
ByBlock
 72
     0
 43
0.0208333333333333
 43
0.0
 43
0.0
 43
0.0
 43
0.0
 43
0.0208333333333333
 43
0.0
 43
0.0
 43
0.0
 43
0.0
 43
1.0
 43
0.0
 43
0.0
 43
0.0
 43
0.0
 43
1.0
 77
     0
 47
0.0208333333333333
 47
0.0
 47
0.0
 47
0.0
 47
0.0
 47
0.0208333333333333
 47
0.0
 47
0.0
 47
0.0
 47
0.0
 47
1.0
 47
0.0
 47
0.0
 47
0.0
 47
0.0
 47
1.0
171
     0
 49
0.0208333333333333
 49
0.0
 49
0.0
 49
0.0
 49
0.0
 49
0.0208333333333333
 49
0.0
 49
0.0
 49
0.0
 49
0.0
 49
1.0
 49
0.0
 49
0.0
 49
0.0
 49
0.0
 49
1.0
175
     0
142
0.0208333333333333
142
0.0
142
0.0
142
0.0
142
0.0
142
0.0208333333333333
142
0.0
142
0.0
142
0.0
142
0.0
142
1.0
142
0.0
142
0.0
142
0.0
142
0.0
142
1.0
179
     0
144
0.0208333333333333
144
0.0
144
0.0
144
0.0
144
0.0
144
0.0208333333333333
144
0.0
144
0.0
144
0.0
144
0.0
144
1.0
144
0.0
144
0.0
144
0.0
144
0.0
144
1.0
147
0.0208333333333333
147
0.0
147
0.0
147
0.0
147
0.0
147
0.0208333333333333
147
0.0
147
0.0
147
0.0
147
0.0
147
1.0
147
0.0
147
0.0
147
0.0
147
0.0
147
1.0
  0
MATERIAL
  5
11
102
{ACAD_XDICTIONARY
360
12
102
}
102
{ACAD_REACTORS
330
10
102
}
330
10
100
AcDbMaterial
  1
ByLayer
 72
     0
 43
0.0208333333333333
 43
0.0
 43
0.0
 43
0.0
 43
0.0
 43
0.0208333333333333
 43
0.0
 43
0.0
 43
0.0
 43
0.0
 43
1.0
 43
0.0
 43
0.0
 43
0.0
 43
0.0
 43
1.0
 77
     0
 47
0.0208333333333333
 47
0.0
 47
0.0
 47
0.0
 47
0.0
 47
0.0208333333333333
 47
0.0
 47
0.0
 47
0.0
 47
0.0
 47
1.0
 47
0.0
 47
0.0
 47
0.0
 47
0.0
 47
1.0
171
     0
 49
0.0208333333333333
 49
0.0
 49
0.0
 49
0.0
 49
0.0
 49
0.0208333333333333
 49
0.0
 49
0.0
 49
0.0
 49
0.0
 49
1.0
 49
0.0
 49
0.0
 49
0.0
 49
0.0
 49
1.0
175
     0
142
0.0208333333333333
142
0.0
142
0.0
142
0.0
142
0.0
142
0.0208333333333333
142
0.0
142
0.0
142
0.0
142
0.0
142
1.0
142
0.0
142
0.0
142
0.0
142
0.0
142
1.0
179
     0
144
0.0208333333333333
144
0.0
144
0.0
144
0.0
144
0.0
144
0.0208333333333333
144
0.0
144
0.0
144
0.0
144
0.0
144
1.0
144
0.0
144
0.0
144
0.0
144
0.0
144
1.0
147
0.0208333333333333
147
0.0
147
0.0
147
0.0
147
0.0
147
0.0208333333333333
147
0.0
147
0.0
147
0.0
147
0.0
147
1.0
147
0.0
147
0.0
147
0.0
147
0.0
147
1.0
  0
MATERIAL
  5
21
102
{ACAD_XDICTIONARY
360
22
102
}
102
{ACAD_REACTORS
330
10
102
}
330
10
100
AcDbMaterial
  1
Global
 72
     0
 43
0.0208333333333333
 43
0.0
 43
0.0
 43
0.0
 43
0.0
 43
0.0208333333333333
 43
0.0
 43
0.0
 43
0.0
 43
0.0
 43
1.0
 43
0.0
 43
0.0
 43
0.0
 43
0.0
 43
1.0
 77
     0
 47
0.0208333333333333
 47
0.0
 47
0.0
 47
0.0
 47
0.0
 47
0.0208333333333333
 47
0.0
 47
0.0
 47
0.0
 47
0.0
 47
1.0
 47
0.0
 47
0.0
 47
0.0
 47
0.0
 47
1.0
171
     0
 49
0.0208333333333333
 49
0.0
 49
0.0
 49
0.0
 49
0.0
 49
0.0208333333333333
 49
0.0
 49
0.0
 49
0.0
 49
0.0
 49
1.0
 49
0.0
 49
0.0
 49
0.0
 49
0.0
 49
1.0
175
     0
142
0.0208333333333333
142
0.0
142
0.0
142
0.0
142
0.0
142
0.0208333333333333
142
0.0
142
0.0
142
0.0
142
0.0
142
1.0
142
0.0
142
0.0
142
0.0
142
0.0
142
1.0
179
     0
144
0.0208333333333333
144
0.0
144
0.0
144
0.0
144
0.0
144
0.0208333333333333
144
0.0
144
0.0
144
0.0
144
0.0
144
1.0
144
0.0
144
0.0
144
0.0
144
0.0
144
1.0
147
0.0208333333333333
147
0.0
147
0.0
147
0.0
147
0.0
147
0.0208333333333333
147
0.0
147
0.0
147
0.0
147
0.0
147
1.0
147
0.0
147
0.0
147
0.0
147
0.0
147
1.0
  0
MLEADERSTYLE
  5
67
102
{ACAD_REACTORS
330
66
102
}
330
66
100
AcDbMLeaderStyle
179
     2
170
     2
171
     1
172
     0
 90
        2
 40
0.0
 41
0.0
173
     1
 91
-1056964608
340
5B
 92
       -2
290
     1
 42
0.09
291
     1
 43
0.36
  3
Standard
 44
0.18
300

342
55
174
     1
178
     6
175
     1
176
     0
 93
-1056964608
 45
0.18
292
     0
297
     0
 46
0.18
 94
-1056964608
 47
1.0
 49
1.0
140
1.0
293
     1
141
0.0
294
     1
177
     0
142
1.0
295
     1
296
     0
143
0.125
271
     0
272
     9
273
     9
298
     1
  0
MLINESTYLE
  5
60
102
{ACAD_REACTORS
330
5F
102
}
330
5F
100
AcDbMlineStyle
  2
STANDARD
 70
     0
  3

 62
   256
 51
90.0
 52
90.0
 71
     2
 49
0.5
 62
   256
  6
BYLAYER
 49
-0.5
 62
   256
  6
BYLAYER
  0
ACDBPLACEHOLDER
  5
F
102
{ACAD_REACTORS
330
E
102
}
330
E
  0
SCALE
  5
43
102
{ACAD_REACTORS
330
42
102
}
330
42
100
AcDbScale
 70
     0
300
1:1
140
1.0
141
1.0
290
     1
  0
SCALE
  5
44
102
{ACAD_REACTORS
330
42
102
}
330
42
100
AcDbScale
 70
     0
300
1/128" = 1'-0"
140
0.0078125
141
12.0
290
     0
  0
SCALE
  5
45
102
{ACAD_REACTORS
330
42
102
}
330
42
100
AcDbScale
 70
     0
300
1/64" = 1'-0"
140
0.015625
141
12.0
290
     0
  0
SCALE
  5
46
102
{ACAD_REACTORS
330
42
102
}
330
42
100
AcDbScale
 70
     0
300
1/32" = 1'-0"
140
0.03125
141
12.0
290
     0
  0
SCALE
  5
47
102
{ACAD_REACTORS
330
42
102
}
330
42
100
AcDbScale
 70
     0
300
1/16" = 1'-0"
140
0.0625
141
12.0
290
     0
  0
SCALE
  5
48
102
{ACAD_REACTORS
330
42
102
}
330
42
100
AcDbScale
 70
     0
300
3/32" = 1'-0"
140
0.09375
141
12.0
290
     0
  0
SCALE
  5
49
102
{ACAD_REACTORS
330
42
102
}
330
42
100
AcDbScale
 70
     0
300
1/8" = 1'-0"
140
0.125
141
12.0
290
     0
  0
SCALE
  5
4A
102
{ACAD_REACTORS
330
42
102
}
330
42
100
AcDbScale
 70
     0
300
3/16" = 1'-0"
140
0.1875
141
12.0
290
     0
  0
SCALE
  5
4B
102
{ACAD_REACTORS
330
42
102
}
330
42
100
AcDbScale
 70
     0
300
1/4" = 1'-0"
140
0.25
141
12.0
290
     0
  0
SCALE
  5
4C
102
{ACAD_REACTORS
330
42
102
}
330
42
100
AcDbScale
 70
     0
300
3/8" = 1'-0"
140
0.375
141
12.0
290
     0
  0
SCALE
  5
4D
102
{ACAD_REACTORS
330
42
102
}
330
42
100
AcDbScale
 70
     0
300
1/2" = 1'-0"
140
0.5
141
12.0
290
     0
  0
SCALE
  5
4E
102
{ACAD_REACTORS
330
42
102
}
330
42
100
AcDbScale
 70
     0
300
3/4" = 1'-0"
140
0.75
141
12.0
290
     0
  0
SCALE
  5
4F
102
{ACAD_REACTORS
330
42
102
}
330
42
100
AcDbScale
 70
     0
300
1" = 1'-0"
140
1.0
141
12.0
290
     0
  0
SCALE
  5
50
102
{ACAD_REACTORS
330
42
102
}
330
42
100
AcDbScale
 70
     0
300
1-1/2" = 1'-0"
140
1.5
141
12.0
290
     0
  0
SCALE
  5
51
102
{ACAD_REACTORS
330
42
102
}
330
42
100
AcDbScale
 70
     0
300
3" = 1'-0"
140
3.0
141
12.0
290
     0
  0
SCALE
  5
52
102
{ACAD_REACTORS
330
42
102
}
330
42
100
AcDbScale
 70
     0
300
6" = 1'-0"
140
6.0
141
12.0
290
     0
  0
SCALE
  5
53
102
{ACAD_REACTORS
330
42
102
}
330
42
100
AcDbScale
 70
     0
300
1'-0" = 1'-0"
140
12.0
141
12.0
290
     0
  0
ACDBSECTIONVIEWSTYLE
  5
69
102
{ACAD_REACTORS
330
68
102
}
330
68
100
AcDbModelDocViewStyle
 70
     0
  3
Imperial24
290
     1
300
Imperial24
 90
        0
100
AcDbSectionViewStyle
 70
     0
 71
     0
 90
       78
 71
     1
340
55
 62
   256
 40
0.24
340
0
340
0
 62
   256
 40
0.24
300
I, O, Q, S, X, Z
 40
0.48
 90
        3
 40
0.18
 90
        1
 71
     2
340
5D
 90
       25
 62
   256
340
5D
 90
       50
 62
   256
 40
0.24
 40
0.0
 40
0.24
 71
     3
340
55
 62
   256
 40
0.24
 90
        1
 40
0.75
 90
        1
300
%<\AcVar ViewType \f "%tc1">% %<\AcVar ViewSectionStartId>%-%<\AcVar ViewSectionEndId>%\PSCALE %<\AcVar ViewScale \f "%sn">%
 71
     4
 62
   256
 62
   257
300
ANSI31
 40
1.0
 90
        0
290
     0
290
     0
 90
        6
 40
0.0
 40
1.570796326794896
 40
0.2617993877991494
 40
1.308996938995747
 40
-0.2617993877991494
 40
1.832595714594046
  0
TABLESTYLE
  5
65
102
{ACAD_XDICTIONARY
360
10B
102
}
102
{ACAD_REACTORS
330
64
102
}
330
64
100
AcDbTableStyle
280
     0
  3
Standard
 70
     0
 71
     0
 40
0.06
 41
0.06
280
     0
281
     0
  7
Standard
140
0.18
170
     2
 62
     0
 63
     7
283
     0
 90
      512
 91
        0
  1

274
    -2
284
     1
 64
     0
275
    -2
285
     1
 65
     0
276
    -2
286
     1
 66
     0
277
    -2
287
     1
 67
     0
278
    -2
288
     1
 68
     0
279
    -2
289
     1
 69
     0
  7
Standard
140
0.25
170
     5
 62
     0
 63
     7
283
     0
 90
      512
 91
        0
  1

274
    -2
284
     1
 64
     0
275
    -2
285
     1
 65
     0
276
    -2
286
     1
 66
     0
277
    -2
287
     1
 67
     0
278
    -2
288
     1
 68
     0
279
    -2
289
     1
 69
     0
  7
Standard
140
0.18
170
     5
 62
     0
 63
     7
283
     0
 90
      512
 91
        0
  1

274
    -2
284
     1
 64
     0
275
    -2
285
     1
 65
     0
276
    -2
286
     1
 66
     0
277
    -2
287
     1
 67
     0
278
    -2
288
     1
 68
     0
279
    -2
289
     1
 69
     0
  0
VISUALSTYLE
  5
2F
102
{ACAD_REACTORS
330
29
102
}
330
29
100
AcDbVisualStyle
  2
2dWireframe
 70
     4
177
     3
291
     0
 70
    58
 90
        0
176
     1
 90
        2
176
     1
 90
        0
176
     1
 90
        0
176
     1
 40
0.6
176
     1
 40
30.0
176
     1
 62
     7
420
 16777215
176
     1
 90
        1
176
     1
 90
        4
176
     1
 62
     7
176
     1
 62
   257
176
     1
 90
        1
176
     1
 90
        1
176
     1
 40
1.0
176
     1
 90
        0
176
     1
 62
   257
176
     1
 40
1.0
176
     1
 90
        1
176
     1
 90
        6
176
     1
 90
        2
176
     1
 62
     7
176
     1
 90
        5
176
     1
 90
        0
176
     1
 90
        0
176
     1
290
     0
176
     1
 90
        1
176
     1
 40
0.0
176
     1
 90
        0
176
     1
290
     1
176
     1
290
     1
176
     1
290
     0
176
     1
290
     0
176
     1
290
     0
176
     1
290
     0
176
     1
290
     0
176
     1
290
     0
176
     1
290
     0
176
     1
 90
       50
176
     1
 40
0.0
176
     1
 40
1.0
176
     1
 90
        0
176
     1
 62
    18
420
        0
176
     1
 90
       50
176
     1
 90
        3
176
     1
 62
     5
420
      255
176
     1
290
     0
176
     1
 90
       50
176
     1
 90
       50
176
     1
 90
       50
176
     1
290
     0
176
     1
 90
       50
176
     1
 62
   256
176
     0
 40
1.0
176
     0
 90
        2
176
     1
  1
strokes_ogs.tif
176
     1
290
     0
176
     1
 40
1.0
176
     1
 40
1.0
176
     1
  0
VISUALSTYLE
  5
2E
102
{ACAD_REACTORS
330
29
102
}
330
29
100
AcDbVisualStyle
  2
Basic
 70
     7
177
     3
291
     1
 70
    58
 90
        1
176
     1
 90
        0
176
     1
 90
        1
176
     1
 90
        0
176
     1
 40
0.6
176
     1
 40
30.0
176
     1
 62
     7
420
 16777215
176
     1
 90
        0
176
     1
 90
        4
176
     1
 62
     7
176
     1
 62
   257
176
     1
 90
        1
176
     1
 90
        1
176
     1
 40
1.0
176
     1
 90
        8
176
     1
 62
     7
176
     1
 40
1.0
176
     1
 90
        1
176
     1
 90
        6
176
     1
 90
        2
176
     1
 62
     7
176
     1
 90
        5
176
     1
 90
        0
176
     1
 90
        0
176
     1
290
     0
176
     1
 90
        1
176
     1
 40
0.0
176
     1
 90
        0
176
     1
290
     0
176
     1
290
     1
176
     1
290
     1
176
     1
290
     0
176
     1
290
     0
176
     1
290
     0
176
     1
290
     0
176
     1
290
     0
176
     1
290
     0
176
     1
 90
       50
176
     1
 40
0.0
176
     1
 40
1.0
176
     1
 90
        0
176
     1
 62
    18
420
        0
176
     1
 90
       50
176
     1
 90
        3
176
     1
 62
     5
420
      255
176
     1
290
     0
176
     1
 90
       50
176
     1
 90
       50
176
     1
 90
       50
176
     1
290
     0
176
     1
 90
       50
176
     1
 62
   256
176
     0
 40
1.0
176
     0
 90
        2
176
     1
  1
strokes_ogs.tif
176
     1
290
     0
176
     1
 40
1.0
176
     1
 40
1.0
176
     1
  0
VISUALSTYLE
  5
35
102
{ACAD_REACTORS
330
29
102
}
330
29
100
AcDbVisualStyle
  2
Brighten
 70
    12
177
     3
291
     1
 70
    58
 90
        2
176
     1
 90
        2
176
     1
 90
        0
176
     1
 90
        0
176
     1
 40
0.6
176
     1
 40
30.0
176
     1
 62
     7
420
 16777215
176
     1
 90
        1
176
     1
 90
        4
176
     1
 62
     7
176
     1
 62
   257
176
     1
 90
        1
176
     1
 90
        1
176
     1
 40
1.0
176
     1
 90
        8
176
     1
 62
     7
176
     1
 40
1.0
176
     1
 90
        1
176
     1
 90
        6
176
     1
 90
        2
176
     1
 62
     7
176
     1
 90
        5
176
     1
 90
        0
176
     1
 90
        0
176
     1
290
     0
176
     1
 90
        1
176
     1
 40
50.0
176
     1
 90
        0
176
     1
290
     0
176
     1
290
     1
176
     1
290
     1
176
     1
290
     0
176
     1
290
     0
176
     1
290
     0
176
     1
290
     0
176
     1
290
     0
176
     1
290
     0
176
     1
 90
       50
176
     1
 40
0.0
176
     1
 40
1.0
176
     1
 90
        0
176
     1
 62
    18
420
        0
176
     1
 90
       50
176
     1
 90
        3
176
     1
 62
     5
420
      255
176
     1
290
     0
176
     1
 90
       50
176
     1
 90
       50
176
     1
 90
       50
176
     1
290
     0
176
     1
 90
       50
176
     1
 62
   256
176
     0
 40
1.0
176
     0
 90
        2
176
     1
  1
strokes_ogs.tif
176
     1
290
     0
176
     1
 40
1.0
176
     1
 40
1.0
176
     1
  0
VISUALSTYLE
  5
39
102
{ACAD_REACTORS
330
29
102
}
330
29
100
AcDbVisualStyle
  2
ColorChange
 70
    16
177
     3
291
     1
 70
    58
 90
        2
176
     1
 90
        2
176
     1
 90
        3
176
     1
 90
        0
176
     1
 40
0.6
176
     1
 40
30.0
176
     1
 62
     8
420
  8421504
176
     1
 90
        1
176
     1
 90
        4
176
     1
 62
     7
176
     1
 62
   257
176
     1
 90
        1
176
     1
 90
        1
176
     1
 40
1.0
176
     1
 90
        8
176
     1
 62
     8
420
  8421504
176
     1
 40
1.0
176
     1
 90
        1
176
     1
 90
        6
176
     1
 90
        2
176
     1
 62
     7
176
     1
 90
        5
176
     1
 90
        0
176
     1
 90
        0
176
     1
290
     0
176
     1
 90
        1
176
     1
 40
0.0
176
     1
 90
        0
176
     1
290
     0
176
     1
290
     1
176
     1
290
     1
176
     1
290
     0
176
     1
290
     0
176
     1
290
     0
176
     1
290
     0
176
     1
290
     0
176
     1
290
     0
176
     1
 90
       50
176
     1
 40
0.0
176
     1
 40
1.0
176
     1
 90
        0
176
     1
 62
    18
420
        0
176
     1
 90
       50
176
     1
 90
        3
176
     1
 62
     5
420
      255
176
     1
290
     0
176
     1
 90
       50
176
     1
 90
       50
176
     1
 90
       50
176
     1
290
     0
176
     1
 90
       50
176
     1
 62
   256
176
     0
 40
1.0
176
     0
 90
        2
176
     1
  1
strokes_ogs.tif
176
     1
290
     0
176
     1
 40
1.0
176
     1
 40
1.0
176
     1
  0
VISUALSTYLE
  5
32
102
{ACAD_REACTORS
330
29
102
}
330
29
100
AcDbVisualStyle
  2
Conceptual
 70
     9
177
     3
291
     0
 70
    58
 90
        3
176
     1
 90
        2
176
     1
 90
        0
176
     1
 90
        0
176
     1
 40
0.6
176
     1
 40
30.0
176
     1
 62
     7
420
 16777215
176
     1
 90
        2
176
     1
 90
        2
176
     1
 62
     7
176
     1
 62
   257
176
     1
 90
        1
176
     1
 90
        1
176
     1
 40
179.0
176
     1
 90
        8
176
     1
 62
     7
176
     1
 40
1.0
176
     1
 90
        1
176
     1
 90
        6
176
     1
 90
        2
176
     1
 62
     7
176
     1
 90
        3
176
     1
 90
        0
176
     1
 90
        0
176
     1
290
     0
176
     1
 90
        1
176
     1
 40
0.0
176
     1
 90
        0
176
     1
290
     0
176
     1
290
     1
176
     1
290
     1
176
     1
290
     0
176
     1
290
     0
176
     1
290
     0
176
     1
290
     0
176
     1
290
     0
176
     1
290
     0
176
     1
 90
       50
176
     1
 40
0.0
176
     1
 40
1.0
176
     1
 90
        0
176
     1
 62
    18
420
        0
176
     1
 90
       50
176
     1
 90
        3
176
     1
 62
     5
420
      255
176
     1
290
     0
176
     1
 90
       50
176
     1
 90
       50
176
     1
 90
       50
176
     1
290
     0
176
     1
 90
       50
176
     1
 62
   256
176
     0
 40
1.0
176
     0
 90
        2
176
     1
  1
strokes_ogs.tif
176
     1
290
     0
176
     1
 40
1.0
176
     1
 40
1.0
176
     1
  0
VISUALSTYLE
  5
34
102
{ACAD_REACTORS
330
29
102
}
330
29
100
AcDbVisualStyle
  2
Dim
 70
    11
177
     3
291
     1
 70
    58
 90
        2
176
     1
 90
        2
176
     1
 90
        0
176
     1
 90
        0
176
     1
 40
0.6
176
     1
 40
30.0
176
     1
 62
     7
420
 16777215
176
     1
 90
        1
176
     1
 90
        4
176
     1
 62
     7
176
     1
 62
   257
176
     1
 90
        1
176
     1
 90
        1
176
     1
 40
1.0
176
     1
 90
        8
176
     1
 62
     7
176
     1
 40
1.0
176
     1
 90
        1
176
     1
 90
        6
176
     1
 90
        2
176
     1
 62
     7
176
     1
 90
        5
176
     1
 90
        0
176
     1
 90
        0
176
     1
290
     0
176
     1
 90
        1
176
     1
 40
-50.0
176
     1
 90
        0
176
     1
290
     0
176
     1
290
     1
176
     1
290
     1
176
     1
290
     0
176
     1
290
     0
176
     1
290
     0
176
     1
290
     0
176
     1
290
     0
176
     1
290
     0
176
     1
 90
       50
176
     1
 40
0.0
176
     1
 40
1.0
176
     1
 90
        0
176
     1
 62
    18
420
        0
176
     1
 90
       50
176
     1
 90
        3
176
     1
 62
     5
420
      255
176
     1
290
     0
176
     1
 90
       50
176
     1
 90
       50
176
     1
 90
       50
176
     1
290
     0
176
     1
 90
       50
176
     1
 62
   256
176
     0
 40
1.0
176
     0
 90
        2
176
     1
  1
strokes_ogs.tif
176
     1
290
     0
176
     1
 40
1.0
176
     1
 40
1.0
176
     1
  0
VISUALSTYLE
  5
41
102
{ACAD_REACTORS
330
29
102
}
330
29
100
AcDbVisualStyle
  2
EdgeColorOff
 70
    22
177
     3
291
     1
 70
    58
 90
        2
176
     0
 90
        2
176
     0
 90
        0
176
     0
 90
        0
176
     0
 40
0.6
176
     0
 40
30.0
176
     0
 62
     7
420
 16777215
176
     0
 90
        1
176
     0
 90
        4
176
     0
 62
     7
176
     0
 62
   257
176
     0
 90
        1
176
     0
 90
        1
176
     0
 40
1.0
176
     0
 90
        8
176
     2
 62
     7
176
     0
 40
1.0
176
     0
 90
        1
176
     0
 90
        6
176
     0
 90
        2
176
     0
 62
     7
176
     0
 90
        5
176
     0
 90
        0
176
     0
 90
        0
176
     0
290
     0
176
     0
 90
        1
176
     0
 40
0.0
176
     0
 90
        0
176
     0
290
     0
176
     0
290
     1
176
     0
290
     1
176
     0
290
     0
176
     0
290
     0
176
     0
290
     0
176
     0
290
     0
176
     0
290
     0
176
     0
290
     0
176
     0
 90
       50
176
     0
 40
0.0
176
     0
 40
1.0
176
     0
 90
        0
176
     0
 62
    18
420
        0
176
     0
 90
       50
176
     0
 90
        3
176
     0
 62
     5
420
      255
176
     0
290
     0
176
     0
 90
       50
176
     0
 90
       50
176
     0
 90
       50
176
     0
290
     0
176
     0
 90
       50
176
     0
 62
   256
176
     0
 40
1.0
176
     0
 90
        2
176
     0
  1
strokes_ogs.tif
176
     0
290
     0
176
     0
 40
1.0
176
     0
 40
1.0
176
     0
  0
VISUALSTYLE
  5
38
102
{ACAD_REACTORS
330
29
102
}
330
29
100
AcDbVisualStyle
  2
Facepattern
 70
    15
177
     3
291
     1
 70
    58
 90
        2
176
     1
 90
        2
176
     1
 90
        0
176
     1
 90
        0
176
     1
 40
0.6
176
     1
 40
30.0
176
     1
 62
     7
420
 16777215
176
     1
 90
        1
176
     1
 90
        4
176
     1
 62
     7
176
     1
 62
   257
176
     1
 90
        1
176
     1
 90
        1
176
     1
 40
1.0
176
     1
 90
        8
176
     1
 62
     7
176
     1
 40
1.0
176
     1
 90
        1
176
     1
 90
        6
176
     1
 90
        2
176
     1
 62
     7
176
     1
 90
        5
176
     1
 90
        0
176
     1
 90
        0
176
     1
290
     0
176
     1
 90
        1
176
     1
 40
0.0
176
     1
 90
        0
176
     1
290
     0
176
     1
290
     1
176
     1
290
     1
176
     1
290
     0
176
     1
290
     0
176
     1
290
     0
176
     1
290
     0
176
     1
290
     0
176
     1
290
     0
176
     1
 90
       50
176
     1
 40
0.0
176
     1
 40
1.0
176
     1
 90
        0
176
     1
 62
    18
420
        0
176
     1
 90
       50
176
     1
 90
        3
176
     1
 62
     5
420
      255
176
     1
290
     0
176
     1
 90
       50
176
     1
 90
       50
176
     1
 90
       50
176
     1
290
     0
176
     1
 90
       50
176
     1
 62
   256
176
     0
 40
1.0
176
     0
 90
        2
176
     1
  1
strokes_ogs.tif
176
     1
290
     0
176
     1
 40
1.0
176
     1
 40
1.0
176
     1
  0
VISUALSTYLE
  5
2A
102
{ACAD_REACTORS
330
29
102
}
330
29
100
AcDbVisualStyle
  2
Flat
 70
     0
177
     3
291
     1
 70
    58
 90
        2
176
     1
 90
        1
176
     1
 90
        1
176
     1
 90
        2
176
     1
 40
0.6
176
     1
 40
30.0
176
     1
 62
     7
420
 16777215
176
     1
 90
        0
176
     1
 90
        0
176
     1
 62
     7
176
     1
 62
   257
176
     1
 90
        1
176
     1
 90
        1
176
     1
 40
1.0
176
     1
 90
        8
176
     1
 62
     7
176
     1
 40
1.0
176
     1
 90
        1
176
     1
 90
        6
176
     1
 90
        2
176
     1
 62
     7
176
     1
 90
        5
176
     1
 90
        0
176
     1
 90
        0
176
     1
290
     0
176
     1
 90
       13
176
     1
 40
0.0
176
     1
 90
        0
176
     1
290
     0
176
     1
290
     1
176
     1
290
     1
176
     1
290
     0
176
     1
290
     0
176
     1
290
     0
176
     1
290
     0
176
     1
290
     0
176
     1
290
     0
176
     1
 90
       50
176
     1
 40
0.0
176
     1
 40
1.0
176
     1
 90
        0
176
     1
 62
    18
420
        0
176
     1
 90
       50
176
     1
 90
        3
176
     1
 62
     5
420
      255
176
     1
290
     0
176
     1
 90
       50
176
     1
 90
       50
176
     1
 90
       50
176
     1
290
     0
176
     1
 90
       50
176
     1
 62
   256
176
     0
 40
1.0
176
     0
 90
        2
176
     1
  1
strokes_ogs.tif
176
     1
290
     0
176
     1
 40
1.0
176
     1
 40
1.0
176
     1
  0
VISUALSTYLE
  5
2B
102
{ACAD_REACTORS
330
29
102
}
330
29
100
AcDbVisualStyle
  2
FlatWithEdges
 70
     1
177
     3
291
     1
 70
    58
 90
        2
176
     1
 90
        1
176
     1
 90
        1
176
     1
 90
        2
176
     1
 40
0.6
176
     1
 40
30.0
176
     1
 62
     7
420
 16777215
176
     1
 90
        1
176
     1
 90
        0
176
     1
 62
     7
176
     1
 62
   257
176
     1
 90
        1
176
     1
 90
        1
176
     1
 40
1.0
176
     1
 90
        0
176
     1
 62
   257
176
     1
 40
1.0
176
     1
 90
        1
176
     1
 90
        6
176
     1
 90
        2
176
     1
 62
     7
176
     1
 90
        5
176
     1
 90
        0
176
     1
 90
        0
176
     1
290
     0
176
     1
 90
       13
176
     1
 40
0.0
176
     1
 90
        0
176
     1
290
     0
176
     1
290
     1
176
     1
290
     1
176
     1
290
     0
176
     1
290
     0
176
     1
290
     0
176
     1
290
     0
176
     1
290
     0
176
     1
290
     0
176
     1
 90
       50
176
     1
 40
0.0
176
     1
 40
1.0
176
     1
 90
        0
176
     1
 62
    18
420
        0
176
     1
 90
       50
176
     1
 90
        3
176
     1
 62
     5
420
      255
176
     1
290
     0
176
     1
 90
       50
176
     1
 90
       50
176
     1
 90
       50
176
     1
290
     0
176
     1
 90
       50
176
     1
 62
   256
176
     0
 40
1.0
176
     0
 90
        2
176
     1
  1
strokes_ogs.tif
176
     1
290
     0
176
     1
 40
1.0
176
     1
 40
1.0
176
     1
  0
VISUALSTYLE
  5
2C
102
{ACAD_REACTORS
330
29
102
}
330
29
100
AcDbVisualStyle
  2
Gouraud
 70
     2
177
     3
291
     1
 70
    58
 90
        2
176
     1
 90
        2
176
     1
 90
        1
176
     1
 90
        2
176
     1
 40
0.6
176
     1
 40
30.0
176
     1
 62
     7
420
 16777215
176
     1
 90
        0
176
     1
 90
        0
176
     1
 62
     7
176
     1
 62
   257
176
     1
 90
        1
176
     1
 90
        1
176
     1
 40
1.0
176
     1
 90
        0
176
     1
 62
     7
176
     1
 40
1.0
176
     1
 90
        1
176
     1
 90
        6
176
     1
 90
        2
176
     1
 62
     7
176
     1
 90
        5
176
     1
 90
        0
176
     1
 90
        0
176
     1
290
     0
176
     1
 90
       13
176
     1
 40
0.0
176
     1
 90
        0
176
     1
290
     0
176
     1
290
     1
176
     1
290
     1
176
     1
290
     0
176
     1
290
     0
176
     1
290
     0
176
     1
290
     0
176
     1
290
     0
176
     1
290
     0
176
     1
 90
       50
176
     1
 40
0.0
176
     1
 40
1.0
176
     1
 90
        0
176
     1
 62
    18
420
        0
176
     1
 90
       50
176
     1
 90
        3
176
     1
 62
     5
420
      255
176
     1
290
     0
176
     1
 90
       50
176
     1
 90
       50
176
     1
 90
       50
176
     1
290
     0
176
     1
 90
       50
176
     1
 62
   256
176
     0
 40
1.0
176
     0
 90
        2
176
     1
  1
strokes_ogs.tif
176
     1
290
     0
176
     1
 40
1.0
176
     1
 40
1.0
176
     1
  0
VISUALSTYLE
  5
2D
102
{ACAD_REACTORS
330
29
102
}
330
29
100
AcDbVisualStyle
  2
GouraudWithEdges
 70
     3
177
     3
291
     1
 70
    58
 90
        2
176
     1
 90
        2
176
     1
 90
        1
176
     1
 90
        2
176
     1
 40
0.6
176
     1
 40
30.0
176
     1
 62
     7
420
 16777215
176
     1
 90
        1
176
     1
 90
        0
176
     1
 62
     7
176
     1
 62
   257
176
     1
 90
        1
176
     1
 90
        1
176
     1
 40
1.0
176
     1
 90
        0
176
     1
 62
   257
176
     1
 40
1.0
176
     1
 90
        1
176
     1
 90
        6
176
     1
 90
        2
176
     1
 62
     7
176
     1
 90
        5
176
     1
 90
        0
176
     1
 90
        0
176
     1
290
     0
176
     1
 90
       13
176
     1
 40
0.0
176
     1
 90
        0
176
     1
290
     0
176
     1
290
     1
176
     1
290
     1
176
     1
290
     0
176
     1
290
     0
176
     1
290
     0
176
     1
290
     0
176
     1
290
     0
176
     1
290
     0
176
     1
 90
       50
176
     1
 40
0.0
176
     1
 40
1.0
176
     1
 90
        0
176
     1
 62
    18
420
        0
176
     1
 90
       50
176
     1
 90
        3
176
     1
 62
     5
420
      255
176
     1
290
     0
176
     1
 90
       50
176
     1
 90
       50
176
     1
 90
       50
176
     1
290
     0
176
     1
 90
       50
176
     1
 62
   256
176
     0
 40
1.0
176
     0
 90
        2
176
     1
  1
strokes_ogs.tif
176
     1
290
     0
176
     1
 40
1.0
176
     1
 40
1.0
176
     1
  0
VISUALSTYLE
  5
31
102
{ACAD_REACTORS
330
29
102
}
330
29
100
AcDbVisualStyle
  2
Hidden
 70
     6
177
     3
291
     0
 70
    58
 90
        1
176
     1
 90
        2
176
     1
 90
        2
176
     1
 90
        0
176
     1
 40
0.6
176
     1
 40
30.0
176
     1
 62
     7
420
 16777215
176
     1
 90
        2
176
     1
 90
        2
176
     1
 62
     7
176
     1
 62
   257
176
     1
 90
        2
176
     1
 90
        1
176
     1
 40
40.0
176
     1
 90
        0
176
     1
 62
   257
176
     1
 40
1.0
176
     1
 90
        1
176
     1
 90
        6
176
     1
 90
        2
176
     1
 62
     7
176
     1
 90
        3
176
     1
 90
        0
176
     1
 90
        0
176
     1
290
     0
176
     1
 90
        1
176
     1
 40
0.0
176
     1
 90
        0
176
     1
290
     0
176
     1
290
     1
176
     1
290
     1
176
     1
290
     0
176
     1
290
     0
176
     1
290
     0
176
     1
290
     0
176
     1
290
     0
176
     1
290
     0
176
     1
 90
       50
176
     1
 40
0.0
176
     1
 40
1.0
176
     1
 90
        0
176
     1
 62
    18
420
        0
176
     1
 90
       50
176
     1
 90
        3
176
     1
 62
     5
420
      255
176
     1
290
     0
176
     1
 90
       50
176
     1
 90
       50
176
     1
 90
       50
176
     1
290
     0
176
     1
 90
       50
176
     1
 62
   256
176
     0
 40
1.0
176
     0
 90
        2
176
     1
  1
strokes_ogs.tif
176
     1
290
     0
176
     1
 40
1.0
176
     1
 40
1.0
176
     1
  0
VISUALSTYLE
  5
3F
102
{ACAD_REACTORS
330
29
102
}
330
29
100
AcDbVisualStyle
  2
JitterOff
 70
    20
177
     3
291
     1
 70
    58
 90
        2
176
     0
 90
        2
176
     0
 90
        0
176
     0
 90
        0
176
     0
 40
0.6
176
     0
 40
30.0
176
     0
 62
     7
420
 16777215
176
     0
 90
        1
176
     0
 90
        4
176
     0
 62
     7
176
     0
 62
   257
176
     0
 90
        1
176
     0
 90
        1
176
     0
 40
1.0
176
     0
 90
       10
176
     2
 62
     7
176
     0
 40
1.0
176
     0
 90
        1
176
     0
 90
        6
176
     0
 90
        2
176
     0
 62
     7
176
     0
 90
        5
176
     0
 90
        0
176
     0
 90
        0
176
     0
290
     0
176
     0
 90
        1
176
     0
 40
0.0
176
     0
 90
        0
176
     0
290
     0
176
     0
290
     1
176
     0
290
     1
176
     0
290
     0
176
     0
290
     0
176
     0
290
     0
176
     0
290
     0
176
     0
290
     0
176
     0
290
     0
176
     0
 90
       50
176
     0
 40
0.0
176
     0
 40
1.0
176
     0
 90
        0
176
     0
 62
    18
420
        0
176
     0
 90
       50
176
     0
 90
        3
176
     0
 62
     5
420
      255
176
     0
290
     0
176
     0
 90
       50
176
     0
 90
       50
176
     0
 90
       50
176
     0
290
     0
176
     0
 90
       50
176
     0
 62
   256
176
     0
 40
1.0
176
     0
 90
        2
176
     0
  1
strokes_ogs.tif
176
     0
290
     0
176
     0
 40
1.0
176
     0
 40
1.0
176
     0
  0
VISUALSTYLE
  5
37
102
{ACAD_REACTORS
330
29
102
}
330
29
100
AcDbVisualStyle
  2
Linepattern
 70
    14
177
     3
291
     1
 70
    58
 90
        2
176
     1
 90
        2
176
     1
 90
        0
176
     1
 90
        0
176
     1
 40
0.6
176
     1
 40
30.0
176
     1
 62
     7
420
 16777215
176
     1
 90
        1
176
     1
 90
        4
176
     1
 62
     7
176
     1
 62
   257
176
     1
 90
        7
176
     1
 90
        7
176
     1
 40
1.0
176
     1
 90
        8
176
     1
 62
     7
176
     1
 40
1.0
176
     1
 90
        1
176
     1
 90
        6
176
     1
 90
        2
176
     1
 62
     7
176
     1
 90
        5
176
     1
 90
        0
176
     1
 90
        0
176
     1
290
     0
176
     1
 90
        1
176
     1
 40
0.0
176
     1
 90
        0
176
     1
290
     0
176
     1
290
     1
176
     1
290
     1
176
     1
290
     0
176
     1
290
     0
176
     1
290
     0
176
     1
290
     0
176
     1
290
     0
176
     1
290
     0
176
     1
 90
       50
176
     1
 40
0.0
176
     1
 40
1.0
176
     1
 90
        0
176
     1
 62
    18
420
        0
176
     1
 90
       50
176
     1
 90
        3
176
     1
 62
     5
420
      255
176
     1
290
     0
176
     1
 90
       50
176
     1
 90
       50
176
     1
 90
       50
176
     1
290
     0
176
     1
 90
       50
176
     1
 62
   256
176
     0
 40
1.0
176
     0
 90
        2
176
     1
  1
strokes_ogs.tif
176
     1
290
     0
176
     1
 40
1.0
176
     1
 40
1.0
176
     1
  0
VISUALSTYLE
  5
40
102
{ACAD_REACTORS
330
29
102
}
330
29
100
AcDbVisualStyle
  2
OverhangOff
 70
    21
177
     3
291
     1
 70
    58
 90
        2
176
     0
 90
        2
176
     0
 90
        0
176
     0
 90
        0
176
     0
 40
0.6
176
     0
 40
30.0
176
     0
 62
     7
420
 16777215
176
     0
 90
        1
176
     0
 90
        4
176
     0
 62
     7
176
     0
 62
   257
176
     0
 90
        1
176
     0
 90
        1
176
     0
 40
1.0
176
     0
 90
        9
176
     2
 62
     7
176
     0
 40
1.0
176
     0
 90
        1
176
     0
 90
        6
176
     0
 90
        2
176
     0
 62
     7
176
     0
 90
        5
176
     0
 90
        0
176
     0
 90
        0
176
     0
290
     0
176
     0
 90
        1
176
     0
 40
0.0
176
     0
 90
        0
176
     0
290
     0
176
     0
290
     1
176
     0
290
     1
176
     0
290
     0
176
     0
290
     0
176
     0
290
     0
176
     0
290
     0
176
     0
290
     0
176
     0
290
     0
176
     0
 90
       50
176
     0
 40
0.0
176
     0
 40
1.0
176
     0
 90
        0
176
     0
 62
    18
420
        0
176
     0
 90
       50
176
     0
 90
        3
176
     0
 62
     5
420
      255
176
     0
290
     0
176
     0
 90
       50
176
     0
 90
       50
176
     0
 90
       50
176
     0
290
     0
176
     0
 90
       50
176
     0
 62
   256
176
     0
 40
1.0
176
     0
 90
        2
176
     0
  1
strokes_ogs.tif
176
     0
290
     0
176
     0
 40
1.0
176
     0
 40
1.0
176
     0
  0
VISUALSTYLE
  5
33
102
{ACAD_REACTORS
330
29
102
}
330
29
100
AcDbVisualStyle
  2
Realistic
 70
     8
177
     3
291
     0
 70
    58
 90
        2
176
     1
 90
        3
176
     1
 90
        0
176
     1
 90
        2
176
     1
 40
0.6
176
     1
 40
30.0
176
     1
 62
     7
420
 16777215
176
     1
 90
        0
176
     1
 90
        0
176
     1
 62
     7
176
     1
 62
   257
176
     1
 90
        1
176
     1
 90
        1
176
     1
 40
1.0
176
     1
 90
        8
176
     1
 62
   257
176
     1
 40
1.0
176
     1
 90
        1
176
     1
 90
        6
176
     1
 90
        2
176
     1
 62
     7
176
     1
 90
        3
176
     1
 90
        0
176
     1
 90
        0
176
     1
290
     0
176
     1
 90
       13
176
     1
 40
0.0
176
     1
 90
        0
176
     1
290
     0
176
     1
290
     1
176
     1
290
     1
176
     1
290
     0
176
     1
290
     0
176
     1
290
     0
176
     1
290
     0
176
     1
290
     0
176
     1
290
     0
176
     1
 90
       50
176
     1
 40
0.0
176
     1
 40
1.0
176
     1
 90
        0
176
     1
 62
    18
420
        0
176
     1
 90
       50
176
     1
 90
        3
176
     1
 62
     5
420
      255
176
     1
290
     0
176
     1
 90
       50
176
     1
 90
       50
176
     1
 90
       50
176
     1
290
     0
176
     1
 90
       50
176
     1
 62
   256
176
     0
 40
1.0
176
     0
 90
        2
176
     1
  1
strokes_ogs.tif
176
     1
290
     0
176
     1
 40
1.0
176
     1
 40
1.0
176
     1
  0
VISUALSTYLE
  5
3E
102
{ACAD_REACTORS
330
29
102
}
330
29
100
AcDbVisualStyle
  2
Shaded
 70
    27
177
     3
291
     0
 70
    58
 90
        2
176
     1
 90
        2
176
     1
 90
        1
176
     1
 90
        2
176
     1
 40
0.6
176
     1
 40
30.0
176
     1
 62
     7
420
 16777215
176
     1
 90
        0
176
     1
 90
        4
176
     1
 62
     7
176
     1
 62
   257
176
     1
 90
        1
176
     1
 90
        1
176
     1
 40
1.0
176
     1
 90
        8
176
     1
 62
   257
176
     1
 40
1.0
176
     1
 90
        1
176
     1
 90
        6
176
     1
 90
        2
176
     1
 62
     8
420
  7895160
176
     1
 90
        3
176
     1
 90
        0
176
     1
 90
        0
176
     1
290
     0
176
     1
 90
        5
176
     1
 40
0.0
176
     1
 90
        0
176
     1
290
     0
176
     1
290
     1
176
     1
290
     1
176
     1
290
     0
176
     1
290
     0
176
     1
290
     0
176
     1
290
     0
176
     1
290
     0
176
     1
290
     0
176
     1
 90
       50
176
     1
 40
0.0
176
     1
 40
1.0
176
     1
 90
        0
176
     1
 62
    18
420
        0
176
     1
 90
       50
176
     1
 90
        3
176
     1
 62
     5
420
      255
176
     1
290
     0
176
     1
 90
       50
176
     1
 90
       50
176
     1
 90
       50
176
     1
290
     0
176
     1
 90
       50
176
     1
 62
   256
176
     0
 40
1.0
176
     0
 90
        2
176
     1
  1
strokes_ogs.tif
176
     1
290
     0
176
     1
 40
1.0
176
     1
 40
1.0
176
     1
  0
VISUALSTYLE
  5
3D
102
{ACAD_REACTORS
330
29
102
}
330
29
100
AcDbVisualStyle
  2
Shaded with edges
 70
    26
177
     3
291
     0
 70
    58
 90
        2
176
     1
 90
        2
176
     1
 90
        1
176
     1
 90
        2
176
     1
 40
0.6
176
     1
 40
30.0
176
     1
 62
     7
420
 16777215
176
     1
 90
        1
176
     1
 90
        2
176
     1
 62
     7
176
     1
 62
   257
176
     1
 90
        2
176
     1
 90
        1
176
     1
 40
1.0
176
     1
 90
        8
176
     1
 62
   257
176
     1
 40
1.0
176
     1
 90
        1
176
     1
 90
        6
176
     1
 90
        2
176
     1
 62
     7
176
     1
 90
        3
176
     1
 90
        0
176
     1
 90
        0
176
     1
290
     0
176
     1
 90
        5
176
     1
 40
0.0
176
     1
 90
        0
176
     1
290
     0
176
     1
290
     1
176
     1
290
     1
176
     1
290
     0
176
     1
290
     0
176
     1
290
     0
176
     1
290
     0
176
     1
290
     0
176
     1
290
     0
176
     1
 90
       50
176
     1
 40
0.0
176
     1
 40
1.0
176
     1
 90
        0
176
     1
 62
    18
420
        0
176
     1
 90
       50
176
     1
 90
        3
176
     1
 62
     5
420
      255
176
     1
290
     0
176
     1
 90
       50
176
     1
 90
       50
176
     1
 90
       50
176
     1
290
     0
176
     1
 90
       50
176
     1
 62
   256
176
     0
 40
1.0
176
     0
 90
        2
176
     1
  1
strokes_ogs.tif
176
     1
290
     0
176
     1
 40
1.0
176
     1
 40
1.0
176
     1
  0
VISUALSTYLE
  5
3A
102
{ACAD_REACTORS
330
29
102
}
330
29
100
AcDbVisualStyle
  2
Shades of Gray
 70
    23
177
     3
291
     0
 70
    58
 90
        2
176
     1
 90
        2
176
     1
 90
        3
176
     1
 90
        0
176
     1
 40
0.6
176
     1
 40
30.0
176
     1
 62
     7
420
 16777215
176
     1
 90
        2
176
     1
 90
        2
176
     1
 62
     7
176
     1
 62
     7
176
     1
 90
        1
176
     1
 90
        1
176
     1
 40
40.0
176
     1
 90
        8
176
     1
 62
     7
176
     1
 40
1.0
176
     1
 90
        1
176
     1
 90
        6
176
     1
 90
        2
176
     1
 62
     7
176
     1
 90
        3
176
     1
 90
        0
176
     1
 90
        0
176
     1
290
     0
176
     1
 90
        1
176
     1
 40
0.0
176
     1
 90
        0
176
     1
290
     0
176
     1
290
     1
176
     1
290
     1
176
     1
290
     0
176
     1
290
     0
176
     1
290
     0
176
     1
290
     0
176
     1
290
     0
176
     1
290
     0
176
     1
 90
       50
176
     1
 40
0.0
176
     1
 40
1.0
176
     1
 90
        0
176
     1
 62
    18
420
        0
176
     1
 90
       50
176
     1
 90
        3
176
     1
 62
     5
420
      255
176
     1
290
     0
176
     1
 90
       50
176
     1
 90
       50
176
     1
 90
       50
176
     1
290
     0
176
     1
 90
       50
176
     1
 62
   256
176
     0
 40
1.0
176
     0
 90
        2
176
     1
  1
strokes_ogs.tif
176
     1
290
     0
176
     1
 40
1.0
176
     1
 40
1.0
176
     1
  0
VISUALSTYLE
  5
3B
102
{ACAD_REACTORS
330
29
102
}
330
29
100
AcDbVisualStyle
  2
Sketchy
 70
    24
177
     3
291
     0
 70
    58
 90
        1
176
     1
 90
        2
176
     1
 90
        2
176
     1
 90
        0
176
     1
 40
0.6
176
     1
 40
30.0
176
     1
 62
     7
420
 16777215
176
     1
 90
        2
176
     1
 90
        2
176
     1
 62
     7
176
     1
 62
     7
176
     1
 90
        1
176
     1
 90
        1
176
     1
 40
40.0
176
     1
 90
       11
176
     1
 62
     7
176
     1
 40
1.0
176
     1
 90
        1
176
     1
 90
        6
176
     1
 90
        2
176
     1
 62
     7
176
     1
 90
        6
176
     1
 90
        0
176
     1
 90
        0
176
     1
290
     0
176
     1
 90
        1
176
     1
 40
0.0
176
     1
 90
        0
176
     1
290
     0
176
     1
290
     1
176
     1
290
     1
176
     1
290
     0
176
     1
290
     0
176
     1
290
     0
176
     1
290
     0
176
     1
290
     0
176
     1
290
     0
176
     1
 90
       50
176
     1
 40
0.0
176
     1
 40
1.0
176
     1
 90
        0
176
     1
 62
    18
420
        0
176
     1
 90
       50
176
     1
 90
        3
176
     1
 62
     5
420
      255
176
     1
290
     0
176
     1
 90
       50
176
     1
 90
       50
176
     1
 90
       50
176
     1
290
     0
176
     1
 90
       50
176
     1
 62
   256
176
     0
 40
1.0
176
     0
 90
        2
176
     1
  1
strokes_ogs.tif
176
     1
290
     0
176
     1
 40
1.0
176
     1
 40
1.0
176
     1
  0
VISUALSTYLE
  5
36
102
{ACAD_REACTORS
330
29
102
}
330
29
100
AcDbVisualStyle
  2
Thicken
 70
    13
177
     3
291
     1
 70
    58
 90
        2
176
     1
 90
        2
176
     1
 90
        0
176
     1
 90
        0
176
     1
 40
0.6
176
     1
 40
30.0
176
     1
 62
     7
420
 16777215
176
     1
 90
        1
176
     1
 90
        4
176
     1
 62
     7
176
     1
 62
   257
176
     1
 90
        1
176
     1
 90
        1
176
     1
 40
1.0
176
     1
 90
       12
176
     1
 62
     7
176
     1
 40
1.0
176
     1
 90
        1
176
     1
 90
        6
176
     1
 90
        2
176
     1
 62
     7
176
     1
 90
        5
176
     1
 90
        0
176
     1
 90
        0
176
     1
290
     0
176
     1
 90
        1
176
     1
 40
0.0
176
     1
 90
        0
176
     1
290
     0
176
     1
290
     1
176
     1
290
     1
176
     1
290
     0
176
     1
290
     0
176
     1
290
     0
176
     1
290
     0
176
     1
290
     0
176
     1
290
     0
176
     1
 90
       50
176
     1
 40
0.0
176
     1
 40
1.0
176
     1
 90
        0
176
     1
 62
    18
420
        0
176
     1
 90
       50
176
     1
 90
        3
176
     1
 62
     5
420
      255
176
     1
290
     0
176
     1
 90
       50
176
     1
 90
       50
176
     1
 90
       50
176
     1
290
     0
176
     1
 90
       50
176
     1
 62
   256
176
     0
 40
1.0
176
     0
 90
        2
176
     1
  1
strokes_ogs.tif
176
     1
290
     0
176
     1
 40
1.0
176
     1
 40
1.0
176
     1
  0
VISUALSTYLE
  5
30
102
{ACAD_REACTORS
330
29
102
}
330
29
100
AcDbVisualStyle
  2
Wireframe
 70
     5
177
     3
291
     0
 70
    58
 90
        0
176
     1
 90
        2
176
     1
 90
        0
176
     1
 90
        0
176
     1
 40
0.6
176
     1
 40
30.0
176
     1
 62
     7
420
 16777215
176
     1
 90
        1
176
     1
 90
        4
176
     1
 62
     7
176
     1
 62
   257
176
     1
 90
        1
176
     1
 90
        1
176
     1
 40
1.0
176
     1
 90
        0
176
     1
 62
   257
176
     1
 40
1.0
176
     1
 90
        1
176
     1
 90
        6
176
     1
 90
        2
176
     1
 62
     7
176
     1
 90
        3
176
     1
 90
        0
176
     1
 90
        0
176
     1
290
     0
176
     1
 90
        1
176
     1
 40
0.0
176
     1
 90
        0
176
     1
290
     0
176
     1
290
     1
176
     1
290
     1
176
     1
290
     0
176
     1
290
     0
176
     1
290
     0
176
     1
290
     0
176
     1
290
     0
176
     1
290
     0
176
     1
 90
       50
176
     1
 40
0.0
176
     1
 40
1.0
176
     1
 90
        0
176
     1
 62
    18
420
        0
176
     1
 90
       50
176
     1
 90
        3
176
     1
 62
     5
420
      255
176
     1
290
     0
176
     1
 90
       50
176
     1
 90
       50
176
     1
 90
       50
176
     1
290
     0
176
     1
 90
       50
176
     1
 62
   256
176
     0
 40
1.0
176
     0
 90
        2
176
     1
  1
strokes_ogs.tif
176
     1
290
     0
176
     1
 40
1.0
176
     1
 40
1.0
176
     1
  0
VISUALSTYLE
  5
3C
102
{ACAD_REACTORS
330
29
102
}
330
29
100
AcDbVisualStyle
  2
X-Ray
 70
    25
177
     3
291
     0
 70
    58
 90
        2
176
     1
 90
        2
176
     1
 90
        1
176
     1
 90
        1
176
     1
 40
0.5
176
     1
 40
30.0
176
     1
 62
     7
420
 16777215
176
     1
 90
        1
176
     1
 90
        0
176
     1
 62
     7
176
     1
 62
   257
176
     1
 90
        1
176
     1
 90
        1
176
     1
 40
1.0
176
     1
 90
        8
176
     1
 62
     7
176
     1
 40
1.0
176
     1
 90
        1
176
     1
 90
        6
176
     1
 90
        2
176
     1
 62
     7
176
     1
 90
        3
176
     1
 90
        0
176
     1
 90
        0
176
     1
290
     0
176
     1
 90
       13
176
     1
 40
0.0
176
     1
 90
        0
176
     1
290
     0
176
     1
290
     1
176
     1
290
     1
176
     1
290
     0
176
     1
290
     0
176
     1
290
     0
176
     1
290
     0
176
     1
290
     0
176
     1
290
     0
176
     1
 90
       50
176
     1
 40
0.0
176
     1
 40
1.0
176
     1
 90
        0
176
     1
 62
    18
420
        0
176
     1
 90
       50
176
     1
 90
        3
176
     1
 62
     5
420
      255
176
     1
290
     0
176
     1
 90
       50
176
     1
 90
       50
176
     1
 90
       50
176
     1
290
     0
176
     1
 90
       50
176
     1
 62
   256
176
     0
 40
1.0
176
     0
 90
        2
176
     1
  1
strokes_ogs.tif
176
     1
290
     0
176
     1
 40
1.0
176
     1
 40
1.0
176
     1
  0
DICTIONARYVAR
  5
10A
102
{ACAD_REACTORS
330
105
102
}
330
105
100
DictionaryVariables
280
     0
  1
1:1
  0
DICTIONARYVAR
  5
107
102
{ACAD_REACTORS
330
105
102
}
330
105
100
DictionaryVariables
280
     0
  1
STANDARD
  0
DICTIONARYVAR
  5
106
102
{ACAD_REACTORS
330
105
102
}
330
105
100
DictionaryVariables
280
     0
  1
STANDARD
  0
DICTIONARYVAR
  5
108
102
{ACAD_REACTORS
330
105
102
}
330
105
100
DictionaryVariables
280
     0
  1
Imperial24
  0
DICTIONARYVAR
  5
109
102
{ACAD_REACTORS
330
105
102
}
330
105
100
DictionaryVariables
280
     0
  1
Imperial24
  0
DICTIONARY
  5
1A
330
19
100
AcDbDictionary
280
     1
281
     1
  3
BUMPTILE
360
1C
  3
DIFFUSETILE
360
1B
  3
OPACITYTILE
360
1F
  3
REFLECTIONTILE
360
1E
  3
REFRACTIONTILE
360
20
  3
SPECULARTILE
360
1D
  0
DICTIONARY
  5
12
330
11
100
AcDbDictionary
280
     1
281
     1
  3
BUMPTILE
360
14
  3
DIFFUSETILE
360
13
  3
OPACITYTILE
360
17
  3
REFLECTIONTILE
360
16
  3
REFRACTIONTILE
360
18
  3
SPECULARTILE
360
15
  0
DICTIONARY
  5
22
330
21
100
AcDbDictionary
280
     1
281
     1
  3
BUMPTILE
360
24
  3
DIFFUSETILE
360
23
  3
OPACITYTILE
360
27
  3
REFLECTIONTILE
360
26
  3
REFRACTIONTILE
360
28
  3
SPECULARTILE
360
25
  0
DICTIONARY
  5
10B
330
65
100
AcDbDictionary
280
     1
281
     1
  3
ACAD_ROUNDTRIP_2008_TABLESTYLE_CELLSTYLEMAP
360
10C
  0
XRECORD
  5
1C
102
{ACAD_REACTORS
330
1A
102
}
330
1A
100
AcDbXrecord
280
     1
270
     1
271
     1
  0
XRECORD
  5
1B
102
{ACAD_REACTORS
330
1A
102
}
330
1A
100
AcDbXrecord
280
     1
270
     1
271
     1
  0
XRECORD
  5
1F
102
{ACAD_REACTORS
330
1A
102
}
330
1A
100
AcDbXrecord
280
     1
270
     1
271
     1
  0
XRECORD
  5
1E
102
{ACAD_REACTORS
330
1A
102
}
330
1A
100
AcDbXrecord
280
     1
270
     1
271
     1
  0
XRECORD
  5
20
102
{ACAD_REACTORS
330
1A
102
}
330
1A
100
AcDbXrecord
280
     1
270
     1
271
     1
  0
XRECORD
  5
1D
102
{ACAD_REACTORS
330
1A
102
}
330
1A
100
AcDbXrecord
280
     1
270
     1
271
     1
  0
XRECORD
  5
14
102
{ACAD_REACTORS
330
12
102
}
330
12
100
AcDbXrecord
280
     1
270
     1
271
     1
  0
XRECORD
  5
13
102
{ACAD_REACTORS
330
12
102
}
330
12
100
AcDbXrecord
280
     1
270
     1
271
     1
  0
XRECORD
  5
17
102
{ACAD_REACTORS
330
12
102
}
330
12
100
AcDbXrecord
280
     1
270
     1
271
     1
  0
XRECORD
  5
16
102
{ACAD_REACTORS
330
12
102
}
330
12
100
AcDbXrecord
280
     1
270
     1
271
     1
  0
XRECORD
  5
18
102
{ACAD_REACTORS
330
12
102
}
330
12
100
AcDbXrecord
280
     1
270
     1
271
     1
  0
XRECORD
  5
15
102
{ACAD_REACTORS
330
12
102
}
330
12
100
AcDbXrecord
280
     1
270
     1
271
     1
  0
XRECORD
  5
24
102
{ACAD_REACTORS
330
22
102
}
330
22
100
AcDbXrecord
280
     1
270
     1
271
     1
  0
XRECORD
  5
23
102
{ACAD_REACTORS
330
22
102
}
330
22
100
AcDbXrecord
280
     1
270
     1
271
     1
  0
XRECORD
  5
27
102
{ACAD_REACTORS
330
22
102
}
330
22
100
AcDbXrecord
280
     1
270
     1
271
     1
  0
XRECORD
  5
26
102
{ACAD_REACTORS
330
22
102
}
330
22
100
AcDbXrecord
280
     1
270
     1
271
     1
  0
XRECORD
  5
28
102
{ACAD_REACTORS
330
22
102
}
330
22
100
AcDbXrecord
280
     1
270
     1
271
     1
  0
XRECORD
  5
25
102
{ACAD_REACTORS
330
22
102
}
330
22
100
AcDbXrecord
280
     1
270
     1
271
     1
  0
CELLSTYLEMAP
  5
10C
102
{ACAD_REACTORS
330
10B
102
}
330
10B
100
AcDbCellStyleMap
 90
        3
300
CELLSTYLE
  1
TABLEFORMAT_BEGIN
 90
        5
170
     1
 91
        0
 92
    32768
 62
   257
 93
        1
300
CONTENTFORMAT
  1
CONTENTFORMAT_BEGIN
 90
        0
 91
        0
 92
      512
 93
        0
300

 40
0.0
140
1.0
 94
        5
 62
     0
340
55
144
0.25
309
CONTENTFORMAT_END
171
     0
 94
        0
309
TABLEFORMAT_END
  1
CELLSTYLE_BEGIN
 90
        1
 91
        1
300
_TITLE
309
CELLSTYLE_END
300
CELLSTYLE
  1
TABLEFORMAT_BEGIN
 90
        5
170
     1
 91
        0
 92
        0
 62
   257
 93
        1
300
CONTENTFORMAT
  1
CONTENTFORMAT_BEGIN
 90
        0
 91
        0
 92
      512
 93
        0
300

 40
0.0
140
1.0
 94
        5
 62
     0
340
55
144
0.18
309
CONTENTFORMAT_END
171
     0
 94
        0
309
TABLEFORMAT_END
  1
CELLSTYLE_BEGIN
 90
        2
 91
        1
300
_HEADER
309
CELLSTYLE_END
300
CELLSTYLE
  1
TABLEFORMAT_BEGIN
 90
        5
170
     1
 91
        0
 92
        0
 62
   257
 93
        1
300
CONTENTFORMAT
  1
CONTENTFORMAT_BEGIN
 90
        0
 91
        0
 92
      512
 93
        0
300

 40
0.0
140
1.0
 94
        2
 62
     0
340
55
144
0.18
309
CONTENTFORMAT_END
171
     0
 94
        0
309
TABLEFORMAT_END
  1
CELLSTYLE_BEGIN
 90
        3
 91
        2
300
_DATA
309
CELLSTYLE_END
  0
ENDSEC
  0
EOF
