  0
SECTION
  2
HEADER
  9
$ACADVER
  1
AC1032
  9
$ACADMAINTVER
 90
      197
  9
$DWGCODEPAGE
  3
ANSI_1252
  9
$REQUIREDVERSIONS
160
                 0
  9
$INSBASE
 10
0.0
 20
0.0
 30
0.0
  9
$EXTMIN
 10
1.000000000000000E+20
 20
1.000000000000000E+20
 30
1.000000000000000E+20
  9
$EXTMAX
 10
-1.000000000000000E+20
 20
-1.000000000000000E+20
 30
-1.000000000000000E+20
  9
$LIMMIN
 10
0.0
 20
0.0
  9
$LIMMAX
 10
12.0
 20
9.0
  9
$ORTHOMODE
 70
     0
  9
$REGENMODE
 70
     1
  9
$FILLMODE
 70
     1
  9
$QTEXTMODE
 70
     0
  9
$MIRRTEXT
 70
     0
  9
$LTSCALE
 40
1.0
  9
$ATTMODE
 70
     1
  9
$TEXTSIZE
 40
0.2
  9
$TRACEWID
 40
0.05
  9
$TEXTSTYLE
  7
Standard
  9
$CLAYER
  8
0
  9
$CELTYPE
  6
ByLayer
  9
$CECOLOR
 62
   256
  9
$CELTSCALE
 40
1.0
  9
$DISPSILH
 70
     0
  9
$DIMSCALE
 40
1.0
  9
$DIMASZ
 40
0.18
  9
$DIMEXO
 40
0.0625
  9
$DIMDLI
 40
0.38
  9
$DIMRND
 40
0.0
  9
$DIMDLE
 40
0.0
  9
$DIMEXE
 40
0.18
  9
$DIMTP
 40
0.0
  9
$DIMTM
 40
0.0
  9
$DIMTXT
 40
0.18
  9
$DIMCEN
 40
0.09
  9
$DIMTSZ
 40
0.0
  9
$DIMTOL
 70
     0
  9
$DIMLIM
 70
     0
  9
$DIMTIH
 70
     1
  9
$DIMTOH
 70
     1
  9
$DIMSE1
 70
     0
  9
$DIMSE2
 70
     0
  9
$DIMTAD
 70
     0
  9
$DIMZIN
 70
     0
  9
$DIMBLK
  1

  9
$DIMASO
 70
     1
  9
$DIMSHO
 70
     1
  9
$DIMPOST
  1

  9
$DIMAPOST
  1

  9
$DIMALT
 70
     0
  9
$DIMALTD
 70
     2
  9
$DIMALTF
 40
25.4
  9
$DIMLFAC
 40
1.0
  9
$DIMTOFL
 70
     0
  9
$DIMTVP
 40
0.0
  9
$DIMTIX
 70
     0
  9
$DIMSOXD
 70
     0
  9
$DIMSAH
 70
     0
  9
$DIMBLK1
  1

  9
$DIMBLK2
  1

  9
$DIMSTYLE
  2
Standard
  9
$DIMCLRD
 70
     0
  9
$DIMCLRE
 70
     0
  9
$DIMCLRT
 70
     0
  9
$DIMTFAC
 40
1.0
  9
$DIMGAP
 40
0.09
  9
$DIMJUST
 70
     0
  9
$DIMSD1
 70
     0
  9
$DIMSD2
 70
     0
  9
$DIMTOLJ
 70
     1
  9
$DIMTZIN
 70
     0
  9
$DIMALTZ
 70
     0
  9
$DIMALTTZ
 70
     0
  9
$DIMUPT
 70
     0
  9
$DIMDEC
 70
     4
  9
$DIMTDEC
 70
     4
  9
$DIMALTU
 70
     2
  9
$DIMALTTD
 70
     2
  9
$DIMTXSTY
  7
Standard
  9
$DIMAUNIT
 70
     0
  9
$DIMADEC
 70
     0
  9
$DIMALTRND
 40
0.0
  9
$DIMAZIN
 70
     0
  9
$DIMDSEP
 70
    46
  9
$DIMATFIT
 70
     3
  9
$DIMFRAC
 70
     0
  9
$DIMLDRBLK
  1

  9
$DIMLUNIT
 70
     2
  9
$DIMLWD
 70
    -2
  9
$DIMLWE
 70
    -2
  9
$DIMTMOVE
 70
     0
  9
$DIMFXL
 40
1.0
  9
$DIMFXLON
 70
     0
  9
$DIMJOGANG
 40
0.7853981633974483
  9
$DIMTFILL
 70
     0
  9
$DIMTFILLCLR
 70
     0
  9
$DIMARCSYM
 70
     0
  9
$DIMLTYPE
  6

  9
$DIMLTEX1
  6

  9
$DIMLTEX2
  6

  9
$DIMTXTDIRECTION
 70
     0
  9
$LUNITS
 70
     2
  9
$LUPREC
 70
     4
  9
$SKETCHINC
 40
0.1
  9
$FILLETRAD
 40
0.0
  9
$AUNITS
 70
     0
  9
$AUPREC
 70
     0
  9
$MENU
  1
.
  9
$ELEVATION
 40
0.0
  9
$PELEVATION
 40
0.0
  9
$THICKNESS
 40
0.0
  9
$LIMCHECK
 70
     0
  9
$CHAMFERA
 40
0.0
  9
$CHAMFERB
 40
0.0
  9
$CHAMFERC
 40
0.0
  9
$CHAMFERD
 40
0.0
  9
$SKPOLY
 70
     0
  9
$TDCREATE
 40
2459627.644872685
  9
$TDUCREATE
 40
2459627.103206019
  9
$TDUPDATE
 40
2459627.644872685
  9
$TDUUPDATE
 40
2459627.103206019
  9
$TDINDWG
 40
0.0000000000
  9
$TDUSRTIMER
 40
0.0000000000
  9
$USRTIMER
 70
     1
  9
$ANGBASE
 50
0.0
  9
$ANGDIR
 70
     0
  9
$PDMODE
 70
     0
  9
$PDSIZE
 40
0.0
  9
$PLINEWID
 40
0.0
  9
$SPLFRAME
 70
     0
  9
$SPLINETYPE
 70
     6
  9
$SPLINESEGS
 70
     8
  9
$HANDSEED
  5
128
  9
$SURFTAB1
 70
     6
  9
$SURFTAB2
 70
     6
  9
$SURFTYPE
 70
     6
  9
$SURFU
 70
     6
  9
$SURFV
 70
     6
  9
$UCSBASE
  2

  9
$UCSNAME
  2

  9
$UCSORG
 10
0.0
 20
0.0
 30
0.0
  9
$UCSXDIR
 10
1.0
 20
0.0
 30
0.0
  9
$UCSYDIR
 10
0.0
 20
1.0
 30
0.0
  9
$UCSORTHOREF
  2

  9
$UCSORTHOVIEW
 70
     0
  9
$UCSORGTOP
 10
0.0
 20
0.0
 30
0.0
  9
$UCSORGBOTTOM
 10
0.0
 20
0.0
 30
0.0
  9
$UCSORGLEFT
 10
0.0
 20
0.0
 30
0.0
  9
$UCSORGRIGHT
 10
0.0
 20
0.0
 30
0.0
  9
$UCSORGFRONT
 10
0.0
 20
0.0
 30
0.0
  9
$UCSORGBACK
 10
0.0
 20
0.0
 30
0.0
  9
$PUCSBASE
  2

  9
$PUCSNAME
  2

  9
$PUCSORG
 10
0.0
 20
0.0
 30
0.0
  9
$PUCSXDIR
 10
1.0
 20
0.0
 30
0.0
  9
$PUCSYDIR
 10
0.0
 20
1.0
 30
0.0
  9
$PUCSORTHOREF
  2

  9
$PUCSORTHOVIEW
 70
     0
  9
$PUCSORGTOP
 10
0.0
 20
0.0
 30
0.0
  9
$PUCSORGBOTTOM
 10
0.0
 20
0.0
 30
0.0
  9
$PUCSORGLEFT
 10
0.0
 20
0.0
 30
0.0
  9
$PUCSORGRIGHT
 10
0.0
 20
0.0
 30
0.0
  9
$PUCSORGFRONT
 10
0.0
 20
0.0
 30
0.0
  9
$PUCSORGBACK
 10
0.0
 20
0.0
 30
0.0
  9
$USERI1
 70
     0
  9
$USERI2
 70
     0
  9
$USERI3
 70
     0
  9
$USERI4
 70
     0
  9
$USERI5
 70
     0
  9
$USERR1
 40
0.0
  9
$USERR2
 40
0.0
  9
$USERR3
 40
0.0
  9
$USERR4
 40
0.0
  9
$USERR5
 40
0.0
  9
$WORLDVIEW
 70
     1
  9
$SHADEDGE
 70
     3
  9
$SHADEDIF
 70
    70
  9
$TILEMODE
 70
     1
  9
$MAXACTVP
 70
    64
  9
$PINSBASE
 10
0.0
 20
0.0
 30
0.0
  9
$PLIMCHECK
 70
     0
  9
$PEXTMIN
 10
1.000000000000000E+20
 20
1.000000000000000E+20
 30
1.000000000000000E+20
  9
$PEXTMAX
 10
-1.000000000000000E+20
 20
-1.000000000000000E+20
 30
-1.000000000000000E+20
  9
$PLIMMIN
 10
0.0
 20
0.0
  9
$PLIMMAX
 10
12.0
 20
9.0
  9
$UNITMODE
 70
     0
  9
$VISRETAIN
 70
     1
  9
$PLINEGEN
 70
     0
  9
$PSLTSCALE
 70
     1
  9
$TREEDEPTH
 70
  3020
  9
$CMLSTYLE
  2
Standard
  9
$CMLJUST
 70
     0
  9
$CMLSCALE
 40
1.0
  9
$PROXYGRAPHICS
 70
     1
  9
$MEASUREMENT
 70
     0
  9
$CELWEIGHT
370
    -1
  9
$ENDCAPS
280
     0
  9
$JOINSTYLE
280
     0
  9
$LWDISPLAY
290
     1
  9
$INSUNITS
 70
     1
  9
$HYPERLINKBASE
  1

  9
$STYLESHEET
  1

  9
$XEDIT
290
     1
  9
$CEPSNTYPE
380
     0
  9
$PSTYLEMODE
290
     1
  9
$FINGERPRINTGUID
  2
{2653D075-7AEB-0949-AD05-B8BA7AF674C9}
  9
$VERSIONGUID
  2
{A402E817-13C0-714B-8D64-BB5C013FC03B}
  9
$EXTNAMES
290
     1
  9
$PSVPSCALE
 40
0.0
  9
$OLESTARTUP
290
     0
  9
$SORTENTS
280
   127
  9
$INDEXCTL
280
     0
  9
$HIDETEXT
280
     1
  9
$XCLIPFRAME
280
     2
  9
$HALOGAP
280
     0
  9
$OBSCOLOR
 70
   257
  9
$OBSLTYPE
280
     0
  9
$INTERSECTIONDISPLAY
280
     0
  9
$INTERSECTIONCOLOR
 70
   257
  9
$DIMASSOC
280
     2
  9
$PROJECTNAME
  1

  9
$CAMERADISPLAY
290
     0
  9
$LENSLENGTH
 40
50.0
  9
$CAMERAHEIGHT
 40
0.0
  9
$STEPSPERSEC
 40
2.0
  9
$STEPSIZE
 40
6.0
  9
$3DDWFPREC
 40
2.0
  9
$PSOLWIDTH
 40
0.25
  9
$PSOLHEIGHT
 40
4.0
  9
$LOFTANG1
 40
1.570796326794896
  9
$LOFTANG2
 40
1.570796326794896
  9
$LOFTMAG1
 40
0.0
  9
$LOFTMAG2
 40
0.0
  9
$LOFTPARAM
 70
     7
  9
$LOFTNORMALS
280
     1
  9
$LATITUDE
 40
37.795
  9
$LONGITUDE
 40
-122.394
  9
$NORTHDIRECTION
 40
0.0
  9
$TIMEZONE
 70
 -8000
  9
$LIGHTGLYPHDISPLAY
280
     1
  9
$TILEMODELIGHTSYNCH
280
     1
  9
$CMATERIAL
347
11
  9
$SOLIDHIST
280
     0
  9
$SHOWHIST
280
     1
  9
$DWFFRAME
280
     2
  9
$DGNFRAME
280
     0
  9
$REALWORLDSCALE
290
     1
  9
$INTERFERECOLOR
 62
     1
  9
$INTERFEREOBJVS
345
33
  9
$INTERFEREVPVS
346
30
  9
$CSHADOW
280
     0
  9
$SHADOWPLANELOCATION
 40
0.0
  0
ENDSEC
  0
SECTION
  2
CLASSES
  0
CLASS
  1
ACDBDICTIONARYWDFLT
  2
AcDbDictionaryWithDefault
  3
ObjectDBX Classes
 90
        0
 91
        1
280
     0
281
     0
  0
CLASS
  1
MATERIAL
  2
AcDbMaterial
  3
ObjectDBX Classes
 90
     1153
 91
        3
280
     0
281
     0
  0
CLASS
  1
VISUALSTYLE
  2
AcDbVisualStyle
  3
ObjectDBX Classes
 90
     4095
 91
       24
280
     0
281
     0
  0
CLASS
  1
SCALE
  2
AcDbScale
  3
ObjectDBX Classes
 90
     1153
 91
       17
280
     0
281
     0
  0
CLASS
  1
TABLESTYLE
  2
AcDbTableStyle
  3
ObjectDBX Classes
 90
     4095
 91
        1
280
     0
281
     0
  0
CLASS
  1
MLEADERSTYLE
  2
AcDbMLeaderStyle
  3
ACDB_MLEADERSTYLE_CLASS
 90
     4095
 91
        1
280
     0
281
     0
  0
CLASS
  1
ACDBSECTIONVIEWSTYLE
  2
AcDbSectionViewStyle
  3
ObjectDBX Classes
 90
     1025
 91
        1
280
     0
281
     0
  0
CLASS
  1
ACDBDETAILVIEWSTYLE
  2
AcDbDetailViewStyle
  3
ObjectDBX Classes
 90
     1025
 91
        1
280
     0
281
     0
  0
CLASS
  1
DICTIONARYVAR
  2
AcDbDictionaryVar
  3
ObjectDBX Classes
 90
        0
 91
        5
280
     0
281
     0
  0
CLASS
  1
CELLSTYLEMAP
  2
AcDbCellStyleMap
  3
ObjectDBX Classes
 90
     1152
 91
        1
280
     0
281
     0
  0
ENDSEC
  0
SECTION
  2
TABLES
  0
TABLE
  2
VPORT
  5
8
330
0
100
AcDbSymbolTable
 70
     1
  0
VPORT
  5
57
330
8
100
AcDbSymbolTableRecord
100
AcDbViewportTableRecord
  2
*Active
 70
     0
 10
0.0
 20
0.0
 11
1.0
 21
1.0
 12
0.0
 22
0.0
 13
0.0
 23
0.0
 14
1.0
 24
1.0
 15
0.0
 25
0.0
 16
0.0
 26
0.0
 36
1.0
 17
4.213545096536506
 27
5.475792917225388
 37
0.0
 40
11.9267716535433
 41
0.7070707070707078
 42
50.0
 43
0.0
 44
0.0
 50
0.0
 51
0.0
 71
     0
 72
   100
 73
     1
 74
     1
 75
     0
 76
     0
 77
     0
 78
     0
281
     0
 65
     1
110
0.0
120
0.0
130
0.0
111
1.0
121
0.0
131
0.0
112
0.0
122
1.0
132
0.0
 79
     0
146
0.0
 60
     3
 61
     5
292
     1
282
     1
141
0.0
142
0.0
 63
   250
421
  3355443
  0
ENDTAB
  0
TABLE
  2
LTYPE
  5
5
330
0
100
AcDbSymbolTable
 70
     1
  0
LTYPE
  5
5B
330
5
100
AcDbSymbolTableRecord
100
AcDbLinetypeTableRecord
  2
ByBlock
 70
     0
  3

 72
    65
 73
     0
 40
0.0
  0
LTYPE
  5
5C
330
5
100
AcDbSymbolTableRecord
100
AcDbLinetypeTableRecord
  2
ByLayer
 70
     0
  3

 72
    65
 73
     0
 40
0.0
  0
LTYPE
  5
5D
330
5
100
AcDbSymbolTableRecord
100
AcDbLinetypeTableRecord
  2
Continuous
 70
     0
  3
Solid line
 72
    65
 73
     0
 40
0.0
  0
ENDTAB
  0
TABLE
  2
LAYER
  5
2
330
0
100
AcDbSymbolTable
 70
     3
  0
LAYER
  5
54
330
2
100
AcDbSymbolTableRecord
100
AcDbLayerTableRecord
  2
0
 70
     0
 62
     7
  6
Continuous
370
    -3
390
F
347
21
348
0
  0
LAYER
  5
78
330
2
100
AcDbSymbolTableRecord
100
AcDbLayerTableRecord
  2
Layer 1
 70
     0
 62
     7
  6
Continuous
370
     0
390
F
347
21
348
0
  0
LAYER
  5
116
330
2
100
AcDbSymbolTableRecord
100
AcDbLayerTableRecord
  2
callout
 70
     0
 62
     7
  6
Continuous
370
     0
390
F
347
21
348
0
  0
ENDTAB
  0
TABLE
  2
STYLE
  5
3
330
0
100
AcDbSymbolTable
 70
     2
  0
STYLE
  5
55
330
3
100
AcDbSymbolTableRecord
100
AcDbTextStyleTableRecord
  2
Standard
 70
     0
 40
0.0
 41
1.0
 50
0.0
 71
     0
 42
0.2
  3
txt
  4

  0
STYLE
  5
5A
330
3
100
AcDbSymbolTableRecord
100
AcDbTextStyleTableRecord
  2
Annotative
 70
     0
 40
0.0
 41
1.0
 50
0.0
 71
     0
 42
0.2
  3
txt
  4

1001
AcadAnnotative
1000
AnnotativeData
1002
{
1070
     1
1070
     1
1002
}
  0
ENDTAB
  0
TABLE
  2
VIEW
  5
6
330
0
100
AcDbSymbolTable
 70
     0
  0
ENDTAB
  0
TABLE
  2
UCS
  5
7
330
0
100
AcDbSymbolTable
 70
     0
  0
ENDTAB
  0
TABLE
  2
APPID
  5
9
330
0
100
AcDbSymbolTable
 70
     2
  0
APPID
  5
56
330
9
100
AcDbSymbolTableRecord
100
AcDbRegAppTableRecord
  2
ACAD
 70
     0
  0
APPID
  5
5E
330
9
100
AcDbSymbolTableRecord
100
AcDbRegAppTableRecord
  2
AcadAnnotative
 70
     0
  0
ENDTAB
  0
TABLE
  2
DIMSTYLE
  5
A
330
0
100
AcDbSymbolTable
 70
     2
100
AcDbDimStyleTable
 71
     0
  0
DIMSTYLE
105
58
330
A
100
AcDbSymbolTableRecord
100
AcDbDimStyleTableRecord
  2
Standard
 70
     0
340
55
  0
DIMSTYLE
105
59
330
A
100
AcDbSymbolTableRecord
100
AcDbDimStyleTableRecord
  2
Annotative
 70
     0
340
55
1001
AcadAnnotative
1000
AnnotativeData
1002
{
1070
     1
1070
     1
1002
}
  0
ENDTAB
  0
TABLE
  2
BLOCK_RECORD
  5
1
330
0
100
AcDbSymbolTable
 70
     2
  0
BLOCK_RECORD
  5
70
330
1
100
AcDbSymbolTableRecord
100
AcDbBlockTableRecord
  2
*Model_Space
340
73
 70
     0
280
     1
281
     0
  0
BLOCK_RECORD
  5
6C
330
1
100
AcDbSymbolTableRecord
100
AcDbBlockTableRecord
  2
*Paper_Space
340
6F
 70
     0
280
     1
281
     0
  0
BLOCK_RECORD
  5
74
330
1
100
AcDbSymbolTableRecord
100
AcDbBlockTableRecord
  2
*Paper_Space0
340
77
 70
     0
280
     1
281
     0
  0
BLOCK_RECORD
  5
C4
330
1
100
AcDbSymbolTableRecord
100
AcDbBlockTableRecord
  2
Block_0
340
0
102
{BLKREFS
331
C5
102
}
 70
     0
280
     1
281
     0
  0
ENDTAB
  0
ENDSEC
  0
SECTION
  2
BLOCKS
  0
BLOCK
  5
71
330
70
100
AcDbEntity
  8
0
100
AcDbBlockBegin
  2
*Model_Space
 70
     0
 10
0.0
 20
0.0
 30
0.0
  3
*Model_Space
  1

  0
ENDBLK
  5
72
330
70
100
AcDbEntity
  8
0
100
AcDbBlockEnd
  0
BLOCK
  5
6D
330
6C
100
AcDbEntity
 67
     1
  8
0
100
AcDbBlockBegin
  2
*Paper_Space
 70
     0
 10
0.0
 20
0.0
 30
0.0
  3
*Paper_Space
  1

  0
ENDBLK
  5
6E
330
6C
100
AcDbEntity
 67
     1
  8
0
100
AcDbBlockEnd
  0
BLOCK
  5
75
330
74
100
AcDbEntity
 67
     1
  8
0
100
AcDbBlockBegin
  2
*Paper_Space0
 70
     0
 10
0.0
 20
0.0
 30
0.0
  3
*Paper_Space0
  1

  0
ENDBLK
  5
76
330
74
100
AcDbEntity
 67
     1
  8
0
100
AcDbBlockEnd
  0
BLOCK
  5
C6
330
C4
100
AcDbEntity
  8
0
100
AcDbBlockBegin
  2
Block_0
 70
     0
 10
0.0
 20
0.0
 30
0.0
  3
Block_0
  1

  0
SPLINE
  5
C8
330
C4
100
AcDbEntity
  8
Layer 1
 62
   250
420
  2301728
370
    15
100
AcDbSpline
210
0.0
220
0.0
230
1.0
 70
    24
 71
     3
 72
     8
 73
     4
 74
     0
 42
0.0000000001
 43
0.0000000001
 40
0.0
 40
0.0
 40
0.0
 40
0.0
 40
1.0
 40
1.0
 40
1.0
 40
1.0
 10
4.166121782722913
 20
5.054893948682218
 30
0.0
 10
4.166121782722913
 20
5.054893948682218
 30
0.0
 10
4.177805010499595
 20
6.687611778877958
 30
0.0
 10
4.177805010499595
 20
6.687611778877958
 30
0.0
  0
SPLINE
  5
C9
330
C4
100
AcDbEntity
  8
Layer 1
 62
   250
420
  2301728
370
    35
100
AcDbSpline
210
0.0
220
0.0
230
1.0
 70
    11
 71
     3
 72
    20
 73
    16
 74
     0
 42
0.0000000001
 43
0.0000000001
 40
0.0
 40
0.0
 40
0.0
 40
0.0
 40
1.0
 40
1.0
 40
1.0
 40
2.0
 40
2.0
 40
2.0
 40
3.0
 40
3.0
 40
3.0
 40
4.0
 40
4.0
 40
4.0
 40
5.0
 40
5.0
 40
5.0
 40
5.0
 10
4.314249707428542
 20
5.916706445278856
 30
0.0
 10
4.314249707428542
 20
5.916706445278856
 30
0.0
 10
4.349577851445953
 20
5.873940120185478
 30
0.0
 10
4.349577851445953
 20
5.873940120185478
 30
0.0
 10
4.349577851445953
 20
5.873940120185478
 30
0.0
 10
4.358822190638622
 20
5.896277819286701
 30
0.0
 10
4.358822190638622
 20
5.896277819286701
 30
0.0
 10
4.358822190638622
 20
5.896277819286701
 30
0.0
 10
4.368143917915075
 20
5.919595783690611
 30
0.0
 10
4.339299216579623
 20
5.918641247136065
 30
0.0
 10
4.339299216579623
 20
5.918641247136065
 30
0.0
 10
4.314249707428542
 20
5.916706445278856
 30
0.0
 10
4.314249707428542
 20
5.916706445278856
 30
0.0
 10
4.314249707428542
 20
5.916706445278856
 30
0.0
 10
4.314249707428542
 20
5.916706445278856
 30
0.0
 10
4.314249707428542
 20
5.916706445278856
 30
0.0
  0
SPLINE
  5
CA
330
C4
100
AcDbEntity
  8
Layer 1
 62
   250
420
  2301728
370
    35
100
AcDbSpline
210
0.0
220
0.0
230
1.0
 70
     9
 71
     3
 72
    20
 73
    16
 74
     0
 42
0.0000000001
 43
0.0000000001
 40
0.0
 40
0.0
 40
0.0
 40
0.0
 40
1.0
 40
1.0
 40
1.0
 40
2.0
 40
2.0
 40
2.0
 40
3.0
 40
3.0
 40
3.0
 40
4.0
 40
4.0
 40
4.0
 40
5.0
 40
5.0
 40
5.0
 40
5.0
 10
3.901836075553546
 20
5.86235961066523
 30
0.0
 10
3.886974960590906
 20
5.853614409185714
 30
0.0
 10
3.897163544838879
 20
5.839067375009435
 30
0.0
 10
3.897163544838879
 20
5.839067375009435
 30
0.0
 10
3.897163544838879
 20
5.839067375009435
 30
0.0
 10
3.923193319292598
 20
5.818715935261606
 30
0.0
 10
3.923193319292598
 20
5.818715935261606
 30
0.0
 10
3.923193319292598
 20
5.818715935261606
 30
0.0
 10
3.93061863599453
 20
5.88273420628636
 30
0.0
 10
3.93061863599453
 20
5.88273420628636
 30
0.0
 10
3.93061863599453
 20
5.88273420628636
 30
0.0
 10
3.901836075553546
 20
5.86235961066523
 30
0.0
 10
3.901836075553546
 20
5.86235961066523
 30
0.0
 10
3.901836075553546
 20
5.86235961066523
 30
0.0
 10
3.901836075553546
 20
5.86235961066523
 30
0.0
 10
3.901836075553546
 20
5.86235961066523
 30
0.0
  0
SPLINE
  5
CB
330
C4
100
AcDbEntity
  8
Layer 1
 62
   250
420
  2301728
370
    35
100
AcDbSpline
210
0.0
220
0.0
230
1.0
 70
    11
 71
     3
 72
    53
 73
    49
 74
     0
 42
0.0000000001
 43
0.0000000001
 40
0.0
 40
0.0
 40
0.0
 40
0.0
 40
1.0
 40
1.0
 40
1.0
 40
2.0
 40
2.0
 40
2.0
 40
3.0
 40
3.0
 40
3.0
 40
4.0
 40
4.0
 40
4.0
 40
5.0
 40
5.0
 40
5.0
 40
6.0
 40
6.0
 40
6.0
 40
7.0
 40
7.0
 40
7.0
 40
8.0
 40
8.0
 40
8.0
 40
9.0
 40
9.0
 40
9.0
 40
10.0
 40
10.0
 40
10.0
 40
11.0
 40
11.0
 40
11.0
 40
12.0
 40
12.0
 40
12.0
 40
13.0
 40
13.0
 40
13.0
 40
14.0
 40
14.0
 40
14.0
 40
15.0
 40
15.0
 40
15.0
 40
16.0
 40
16.0
 40
16.0
 40
16.0
 10
3.758771181678689
 20
5.264593314536669
 30
0.0
 10
3.758771181678689
 20
5.264593314536669
 30
0.0
 10
3.758771181678689
 20
6.625024026247577
 30
0.0
 10
3.758771181678689
 20
6.625024026247577
 30
0.0
 10
3.758771181678689
 20
6.625024026247577
 30
0.0
 10
4.171197867987252
 20
6.768644471021893
 30
0.0
 10
4.171197867987252
 20
6.768644471021893
 30
0.0
 10
4.182351280289013
 20
6.772514074736262
 30
0.0
 10
4.197227839962756
 20
6.770553544130986
 30
0.0
 10
4.197227839962756
 20
6.770553544130986
 30
0.0
 10
4.197227839962756
 20
6.770553544130986
 30
0.0
 10
4.527893718909454
 20
6.687135797038081
 30
0.0
 10
4.527893718909454
 20
6.687135797038081
 30
0.0
 10
4.527893718909454
 20
6.687135797038081
 30
0.0
 10
4.527893718909454
 20
5.408236915184261
 30
0.0
 10
4.527893718909454
 20
5.408236915184261
 30
0.0
 10
4.527893718909454
 20
5.408236915184261
 30
0.0
 10
4.14705143789451
 20
4.980293220895999
 30
0.0
 10
4.14705143789451
 20
4.980293220895999
 30
0.0
 10
4.130330324503725
 20
4.9628079636866
 30
0.0
 10
4.134035264230255
 20
4.947278091332868
 30
0.0
 10
4.134035264230255
 20
4.947278091332868
 30
0.0
 10
4.134035264230255
 20
4.920144553585613
 30
0.0
 10
4.124752331915437
 20
4.916223492375011
 30
0.0
 10
4.124752331915437
 20
4.916223492375011
 30
0.0
 10
4.124752331915437
 20
4.916223492375011
 30
0.0
 10
3.46711009320634
 20
4.525216198147214
 30
0.0
 10
3.46711009320634
 20
4.525216198147214
 30
0.0
 10
3.43934620113061
 20
4.50591963658404
 30
0.0
 10
3.436847939690007
 20
4.515243526096557
 30
0.0
 10
3.374697575777354
 20
4.543658355499246
 30
0.0
 10
3.374697575777354
 20
4.543658355499246
 30
0.0
 10
3.401306247063353
 20
4.559514982953865
 30
0.0
 10
3.401306247063353
 20
4.559514982953865
 30
0.0
 10
3.401306247063353
 20
4.559514982953865
 30
0.0
 10
3.416043673975574
 20
4.552979880936214
 30
0.0
 10
3.421269182714884
 20
4.558282575919823
 30
0.0
 10
3.426458671206837
 20
4.56368561302103
 30
0.0
 10
3.429975791072239
 20
4.602000864692954
 30
0.0
 10
3.429975791072239
 20
4.602000864692954
 30
0.0
 10
3.429975791072239
 20
4.602000864692954
 30
0.0
 10
3.7290338946236
 20
5.208334833939134
 30
0.0
 10
3.7290338946236
 20
5.208334833939134
 30
0.0
 10
3.7290338946236
 20
5.208334833939134
 30
0.0
 10
3.758771181678689
 20
5.264593314536669
 30
0.0
 10
3.758771181678689
 20
5.264593314536669
 30
0.0
 10
3.758771181678689
 20
5.264593314536669
 30
0.0
 10
3.758771181678689
 20
5.264593314536669
 30
0.0
 10
3.758771181678689
 20
5.264593314536669
 30
0.0
  0
HATCH
  5
CC
330
C4
100
AcDbEntity
  8
Layer 1
 62
   254
420
 13358815
440
 33554687
100
AcDbHatch
 10
0.0
 20
0.0
 30
0.0
210
0.0
220
0.0
230
1.0
  2
SOLID
 70
     1
 71
     1
 91
        3
 92
        1
 93
        1
 72
     4
 94
        3
 73
     0
 74
     0
 95
       20
 96
       16
 40
0.0
 40
0.0
 40
0.0
 40
0.0
 40
1.0
 40
1.0
 40
1.0
 40
2.0
 40
2.0
 40
2.0
 40
3.0
 40
3.0
 40
3.0
 40
4.0
 40
4.0
 40
4.0
 40
5.0
 40
5.0
 40
5.0
 40
5.0
 10
4.314249707428542
 20
5.916706445278856
 10
4.314249707428542
 20
5.916706445278856
 10
4.349577851445953
 20
5.873940120185478
 10
4.349577851445953
 20
5.873940120185478
 10
4.349577851445953
 20
5.873940120185478
 10
4.358822190638622
 20
5.896277819286701
 10
4.358822190638622
 20
5.896277819286701
 10
4.358822190638622
 20
5.896277819286701
 10
4.368143917915075
 20
5.919595783690611
 10
4.339299216579623
 20
5.918641247136065
 10
4.339299216579623
 20
5.918641247136065
 10
4.314249707428542
 20
5.916706445278856
 10
4.314249707428542
 20
5.916706445278856
 10
4.314249707428542
 20
5.916706445278856
 10
4.314249707428542
 20
5.916706445278856
 10
4.314249707428542
 20
5.916706445278856
 97
        0
 97
        1
330
C9
 92
        1
 93
        1
 72
     4
 94
        3
 73
     0
 74
     0
 95
       20
 96
       16
 40
0.0
 40
0.0
 40
0.0
 40
0.0
 40
1.0
 40
1.0
 40
1.0
 40
2.0
 40
2.0
 40
2.0
 40
3.0
 40
3.0
 40
3.0
 40
4.0
 40
4.0
 40
4.0
 40
5.0
 40
5.0
 40
5.0
 40
5.0
 10
3.901836075553546
 20
5.86235961066523
 10
3.886974960590906
 20
5.853614409185714
 10
3.897163544838879
 20
5.839067375009435
 10
3.897163544838879
 20
5.839067375009435
 10
3.897163544838879
 20
5.839067375009435
 10
3.923193319292598
 20
5.818715935261606
 10
3.923193319292598
 20
5.818715935261606
 10
3.923193319292598
 20
5.818715935261606
 10
3.93061863599453
 20
5.88273420628636
 10
3.93061863599453
 20
5.88273420628636
 10
3.93061863599453
 20
5.88273420628636
 10
3.901836075553546
 20
5.86235961066523
 10
3.901836075553546
 20
5.86235961066523
 10
3.901836075553546
 20
5.86235961066523
 10
3.901836075553546
 20
5.86235961066523
 10
3.901836075553546
 20
5.86235961066523
 97
        0
 97
        1
330
CA
 92
        1
 93
        1
 72
     4
 94
        3
 73
     0
 74
     0
 95
       53
 96
       49
 40
0.0
 40
0.0
 40
0.0
 40
0.0
 40
1.0
 40
1.0
 40
1.0
 40
2.0
 40
2.0
 40
2.0
 40
3.0
 40
3.0
 40
3.0
 40
4.0
 40
4.0
 40
4.0
 40
5.0
 40
5.0
 40
5.0
 40
6.0
 40
6.0
 40
6.0
 40
7.0
 40
7.0
 40
7.0
 40
8.0
 40
8.0
 40
8.0
 40
9.0
 40
9.0
 40
9.0
 40
10.0
 40
10.0
 40
10.0
 40
11.0
 40
11.0
 40
11.0
 40
12.0
 40
12.0
 40
12.0
 40
13.0
 40
13.0
 40
13.0
 40
14.0
 40
14.0
 40
14.0
 40
15.0
 40
15.0
 40
15.0
 40
16.0
 40
16.0
 40
16.0
 40
16.0
 10
3.758771181678689
 20
5.264593314536669
 10
3.758771181678689
 20
5.264593314536669
 10
3.758771181678689
 20
6.625024026247577
 10
3.758771181678689
 20
6.625024026247577
 10
3.758771181678689
 20
6.625024026247577
 10
4.171197867987252
 20
6.768644471021893
 10
4.171197867987252
 20
6.768644471021893
 10
4.182351280289013
 20
6.772514074736262
 10
4.197227839962756
 20
6.770553544130986
 10
4.197227839962756
 20
6.770553544130986
 10
4.197227839962756
 20
6.770553544130986
 10
4.527893718909454
 20
6.687135797038081
 10
4.527893718909454
 20
6.687135797038081
 10
4.527893718909454
 20
6.687135797038081
 10
4.527893718909454
 20
5.408236915184261
 10
4.527893718909454
 20
5.408236915184261
 10
4.527893718909454
 20
5.408236915184261
 10
4.14705143789451
 20
4.980293220895999
 10
4.14705143789451
 20
4.980293220895999
 10
4.130330324503725
 20
4.9628079636866
 10
4.134035264230255
 20
4.947278091332868
 10
4.134035264230255
 20
4.947278091332868
 10
4.134035264230255
 20
4.920144553585613
 10
4.124752331915437
 20
4.916223492375011
 10
4.124752331915437
 20
4.916223492375011
 10
4.124752331915437
 20
4.916223492375011
 10
3.46711009320634
 20
4.525216198147214
 10
3.46711009320634
 20
4.525216198147214
 10
3.43934620113061
 20
4.50591963658404
 10
3.436847939690007
 20
4.515243526096557
 10
3.374697575777354
 20
4.543658355499246
 10
3.374697575777354
 20
4.543658355499246
 10
3.401306247063353
 20
4.559514982953865
 10
3.401306247063353
 20
4.559514982953865
 10
3.401306247063353
 20
4.559514982953865
 10
3.416043673975574
 20
4.552979880936214
 10
3.421269182714884
 20
4.558282575919823
 10
3.426458671206837
 20
4.56368561302103
 10
3.429975791072239
 20
4.602000864692954
 10
3.429975791072239
 20
4.602000864692954
 10
3.429975791072239
 20
4.602000864692954
 10
3.7290338946236
 20
5.208334833939134
 10
3.7290338946236
 20
5.208334833939134
 10
3.7290338946236
 20
5.208334833939134
 10
3.758771181678689
 20
5.264593314536669
 10
3.758771181678689
 20
5.264593314536669
 10
3.758771181678689
 20
5.264593314536669
 10
3.758771181678689
 20
5.264593314536669
 10
3.758771181678689
 20
5.264593314536669
 97
        0
 97
        1
330
CB
 75
     2
 76
     1
 98
        1
 10
0.0
 20
0.0
450
        0
451
        0
460
0.0
461
0.0
452
        0
462
0.0
453
        0
470

  0
SPLINE
  5
CD
330
C4
100
AcDbEntity
  8
Layer 1
 62
   250
420
  2301728
370
    20
100
AcDbSpline
210
0.0
220
0.0
230
1.0
 70
     8
 71
     3
 72
    14
 73
    10
 74
     0
 42
0.0000000001
 43
0.0000000001
 40
0.0
 40
0.0
 40
0.0
 40
0.0
 40
1.0
 40
1.0
 40
1.0
 40
2.0
 40
2.0
 40
2.0
 40
3.0
 40
3.0
 40
3.0
 40
3.0
 10
3.93061863599453
 20
5.88273420628636
 30
0.0
 10
3.93061863599453
 20
5.88273420628636
 30
0.0
 10
3.958495734561918
 20
5.909896045656548
 30
0.0
 10
3.956622681700157
 20
5.874997815117492
 30
0.0
 10
3.956622681700157
 20
5.874997815117492
 30
0.0
 10
3.948281421565828
 20
5.813791452875066
 30
0.0
 10
3.948281421565828
 20
5.813791452875066
 30
0.0
 10
3.948281421565828
 20
5.813791452875066
 30
0.0
 10
3.944550753091208
 20
5.792508632445964
 30
0.0
 10
3.923193319292598
 20
5.818715935261606
 30
0.0
  0
SPLINE
  5
CE
330
C4
100
AcDbEntity
  8
Layer 1
 62
   250
420
  2301728
370
    20
100
AcDbSpline
210
0.0
220
0.0
230
1.0
 70
    24
 71
     3
 72
     8
 73
     4
 74
     0
 42
0.0000000001
 43
0.0000000001
 40
0.0
 40
0.0
 40
0.0
 40
0.0
 40
1.0
 40
1.0
 40
1.0
 40
1.0
 10
3.795805141695179
 20
5.246801885224865
 30
0.0
 10
3.795805141695179
 20
5.246801885224865
 30
0.0
 10
3.761220558497901
 20
5.265923490813494
 30
0.0
 10
3.761220558497901
 20
5.265923490813494
 30
0.0
  0
SPLINE
  5
CF
330
C4
100
AcDbEntity
  8
Layer 1
 62
   250
420
  2301728
370
    20
100
AcDbSpline
210
0.0
220
0.0
230
1.0
 70
     8
 71
     3
 72
    17
 73
    13
 74
     0
 42
0.0000000001
 43
0.0000000001
 40
0.0
 40
0.0
 40
0.0
 40
0.0
 40
1.0
 40
1.0
 40
1.0
 40
2.0
 40
2.0
 40
2.0
 40
3.0
 40
3.0
 40
3.0
 40
4.0
 40
4.0
 40
4.0
 40
4.0
 10
3.793167945014854
 20
6.61231145181091
 30
0.0
 10
3.793167945014854
 20
6.61231145181091
 30
0.0
 10
3.793167945014854
 20
5.25054799094836
 30
0.0
 10
3.793167945014854
 20
5.25054799094836
 30
0.0
 10
3.793167945014854
 20
5.25054799094836
 30
0.0
 10
3.45734860617684
 20
4.586851777811109
 30
0.0
 10
3.45734860617684
 20
4.586851777811109
 30
0.0
 10
3.45734860617684
 20
4.586851777811109
 30
0.0
 10
3.45734860617684
 20
4.546120596692516
 30
0.0
 10
3.45734860617684
 20
4.546120596692516
 30
0.0
 10
3.45734860617684
 20
4.546120596692516
 30
0.0
 10
3.452864085382846
 20
4.508080851479133
 30
0.0
 10
3.423906379395222
 20
4.52574600107136
 30
0.0
  0
SPLINE
  5
D0
330
C4
100
AcDbEntity
  8
Layer 1
 62
   250
420
  2301728
370
    20
100
AcDbSpline
210
0.0
220
0.0
230
1.0
 70
     8
 71
     3
 72
    20
 73
    16
 74
     0
 42
0.0000000001
 43
0.0000000001
 40
0.0
 40
0.0
 40
0.0
 40
0.0
 40
1.0
 40
1.0
 40
1.0
 40
2.0
 40
2.0
 40
2.0
 40
3.0
 40
3.0
 40
3.0
 40
4.0
 40
4.0
 40
4.0
 40
5.0
 40
5.0
 40
5.0
 40
5.0
 10
4.496764300707026
 20
5.377179743351613
 30
0.0
 10
4.496764300707026
 20
5.377179743351613
 30
0.0
 10
4.496764300707026
 20
6.669146256365896
 30
0.0
 10
4.496764300707026
 20
6.669146256365896
 30
0.0
 10
4.496764300707026
 20
6.669146256365896
 30
0.0
 10
4.190242287331582
 20
6.750678086222983
 30
0.0
 10
4.190242287331582
 20
6.750678086222983
 30
0.0
 10
4.190242287331582
 20
6.750678086222983
 30
0.0
 10
4.17911203090312
 20
6.752136906240315
 30
0.0
 10
4.172139540167765
 20
6.749221839080468
 30
0.0
 10
4.172139540167765
 20
6.749221839080468
 30
0.0
 10
3.795956941308986
 20
6.612411793928508
 30
0.0
 10
3.795956941308986
 20
6.612411793928508
 30
0.0
 10
3.795956941308986
 20
6.612411793928508
 30
0.0
 10
3.758771181678689
 20
6.625024026247577
 30
0.0
 10
3.758771181678689
 20
6.625024026247577
 30
0.0
  0
SPLINE
  5
D1
330
C4
100
AcDbEntity
  8
Layer 1
 62
   250
420
  2301728
370
    20
100
AcDbSpline
210
0.0
220
0.0
230
1.0
 70
    24
 71
     3
 72
     8
 73
     4
 74
     0
 42
0.0000000001
 43
0.0000000001
 40
0.0
 40
0.0
 40
0.0
 40
0.0
 40
1.0
 40
1.0
 40
1.0
 40
1.0
 10
3.429296552122372
 20
4.59989110734869
 30
0.0
 10
3.429296552122372
 20
4.59989110734869
 30
0.0
 10
3.45734860617684
 20
4.586851777811109
 30
0.0
 10
3.45734860617684
 20
4.586851777811109
 30
0.0
  0
SPLINE
  5
D2
330
C4
100
AcDbEntity
  8
Layer 1
 62
   250
420
  2301728
370
    30
100
AcDbSpline
210
0.0
220
0.0
230
1.0
 70
     9
 71
     3
 72
    20
 73
    16
 74
     0
 42
0.0000000001
 43
0.0000000001
 40
0.0
 40
0.0
 40
0.0
 40
0.0
 40
1.0
 40
1.0
 40
1.0
 40
2.0
 40
2.0
 40
2.0
 40
3.0
 40
3.0
 40
3.0
 40
4.0
 40
4.0
 40
4.0
 40
5.0
 40
5.0
 40
5.0
 40
5.0
 10
3.901836075553546
 20
5.148183593753931
 30
0.0
 10
3.886974960590906
 20
5.139440965149232
 30
0.0
 10
3.897163544838879
 20
5.124917086846253
 30
0.0
 10
3.897163544838879
 20
5.124917086846253
 30
0.0
 10
3.897163544838879
 20
5.124917086846253
 30
0.0
 10
3.923193319292598
 20
5.104539918350281
 30
0.0
 10
3.923193319292598
 20
5.104539918350281
 30
0.0
 10
3.923193319292598
 20
5.104539918350281
 30
0.0
 10
3.93061863599453
 20
5.168586490997969
 30
0.0
 10
3.93061863599453
 20
5.168586490997969
 30
0.0
 10
3.93061863599453
 20
5.168586490997969
 30
0.0
 10
3.901836075553546
 20
5.148183593753931
 30
0.0
 10
3.901836075553546
 20
5.148183593753931
 30
0.0
 10
3.901836075553546
 20
5.148183593753931
 30
0.0
 10
3.901836075553546
 20
5.148183593753931
 30
0.0
 10
3.901836075553546
 20
5.148183593753931
 30
0.0
  0
HATCH
  5
D3
330
C4
100
AcDbEntity
  8
Layer 1
 62
    43
420
 15575901
440
 33554687
100
AcDbHatch
 10
0.0
 20
0.0
 30
0.0
210
0.0
220
0.0
230
1.0
  2
SOLID
 70
     1
 71
     1
 91
        1
 92
        1
 93
        1
 72
     4
 94
        3
 73
     0
 74
     0
 95
       20
 96
       16
 40
0.0
 40
0.0
 40
0.0
 40
0.0
 40
1.0
 40
1.0
 40
1.0
 40
2.0
 40
2.0
 40
2.0
 40
3.0
 40
3.0
 40
3.0
 40
4.0
 40
4.0
 40
4.0
 40
5.0
 40
5.0
 40
5.0
 40
5.0
 10
3.901836075553546
 20
5.148183593753931
 10
3.886974960590906
 20
5.139440965149232
 10
3.897163544838879
 20
5.124917086846253
 10
3.897163544838879
 20
5.124917086846253
 10
3.897163544838879
 20
5.124917086846253
 10
3.923193319292598
 20
5.104539918350281
 10
3.923193319292598
 20
5.104539918350281
 10
3.923193319292598
 20
5.104539918350281
 10
3.93061863599453
 20
5.168586490997969
 10
3.93061863599453
 20
5.168586490997969
 10
3.93061863599453
 20
5.168586490997969
 10
3.901836075553546
 20
5.148183593753931
 10
3.901836075553546
 20
5.148183593753931
 10
3.901836075553546
 20
5.148183593753931
 10
3.901836075553546
 20
5.148183593753931
 10
3.901836075553546
 20
5.148183593753931
 97
        0
 97
        1
330
D2
 75
     2
 76
     1
 98
        1
 10
0.0
 20
0.0
450
        0
451
        0
460
0.0
461
0.0
452
        0
462
0.0
453
        0
470

  0
SPLINE
  5
D4
330
C4
100
AcDbEntity
  8
Layer 1
 62
   250
420
  2301728
370
    20
100
AcDbSpline
210
0.0
220
0.0
230
1.0
 70
     9
 71
     3
 72
    20
 73
    16
 74
     0
 42
0.0000000001
 43
0.0000000001
 40
0.0
 40
0.0
 40
0.0
 40
0.0
 40
1.0
 40
1.0
 40
1.0
 40
2.0
 40
2.0
 40
2.0
 40
3.0
 40
3.0
 40
3.0
 40
4.0
 40
4.0
 40
4.0
 40
5.0
 40
5.0
 40
5.0
 40
5.0
 10
3.938795232141021
 20
5.525974239369007
 30
0.0
 10
3.935077618939708
 20
5.513462349167512
 30
0.0
 10
3.925455066906882
 20
5.505422115385979
 30
0.0
 10
3.917275707229388
 20
5.50805931206633
 30
0.0
 10
3.909096538208081
 20
5.51062446825199
 30
0.0
 10
3.905491940599151
 20
5.522958830091586
 30
0.0
 10
3.90919688032568
 20
5.535496449041172
 30
0.0
 10
3.912878664178934
 20
5.548085525486966
 30
0.0
 10
3.922514080342731
 20
5.556125759268499
 30
0.0
 10
3.930667520615921
 20
5.553462833840058
 30
0.0
 10
3.938846689637228
 20
5.550848793033006
 30
0.0
 10
3.942477015994275
 20
5.538537587066709
 30
0.0
 10
3.938795232141021
 20
5.525974239369007
 30
0.0
 10
3.938795232141021
 20
5.525974239369007
 30
0.0
 10
3.938795232141021
 20
5.525974239369007
 30
0.0
 10
3.938795232141021
 20
5.525974239369007
 30
0.0
  0
SPLINE
  5
D5
330
C4
100
AcDbEntity
  8
Layer 1
 62
   250
420
  2301728
370
    20
100
AcDbSpline
210
0.0
220
0.0
230
1.0
 70
     8
 71
     3
 72
    14
 73
    10
 74
     0
 42
0.0000000001
 43
0.0000000001
 40
0.0
 40
0.0
 40
0.0
 40
0.0
 40
1.0
 40
1.0
 40
1.0
 40
2.0
 40
2.0
 40
2.0
 40
3.0
 40
3.0
 40
3.0
 40
3.0
 10
4.349577851445953
 20
5.873940120185478
 30
0.0
 10
4.342088212873755
 20
5.84102533273992
 30
0.0
 10
4.328194688899253
 20
5.856529476345561
 30
0.0
 10
4.328194688899253
 20
5.856529476345561
 30
0.0
 10
4.328194688899253
 20
5.856529476345561
 30
0.0
 10
4.293823654311179
 20
5.902131109479669
 30
0.0
 10
4.293823654311179
 20
5.902131109479669
 30
0.0
 10
4.291034857908572
 20
5.919595783690611
 30
0.0
 10
4.317012974974582
 20
5.916706445278856
 30
0.0
 10
4.317012974974582
 20
5.916706445278856
 30
0.0
  0
SPLINE
  5
D6
330
C4
100
AcDbEntity
  8
Layer 1
 62
   250
420
  2301728
370
    20
100
AcDbSpline
210
0.0
220
0.0
230
1.0
 70
     8
 71
     3
 72
    14
 73
    10
 74
     0
 42
0.0000000001
 43
0.0000000001
 40
0.0
 40
0.0
 40
0.0
 40
0.0
 40
1.0
 40
1.0
 40
1.0
 40
2.0
 40
2.0
 40
2.0
 40
3.0
 40
3.0
 40
3.0
 40
3.0
 10
3.93061863599453
 20
5.168586490997969
 30
0.0
 10
3.93061863599453
 20
5.168586490997969
 30
0.0
 10
3.958495734561918
 20
5.195722601620041
 30
0.0
 10
3.956622681700157
 20
5.160821554821116
 30
0.0
 10
3.956622681700157
 20
5.160821554821116
 30
0.0
 10
3.948281421565828
 20
5.099715778081367
 30
0.0
 10
3.948281421565828
 20
5.099715778081367
 30
0.0
 10
3.948281421565828
 20
5.099715778081367
 30
0.0
 10
3.944550753091208
 20
5.078335188409482
 30
0.0
 10
3.923193319292598
 20
5.104539918350281
 30
0.0
  0
SPLINE
  5
D7
330
C4
100
AcDbEntity
  8
Layer 1
100
AcDbSpline
210
0.0
220
0.0
230
1.0
 70
     9
 71
     3
 72
    26
 73
    22
 74
     0
 42
0.0000000001
 43
0.0000000001
 40
0.0
 40
0.0
 40
0.0
 40
0.0
 40
1.0
 40
1.0
 40
1.0
 40
2.0
 40
2.0
 40
2.0
 40
3.0
 40
3.0
 40
3.0
 40
4.0
 40
4.0
 40
4.0
 40
5.0
 40
5.0
 40
5.0
 40
6.0
 40
6.0
 40
6.0
 40
7.0
 40
7.0
 40
7.0
 40
7.0
 10
3.921459201670611
 20
5.55456917000841
 30
0.0
 10
3.924299655460951
 20
5.54921759040341
 30
0.0
 10
3.924875979418402
 20
5.541352312108933
 30
0.0
 10
3.922539809090848
 20
5.533412420444998
 30
0.0
 10
3.920090432271636
 20
5.525096889058759
 30
0.0
 10
3.915039879019407
 20
5.518765044151122
 30
0.0
 10
3.909523635426567
 20
5.516199887965462
 30
0.0
 10
3.906711483259136
 20
5.514918596310027
 30
0.0
 10
3.90611972205281
 20
5.520396246780718
 30
0.0
 10
3.90611972205281
 20
5.520396246780718
 30
0.0
 10
3.90611972205281
 20
5.520396246780718
 30
0.0
 10
3.909073382334806
 20
5.537858348116842
 30
0.0
 10
3.909073382334806
 20
5.537858348116842
 30
0.0
 10
3.909073382334806
 20
5.537858348116842
 30
0.0
 10
3.915641931724975
 20
5.549040297192201
 30
0.0
 10
3.915641931724975
 20
5.549040297192201
 30
0.0
 10
3.915641931724975
 20
5.549040297192201
 30
0.0
 10
3.919825426166198
 20
5.557633699275028
 30
0.0
 10
3.921459201670611
 20
5.55456917000841
 30
0.0
 10
3.921459201670611
 20
5.55456917000841
 30
0.0
 10
3.921459201670611
 20
5.55456917000841
 30
0.0
 10
3.921459201670611
 20
5.55456917000841
 30
0.0
  0
HATCH
  5
D8
330
C4
100
AcDbEntity
  8
Layer 1
 62
   250
420
  2301728
440
 33554687
100
AcDbHatch
 10
0.0
 20
0.0
 30
0.0
210
0.0
220
0.0
230
1.0
  2
SOLID
 70
     1
 71
     1
 91
        1
 92
        1
 93
        1
 72
     4
 94
        3
 73
     0
 74
     0
 95
       26
 96
       22
 40
0.0
 40
0.0
 40
0.0
 40
0.0
 40
1.0
 40
1.0
 40
1.0
 40
2.0
 40
2.0
 40
2.0
 40
3.0
 40
3.0
 40
3.0
 40
4.0
 40
4.0
 40
4.0
 40
5.0
 40
5.0
 40
5.0
 40
6.0
 40
6.0
 40
6.0
 40
7.0
 40
7.0
 40
7.0
 40
7.0
 10
3.921459201670611
 20
5.55456917000841
 10
3.924299655460951
 20
5.54921759040341
 10
3.924875979418402
 20
5.541352312108933
 10
3.922539809090848
 20
5.533412420444998
 10
3.920090432271636
 20
5.525096889058759
 10
3.915039879019407
 20
5.518765044151122
 10
3.909523635426567
 20
5.516199887965462
 10
3.906711483259136
 20
5.514918596310027
 10
3.90611972205281
 20
5.520396246780718
 10
3.90611972205281
 20
5.520396246780718
 10
3.90611972205281
 20
5.520396246780718
 10
3.909073382334806
 20
5.537858348116842
 10
3.909073382334806
 20
5.537858348116842
 10
3.909073382334806
 20
5.537858348116842
 10
3.915641931724975
 20
5.549040297192201
 10
3.915641931724975
 20
5.549040297192201
 10
3.915641931724975
 20
5.549040297192201
 10
3.919825426166198
 20
5.557633699275028
 10
3.921459201670611
 20
5.55456917000841
 10
3.921459201670611
 20
5.55456917000841
 10
3.921459201670611
 20
5.55456917000841
 10
3.921459201670611
 20
5.55456917000841
 97
        0
 97
        1
330
D7
 75
     2
 76
     1
 98
        1
 10
0.0
 20
0.0
450
        0
451
        0
460
0.0
461
0.0
452
        0
462
0.0
453
        0
470

  0
SPLINE
  5
D9
330
C4
100
AcDbEntity
  8
Layer 1
 62
   250
420
  2301728
370
    20
100
AcDbSpline
210
0.0
220
0.0
230
1.0
 70
     9
 71
     3
 72
    20
 73
    16
 74
     0
 42
0.0000000001
 43
0.0000000001
 40
0.0
 40
0.0
 40
0.0
 40
0.0
 40
1.0
 40
1.0
 40
1.0
 40
2.0
 40
2.0
 40
2.0
 40
3.0
 40
3.0
 40
3.0
 40
4.0
 40
4.0
 40
4.0
 40
5.0
 40
5.0
 40
5.0
 40
5.0
 10
3.937665740099393
 20
6.308539841607448
 30
0.0
 10
3.934688923944097
 20
6.295778382549364
 30
0.0
 10
3.925503760872061
 20
6.287133523187447
 30
0.0
 10
3.917175365111789
 20
6.289320466776037
 30
0.0
 10
3.908860023962562
 20
6.291381339498911
 30
0.0
 10
3.904524539670546
 20
6.303414674985737
 30
0.0
 10
3.907488491451784
 20
6.316152978170521
 30
0.0
 10
3.910442151733781
 20
6.328942738851487
 30
0.0
 10
3.919637606305059
 20
6.337587598213404
 30
0.0
 10
3.927955710566088
 20
6.335449539246231
 30
0.0
 10
3.936271241952302
 20
6.333290897280549
 30
0.0
 10
3.940629691880606
 20
6.321254988918932
 30
0.0
 10
3.937665740099393
 20
6.308539841607448
 30
0.0
 10
3.937665740099393
 20
6.308539841607448
 30
0.0
 10
3.937665740099393
 20
6.308539841607448
 30
0.0
 10
3.937665740099393
 20
6.308539841607448
 30
0.0
  0
SPLINE
  5
DA
330
C4
100
AcDbEntity
  8
Layer 1
100
AcDbSpline
210
0.0
220
0.0
230
1.0
 70
     9
 71
     3
 72
    26
 73
    22
 74
     0
 42
0.0000000001
 43
0.0000000001
 40
0.0
 40
0.0
 40
0.0
 40
0.0
 40
1.0
 40
1.0
 40
1.0
 40
2.0
 40
2.0
 40
2.0
 40
3.0
 40
3.0
 40
3.0
 40
4.0
 40
4.0
 40
4.0
 40
5.0
 40
5.0
 40
5.0
 40
6.0
 40
6.0
 40
6.0
 40
7.0
 40
7.0
 40
7.0
 40
7.0
 10
3.921798821145532
 20
6.335727409725702
 30
0.0
 10
3.924273926712834
 20
6.33062539897729
 30
0.0
 10
3.924989185910059
 20
6.323542274625095
 30
0.0
 10
3.923280797036138
 20
6.31625589316291
 30
0.0
 10
3.921070697574274
 20
6.306607612625056
 30
0.0
 10
3.915353769746237
 20
6.299421573280469
 30
0.0
 10
3.909096538208081
 20
6.297283768366191
 30
0.0
 10
3.907025373985965
 20
6.29658111949013
 30
0.0
 10
3.904964501263091
 20
6.303967843069913
 30
0.0
 10
3.904964501263091
 20
6.303967843069913
 30
0.0
 10
3.904964501263091
 20
6.303967843069913
 30
0.0
 10
3.905391598481552
 20
6.318640948111881
 30
0.0
 10
3.905391598481552
 20
6.318640948111881
 30
0.0
 10
3.905391598481552
 20
6.318640948111881
 30
0.0
 10
3.914247433577909
 20
6.331757463893735
 30
0.0
 10
3.914247433577909
 20
6.331757463893735
 30
0.0
 10
3.914247433577909
 20
6.331757463893735
 30
0.0
 10
3.91993863265783
 20
6.339519827195797
 30
0.0
 10
3.921798821145532
 20
6.335727409725702
 30
0.0
 10
3.921798821145532
 20
6.335727409725702
 30
0.0
 10
3.921798821145532
 20
6.335727409725702
 30
0.0
 10
3.921798821145532
 20
6.335727409725702
 30
0.0
  0
HATCH
  5
DB
330
C4
100
AcDbEntity
  8
Layer 1
 62
   250
420
  2301728
440
 33554687
100
AcDbHatch
 10
0.0
 20
0.0
 30
0.0
210
0.0
220
0.0
230
1.0
  2
SOLID
 70
     1
 71
     1
 91
        1
 92
        1
 93
        1
 72
     4
 94
        3
 73
     0
 74
     0
 95
       26
 96
       22
 40
0.0
 40
0.0
 40
0.0
 40
0.0
 40
1.0
 40
1.0
 40
1.0
 40
2.0
 40
2.0
 40
2.0
 40
3.0
 40
3.0
 40
3.0
 40
4.0
 40
4.0
 40
4.0
 40
5.0
 40
5.0
 40
5.0
 40
6.0
 40
6.0
 40
6.0
 40
7.0
 40
7.0
 40
7.0
 40
7.0
 10
3.921798821145532
 20
6.335727409725702
 10
3.924273926712834
 20
6.33062539897729
 10
3.924989185910059
 20
6.323542274625095
 10
3.923280797036138
 20
6.31625589316291
 10
3.921070697574274
 20
6.306607612625056
 10
3.915353769746237
 20
6.299421573280469
 10
3.909096538208081
 20
6.297283768366191
 10
3.907025373985965
 20
6.29658111949013
 10
3.904964501263091
 20
6.303967843069913
 10
3.904964501263091
 20
6.303967843069913
 10
3.904964501263091
 20
6.303967843069913
 10
3.905391598481552
 20
6.318640948111881
 10
3.905391598481552
 20
6.318640948111881
 10
3.905391598481552
 20
6.318640948111881
 10
3.914247433577909
 20
6.331757463893735
 10
3.914247433577909
 20
6.331757463893735
 10
3.914247433577909
 20
6.331757463893735
 10
3.91993863265783
 20
6.339519827195797
 10
3.921798821145532
 20
6.335727409725702
 10
3.921798821145532
 20
6.335727409725702
 10
3.921798821145532
 20
6.335727409725702
 10
3.921798821145532
 20
6.335727409725702
 97
        0
 97
        1
330
DA
 75
     2
 76
     1
 98
        1
 10
0.0
 20
0.0
450
        0
451
        0
460
0.0
461
0.0
452
        0
462
0.0
453
        0
470

  0
SPLINE
  5
DC
330
C4
100
AcDbEntity
  8
Layer 1
 62
   250
420
  2301728
370
    20
100
AcDbSpline
210
0.0
220
0.0
230
1.0
 70
     9
 71
     3
 72
    20
 73
    16
 74
     0
 42
0.0000000001
 43
0.0000000001
 40
0.0
 40
0.0
 40
0.0
 40
0.0
 40
1.0
 40
1.0
 40
1.0
 40
2.0
 40
2.0
 40
2.0
 40
3.0
 40
3.0
 40
3.0
 40
4.0
 40
4.0
 40
4.0
 40
5.0
 40
5.0
 40
5.0
 40
5.0
 10
4.267140369655685
 20
5.455197026218102
 30
0.0
 10
4.271007400495262
 20
5.442005897066766
 30
0.0
 10
4.28224057191614
 20
5.433914205789
 30
0.0
 10
4.292215607554882
 20
5.437130299301618
 30
0.0
 10
4.302190643193625
 20
5.440297508192846
 30
0.0
 10
4.307063868380383
 20
5.453612368075103
 30
0.0
 10
4.303245521865745
 20
5.466780108613167
 30
0.0
 10
4.299324460655169
 20
5.479968664889711
 30
0.0
 10
4.288145319605316
 20
5.488008898671245
 30
0.0
 10
4.278119026035609
 20
5.484818533906743
 30
0.0
 10
4.268169519579739
 20
5.481576711646008
 30
0.0
 10
4.263232172819167
 20
5.468336697873255
 30
0.0
 10
4.267140369655685
 20
5.455197026218102
 30
0.0
 10
4.267140369655685
 20
5.455197026218102
 30
0.0
 10
4.267140369655685
 20
5.455197026218102
 30
0.0
 10
4.267140369655685
 20
5.455197026218102
 30
0.0
  0
SPLINE
  5
DD
330
C4
100
AcDbEntity
  8
Layer 1
100
AcDbSpline
210
0.0
220
0.0
230
1.0
 70
     9
 71
     3
 72
    26
 73
    22
 74
     0
 42
0.0000000001
 43
0.0000000001
 40
0.0
 40
0.0
 40
0.0
 40
0.0
 40
1.0
 40
1.0
 40
1.0
 40
2.0
 40
2.0
 40
2.0
 40
3.0
 40
3.0
 40
3.0
 40
4.0
 40
4.0
 40
4.0
 40
5.0
 40
5.0
 40
5.0
 40
6.0
 40
6.0
 40
6.0
 40
7.0
 40
7.0
 40
7.0
 40
7.0
 10
4.289326269143152
 20
5.486400851914948
 30
0.0
 10
4.28568327816836
 20
5.480599019218187
 30
0.0
 10
4.284602670720838
 20
5.472206301587649
 30
0.0
 10
4.287064712185079
 20
5.463888197326619
 30
0.0
 10
4.289627295495923
 20
5.455197026218102
 30
0.0
 10
4.295405972319384
 20
5.448661924200475
 30
0.0
 10
4.301912772714128
 20
5.446225411755297
 30
0.0
 10
4.305229208344345
 20
5.444969848847979
 30
0.0
 10
4.306209473646983
 20
5.450799983167649
 30
0.0
 10
4.306209473646983
 20
5.450799983167649
 30
0.0
 10
4.306209473646983
 20
5.450799983167649
 30
0.0
 10
4.303446206100943
 20
5.469242349806411
 30
0.0
 10
4.303446206100943
 20
5.469242349806411
 30
0.0
 10
4.303446206100943
 20
5.469242349806411
 30
0.0
 10
4.296008025024952
 20
5.480822859326659
 30
0.0
 10
4.296008025024952
 20
5.480822859326659
 30
0.0
 10
4.296008025024952
 20
5.480822859326659
 30
0.0
 10
4.291384568991209
 20
5.489820202537556
 30
0.0
 10
4.289326269143152
 20
5.486400851914948
 30
0.0
 10
4.289326269143152
 20
5.486400851914948
 30
0.0
 10
4.289326269143152
 20
5.486400851914948
 30
0.0
 10
4.289326269143152
 20
5.486400851914948
 30
0.0
  0
HATCH
  5
DE
330
C4
100
AcDbEntity
  8
Layer 1
 62
   250
420
  2301728
440
 33554687
100
AcDbHatch
 10
0.0
 20
0.0
 30
0.0
210
0.0
220
0.0
230
1.0
  2
SOLID
 70
     1
 71
     1
 91
        1
 92
        1
 93
        1
 72
     4
 94
        3
 73
     0
 74
     0
 95
       26
 96
       22
 40
0.0
 40
0.0
 40
0.0
 40
0.0
 40
1.0
 40
1.0
 40
1.0
 40
2.0
 40
2.0
 40
2.0
 40
3.0
 40
3.0
 40
3.0
 40
4.0
 40
4.0
 40
4.0
 40
5.0
 40
5.0
 40
5.0
 40
6.0
 40
6.0
 40
6.0
 40
7.0
 40
7.0
 40
7.0
 40
7.0
 10
4.289326269143152
 20
5.486400851914948
 10
4.28568327816836
 20
5.480599019218187
 10
4.284602670720838
 20
5.472206301587649
 10
4.287064712185079
 20
5.463888197326619
 10
4.289627295495923
 20
5.455197026218102
 10
4.295405972319384
 20
5.448661924200475
 10
4.301912772714128
 20
5.446225411755297
 10
4.305229208344345
 20
5.444969848847979
 10
4.306209473646983
 20
5.450799983167649
 10
4.306209473646983
 20
5.450799983167649
 10
4.306209473646983
 20
5.450799983167649
 10
4.303446206100943
 20
5.469242349806411
 10
4.303446206100943
 20
5.469242349806411
 10
4.303446206100943
 20
5.469242349806411
 10
4.296008025024952
 20
5.480822859326659
 10
4.296008025024952
 20
5.480822859326659
 10
4.296008025024952
 20
5.480822859326659
 10
4.291384568991209
 20
5.489820202537556
 10
4.289326269143152
 20
5.486400851914948
 10
4.289326269143152
 20
5.486400851914948
 10
4.289326269143152
 20
5.486400851914948
 10
4.289326269143152
 20
5.486400851914948
 97
        0
 97
        1
330
DD
 75
     2
 76
     1
 98
        1
 10
0.0
 20
0.0
450
        0
451
        0
460
0.0
461
0.0
452
        0
462
0.0
453
        0
470

  0
SPLINE
  5
DF
330
C4
100
AcDbEntity
  8
Layer 1
 62
   250
420
  2301728
370
    20
100
AcDbSpline
210
0.0
220
0.0
230
1.0
 70
     9
 71
     3
 72
    20
 73
    16
 74
     0
 42
0.0000000001
 43
0.0000000001
 40
0.0
 40
0.0
 40
0.0
 40
0.0
 40
1.0
 40
1.0
 40
1.0
 40
2.0
 40
2.0
 40
2.0
 40
3.0
 40
3.0
 40
3.0
 40
4.0
 40
4.0
 40
4.0
 40
5.0
 40
5.0
 40
5.0
 40
5.0
 10
4.377038144294096
 20
5.531704031571103
 30
0.0
 10
4.380907748008464
 20
5.518561787041132
 30
0.0
 10
4.392140919429341
 20
5.510447174065827
 30
0.0
 10
4.402090226319968
 20
5.513663267659694
 30
0.0
 10
4.412039533210619
 20
5.516853632504862
 30
0.0
 10
4.416964015597133
 20
5.530095984814781
 30
0.0
 10
4.413068683134648
 20
5.543312842714233
 30
0.0
 10
4.40919907942028
 20
5.556503971865595
 30
0.0
 10
4.397968480874194
 20
5.564567361520428
 30
0.0
 10
4.388019173983567
 20
5.56132811213451
 30
0.0
 10
4.378095595841033
 20
5.558112018621891
 30
0.0
 10
4.373145384706402
 20
5.544869431974348
 30
0.0
 10
4.377038144294096
 20
5.531704031571103
 30
0.0
 10
4.377038144294096
 20
5.531704031571103
 30
0.0
 10
4.377038144294096
 20
5.531704031571103
 30
0.0
 10
4.377038144294096
 20
5.531704031571103
 30
0.0
  0
SPLINE
  5
E0
330
C4
100
AcDbEntity
  8
Layer 1
100
AcDbSpline
210
0.0
220
0.0
230
1.0
 70
     9
 71
     3
 72
    26
 73
    22
 74
     0
 42
0.0000000001
 43
0.0000000001
 40
0.0
 40
0.0
 40
0.0
 40
0.0
 40
1.0
 40
1.0
 40
1.0
 40
2.0
 40
2.0
 40
2.0
 40
3.0
 40
3.0
 40
3.0
 40
4.0
 40
4.0
 40
4.0
 40
5.0
 40
5.0
 40
5.0
 40
6.0
 40
6.0
 40
6.0
 40
7.0
 40
7.0
 40
7.0
 40
7.0
 10
4.399149430412029
 20
5.562936158890831
 30
0.0
 10
4.395506239680949
 20
5.557154909192553
 30
0.0
 10
4.394502818505012
 20
5.548739035688716
 30
0.0
 10
4.396887873453957
 20
5.540423504302503
 30
0.0
 10
4.399476185512917
 20
5.531629418201595
 30
0.0
 10
4.405254862336404
 20
5.525197231176358
 30
0.0
 10
4.411787391479214
 20
5.522734989983089
 30
0.0
 10
4.415129555857548
 20
5.521502582949071
 30
0.0
 10
4.416058363663978
 20
5.52735587314204
 30
0.0
 10
4.416058363663978
 20
5.52735587314204
 30
0.0
 10
4.416058363663978
 20
5.52735587314204
 30
0.0
 10
4.413295096117937
 20
5.545723626411295
 30
0.0
 10
4.413295096117937
 20
5.545723626411295
 30
0.0
 10
4.413295096117937
 20
5.545723626411295
 30
0.0
 10
4.405882643790063
 20
5.557358166302543
 30
0.0
 10
4.405882643790063
 20
5.557358166302543
 30
0.0
 10
4.405882643790063
 20
5.557358166302543
 30
0.0
 10
4.40125918775632
 20
5.566327207890531
 30
0.0
 10
4.399149430412029
 20
5.562936158890831
 30
0.0
 10
4.399149430412029
 20
5.562936158890831
 30
0.0
 10
4.399149430412029
 20
5.562936158890831
 30
0.0
 10
4.399149430412029
 20
5.562936158890831
 30
0.0
  0
HATCH
  5
E1
330
C4
100
AcDbEntity
  8
Layer 1
 62
   250
420
  2301728
440
 33554687
100
AcDbHatch
 10
0.0
 20
0.0
 30
0.0
210
0.0
220
0.0
230
1.0
  2
SOLID
 70
     1
 71
     1
 91
        1
 92
        1
 93
        1
 72
     4
 94
        3
 73
     0
 74
     0
 95
       26
 96
       22
 40
0.0
 40
0.0
 40
0.0
 40
0.0
 40
1.0
 40
1.0
 40
1.0
 40
2.0
 40
2.0
 40
2.0
 40
3.0
 40
3.0
 40
3.0
 40
4.0
 40
4.0
 40
4.0
 40
5.0
 40
5.0
 40
5.0
 40
6.0
 40
6.0
 40
6.0
 40
7.0
 40
7.0
 40
7.0
 40
7.0
 10
4.399149430412029
 20
5.562936158890831
 10
4.395506239680949
 20
5.557154909192553
 10
4.394502818505012
 20
5.548739035688716
 10
4.396887873453957
 20
5.540423504302503
 10
4.399476185512917
 20
5.531629418201595
 10
4.405254862336404
 20
5.525197231176358
 10
4.411787391479214
 20
5.522734989983089
 10
4.415129555857548
 20
5.521502582949071
 10
4.416058363663978
 20
5.52735587314204
 10
4.416058363663978
 20
5.52735587314204
 10
4.416058363663978
 20
5.52735587314204
 10
4.413295096117937
 20
5.545723626411295
 10
4.413295096117937
 20
5.545723626411295
 10
4.413295096117937
 20
5.545723626411295
 10
4.405882643790063
 20
5.557358166302543
 10
4.405882643790063
 20
5.557358166302543
 10
4.405882643790063
 20
5.557358166302543
 10
4.40125918775632
 20
5.566327207890531
 10
4.399149430412029
 20
5.562936158890831
 10
4.399149430412029
 20
5.562936158890831
 10
4.399149430412029
 20
5.562936158890831
 10
4.399149430412029
 20
5.562936158890831
 97
        0
 97
        1
330
E0
 75
     2
 76
     1
 98
        1
 10
0.0
 20
0.0
450
        0
451
        0
460
0.0
461
0.0
452
        0
462
0.0
453
        0
470

  0
SPLINE
  5
E2
330
C4
100
AcDbEntity
  8
Layer 1
 62
   250
420
  2301728
370
    20
100
AcDbSpline
210
0.0
220
0.0
230
1.0
 70
     9
 71
     3
 72
    20
 73
    16
 74
     0
 42
0.0000000001
 43
0.0000000001
 40
0.0
 40
0.0
 40
0.0
 40
0.0
 40
1.0
 40
1.0
 40
1.0
 40
2.0
 40
2.0
 40
2.0
 40
3.0
 40
3.0
 40
3.0
 40
4.0
 40
4.0
 40
4.0
 40
5.0
 40
5.0
 40
5.0
 40
5.0
 10
4.26246545612576
 20
5.77456797639517
 30
0.0
 10
4.266360987856463
 20
5.761376847243834
 30
0.0
 10
4.277617115882397
 20
5.753336613462275
 30
0.0
 10
4.287540694024932
 20
5.756552706974894
 30
0.0
 10
4.297490000915583
 20
5.75969418711803
 30
0.0
 10
4.302440212050188
 20
5.772959929638873
 30
0.0
 10
4.298547652543826
 20
5.786127902916935
 30
0.0
 10
4.294652120000035
 20
5.799319032068297
 30
0.0
 10
4.283444877027047
 20
5.80735926584983
 30
0.0
 10
4.273472214563349
 20
5.804143172337211
 30
0.0
 10
4.263546063545996
 20
5.801027662458611
 30
0.0
 10
4.258608716785425
 20
5.787735949673232
 30
0.0
 10
4.26246545612576
 20
5.77456797639517
 30
0.0
 10
4.26246545612576
 20
5.77456797639517
 30
0.0
 10
4.26246545612576
 20
5.77456797639517
 30
0.0
 10
4.26246545612576
 20
5.77456797639517
 30
0.0
  0
SPLINE
  5
E3
330
C4
100
AcDbEntity
  8
Layer 1
100
AcDbSpline
210
0.0
220
0.0
230
1.0
 70
     9
 71
     3
 72
    26
 73
    22
 74
     0
 42
0.0000000001
 43
0.0000000001
 40
0.0
 40
0.0
 40
0.0
 40
0.0
 40
1.0
 40
1.0
 40
1.0
 40
2.0
 40
2.0
 40
2.0
 40
3.0
 40
3.0
 40
3.0
 40
4.0
 40
4.0
 40
4.0
 40
5.0
 40
5.0
 40
5.0
 40
6.0
 40
6.0
 40
6.0
 40
7.0
 40
7.0
 40
7.0
 40
7.0
 10
4.28462562686511
 20
5.805774374966808
 30
0.0
 10
4.280982436134005
 20
5.799969969395255
 30
0.0
 10
4.279953286209976
 20
5.791554095891418
 30
0.0
 10
4.28236664278183
 20
5.783238564505205
 30
0.0
 10
4.284978110714089
 20
5.774519091773779
 30
0.0
 10
4.290733631664275
 20
5.76801229137906
 30
0.0
 10
4.297240432058995
 20
5.76555005018579
 30
0.0
 10
4.300582596437303
 20
5.764317643151747
 30
0.0
 10
4.30153713299185
 20
5.770196662092833
 30
0.0
 10
4.30153713299185
 20
5.770196662092833
 30
0.0
 10
4.30153713299185
 20
5.770196662092833
 30
0.0
 10
4.298773865445809
 20
5.788613299983479
 30
0.0
 10
4.298773865445809
 20
5.788613299983479
 30
0.0
 10
4.298773865445809
 20
5.788613299983479
 30
0.0
 10
4.291361413117934
 20
5.800196382378544
 30
0.0
 10
4.291361413117934
 20
5.800196382378544
 30
0.0
 10
4.291361413117934
 20
5.800196382378544
 30
0.0
 10
4.286738156867183
 20
5.809191152714624
 30
0.0
 10
4.28462562686511
 20
5.805774374966808
 30
0.0
 10
4.28462562686511
 20
5.805774374966808
 30
0.0
 10
4.28462562686511
 20
5.805774374966808
 30
0.0
 10
4.28462562686511
 20
5.805774374966808
 30
0.0
  0
HATCH
  5
E4
330
C4
100
AcDbEntity
  8
Layer 1
 62
   250
420
  2301728
440
 33554687
100
AcDbHatch
 10
0.0
 20
0.0
 30
0.0
210
0.0
220
0.0
230
1.0
  2
SOLID
 70
     1
 71
     1
 91
        1
 92
        1
 93
        1
 72
     4
 94
        3
 73
     0
 74
     0
 95
       26
 96
       22
 40
0.0
 40
0.0
 40
0.0
 40
0.0
 40
1.0
 40
1.0
 40
1.0
 40
2.0
 40
2.0
 40
2.0
 40
3.0
 40
3.0
 40
3.0
 40
4.0
 40
4.0
 40
4.0
 40
5.0
 40
5.0
 40
5.0
 40
6.0
 40
6.0
 40
6.0
 40
7.0
 40
7.0
 40
7.0
 40
7.0
 10
4.28462562686511
 20
5.805774374966808
 10
4.280982436134005
 20
5.799969969395255
 10
4.279953286209976
 20
5.791554095891418
 10
4.28236664278183
 20
5.783238564505205
 10
4.284978110714089
 20
5.774519091773779
 10
4.290733631664275
 20
5.76801229137906
 10
4.297240432058995
 20
5.76555005018579
 10
4.300582596437303
 20
5.764317643151747
 10
4.30153713299185
 20
5.770196662092833
 10
4.30153713299185
 20
5.770196662092833
 10
4.30153713299185
 20
5.770196662092833
 10
4.298773865445809
 20
5.788613299983479
 10
4.298773865445809
 20
5.788613299983479
 10
4.298773865445809
 20
5.788613299983479
 10
4.291361413117934
 20
5.800196382378544
 10
4.291361413117934
 20
5.800196382378544
 10
4.291361413117934
 20
5.800196382378544
 10
4.286738156867183
 20
5.809191152714624
 10
4.28462562686511
 20
5.805774374966808
 10
4.28462562686511
 20
5.805774374966808
 10
4.28462562686511
 20
5.805774374966808
 10
4.28462562686511
 20
5.805774374966808
 97
        0
 97
        1
330
E3
 75
     2
 76
     1
 98
        1
 10
0.0
 20
0.0
450
        0
451
        0
460
0.0
461
0.0
452
        0
462
0.0
453
        0
470

  0
SPLINE
  5
E5
330
C4
100
AcDbEntity
  8
Layer 1
 62
   250
420
  2301728
370
    20
100
AcDbSpline
210
0.0
220
0.0
230
1.0
 70
     9
 71
     3
 72
    20
 73
    16
 74
     0
 42
0.0000000001
 43
0.0000000001
 40
0.0
 40
0.0
 40
0.0
 40
0.0
 40
1.0
 40
1.0
 40
1.0
 40
2.0
 40
2.0
 40
2.0
 40
3.0
 40
3.0
 40
3.0
 40
4.0
 40
4.0
 40
4.0
 40
5.0
 40
5.0
 40
5.0
 40
5.0
 10
4.377768840740145
 20
5.974269373405124
 30
0.0
 10
4.380884592135164
 20
5.960900715891865
 30
0.0
 10
4.391610907218465
 20
5.952083473917658
 30
0.0
 10
4.401712013722898
 20
5.954720670598008
 30
0.0
 10
4.411887733596813
 20
5.957283253908877
 30
0.0
 10
4.417543115516789
 20
5.970199085455558
 30
0.0
 10
4.414427161034382
 20
5.983614054715391
 30
0.0
 10
4.411337138387454
 20
5.997005868101925
 30
0.0
 10
4.40058252168127
 20
6.005799954202832
 30
0.0
 10
4.390455686428721
 20
6.003214215018689
 30
0.0
 10
4.380354579924288
 20
6.000600174211613
 30
0.0
 10
4.374676245218426
 20
5.987684342664957
 30
0.0
 10
4.377768840740145
 20
5.974269373405124
 30
0.0
 10
4.377768840740145
 20
5.974269373405124
 30
0.0
 10
4.377768840740145
 20
5.974269373405124
 30
0.0
 10
4.377768840740145
 20
5.974269373405124
 30
0.0
  0
SPLINE
  5
E6
330
C4
100
AcDbEntity
  8
Layer 1
100
AcDbSpline
210
0.0
220
0.0
230
1.0
 70
     9
 71
     3
 72
    26
 73
    22
 74
     0
 42
0.0000000001
 43
0.0000000001
 40
0.0
 40
0.0
 40
0.0
 40
0.0
 40
1.0
 40
1.0
 40
1.0
 40
2.0
 40
2.0
 40
2.0
 40
3.0
 40
3.0
 40
3.0
 40
4.0
 40
4.0
 40
4.0
 40
5.0
 40
5.0
 40
5.0
 40
6.0
 40
6.0
 40
6.0
 40
7.0
 40
7.0
 40
7.0
 40
7.0
 10
4.397868138756621
 20
6.003764810228049
 30
0.0
 10
4.394703502740185
 20
5.998238521634371
 30
0.0
 10
4.393571437823766
 20
5.990676596069079
 30
0.0
 10
4.39535701294196
 20
5.983012002009823
 30
0.0
 10
4.397718912017631
 20
5.97298808174969
 30
0.0
 10
4.404351783278039
 20
5.965524171925608
 30
0.0
 10
4.411787391479214
 20
5.963514756698915
 30
0.0
 10
4.414249835676703
 20
5.962861492101865
 30
0.0
 10
4.417064357714732
 20
5.970749680664917
 30
0.0
 10
4.417064357714732
 20
5.970749680664917
 30
0.0
 10
4.417064357714732
 20
5.970749680664917
 30
0.0
 10
4.417064357714732
 20
5.98627955301865
 30
0.0
 10
4.417064357714732
 20
5.98627955301865
 30
0.0
 10
4.417064357714732
 20
5.98627955301865
 30
0.0
 10
4.406837180344609
 20
5.999872050640356
 30
0.0
 10
4.406837180344609
 20
5.999872050640356
 30
0.0
 10
4.406837180344609
 20
5.999872050640356
 30
0.0
 10
4.400255766580382
 20
6.00783534491845
 30
0.0
 10
4.397868138756621
 20
6.003764810228049
 30
0.0
 10
4.397868138756621
 20
6.003764810228049
 30
0.0
 10
4.397868138756621
 20
6.003764810228049
 30
0.0
 10
4.397868138756621
 20
6.003764810228049
 30
0.0
  0
HATCH
  5
E7
330
C4
100
AcDbEntity
  8
Layer 1
 62
   250
420
  2301728
440
 33554687
100
AcDbHatch
 10
0.0
 20
0.0
 30
0.0
210
0.0
220
0.0
230
1.0
  2
SOLID
 70
     1
 71
     1
 91
        1
 92
        1
 93
        1
 72
     4
 94
        3
 73
     0
 74
     0
 95
       26
 96
       22
 40
0.0
 40
0.0
 40
0.0
 40
0.0
 40
1.0
 40
1.0
 40
1.0
 40
2.0
 40
2.0
 40
2.0
 40
3.0
 40
3.0
 40
3.0
 40
4.0
 40
4.0
 40
4.0
 40
5.0
 40
5.0
 40
5.0
 40
6.0
 40
6.0
 40
6.0
 40
7.0
 40
7.0
 40
7.0
 40
7.0
 10
4.397868138756621
 20
6.003764810228049
 10
4.394703502740185
 20
5.998238521634371
 10
4.393571437823766
 20
5.990676596069079
 10
4.39535701294196
 20
5.983012002009823
 10
4.397718912017631
 20
5.97298808174969
 10
4.404351783278039
 20
5.965524171925608
 10
4.411787391479214
 20
5.963514756698915
 10
4.414249835676703
 20
5.962861492101865
 10
4.417064357714732
 20
5.970749680664917
 10
4.417064357714732
 20
5.970749680664917
 10
4.417064357714732
 20
5.970749680664917
 10
4.417064357714732
 20
5.98627955301865
 10
4.417064357714732
 20
5.98627955301865
 10
4.417064357714732
 20
5.98627955301865
 10
4.406837180344609
 20
5.999872050640356
 10
4.406837180344609
 20
5.999872050640356
 10
4.406837180344609
 20
5.999872050640356
 10
4.400255766580382
 20
6.00783534491845
 10
4.397868138756621
 20
6.003764810228049
 10
4.397868138756621
 20
6.003764810228049
 10
4.397868138756621
 20
6.003764810228049
 10
4.397868138756621
 20
6.003764810228049
 97
        0
 97
        1
330
E6
 75
     2
 76
     1
 98
        1
 10
0.0
 20
0.0
450
        0
451
        0
460
0.0
461
0.0
452
        0
462
0.0
453
        0
470

  0
SPLINE
  5
E8
330
C4
100
AcDbEntity
  8
Layer 1
 62
   250
420
  2301728
370
    30
100
AcDbSpline
210
0.0
220
0.0
230
1.0
 70
    11
 71
     3
 72
    20
 73
    16
 74
     0
 42
0.0000000001
 43
0.0000000001
 40
0.0
 40
0.0
 40
0.0
 40
0.0
 40
1.0
 40
1.0
 40
1.0
 40
2.0
 40
2.0
 40
2.0
 40
3.0
 40
3.0
 40
3.0
 40
4.0
 40
4.0
 40
4.0
 40
5.0
 40
5.0
 40
5.0
 40
5.0
 10
4.314249707428542
 20
6.279594999993882
 30
0.0
 10
4.314249707428542
 20
6.279594999993882
 30
0.0
 10
4.349577851445953
 20
6.236882705271479
 30
0.0
 10
4.349577851445953
 20
6.236882705271479
 30
0.0
 10
4.349577851445953
 20
6.236882705271479
 30
0.0
 10
4.358822190638622
 20
6.259220404372727
 30
0.0
 10
4.358822190638622
 20
6.259220404372727
 30
0.0
 10
4.358822190638622
 20
6.259220404372727
 30
0.0
 10
4.368143917915075
 20
6.28248691128043
 30
0.0
 10
4.339299216579623
 20
6.281555530599158
 30
0.0
 10
4.339299216579623
 20
6.281555530599158
 30
0.0
 10
4.314249707428542
 20
6.279594999993882
 30
0.0
 10
4.314249707428542
 20
6.279594999993882
 30
0.0
 10
4.314249707428542
 20
6.279594999993882
 30
0.0
 10
4.314249707428542
 20
6.279594999993882
 30
0.0
 10
4.314249707428542
 20
6.279594999993882
 30
0.0
  0
HATCH
  5
E9
330
C4
100
AcDbEntity
  8
Layer 1
 62
    43
420
 15575901
440
 33554687
100
AcDbHatch
 10
0.0
 20
0.0
 30
0.0
210
0.0
220
0.0
230
1.0
  2
SOLID
 70
     1
 71
     1
 91
        1
 92
        1
 93
        1
 72
     4
 94
        3
 73
     0
 74
     0
 95
       20
 96
       16
 40
0.0
 40
0.0
 40
0.0
 40
0.0
 40
1.0
 40
1.0
 40
1.0
 40
2.0
 40
2.0
 40
2.0
 40
3.0
 40
3.0
 40
3.0
 40
4.0
 40
4.0
 40
4.0
 40
5.0
 40
5.0
 40
5.0
 40
5.0
 10
4.314249707428542
 20
6.279594999993882
 10
4.314249707428542
 20
6.279594999993882
 10
4.349577851445953
 20
6.236882705271479
 10
4.349577851445953
 20
6.236882705271479
 10
4.349577851445953
 20
6.236882705271479
 10
4.358822190638622
 20
6.259220404372727
 10
4.358822190638622
 20
6.259220404372727
 10
4.358822190638622
 20
6.259220404372727
 10
4.368143917915075
 20
6.28248691128043
 10
4.339299216579623
 20
6.281555530599158
 10
4.339299216579623
 20
6.281555530599158
 10
4.314249707428542
 20
6.279594999993882
 10
4.314249707428542
 20
6.279594999993882
 10
4.314249707428542
 20
6.279594999993882
 10
4.314249707428542
 20
6.279594999993882
 10
4.314249707428542
 20
6.279594999993882
 97
        0
 97
        1
330
E8
 75
     2
 76
     1
 98
        1
 10
0.0
 20
0.0
450
        0
451
        0
460
0.0
461
0.0
452
        0
462
0.0
453
        0
470

  0
SPLINE
  5
EA
330
C4
100
AcDbEntity
  8
Layer 1
 62
   250
420
  2301728
370
    20
100
AcDbSpline
210
0.0
220
0.0
230
1.0
 70
     9
 71
     3
 72
    20
 73
    16
 74
     0
 42
0.0000000001
 43
0.0000000001
 40
0.0
 40
0.0
 40
0.0
 40
0.0
 40
1.0
 40
1.0
 40
1.0
 40
2.0
 40
2.0
 40
2.0
 40
3.0
 40
3.0
 40
3.0
 40
4.0
 40
4.0
 40
4.0
 40
5.0
 40
5.0
 40
5.0
 40
5.0
 10
4.26246545612576
 20
6.137484832733106
 30
0.0
 10
4.266360987856463
 20
6.124244818960353
 30
0.0
 10
4.277617115882397
 20
6.116204834657284
 30
0.0
 10
4.287540694024932
 20
6.119420928251151
 30
0.0
 10
4.297490000915583
 20
6.122637021845017
 30
0.0
 10
4.302440212050188
 20
6.135876785976784
 30
0.0
 10
4.298547652543826
 20
6.149042186380054
 30
0.0
 10
4.294652120000035
 20
6.16220783742392
 30
0.0
 10
4.283444877027047
 20
6.170325006809156
 30
0.0
 10
4.273472214563349
 20
6.167108913296538
 30
0.0
 10
4.263546063545996
 20
6.16391854853201
 30
0.0
 10
4.258608716785425
 20
6.150627077263051
 30
0.0
 10
4.26246545612576
 20
6.137484832733106
 30
0.0
 10
4.26246545612576
 20
6.137484832733106
 30
0.0
 10
4.26246545612576
 20
6.137484832733106
 30
0.0
 10
4.26246545612576
 20
6.137484832733106
 30
0.0
  0
SPLINE
  5
EB
330
C4
100
AcDbEntity
  8
Layer 1
 62
   250
420
  2301728
370
    20
100
AcDbSpline
210
0.0
220
0.0
230
1.0
 70
     8
 71
     3
 72
    14
 73
    10
 74
     0
 42
0.0000000001
 43
0.0000000001
 40
0.0
 40
0.0
 40
0.0
 40
0.0
 40
1.0
 40
1.0
 40
1.0
 40
2.0
 40
2.0
 40
2.0
 40
3.0
 40
3.0
 40
3.0
 40
3.0
 10
4.349577851445953
 20
6.236882705271479
 30
0.0
 10
4.342088212873755
 20
6.203916460329739
 30
0.0
 10
4.328194688899253
 20
6.219446332683471
 30
0.0
 10
4.328194688899253
 20
6.219446332683471
 30
0.0
 10
4.328194688899253
 20
6.219446332683471
 30
0.0
 10
4.293823654311179
 20
6.265022237069488
 30
0.0
 10
4.293823654311179
 20
6.265022237069488
 30
0.0
 10
4.291034857908572
 20
6.28248691128043
 30
0.0
 10
4.317012974974582
 20
6.279594999993882
 30
0.0
 10
4.317012974974582
 20
6.279594999993882
 30
0.0
  0
SPLINE
  5
EC
330
C4
100
AcDbEntity
  8
Layer 1
100
AcDbSpline
210
0.0
220
0.0
230
1.0
 70
     9
 71
     3
 72
    26
 73
    22
 74
     0
 42
0.0000000001
 43
0.0000000001
 40
0.0
 40
0.0
 40
0.0
 40
0.0
 40
1.0
 40
1.0
 40
1.0
 40
2.0
 40
2.0
 40
2.0
 40
3.0
 40
3.0
 40
3.0
 40
4.0
 40
4.0
 40
4.0
 40
5.0
 40
5.0
 40
5.0
 40
6.0
 40
6.0
 40
6.0
 40
7.0
 40
7.0
 40
7.0
 40
7.0
 10
4.28462562686511
 20
6.168691482109149
 30
0.0
 10
4.280982436134005
 20
6.162837941111774
 30
0.0
 10
4.279953286209976
 20
6.154494108102627
 30
0.0
 10
4.28236664278183
 20
6.146178826952109
 30
0.0
 10
4.284978110714089
 20
6.137435948111715
 30
0.0
 10
4.290733631664275
 20
6.13095230359027
 30
0.0
 10
4.297240432058995
 20
6.128515791145117
 30
0.0
 10
4.300582596437303
 20
6.127257655362982
 30
0.0
 10
4.30153713299185
 20
6.133113518430743
 30
0.0
 10
4.30153713299185
 20
6.133113518430743
 30
0.0
 10
4.30153713299185
 20
6.133113518430743
 30
0.0
 10
4.298773865445809
 20
6.151481271700023
 30
0.0
 10
4.298773865445809
 20
6.151481271700023
 30
0.0
 10
4.298773865445809
 20
6.151481271700023
 30
0.0
 10
4.291361413117934
 20
6.163113238716454
 30
0.0
 10
4.291361413117934
 20
6.163113238716454
 30
0.0
 10
4.291361413117934
 20
6.163113238716454
 30
0.0
 10
4.286738156867183
 20
6.172108009052534
 30
0.0
 10
4.28462562686511
 20
6.168691482109149
 30
0.0
 10
4.28462562686511
 20
6.168691482109149
 30
0.0
 10
4.28462562686511
 20
6.168691482109149
 30
0.0
 10
4.28462562686511
 20
6.168691482109149
 30
0.0
  0
HATCH
  5
ED
330
C4
100
AcDbEntity
  8
Layer 1
 62
   250
420
  2301728
440
 33554687
100
AcDbHatch
 10
0.0
 20
0.0
 30
0.0
210
0.0
220
0.0
230
1.0
  2
SOLID
 70
     1
 71
     1
 91
        1
 92
        1
 93
        1
 72
     4
 94
        3
 73
     0
 74
     0
 95
       26
 96
       22
 40
0.0
 40
0.0
 40
0.0
 40
0.0
 40
1.0
 40
1.0
 40
1.0
 40
2.0
 40
2.0
 40
2.0
 40
3.0
 40
3.0
 40
3.0
 40
4.0
 40
4.0
 40
4.0
 40
5.0
 40
5.0
 40
5.0
 40
6.0
 40
6.0
 40
6.0
 40
7.0
 40
7.0
 40
7.0
 40
7.0
 10
4.28462562686511
 20
6.168691482109149
 10
4.280982436134005
 20
6.162837941111774
 10
4.279953286209976
 20
6.154494108102627
 10
4.28236664278183
 20
6.146178826952109
 10
4.284978110714089
 20
6.137435948111715
 10
4.290733631664275
 20
6.13095230359027
 10
4.297240432058995
 20
6.128515791145117
 10
4.300582596437303
 20
6.127257655362982
 10
4.30153713299185
 20
6.133113518430743
 10
4.30153713299185
 20
6.133113518430743
 10
4.30153713299185
 20
6.133113518430743
 10
4.298773865445809
 20
6.151481271700023
 10
4.298773865445809
 20
6.151481271700023
 10
4.298773865445809
 20
6.151481271700023
 10
4.291361413117934
 20
6.163113238716454
 10
4.291361413117934
 20
6.163113238716454
 10
4.291361413117934
 20
6.163113238716454
 10
4.286738156867183
 20
6.172108009052534
 10
4.28462562686511
 20
6.168691482109149
 10
4.28462562686511
 20
6.168691482109149
 10
4.28462562686511
 20
6.168691482109149
 10
4.28462562686511
 20
6.168691482109149
 97
        0
 97
        1
330
EC
 75
     2
 76
     1
 98
        1
 10
0.0
 20
0.0
450
        0
451
        0
460
0.0
461
0.0
452
        0
462
0.0
453
        0
470

  0
SPLINE
  5
EE
330
C4
100
AcDbEntity
  8
Layer 1
 62
   250
420
  2301728
370
    20
100
AcDbSpline
210
0.0
220
0.0
230
1.0
 70
     9
 71
     3
 72
    20
 73
    16
 74
     0
 42
0.0000000001
 43
0.0000000001
 40
0.0
 40
0.0
 40
0.0
 40
0.0
 40
1.0
 40
1.0
 40
1.0
 40
2.0
 40
2.0
 40
2.0
 40
3.0
 40
3.0
 40
3.0
 40
4.0
 40
4.0
 40
4.0
 40
5.0
 40
5.0
 40
5.0
 40
5.0
 10
4.377768840740145
 20
6.337183656868218
 30
0.0
 10
4.380884592135164
 20
6.323817572229775
 30
0.0
 10
4.391610907218465
 20
6.315049214876984
 30
0.0
 10
4.401712013722898
 20
6.317660937376962
 30
0.0
 10
4.411887733596813
 20
6.320223266120087
 30
0.0
 10
4.417543115516789
 20
6.333113368918652
 30
0.0
 10
4.414427161034382
 20
6.346530911053301
 30
0.0
 10
4.411337138387454
 20
6.359896995691744
 30
0.0
 10
4.40058252168127
 20
6.368691081792651
 30
0.0
 10
4.390455686428721
 20
6.366128498481783
 30
0.0
 10
4.380354579924288
 20
6.363540186422849
 30
0.0
 10
4.374676245218426
 20
6.350601199002867
 30
0.0
 10
4.377768840740145
 20
6.337183656868218
 30
0.0
 10
4.377768840740145
 20
6.337183656868218
 30
0.0
 10
4.377768840740145
 20
6.337183656868218
 30
0.0
 10
4.377768840740145
 20
6.337183656868218
 30
0.0
  0
SPLINE
  5
EF
330
C4
100
AcDbEntity
  8
Layer 1
100
AcDbSpline
210
0.0
220
0.0
230
1.0
 70
     9
 71
     3
 72
    26
 73
    22
 74
     0
 42
0.0000000001
 43
0.0000000001
 40
0.0
 40
0.0
 40
0.0
 40
0.0
 40
1.0
 40
1.0
 40
1.0
 40
2.0
 40
2.0
 40
2.0
 40
3.0
 40
3.0
 40
3.0
 40
4.0
 40
4.0
 40
4.0
 40
5.0
 40
5.0
 40
5.0
 40
6.0
 40
6.0
 40
6.0
 40
7.0
 40
7.0
 40
7.0
 40
7.0
 10
4.397868138756621
 20
6.366681666565959
 30
0.0
 10
4.394703502740185
 20
6.361178287347178
 30
0.0
 10
4.393571437823766
 20
6.353642337028404
 30
0.0
 10
4.39535701294196
 20
6.345952014221033
 30
0.0
 10
4.397718912017631
 20
6.335876891492564
 30
0.0
 10
4.404351783278039
 20
6.328467011852302
 30
0.0
 10
4.411787391479214
 20
6.326431613036851
 30
0.0
 10
4.414249835676703
 20
6.325801258708375
 30
0.0
 10
4.417064357714732
 20
6.333666537002828
 30
0.0
 10
4.417064357714732
 20
6.333666537002828
 30
0.0
 10
4.417064357714732
 20
6.333666537002828
 30
0.0
 10
4.417064357714732
 20
6.349168107733652
 30
0.0
 10
4.417064357714732
 20
6.349168107733652
 30
0.0
 10
4.417064357714732
 20
6.349168107733652
 30
0.0
 10
4.406837180344609
 20
6.362786334103475
 30
0.0
 10
4.406837180344609
 20
6.362786334103475
 30
0.0
 10
4.406837180344609
 20
6.362786334103475
 30
0.0
 10
4.400255766580382
 20
6.370751954515526
 30
0.0
 10
4.397868138756621
 20
6.366681666565959
 30
0.0
 10
4.397868138756621
 20
6.366681666565959
 30
0.0
 10
4.397868138756621
 20
6.366681666565959
 30
0.0
 10
4.397868138756621
 20
6.366681666565959
 30
0.0
  0
HATCH
  5
F0
330
C4
100
AcDbEntity
  8
Layer 1
 62
   250
420
  2301728
440
 33554687
100
AcDbHatch
 10
0.0
 20
0.0
 30
0.0
210
0.0
220
0.0
230
1.0
  2
SOLID
 70
     1
 71
     1
 91
        1
 92
        1
 93
        1
 72
     4
 94
        3
 73
     0
 74
     0
 95
       26
 96
       22
 40
0.0
 40
0.0
 40
0.0
 40
0.0
 40
1.0
 40
1.0
 40
1.0
 40
2.0
 40
2.0
 40
2.0
 40
3.0
 40
3.0
 40
3.0
 40
4.0
 40
4.0
 40
4.0
 40
5.0
 40
5.0
 40
5.0
 40
6.0
 40
6.0
 40
6.0
 40
7.0
 40
7.0
 40
7.0
 40
7.0
 10
4.397868138756621
 20
6.366681666565959
 10
4.394703502740185
 20
6.361178287347178
 10
4.393571437823766
 20
6.353642337028404
 10
4.39535701294196
 20
6.345952014221033
 10
4.397718912017631
 20
6.335876891492564
 10
4.404351783278039
 20
6.328467011852302
 10
4.411787391479214
 20
6.326431613036851
 10
4.414249835676703
 20
6.325801258708375
 10
4.417064357714732
 20
6.333666537002828
 10
4.417064357714732
 20
6.333666537002828
 10
4.417064357714732
 20
6.333666537002828
 10
4.417064357714732
 20
6.349168107733652
 10
4.417064357714732
 20
6.349168107733652
 10
4.417064357714732
 20
6.349168107733652
 10
4.406837180344609
 20
6.362786334103475
 10
4.406837180344609
 20
6.362786334103475
 10
4.406837180344609
 20
6.362786334103475
 10
4.400255766580382
 20
6.370751954515526
 10
4.397868138756621
 20
6.366681666565959
 10
4.397868138756621
 20
6.366681666565959
 10
4.397868138756621
 20
6.366681666565959
 10
4.397868138756621
 20
6.366681666565959
 97
        0
 97
        1
330
EF
 75
     2
 76
     1
 98
        1
 10
0.0
 20
0.0
450
        0
451
        0
460
0.0
461
0.0
452
        0
462
0.0
453
        0
470

  0
SPLINE
  5
F1
330
C4
100
AcDbEntity
  8
Layer 1
 62
   250
420
  2301728
370
    15
100
AcDbSpline
210
0.0
220
0.0
230
1.0
 70
    24
 71
     3
 72
     8
 73
     4
 74
     0
 42
0.0000000001
 43
0.0000000001
 40
0.0
 40
0.0
 40
0.0
 40
0.0
 40
1.0
 40
1.0
 40
1.0
 40
1.0
 10
4.174928536461897
 20
6.650251063760555
 30
0.0
 10
4.174928536461897
 20
6.650251063760555
 30
0.0
 10
4.174928536461897
 20
5.979747023875814
 30
0.0
 10
4.174928536461897
 20
5.979747023875814
 30
0.0
  0
SPLINE
  5
F2
330
C4
100
AcDbEntity
  8
Layer 1
 62
   250
420
  2301728
370
    15
100
AcDbSpline
210
0.0
220
0.0
230
1.0
 70
    24
 71
     3
 72
     8
 73
     4
 74
     0
 42
0.0000000001
 43
0.0000000001
 40
0.0
 40
0.0
 40
0.0
 40
0.0
 40
1.0
 40
1.0
 40
1.0
 40
1.0
 10
4.174928536461897
 20
5.956480762411652
 30
0.0
 10
4.174928536461897
 20
5.956480762411652
 30
0.0
 10
4.174928536461897
 20
5.941905181168926
 30
0.0
 10
4.174928536461897
 20
5.941905181168926
 30
0.0
  0
SPLINE
  5
F3
330
C4
100
AcDbEntity
  8
Layer 1
 62
   250
420
  2301728
370
    15
100
AcDbSpline
210
0.0
220
0.0
230
1.0
 70
    24
 71
     3
 72
     8
 73
     4
 74
     0
 42
0.0000000001
 43
0.0000000001
 40
0.0
 40
0.0
 40
0.0
 40
0.0
 40
1.0
 40
1.0
 40
1.0
 40
1.0
 10
4.174928536461897
 20
5.869594777879809
 30
0.0
 10
4.174928536461897
 20
5.869594777879809
 30
0.0
 10
4.174928536461897
 20
5.135571361434838
 30
0.0
 10
4.174928536461897
 20
5.135571361434838
 30
0.0
  0
SPLINE
  5
F4
330
C4
100
AcDbEntity
  8
Layer 1
 62
   250
420
  2301728
370
    15
100
AcDbSpline
210
0.0
220
0.0
230
1.0
 70
    24
 71
     3
 72
     8
 73
     4
 74
     0
 42
0.0000000001
 43
0.0000000001
 40
0.0
 40
0.0
 40
0.0
 40
0.0
 40
1.0
 40
1.0
 40
1.0
 40
1.0
 10
4.174928536461897
 20
5.11230485452716
 30
0.0
 10
4.174928536461897
 20
5.11230485452716
 30
0.0
 10
4.174928536461897
 20
5.086100124586335
 30
0.0
 10
4.174928536461897
 20
5.086100124586335
 30
0.0
  0
LINE
  5
F5
330
C4
100
AcDbEntity
  8
Layer 1
 62
   250
420
  2301728
370
    20
100
AcDbLine
 10
4.527893718909454
 20
6.687135797038081
 30
0.0
 11
4.496764300707026
 21
6.669146256365896
 31
0.0
  0
SPLINE
  5
F6
330
C4
100
AcDbEntity
  8
Layer 1
 62
   250
420
  2301728
370
    15
100
AcDbSpline
210
0.0
220
0.0
230
1.0
 70
     9
 71
     3
 72
    14
 73
    10
 74
     0
 42
0.0000000001
 43
0.0000000001
 40
0.0
 40
0.0
 40
0.0
 40
0.0
 40
1.0
 40
1.0
 40
1.0
 40
2.0
 40
2.0
 40
2.0
 40
3.0
 40
3.0
 40
3.0
 40
3.0
 10
3.945304605410557
 20
6.319572328793128
 30
0.0
 10
3.945304605410557
 20
6.275627627036707
 30
0.0
 10
3.896245028531666
 20
6.256104652977708
 30
0.0
 10
3.896245028531666
 20
6.295148282219896
 30
0.0
 10
3.896245028531666
 20
6.346404840187611
 30
0.0
 10
3.945304605410557
 20
6.363517030549549
 30
0.0
 10
3.945304605410557
 20
6.319572328793128
 30
0.0
 10
3.945304605410557
 20
6.319572328793128
 30
0.0
 10
3.945304605410557
 20
6.319572328793128
 30
0.0
 10
3.945304605410557
 20
6.319572328793128
 30
0.0
  0
HATCH
  5
F7
330
C4
100
AcDbEntity
  8
Layer 1
 62
   250
420
  2301728
440
 33554687
100
AcDbHatch
 10
0.0
 20
0.0
 30
0.0
210
0.0
220
0.0
230
1.0
  2
SOLID
 70
     1
 71
     1
 91
        1
 92
        1
 93
        1
 72
     4
 94
        3
 73
     0
 74
     0
 95
       14
 96
       10
 40
0.0
 40
0.0
 40
0.0
 40
0.0
 40
1.0
 40
1.0
 40
1.0
 40
2.0
 40
2.0
 40
2.0
 40
3.0
 40
3.0
 40
3.0
 40
3.0
 10
3.945304605410557
 20
6.319572328793128
 10
3.945304605410557
 20
6.275627627036707
 10
3.896245028531666
 20
6.256104652977708
 10
3.896245028531666
 20
6.295148282219896
 10
3.896245028531666
 20
6.346404840187611
 10
3.945304605410557
 20
6.363517030549549
 10
3.945304605410557
 20
6.319572328793128
 10
3.945304605410557
 20
6.319572328793128
 10
3.945304605410557
 20
6.319572328793128
 10
3.945304605410557
 20
6.319572328793128
 97
        0
 97
        1
330
F6
 75
     2
 76
     1
 98
        1
 10
0.0
 20
0.0
450
        0
451
        0
460
0.0
461
0.0
452
        0
462
0.0
453
        0
470

  0
SPLINE
  5
F8
330
C4
100
AcDbEntity
  8
Layer 1
 62
   250
420
  2301728
370
    15
100
AcDbSpline
210
0.0
220
0.0
230
1.0
 70
     9
 71
     3
 72
    14
 73
    10
 74
     0
 42
0.0000000001
 43
0.0000000001
 40
0.0
 40
0.0
 40
0.0
 40
0.0
 40
1.0
 40
1.0
 40
1.0
 40
2.0
 40
2.0
 40
2.0
 40
3.0
 40
3.0
 40
3.0
 40
3.0
 10
3.956988029923195
 20
6.309170450289102
 30
0.0
 10
3.956988029923195
 20
6.265225747422593
 30
0.0
 10
3.907915588670271
 20
6.245676791372387
 30
0.0
 10
3.907915588670271
 20
6.284745895363685
 30
0.0
 10
3.907915588670271
 20
6.335979806487582
 30
0.0
 10
3.956988029923195
 20
6.353063695658167
 30
0.0
 10
3.956988029923195
 20
6.309170450289102
 30
0.0
 10
3.956988029923195
 20
6.309170450289102
 30
0.0
 10
3.956988029923195
 20
6.309170450289102
 30
0.0
 10
3.956988029923195
 20
6.309170450289102
 30
0.0
  0
HATCH
  5
F9
330
C4
100
AcDbEntity
  8
Layer 1
 62
   254
420
 13358815
440
 33554687
100
AcDbHatch
 10
0.0
 20
0.0
 30
0.0
210
0.0
220
0.0
230
1.0
  2
SOLID
 70
     1
 71
     1
 91
        1
 92
        1
 93
        1
 72
     4
 94
        3
 73
     0
 74
     0
 95
       14
 96
       10
 40
0.0
 40
0.0
 40
0.0
 40
0.0
 40
1.0
 40
1.0
 40
1.0
 40
2.0
 40
2.0
 40
2.0
 40
3.0
 40
3.0
 40
3.0
 40
3.0
 10
3.956988029923195
 20
6.309170450289102
 10
3.956988029923195
 20
6.265225747422593
 10
3.907915588670271
 20
6.245676791372387
 10
3.907915588670271
 20
6.284745895363685
 10
3.907915588670271
 20
6.335979806487582
 10
3.956988029923195
 20
6.353063695658167
 10
3.956988029923195
 20
6.309170450289102
 10
3.956988029923195
 20
6.309170450289102
 10
3.956988029923195
 20
6.309170450289102
 10
3.956988029923195
 20
6.309170450289102
 97
        0
 97
        1
330
F8
 75
     2
 76
     1
 98
        1
 10
0.0
 20
0.0
450
        0
451
        0
460
0.0
461
0.0
452
        0
462
0.0
453
        0
470

  0
SPLINE
  5
FA
330
C4
100
AcDbEntity
  8
Layer 1
 62
   250
420
  2301728
370
    15
100
AcDbSpline
210
0.0
220
0.0
230
1.0
 70
     9
 71
     3
 72
    14
 73
    10
 74
     0
 42
0.0000000001
 43
0.0000000001
 40
0.0
 40
0.0
 40
0.0
 40
0.0
 40
1.0
 40
1.0
 40
1.0
 40
2.0
 40
2.0
 40
2.0
 40
3.0
 40
3.0
 40
3.0
 40
3.0
 10
3.945304605410557
 20
5.54127769873945
 30
0.0
 10
3.945304605410557
 20
5.497332996983029
 30
0.0
 10
3.896245028531666
 20
5.47781002292403
 30
0.0
 10
3.896245028531666
 20
5.516853632504862
 30
0.0
 10
3.896245028531666
 20
5.568110210133934
 30
0.0
 10
3.945304605410557
 20
5.585222400495871
 30
0.0
 10
3.945304605410557
 20
5.54127769873945
 30
0.0
 10
3.945304605410557
 20
5.54127769873945
 30
0.0
 10
3.945304605410557
 20
5.54127769873945
 30
0.0
 10
3.945304605410557
 20
5.54127769873945
 30
0.0
  0
HATCH
  5
FB
330
C4
100
AcDbEntity
  8
Layer 1
 62
   250
420
  2301728
440
 33554687
100
AcDbHatch
 10
0.0
 20
0.0
 30
0.0
210
0.0
220
0.0
230
1.0
  2
SOLID
 70
     1
 71
     1
 91
        1
 92
        1
 93
        1
 72
     4
 94
        3
 73
     0
 74
     0
 95
       14
 96
       10
 40
0.0
 40
0.0
 40
0.0
 40
0.0
 40
1.0
 40
1.0
 40
1.0
 40
2.0
 40
2.0
 40
2.0
 40
3.0
 40
3.0
 40
3.0
 40
3.0
 10
3.945304605410557
 20
5.54127769873945
 10
3.945304605410557
 20
5.497332996983029
 10
3.896245028531666
 20
5.47781002292403
 10
3.896245028531666
 20
5.516853632504862
 10
3.896245028531666
 20
5.568110210133934
 10
3.945304605410557
 20
5.585222400495871
 10
3.945304605410557
 20
5.54127769873945
 10
3.945304605410557
 20
5.54127769873945
 10
3.945304605410557
 20
5.54127769873945
 10
3.945304605410557
 20
5.54127769873945
 97
        0
 97
        1
330
FA
 75
     2
 76
     1
 98
        1
 10
0.0
 20
0.0
450
        0
451
        0
460
0.0
461
0.0
452
        0
462
0.0
453
        0
470

  0
SPLINE
  5
FC
330
C4
100
AcDbEntity
  8
Layer 1
 62
   250
420
  2301728
370
    15
100
AcDbSpline
210
0.0
220
0.0
230
1.0
 70
     9
 71
     3
 72
    14
 73
    10
 74
     0
 42
0.0000000001
 43
0.0000000001
 40
0.0
 40
0.0
 40
0.0
 40
0.0
 40
1.0
 40
1.0
 40
1.0
 40
2.0
 40
2.0
 40
2.0
 40
3.0
 40
3.0
 40
3.0
 40
3.0
 10
3.956988029923195
 20
5.53087580057407
 30
0.0
 10
3.956988029923195
 20
5.486931097707534
 30
0.0
 10
3.907915588670271
 20
5.46738216131871
 30
0.0
 10
3.907915588670271
 20
5.506451265310007
 30
0.0
 10
3.907915588670271
 20
5.557685156772549
 30
0.0
 10
3.956988029923195
 20
5.574769045943108
 30
0.0
 10
3.956988029923195
 20
5.53087580057407
 30
0.0
 10
3.956988029923195
 20
5.53087580057407
 30
0.0
 10
3.956988029923195
 20
5.53087580057407
 30
0.0
 10
3.956988029923195
 20
5.53087580057407
 30
0.0
  0
HATCH
  5
FD
330
C4
100
AcDbEntity
  8
Layer 1
 62
   254
420
 13358815
440
 33554687
100
AcDbHatch
 10
0.0
 20
0.0
 30
0.0
210
0.0
220
0.0
230
1.0
  2
SOLID
 70
     1
 71
     1
 91
        1
 92
        1
 93
        1
 72
     4
 94
        3
 73
     0
 74
     0
 95
       14
 96
       10
 40
0.0
 40
0.0
 40
0.0
 40
0.0
 40
1.0
 40
1.0
 40
1.0
 40
2.0
 40
2.0
 40
2.0
 40
3.0
 40
3.0
 40
3.0
 40
3.0
 10
3.956988029923195
 20
5.53087580057407
 10
3.956988029923195
 20
5.486931097707534
 10
3.907915588670271
 20
5.46738216131871
 10
3.907915588670271
 20
5.506451265310007
 10
3.907915588670271
 20
5.557685156772549
 10
3.956988029923195
 20
5.574769045943108
 10
3.956988029923195
 20
5.53087580057407
 10
3.956988029923195
 20
5.53087580057407
 10
3.956988029923195
 20
5.53087580057407
 10
3.956988029923195
 20
5.53087580057407
 97
        0
 97
        1
330
FC
 75
     2
 76
     1
 98
        1
 10
0.0
 20
0.0
450
        0
451
        0
460
0.0
461
0.0
452
        0
462
0.0
453
        0
470

  0
SPLINE
  5
FE
330
C4
100
AcDbEntity
  8
Layer 1
 62
   250
420
  2301728
370
    15
100
AcDbSpline
210
0.0
220
0.0
230
1.0
 70
     9
 71
     3
 72
    14
 73
    10
 74
     0
 42
0.0000000001
 43
0.0000000001
 40
0.0
 40
0.0
 40
0.0
 40
0.0
 40
1.0
 40
1.0
 40
1.0
 40
2.0
 40
2.0
 40
2.0
 40
3.0
 40
3.0
 40
3.0
 40
3.0
 10
4.374300605496147
 20
6.351607193053622
 30
0.0
 10
4.374300605496147
 20
6.307685647170501
 30
0.0
 10
4.425706644201833
 20
6.307685647170501
 30
0.0
 10
4.425706644201833
 20
6.34426935409523
 30
0.0
 10
4.425706644201833
 20
6.390653397583289
 30
0.0
 10
4.374300605496147
 20
6.388190899978351
 30
0.0
 10
4.374300605496147
 20
6.351607193053622
 30
0.0
 10
4.374300605496147
 20
6.351607193053622
 30
0.0
 10
4.374300605496147
 20
6.351607193053622
 30
0.0
 10
4.374300605496147
 20
6.351607193053622
 30
0.0
  0
HATCH
  5
FF
330
C4
100
AcDbEntity
  8
Layer 1
 62
   250
420
  2301728
440
 33554687
100
AcDbHatch
 10
0.0
 20
0.0
 30
0.0
210
0.0
220
0.0
230
1.0
  2
SOLID
 70
     1
 71
     1
 91
        1
 92
        1
 93
        1
 72
     4
 94
        3
 73
     0
 74
     0
 95
       14
 96
       10
 40
0.0
 40
0.0
 40
0.0
 40
0.0
 40
1.0
 40
1.0
 40
1.0
 40
2.0
 40
2.0
 40
2.0
 40
3.0
 40
3.0
 40
3.0
 40
3.0
 10
4.374300605496147
 20
6.351607193053622
 10
4.374300605496147
 20
6.307685647170501
 10
4.425706644201833
 20
6.307685647170501
 10
4.425706644201833
 20
6.34426935409523
 10
4.425706644201833
 20
6.390653397583289
 10
4.374300605496147
 20
6.388190899978351
 10
4.374300605496147
 20
6.351607193053622
 10
4.374300605496147
 20
6.351607193053622
 10
4.374300605496147
 20
6.351607193053622
 10
4.374300605496147
 20
6.351607193053622
 97
        0
 97
        1
330
FE
 75
     2
 76
     1
 98
        1
 10
0.0
 20
0.0
450
        0
451
        0
460
0.0
461
0.0
452
        0
462
0.0
453
        0
470

  0
SPLINE
  5
100
330
C4
100
AcDbEntity
  8
Layer 1
 62
   250
420
  2301728
370
    15
100
AcDbSpline
210
0.0
220
0.0
230
1.0
 70
     9
 71
     3
 72
    14
 73
    10
 74
     0
 42
0.0000000001
 43
0.0000000001
 40
0.0
 40
0.0
 40
0.0
 40
0.0
 40
1.0
 40
1.0
 40
1.0
 40
2.0
 40
2.0
 40
2.0
 40
3.0
 40
3.0
 40
3.0
 40
3.0
 10
4.364953553069931
 20
6.34426935409523
 30
0.0
 10
4.364953553069931
 20
6.3003503810869
 30
0.0
 10
4.416361962891565
 20
6.3003503810869
 30
0.0
 10
4.416361962891565
 20
6.336957498940137
 30
0.0
 10
4.416361962891565
 20
6.383315302213228
 30
0.0
 10
4.364953553069931
 20
6.380902201806671
 30
0.0
 10
4.364953553069931
 20
6.34426935409523
 30
0.0
 10
4.364953553069931
 20
6.34426935409523
 30
0.0
 10
4.364953553069931
 20
6.34426935409523
 30
0.0
 10
4.364953553069931
 20
6.34426935409523
 30
0.0
  0
HATCH
  5
101
330
C4
100
AcDbEntity
  8
Layer 1
 62
   254
420
 13358815
440
 33554687
100
AcDbHatch
 10
0.0
 20
0.0
 30
0.0
210
0.0
220
0.0
230
1.0
  2
SOLID
 70
     1
 71
     1
 91
        1
 92
        1
 93
        1
 72
     4
 94
        3
 73
     0
 74
     0
 95
       14
 96
       10
 40
0.0
 40
0.0
 40
0.0
 40
0.0
 40
1.0
 40
1.0
 40
1.0
 40
2.0
 40
2.0
 40
2.0
 40
3.0
 40
3.0
 40
3.0
 40
3.0
 10
4.364953553069931
 20
6.34426935409523
 10
4.364953553069931
 20
6.3003503810869
 10
4.416361962891565
 20
6.3003503810869
 10
4.416361962891565
 20
6.336957498940137
 10
4.416361962891565
 20
6.383315302213228
 10
4.364953553069931
 20
6.380902201806671
 10
4.364953553069931
 20
6.34426935409523
 10
4.364953553069931
 20
6.34426935409523
 10
4.364953553069931
 20
6.34426935409523
 10
4.364953553069931
 20
6.34426935409523
 97
        0
 97
        1
330
100
 75
     2
 76
     1
 98
        1
 10
0.0
 20
0.0
450
        0
451
        0
460
0.0
461
0.0
452
        0
462
0.0
453
        0
470

  0
SPLINE
  5
102
330
C4
100
AcDbEntity
  8
Layer 1
 62
   250
420
  2301728
370
    15
100
AcDbSpline
210
0.0
220
0.0
230
1.0
 70
     9
 71
     3
 72
    14
 73
    10
 74
     0
 42
0.0000000001
 43
0.0000000001
 40
0.0
 40
0.0
 40
0.0
 40
0.0
 40
1.0
 40
1.0
 40
1.0
 40
2.0
 40
2.0
 40
2.0
 40
3.0
 40
3.0
 40
3.0
 40
3.0
 10
4.257314560755932
 20
6.148993301758663
 30
0.0
 10
4.257314560755932
 20
6.105071755875516
 30
0.0
 10
4.308723172336436
 20
6.105071755875516
 30
0.0
 10
4.308723172336436
 20
6.141655462800271
 30
0.0
 10
4.308723172336436
 20
6.188039501169845
 30
0.0
 10
4.257314560755932
 20
6.185577008683392
 30
0.0
 10
4.257314560755932
 20
6.148993301758663
 30
0.0
 10
4.257314560755932
 20
6.148993301758663
 30
0.0
 10
4.257314560755932
 20
6.148993301758663
 30
0.0
 10
4.257314560755932
 20
6.148993301758663
 30
0.0
  0
HATCH
  5
103
330
C4
100
AcDbEntity
  8
Layer 1
 62
   250
420
  2301728
440
 33554687
100
AcDbHatch
 10
0.0
 20
0.0
 30
0.0
210
0.0
220
0.0
230
1.0
  2
SOLID
 70
     1
 71
     1
 91
        1
 92
        1
 93
        1
 72
     4
 94
        3
 73
     0
 74
     0
 95
       14
 96
       10
 40
0.0
 40
0.0
 40
0.0
 40
0.0
 40
1.0
 40
1.0
 40
1.0
 40
2.0
 40
2.0
 40
2.0
 40
3.0
 40
3.0
 40
3.0
 40
3.0
 10
4.257314560755932
 20
6.148993301758663
 10
4.257314560755932
 20
6.105071755875516
 10
4.308723172336436
 20
6.105071755875516
 10
4.308723172336436
 20
6.141655462800271
 10
4.308723172336436
 20
6.188039501169845
 10
4.257314560755932
 20
6.185577008683392
 10
4.257314560755932
 20
6.148993301758663
 10
4.257314560755932
 20
6.148993301758663
 10
4.257314560755932
 20
6.148993301758663
 10
4.257314560755932
 20
6.148993301758663
 97
        0
 97
        1
330
102
 75
     2
 76
     1
 98
        1
 10
0.0
 20
0.0
450
        0
451
        0
460
0.0
461
0.0
452
        0
462
0.0
453
        0
470

  0
SPLINE
  5
104
330
C4
100
AcDbEntity
  8
Layer 1
 62
   250
420
  2301728
370
    15
100
AcDbSpline
210
0.0
220
0.0
230
1.0
 70
     9
 71
     3
 72
    14
 73
    10
 74
     0
 42
0.0000000001
 43
0.0000000001
 40
0.0
 40
0.0
 40
0.0
 40
0.0
 40
1.0
 40
1.0
 40
1.0
 40
2.0
 40
2.0
 40
2.0
 40
3.0
 40
3.0
 40
3.0
 40
3.0
 10
4.247967306570873
 20
6.141655462800271
 30
0.0
 10
4.247967306570873
 20
6.097736489791941
 30
0.0
 10
4.299375918151377
 20
6.097736489791941
 30
0.0
 10
4.299375918151377
 20
6.134343602526718
 30
0.0
 10
4.299375918151377
 20
6.180701410918269
 30
0.0
 10
4.247967306570873
 20
6.178288305393228
 30
0.0
 10
4.247967306570873
 20
6.141655462800271
 30
0.0
 10
4.247967306570873
 20
6.141655462800271
 30
0.0
 10
4.247967306570873
 20
6.141655462800271
 30
0.0
 10
4.247967306570873
 20
6.141655462800271
 30
0.0
  0
HATCH
  5
105
330
C4
100
AcDbEntity
  8
Layer 1
 62
   254
420
 13358815
440
 33554687
100
AcDbHatch
 10
0.0
 20
0.0
 30
0.0
210
0.0
220
0.0
230
1.0
  2
SOLID
 70
     1
 71
     1
 91
        1
 92
        1
 93
        1
 72
     4
 94
        3
 73
     0
 74
     0
 95
       14
 96
       10
 40
0.0
 40
0.0
 40
0.0
 40
0.0
 40
1.0
 40
1.0
 40
1.0
 40
2.0
 40
2.0
 40
2.0
 40
3.0
 40
3.0
 40
3.0
 40
3.0
 10
4.247967306570873
 20
6.141655462800271
 10
4.247967306570873
 20
6.097736489791941
 10
4.299375918151377
 20
6.097736489791941
 10
4.299375918151377
 20
6.134343602526718
 10
4.299375918151377
 20
6.180701410918269
 10
4.247967306570873
 20
6.178288305393228
 10
4.247967306570873
 20
6.141655462800271
 10
4.247967306570873
 20
6.141655462800271
 10
4.247967306570873
 20
6.141655462800271
 10
4.247967306570873
 20
6.141655462800271
 97
        0
 97
        1
330
104
 75
     2
 76
     1
 98
        1
 10
0.0
 20
0.0
450
        0
451
        0
460
0.0
461
0.0
452
        0
462
0.0
453
        0
470

  0
SPLINE
  5
106
330
C4
100
AcDbEntity
  8
Layer 1
 62
   250
420
  2301728
370
    15
100
AcDbSpline
210
0.0
220
0.0
230
1.0
 70
     9
 71
     3
 72
    14
 73
    10
 74
     0
 42
0.0000000001
 43
0.0000000001
 40
0.0
 40
0.0
 40
0.0
 40
0.0
 40
1.0
 40
1.0
 40
1.0
 40
2.0
 40
2.0
 40
2.0
 40
3.0
 40
3.0
 40
3.0
 40
3.0
 10
4.374300605496147
 20
5.984972532615099
 30
0.0
 10
4.374300605496147
 20
5.941050986731978
 30
0.0
 10
4.425706644201833
 20
5.941050986731978
 30
0.0
 10
4.425706644201833
 20
5.977634693656733
 30
0.0
 10
4.425706644201833
 20
6.024018727882801
 30
0.0
 10
4.374300605496147
 20
6.021556239539854
 30
0.0
 10
4.374300605496147
 20
5.984972532615099
 30
0.0
 10
4.374300605496147
 20
5.984972532615099
 30
0.0
 10
4.374300605496147
 20
5.984972532615099
 30
0.0
 10
4.374300605496147
 20
5.984972532615099
 30
0.0
  0
HATCH
  5
107
330
C4
100
AcDbEntity
  8
Layer 1
 62
   250
420
  2301728
440
 33554687
100
AcDbHatch
 10
0.0
 20
0.0
 30
0.0
210
0.0
220
0.0
230
1.0
  2
SOLID
 70
     1
 71
     1
 91
        1
 92
        1
 93
        1
 72
     4
 94
        3
 73
     0
 74
     0
 95
       14
 96
       10
 40
0.0
 40
0.0
 40
0.0
 40
0.0
 40
1.0
 40
1.0
 40
1.0
 40
2.0
 40
2.0
 40
2.0
 40
3.0
 40
3.0
 40
3.0
 40
3.0
 10
4.374300605496147
 20
5.984972532615099
 10
4.374300605496147
 20
5.941050986731978
 10
4.425706644201833
 20
5.941050986731978
 10
4.425706644201833
 20
5.977634693656733
 10
4.425706644201833
 20
6.024018727882801
 10
4.374300605496147
 20
6.021556239539854
 10
4.374300605496147
 20
5.984972532615099
 10
4.374300605496147
 20
5.984972532615099
 10
4.374300605496147
 20
5.984972532615099
 10
4.374300605496147
 20
5.984972532615099
 97
        0
 97
        1
330
106
 75
     2
 76
     1
 98
        1
 10
0.0
 20
0.0
450
        0
451
        0
460
0.0
461
0.0
452
        0
462
0.0
453
        0
470

  0
SPLINE
  5
108
330
C4
100
AcDbEntity
  8
Layer 1
 62
   250
420
  2301728
370
    15
100
AcDbSpline
210
0.0
220
0.0
230
1.0
 70
     9
 71
     3
 72
    14
 73
    10
 74
     0
 42
0.0000000001
 43
0.0000000001
 40
0.0
 40
0.0
 40
0.0
 40
0.0
 40
1.0
 40
1.0
 40
1.0
 40
2.0
 40
2.0
 40
2.0
 40
3.0
 40
3.0
 40
3.0
 40
3.0
 10
4.364953553069931
 20
5.977634693656733
 30
0.0
 10
4.364953553069931
 20
5.933715720648402
 30
0.0
 10
4.416361962891565
 20
5.933715720648402
 30
0.0
 10
4.416361962891565
 20
5.970322829239648
 30
0.0
 10
4.416361962891565
 20
6.016680641774731
 30
0.0
 10
4.364953553069931
 20
6.014267532106183
 30
0.0
 10
4.364953553069931
 20
5.977634693656733
 30
0.0
 10
4.364953553069931
 20
5.977634693656733
 30
0.0
 10
4.364953553069931
 20
5.977634693656733
 30
0.0
 10
4.364953553069931
 20
5.977634693656733
 30
0.0
  0
HATCH
  5
109
330
C4
100
AcDbEntity
  8
Layer 1
 62
   254
420
 13358815
440
 33554687
100
AcDbHatch
 10
0.0
 20
0.0
 30
0.0
210
0.0
220
0.0
230
1.0
  2
SOLID
 70
     1
 71
     1
 91
        1
 92
        1
 93
        1
 72
     4
 94
        3
 73
     0
 74
     0
 95
       14
 96
       10
 40
0.0
 40
0.0
 40
0.0
 40
0.0
 40
1.0
 40
1.0
 40
1.0
 40
2.0
 40
2.0
 40
2.0
 40
3.0
 40
3.0
 40
3.0
 40
3.0
 10
4.364953553069931
 20
5.977634693656733
 10
4.364953553069931
 20
5.933715720648402
 10
4.416361962891565
 20
5.933715720648402
 10
4.416361962891565
 20
5.970322829239648
 10
4.416361962891565
 20
6.016680641774731
 10
4.364953553069931
 20
6.014267532106183
 10
4.364953553069931
 20
5.977634693656733
 10
4.364953553069931
 20
5.977634693656733
 10
4.364953553069931
 20
5.977634693656733
 10
4.364953553069931
 20
5.977634693656733
 97
        0
 97
        1
330
108
 75
     2
 76
     1
 98
        1
 10
0.0
 20
0.0
450
        0
451
        0
460
0.0
461
0.0
452
        0
462
0.0
453
        0
470

  0
SPLINE
  5
10A
330
C4
100
AcDbEntity
  8
Layer 1
 62
   250
420
  2301728
370
    15
100
AcDbSpline
210
0.0
220
0.0
230
1.0
 70
     9
 71
     3
 72
    14
 73
    10
 74
     0
 42
0.0000000001
 43
0.0000000001
 40
0.0
 40
0.0
 40
0.0
 40
0.0
 40
1.0
 40
1.0
 40
1.0
 40
2.0
 40
2.0
 40
2.0
 40
3.0
 40
3.0
 40
3.0
 40
3.0
 10
4.260394291903619
 20
5.785574734832758
 30
0.0
 10
4.260394291903619
 20
5.741653188949637
 30
0.0
 10
4.311787466235273
 20
5.741653188949637
 30
0.0
 10
4.311787466235273
 20
5.778211167126275
 30
0.0
 10
4.311787466235273
 20
5.824620925063249
 30
0.0
 10
4.260394291903619
 20
5.822158441757513
 30
0.0
 10
4.260394291903619
 20
5.785574734832758
 30
0.0
 10
4.260394291903619
 20
5.785574734832758
 30
0.0
 10
4.260394291903619
 20
5.785574734832758
 30
0.0
 10
4.260394291903619
 20
5.785574734832758
 30
0.0
  0
HATCH
  5
10B
330
C4
100
AcDbEntity
  8
Layer 1
 62
   250
420
  2301728
440
 33554687
100
AcDbHatch
 10
0.0
 20
0.0
 30
0.0
210
0.0
220
0.0
230
1.0
  2
SOLID
 70
     1
 71
     1
 91
        1
 92
        1
 93
        1
 72
     4
 94
        3
 73
     0
 74
     0
 95
       14
 96
       10
 40
0.0
 40
0.0
 40
0.0
 40
0.0
 40
1.0
 40
1.0
 40
1.0
 40
2.0
 40
2.0
 40
2.0
 40
3.0
 40
3.0
 40
3.0
 40
3.0
 10
4.260394291903619
 20
5.785574734832758
 10
4.260394291903619
 20
5.741653188949637
 10
4.311787466235273
 20
5.741653188949637
 10
4.311787466235273
 20
5.778211167126275
 10
4.311787466235273
 20
5.824620925063249
 10
4.260394291903619
 20
5.822158441757513
 10
4.260394291903619
 20
5.785574734832758
 10
4.260394291903619
 20
5.785574734832758
 10
4.260394291903619
 20
5.785574734832758
 10
4.260394291903619
 20
5.785574734832758
 97
        0
 97
        1
330
10A
 75
     2
 76
     1
 98
        1
 10
0.0
 20
0.0
450
        0
451
        0
460
0.0
461
0.0
452
        0
462
0.0
453
        0
470

  0
SPLINE
  5
10C
330
C4
100
AcDbEntity
  8
Layer 1
 62
   250
420
  2301728
370
    15
100
AcDbSpline
210
0.0
220
0.0
230
1.0
 70
     9
 71
     3
 72
    14
 73
    10
 74
     0
 42
0.0000000001
 43
0.0000000001
 40
0.0
 40
0.0
 40
0.0
 40
0.0
 40
1.0
 40
1.0
 40
1.0
 40
2.0
 40
2.0
 40
2.0
 40
3.0
 40
3.0
 40
3.0
 40
3.0
 10
4.25104703771856
 20
5.778211167126275
 30
0.0
 10
4.25104703771856
 20
5.734317922866062
 30
0.0
 10
4.302440212050188
 20
5.734317922866062
 30
0.0
 10
4.302440212050188
 20
5.770925026420096
 30
0.0
 10
4.302440212050188
 20
5.817282843992365
 30
0.0
 10
4.25104703771856
 20
5.814869729286631
 30
0.0
 10
4.25104703771856
 20
5.778211167126275
 30
0.0
 10
4.25104703771856
 20
5.778211167126275
 30
0.0
 10
4.25104703771856
 20
5.778211167126275
 30
0.0
 10
4.25104703771856
 20
5.778211167126275
 30
0.0
  0
HATCH
  5
10D
330
C4
100
AcDbEntity
  8
Layer 1
 62
   254
420
 13358815
440
 33554687
100
AcDbHatch
 10
0.0
 20
0.0
 30
0.0
210
0.0
220
0.0
230
1.0
  2
SOLID
 70
     1
 71
     1
 91
        1
 92
        1
 93
        1
 72
     4
 94
        3
 73
     0
 74
     0
 95
       14
 96
       10
 40
0.0
 40
0.0
 40
0.0
 40
0.0
 40
1.0
 40
1.0
 40
1.0
 40
2.0
 40
2.0
 40
2.0
 40
3.0
 40
3.0
 40
3.0
 40
3.0
 10
4.25104703771856
 20
5.778211167126275
 10
4.25104703771856
 20
5.734317922866062
 10
4.302440212050188
 20
5.734317922866062
 10
4.302440212050188
 20
5.770925026420096
 10
4.302440212050188
 20
5.817282843992365
 10
4.25104703771856
 20
5.814869729286631
 10
4.25104703771856
 20
5.778211167126275
 10
4.25104703771856
 20
5.778211167126275
 10
4.25104703771856
 20
5.778211167126275
 10
4.25104703771856
 20
5.778211167126275
 97
        0
 97
        1
330
10C
 75
     2
 76
     1
 98
        1
 10
0.0
 20
0.0
450
        0
451
        0
460
0.0
461
0.0
452
        0
462
0.0
453
        0
470

  0
SPLINE
  5
10E
330
C4
100
AcDbEntity
  8
Layer 1
 62
   250
420
  2301728
370
    15
100
AcDbSpline
210
0.0
220
0.0
230
1.0
 70
     9
 71
     3
 72
    14
 73
    10
 74
     0
 42
0.0000000001
 43
0.0000000001
 40
0.0
 40
0.0
 40
0.0
 40
0.0
 40
1.0
 40
1.0
 40
1.0
 40
2.0
 40
2.0
 40
2.0
 40
3.0
 40
3.0
 40
3.0
 40
3.0
 10
4.374300605496147
 20
5.547583814898997
 30
0.0
 10
4.374300605496147
 20
5.503662269015876
 30
0.0
 10
4.425706644201833
 20
5.503662269015876
 30
0.0
 10
4.425706644201833
 20
5.540220247192514
 30
0.0
 10
4.425706644201833
 20
5.586629999117323
 30
0.0
 10
4.374300605496147
 20
5.584167521823726
 30
0.0
 10
4.374300605496147
 20
5.547583814898997
 30
0.0
 10
4.374300605496147
 20
5.547583814898997
 30
0.0
 10
4.374300605496147
 20
5.547583814898997
 30
0.0
 10
4.374300605496147
 20
5.547583814898997
 30
0.0
  0
HATCH
  5
10F
330
C4
100
AcDbEntity
  8
Layer 1
 62
   250
420
  2301728
440
 33554687
100
AcDbHatch
 10
0.0
 20
0.0
 30
0.0
210
0.0
220
0.0
230
1.0
  2
SOLID
 70
     1
 71
     1
 91
        1
 92
        1
 93
        1
 72
     4
 94
        3
 73
     0
 74
     0
 95
       14
 96
       10
 40
0.0
 40
0.0
 40
0.0
 40
0.0
 40
1.0
 40
1.0
 40
1.0
 40
2.0
 40
2.0
 40
2.0
 40
3.0
 40
3.0
 40
3.0
 40
3.0
 10
4.374300605496147
 20
5.547583814898997
 10
4.374300605496147
 20
5.503662269015876
 10
4.425706644201833
 20
5.503662269015876
 10
4.425706644201833
 20
5.540220247192514
 10
4.425706644201833
 20
5.586629999117323
 10
4.374300605496147
 20
5.584167521823726
 10
4.374300605496147
 20
5.547583814898997
 10
4.374300605496147
 20
5.547583814898997
 10
4.374300605496147
 20
5.547583814898997
 10
4.374300605496147
 20
5.547583814898997
 97
        0
 97
        1
330
10E
 75
     2
 76
     1
 98
        1
 10
0.0
 20
0.0
450
        0
451
        0
460
0.0
461
0.0
452
        0
462
0.0
453
        0
470

  0
SPLINE
  5
110
330
C4
100
AcDbEntity
  8
Layer 1
 62
   250
420
  2301728
370
    15
100
AcDbSpline
210
0.0
220
0.0
230
1.0
 70
     9
 71
     3
 72
    14
 73
    10
 74
     0
 42
0.0000000001
 43
0.0000000001
 40
0.0
 40
0.0
 40
0.0
 40
0.0
 40
1.0
 40
1.0
 40
1.0
 40
2.0
 40
2.0
 40
2.0
 40
3.0
 40
3.0
 40
3.0
 40
3.0
 10
4.364953553069931
 20
5.540220247192514
 30
0.0
 10
4.364953553069931
 20
5.496327002932275
 30
0.0
 10
4.416361962891565
 20
5.496327002932275
 30
0.0
 10
4.416361962891565
 20
5.532934100474171
 30
0.0
 10
4.416361962891565
 20
5.579291924058603
 30
0.0
 10
4.364953553069931
 20
5.576878803340705
 30
0.0
 10
4.364953553069931
 20
5.540220247192514
 30
0.0
 10
4.364953553069931
 20
5.540220247192514
 30
0.0
 10
4.364953553069931
 20
5.540220247192514
 30
0.0
 10
4.364953553069931
 20
5.540220247192514
 30
0.0
  0
HATCH
  5
111
330
C4
100
AcDbEntity
  8
Layer 1
 62
   254
420
 13358815
440
 33554687
100
AcDbHatch
 10
0.0
 20
0.0
 30
0.0
210
0.0
220
0.0
230
1.0
  2
SOLID
 70
     1
 71
     1
 91
        1
 92
        1
 93
        1
 72
     4
 94
        3
 73
     0
 74
     0
 95
       14
 96
       10
 40
0.0
 40
0.0
 40
0.0
 40
0.0
 40
1.0
 40
1.0
 40
1.0
 40
2.0
 40
2.0
 40
2.0
 40
3.0
 40
3.0
 40
3.0
 40
3.0
 10
4.364953553069931
 20
5.540220247192514
 10
4.364953553069931
 20
5.496327002932275
 10
4.416361962891565
 20
5.496327002932275
 10
4.416361962891565
 20
5.532934100474171
 10
4.416361962891565
 20
5.579291924058603
 10
4.364953553069931
 20
5.576878803340705
 10
4.364953553069931
 20
5.540220247192514
 10
4.364953553069931
 20
5.540220247192514
 10
4.364953553069931
 20
5.540220247192514
 10
4.364953553069931
 20
5.540220247192514
 97
        0
 97
        1
330
110
 75
     2
 76
     1
 98
        1
 10
0.0
 20
0.0
450
        0
451
        0
460
0.0
461
0.0
452
        0
462
0.0
453
        0
470

  0
SPLINE
  5
112
330
C4
100
AcDbEntity
  8
Layer 1
 62
   250
420
  2301728
370
    15
100
AcDbSpline
210
0.0
220
0.0
230
1.0
 70
     9
 71
     3
 72
    14
 73
    10
 74
     0
 42
0.0000000001
 43
0.0000000001
 40
0.0
 40
0.0
 40
0.0
 40
0.0
 40
1.0
 40
1.0
 40
1.0
 40
2.0
 40
2.0
 40
2.0
 40
3.0
 40
3.0
 40
3.0
 40
3.0
 10
4.263471450176489
 20
5.470397570596156
 30
0.0
 10
4.263471450176489
 20
5.426476024713034
 30
0.0
 10
4.314877488882201
 20
5.426476024713034
 30
0.0
 10
4.314877488882201
 20
5.463034002889672
 30
0.0
 10
4.314877488882201
 20
5.509443752864576
 30
0.0
 10
4.263471450176489
 20
5.506981277520885
 30
0.0
 10
4.263471450176489
 20
5.470397570596156
 30
0.0
 10
4.263471450176489
 20
5.470397570596156
 30
0.0
 10
4.263471450176489
 20
5.470397570596156
 30
0.0
 10
4.263471450176489
 20
5.470397570596156
 30
0.0
  0
HATCH
  5
113
330
C4
100
AcDbEntity
  8
Layer 1
 62
   250
420
  2301728
440
 33554687
100
AcDbHatch
 10
0.0
 20
0.0
 30
0.0
210
0.0
220
0.0
230
1.0
  2
SOLID
 70
     1
 71
     1
 91
        1
 92
        1
 93
        1
 72
     4
 94
        3
 73
     0
 74
     0
 95
       14
 96
       10
 40
0.0
 40
0.0
 40
0.0
 40
0.0
 40
1.0
 40
1.0
 40
1.0
 40
2.0
 40
2.0
 40
2.0
 40
3.0
 40
3.0
 40
3.0
 40
3.0
 10
4.263471450176489
 20
5.470397570596156
 10
4.263471450176489
 20
5.426476024713034
 10
4.314877488882201
 20
5.426476024713034
 10
4.314877488882201
 20
5.463034002889672
 10
4.314877488882201
 20
5.509443752864576
 10
4.263471450176489
 20
5.506981277520885
 10
4.263471450176489
 20
5.470397570596156
 10
4.263471450176489
 20
5.470397570596156
 10
4.263471450176489
 20
5.470397570596156
 10
4.263471450176489
 20
5.470397570596156
 97
        0
 97
        1
330
112
 75
     2
 76
     1
 98
        1
 10
0.0
 20
0.0
450
        0
451
        0
460
0.0
461
0.0
452
        0
462
0.0
453
        0
470

  0
SPLINE
  5
114
330
C4
100
AcDbEntity
  8
Layer 1
 62
   250
420
  2301728
370
    15
100
AcDbSpline
210
0.0
220
0.0
230
1.0
 70
     9
 71
     3
 72
    14
 73
    10
 74
     0
 42
0.0000000001
 43
0.0000000001
 40
0.0
 40
0.0
 40
0.0
 40
0.0
 40
1.0
 40
1.0
 40
1.0
 40
2.0
 40
2.0
 40
2.0
 40
3.0
 40
3.0
 40
3.0
 40
3.0
 10
4.254124195991431
 20
5.463034002889672
 30
0.0
 10
4.254124195991431
 20
5.419140758629433
 30
0.0
 10
4.305530234697117
 20
5.419140758629433
 30
0.0
 10
4.305530234697117
 20
5.455747854221448
 30
0.0
 10
4.305530234697117
 20
5.502105679755762
 30
0.0
 10
4.254124195991431
 20
5.499692557087958
 30
0.0
 10
4.254124195991431
 20
5.463034002889672
 30
0.0
 10
4.254124195991431
 20
5.463034002889672
 30
0.0
 10
4.254124195991431
 20
5.463034002889672
 30
0.0
 10
4.254124195991431
 20
5.463034002889672
 30
0.0
  0
HATCH
  5
115
330
C4
100
AcDbEntity
  8
Layer 1
 62
   254
420
 13358815
440
 33554687
100
AcDbHatch
 10
0.0
 20
0.0
 30
0.0
210
0.0
220
0.0
230
1.0
  2
SOLID
 70
     1
 71
     1
 91
        1
 92
        1
 93
        1
 72
     4
 94
        3
 73
     0
 74
     0
 95
       14
 96
       10
 40
0.0
 40
0.0
 40
0.0
 40
0.0
 40
1.0
 40
1.0
 40
1.0
 40
2.0
 40
2.0
 40
2.0
 40
3.0
 40
3.0
 40
3.0
 40
3.0
 10
4.254124195991431
 20
5.463034002889672
 10
4.254124195991431
 20
5.419140758629433
 10
4.305530234697117
 20
5.419140758629433
 10
4.305530234697117
 20
5.455747854221448
 10
4.305530234697117
 20
5.502105679755762
 10
4.254124195991431
 20
5.499692557087958
 10
4.254124195991431
 20
5.463034002889672
 10
4.254124195991431
 20
5.463034002889672
 10
4.254124195991431
 20
5.463034002889672
 10
4.254124195991431
 20
5.463034002889672
 97
        0
 97
        1
330
114
 75
     2
 76
     1
 98
        1
 10
0.0
 20
0.0
450
        0
451
        0
460
0.0
461
0.0
452
        0
462
0.0
453
        0
470

  0
ENDBLK
  5
C7
330
C4
100
AcDbEntity
  8
0
100
AcDbBlockEnd
  0
ENDSEC
  0
SECTION
  2
ENTITIES
  0
LWPOLYLINE
  5
79
330
70
100
AcDbEntity
  8
Layer 1
 62
   250
420
  2301728
370
    50
100
AcDbPolyline
 90
       18
 70
     1
 43
0.0
 10
3.081618833284639
 20
8.208687647981554
 10
3.371985765727508
 20
8.311777595872436
 10
3.367714793542758
 20
8.402847379894499
 10
3.681080653913062
 20
8.340923121721187
 10
3.685354383563384
 20
8.40713090920936
 10
3.839675418571358
 20
8.466049742360533
 10
5.76820184561158
 20
7.766196919517028
 10
5.755713111283385
 20
4.864765996173117
 10
5.003422526935334
 20
4.439212502583434
 10
4.123131420785057
 20
4.968182699164899
 10
2.95081387793943
 20
4.303910162070173
 10
2.599382334753765
 20
4.573861332894946
 10
2.599382334753765
 20
4.879516287459409
 10
2.734985862202241
 20
4.95150017889624
 10
2.760601243229113
 20
7.152967645779805
 10
2.64910571333366
 20
7.206359943838883
 10
2.650474482732634
 20
7.518431648179708
 10
3.083893424013341
 20
7.673823284037439
  0
HATCH
  5
7A
330
70
100
AcDbEntity
  8
Layer 1
 62
    43
420
 15575901
440
 33554687
100
AcDbHatch
 10
0.0
 20
0.0
 30
0.0
210
0.0
220
0.0
230
1.0
  2
SOLID
 70
     1
 71
     1
 91
        1
 92
        1
 93
       18
 72
     1
 10
3.081618833284639
 20
8.208687647981554
 11
3.371985765727508
 21
8.311777595872436
 72
     1
 10
3.371985765727508
 20
8.311777595872436
 11
3.367714793542758
 21
8.402847379894499
 72
     1
 10
3.367714793542758
 20
8.402847379894499
 11
3.681080653913062
 21
8.340923121721187
 72
     1
 10
3.681080653913062
 20
8.340923121721187
 11
3.685354383563384
 21
8.40713090920936
 72
     1
 10
3.685354383563384
 20
8.40713090920936
 11
3.839675418571358
 21
8.466049742360533
 72
     1
 10
3.839675418571358
 20
8.466049742360533
 11
5.76820184561158
 21
7.766196919517028
 72
     1
 10
5.76820184561158
 20
7.766196919517028
 11
5.755713111283385
 21
4.864765996173117
 72
     1
 10
5.755713111283385
 20
4.864765996173117
 11
5.003422526935334
 21
4.439212502583434
 72
     1
 10
5.003422526935334
 20
4.439212502583434
 11
4.123131420785057
 21
4.968182699164899
 72
     1
 10
4.123131420785057
 20
4.968182699164899
 11
2.95081387793943
 21
4.303910162070173
 72
     1
 10
2.95081387793943
 20
4.303910162070173
 11
2.599382334753765
 21
4.573861332894946
 72
     1
 10
2.599382334753765
 20
4.573861332894946
 11
2.599382334753765
 21
4.879516287459409
 72
     1
 10
2.599382334753765
 20
4.879516287459409
 11
2.734985862202241
 21
4.95150017889624
 72
     1
 10
2.734985862202241
 20
4.95150017889624
 11
2.760601243229113
 21
7.152967645779805
 72
     1
 10
2.760601243229113
 20
7.152967645779805
 11
2.64910571333366
 21
7.206359943838883
 72
     1
 10
2.64910571333366
 20
7.206359943838883
 11
2.650474482732634
 21
7.518431648179708
 72
     1
 10
2.650474482732634
 20
7.518431648179708
 11
3.083893424013341
 21
7.673823284037439
 72
     1
 10
3.083893424013341
 20
7.673823284037439
 11
3.081618833284639
 21
8.208687647981554
 97
        1
330
79
 75
     2
 76
     1
 98
        1
 10
0.0
 20
0.0
450
        0
451
        0
460
0.0
461
0.0
452
        0
462
0.0
453
        0
470

  0
SPLINE
  5
7B
330
70
100
AcDbEntity
  8
Layer 1
 62
   250
420
  2301728
370
    15
100
AcDbSpline
210
0.0
220
0.0
230
1.0
 70
     8
 71
     3
 72
    11
 73
     7
 74
     0
 42
0.0000000001
 43
0.0000000001
 40
0.0
 40
0.0
 40
0.0
 40
0.0
 40
1.0
 40
1.0
 40
1.0
 40
2.0
 40
2.0
 40
2.0
 40
2.0
 10
3.615956046719954
 20
6.283315376969262
 30
0.0
 10
3.664297791526804
 20
6.264999081196214
 30
0.0
 10
3.664297791526804
 20
6.281630143968666
 30
0.0
 10
3.701069318312697
 20
6.263313848195593
 30
0.0
 10
3.737827980724508
 20
6.24499755242252
 30
0.0
 10
3.824461821330032
 20
6.221530361279645
 30
0.0
 10
3.826144481455836
 20
6.209947278884606
 30
0.0
  0
SPLINE
  5
7C
330
70
100
AcDbEntity
  8
Layer 1
 62
   250
420
  2301728
370
    15
100
AcDbSpline
210
0.0
220
0.0
230
1.0
 70
     8
 71
     3
 72
    11
 73
     7
 74
     0
 42
0.0000000001
 43
0.0000000001
 40
0.0
 40
0.0
 40
0.0
 40
0.0
 40
1.0
 40
1.0
 40
1.0
 40
2.0
 40
2.0
 40
2.0
 40
2.0
 10
3.609384924454969
 20
5.649544270748239
 30
0.0
 10
3.627701220228017
 20
5.654569095252352
 30
0.0
 10
3.66598063575394
 20
5.66296181288289
 30
0.0
 10
3.696031814295009
 20
5.68627744302959
 30
0.0
 10
3.726082992836078
 20
5.709618324689143
 30
0.0
 10
3.816082155966745
 20
5.807860976437798
 30
0.0
 10
3.821106792577666
 20
5.819619014319944
 30
0.0
  0
SPLINE
  5
7D
330
70
100
AcDbEntity
  8
Layer 1
 62
   250
420
  2301728
370
    15
100
AcDbSpline
210
0.0
220
0.0
230
1.0
 70
     8
 71
     3
 72
    11
 73
     7
 74
     0
 42
0.0000000001
 43
0.0000000001
 40
0.0
 40
0.0
 40
0.0
 40
0.0
 40
1.0
 40
1.0
 40
1.0
 40
2.0
 40
2.0
 40
2.0
 40
2.0
 10
3.607715128703198
 20
5.195897557107147
 30
0.0
 10
3.631056248980383
 20
5.21758174600662
 30
0.0
 10
3.677728198035512
 20
5.255873841805244
 30
0.0
 10
3.707776802942614
 20
5.282557126460763
 30
0.0
 10
3.737827980724508
 20
5.309240411116231
 30
0.0
 10
3.811345305548153
 20
5.366000602301735
 30
0.0
 10
3.817903563439105
 20
5.394340818334941
 30
0.0
  0
SPLINE
  5
7E
330
70
100
AcDbEntity
  8
Layer 1
 62
   250
420
  2301728
370
    15
100
AcDbSpline
210
0.0
220
0.0
230
1.0
 70
     8
 71
     3
 72
    20
 73
    16
 74
     0
 42
0.0000000001
 43
0.0000000001
 40
0.0
 40
0.0
 40
0.0
 40
0.0
 40
1.0
 40
1.0
 40
1.0
 40
2.0
 40
2.0
 40
2.0
 40
3.0
 40
3.0
 40
3.0
 40
4.0
 40
4.0
 40
4.0
 40
5.0
 40
5.0
 40
5.0
 40
5.0
 10
2.825437688443507
 20
4.830848004559306
 30
0.0
 10
2.845413651841138
 20
4.844139258820606
 30
0.0
 10
2.890413233406484
 20
4.869289110089261
 30
0.0
 10
2.922146906805349
 20
4.887605624303811
 30
0.0
 10
2.953867880339013
 20
4.905895972887289
 30
0.0
 10
3.145387535452843
 20
4.989087306996907
 30
0.0
 10
3.170552823970385
 20
5.01408815316328
 30
0.0
 10
3.19571553961311
 20
5.039114284804402
 30
0.0
 10
3.240715120041663
 20
5.047507002434914
 30
0.0
 10
3.267411269071216
 20
5.094163514241168
 30
0.0
 10
3.294107418100755
 20
5.140848327670355
 30
0.0
 10
3.352375313924969
 20
5.204316003485776
 30
0.0
 10
3.38242409577016
 20
5.224289230636537
 30
0.0
 10
3.412475274311216
 20
5.244265030662114
 30
0.0
 10
3.459296272408083
 20
5.29446696395669
 30
0.0
 10
3.472562014928926
 20
5.302682153225305
 30
0.0
  0
SPLINE
  5
7F
330
70
100
AcDbEntity
  8
Layer 1
 62
   250
420
  2301728
370
    15
100
AcDbSpline
210
0.0
220
0.0
230
1.0
 70
     8
 71
     3
 72
    20
 73
    16
 74
     0
 42
0.0000000001
 43
0.0000000001
 40
0.0
 40
0.0
 40
0.0
 40
0.0
 40
1.0
 40
1.0
 40
1.0
 40
2.0
 40
2.0
 40
2.0
 40
3.0
 40
3.0
 40
3.0
 40
4.0
 40
4.0
 40
4.0
 40
5.0
 40
5.0
 40
5.0
 40
5.0
 10
2.830310876324372
 20
5.156048872048383
 30
0.0
 10
2.85533706661162
 20
5.17604782794726
 30
0.0
 10
2.882172150880908
 20
5.222858712242112
 30
0.0
 10
2.903843640254472
 20
5.23780711488876
 30
0.0
 10
2.925501935557715
 20
5.252758090410225
 30
0.0
 10
3.097336525499511
 20
5.334415991133028
 30
0.0
 10
3.135626048423343
 20
5.351023898032179
 30
0.0
 10
3.173905279847935
 20
5.367683262427539
 30
0.0
 10
3.212349175260366
 20
5.387782560444015
 30
0.0
 10
3.237360091289297
 20
5.431099712918062
 30
0.0
 10
3.262373754098411
 20
5.474442129797631
 30
0.0
 10
3.289221528836378
 20
5.484365707940165
 30
0.0
 10
3.320790702756248
 20
5.514391156973967
 30
0.0
 10
3.352375313924969
 20
5.544442334755861
 30
0.0
 10
3.457626476656324
 20
5.706126933571845
 30
0.0
 10
3.477599703807097
 20
5.714519651202382
 30
0.0
  0
SPLINE
  5
80
330
70
100
AcDbEntity
  8
Layer 1
 62
   250
420
  2301728
370
    15
100
AcDbSpline
210
0.0
220
0.0
230
1.0
 70
     8
 71
     3
 72
    26
 73
    22
 74
     0
 42
0.0000000001
 43
0.0000000001
 40
0.0
 40
0.0
 40
0.0
 40
0.0
 40
1.0
 40
1.0
 40
1.0
 40
2.0
 40
2.0
 40
2.0
 40
3.0
 40
3.0
 40
3.0
 40
4.0
 40
4.0
 40
4.0
 40
5.0
 40
5.0
 40
5.0
 40
6.0
 40
6.0
 40
6.0
 40
7.0
 40
7.0
 40
7.0
 40
7.0
 10
2.83702077083856
 20
5.701503477538103
 30
0.0
 10
2.860362054865428
 20
5.716454453059567
 30
0.0
 10
2.870437268872061
 20
5.743137977769062
 30
0.0
 10
2.897120553527555
 20
5.773186342622162
 30
0.0
 10
2.923816702557107
 20
5.803237520404056
 30
0.0
 10
2.978881369242748
 20
5.873263454110403
 30
0.0
 10
2.995502140515958
 20
5.899946738765897
 30
0.0
 10
3.01213320328841
 20
5.92663002342139
 30
0.0
 10
3.195563739999316
 20
6.064870586967799
 30
0.0
 10
3.207311486382208
 20
6.084872115741467
 30
0.0
 10
3.219056659890283
 20
6.104847915767044
 30
0.0
 10
3.240715120041663
 20
6.160072351277626
 30
0.0
 10
3.208994146508012
 20
6.176680007590094
 30
0.0
 10
3.177260308600302
 20
6.193313894663788
 30
0.0
 10
3.157284508574725
 20
6.193313894663788
 30
0.0
 10
3.135626048423343
 20
6.196681536363763
 30
0.0
 10
3.113957296772721
 20
6.200023700742071
 30
0.0
 10
2.925350135943921
 20
6.158641582296518
 30
0.0
 10
2.90703400509959
 20
6.145224040161868
 30
0.0
 10
2.888740864737681
 20
6.131780769279126
 30
0.0
 10
2.845413651841138
 20
6.115147133631858
 30
0.0
 10
2.845413651841138
 20
6.115147133631858
 30
0.0
  0
SPLINE
  5
81
330
70
100
AcDbEntity
  8
Layer 1
 62
   250
420
  2301728
370
    15
100
AcDbSpline
210
0.0
220
0.0
230
1.0
 70
     8
 71
     3
 72
    38
 73
    34
 74
     0
 42
0.0000000001
 43
0.0000000001
 40
0.0
 40
0.0
 40
0.0
 40
0.0
 40
1.0
 40
1.0
 40
1.0
 40
2.0
 40
2.0
 40
2.0
 40
3.0
 40
3.0
 40
3.0
 40
4.0
 40
4.0
 40
4.0
 40
5.0
 40
5.0
 40
5.0
 40
6.0
 40
6.0
 40
6.0
 40
7.0
 40
7.0
 40
7.0
 40
8.0
 40
8.0
 40
8.0
 40
9.0
 40
9.0
 40
9.0
 40
10.0
 40
10.0
 40
10.0
 40
11.0
 40
11.0
 40
11.0
 40
11.0
 10
2.850451177347243
 20
6.382082895179185
 30
0.0
 10
2.888740864737681
 20
6.375375410549268
 30
0.0
 10
2.915423984926569
 20
6.368817152658341
 30
0.0
 10
2.938767678078559
 20
6.355376454650417
 30
0.0
 10
2.962108798355744
 20
6.341984641263858
 30
0.0
 10
3.143856674940833
 20
6.385198902848085
 30
0.0
 10
3.180615337352668
 20
6.381833326322621
 30
0.0
 10
3.217374172533065
 20
6.378465433196197
 30
0.0
 10
3.247574404285374
 20
6.370072715565659
 30
0.0
 10
3.274121326575937
 20
6.348416828289095
 30
0.0
 10
3.300665675991682
 20
6.326781524011013
 30
0.0
 10
3.337576138017311
 20
6.308316001498976
 30
0.0
 10
3.347499716159846
 20
6.258289023691481
 30
0.0
 10
3.35741300280314
 20
6.208238890010711
 30
0.0
 10
3.38242409577016
 20
6.124972942531611
 30
0.0
 10
3.380741258706267
 20
6.096604424875496
 30
0.0
 10
3.379071462954521
 20
6.068238480094199
 30
0.0
 10
3.375703569828096
 20
6.021556239539854
 30
0.0
 10
3.35741300280314
 20
5.988162897379626
 30
0.0
 10
3.339106998529309
 20
5.954746399346125
 30
0.0
 10
3.290742097849147
 20
5.883060961387248
 30
0.0
 10
3.265728608945412
 20
5.853012356480146
 30
0.0
 10
3.240715120041663
 20
5.822961178698252
 30
0.0
 10
3.180777428465704
 20
5.738009998218532
 30
0.0
 10
3.163994566079445
 20
5.702936568807317
 30
0.0
 10
3.147209130818396
 20
5.667834837773195
 30
0.0
 10
3.017021665427591
 20
5.56971825689023
 30
0.0
 10
2.985449918632916
 20
5.566352936638647
 30
0.0
 10
2.953867880339013
 20
5.563011007763988
 30
0.0
 10
2.892247528637236
 20
5.501377556184504
 30
0.0
 10
2.878817122128541
 20
5.478036435907319
 30
0.0
 10
2.865399579993903
 20
5.454692975522624
 30
0.0
 10
2.857006862363366
 20
5.431351622478157
 30
0.0
 10
2.833678606460239
 20
5.431351622478157
 30
0.0
  0
SPLINE
  5
82
330
70
100
AcDbEntity
  8
Layer 1
 62
   250
420
  2301728
370
    15
100
AcDbSpline
210
0.0
220
0.0
230
1.0
 70
     8
 71
     3
 72
    20
 73
    16
 74
     0
 42
0.0000000001
 43
0.0000000001
 40
0.0
 40
0.0
 40
0.0
 40
0.0
 40
1.0
 40
1.0
 40
1.0
 40
2.0
 40
2.0
 40
2.0
 40
3.0
 40
3.0
 40
3.0
 40
4.0
 40
4.0
 40
4.0
 40
5.0
 40
5.0
 40
5.0
 40
5.0
 10
2.853654406485816
 20
6.657249283244027
 30
0.0
 10
2.877147326376795
 20
6.655564050243405
 30
0.0
 10
2.945325935969498
 20
6.642298307722562
 30
0.0
 10
2.987122287259479
 20
6.638943278970195
 30
0.0
 10
3.028918638549473
 20
6.635591085691935
 30
0.0
 10
3.222259889028855
 20
6.68384509015598
 30
0.0
 10
3.259018551440678
 20
6.663717490516596
 30
0.0
 10
3.295779786727317
 20
6.643579599377996
 30
0.0
 10
3.312410849499769
 20
6.633656021235461
 30
0.0
 10
3.340779367155871
 20
6.631983652608899
 30
0.0
 10
3.369158176311215
 20
6.630300992483094
 30
0.0
 10
3.415665639156347
 20
6.620238479100811
 30
0.0
 10
3.430778528012991
 20
6.59858001894943
 30
0.0
 10
3.445878730273433
 20
6.576921558798049
 30
0.0
 10
3.459147224545378
 20
6.553729665259854
 30
0.0
 10
3.485843194698645
 20
6.558618127399035
 30
0.0
  0
SPLINE
  5
83
330
70
100
AcDbEntity
  8
Layer 1
 62
   250
420
  2301728
370
    15
100
AcDbSpline
210
0.0
220
0.0
230
1.0
 70
     8
 71
     3
 72
    14
 73
    10
 74
     0
 42
0.0000000001
 43
0.0000000001
 40
0.0
 40
0.0
 40
0.0
 40
0.0
 40
1.0
 40
1.0
 40
1.0
 40
2.0
 40
2.0
 40
2.0
 40
3.0
 40
3.0
 40
3.0
 40
3.0
 10
3.6209937355981
 20
6.793668518017536
 30
0.0
 10
3.681080653913062
 20
6.792134818038043
 30
0.0
 10
3.731107631720533
 20
6.798705940303029
 30
0.0
 10
3.761156236627634
 20
6.805415997807762
 30
0.0
 10
3.791207414409553
 20
6.812123482437678
 30
0.0
 10
3.834537199086348
 20
6.81028928971063
 30
0.0
 10
3.85619565923773
 20
6.798705940303029
 30
0.0
 10
3.877854119389111
 20
6.787109993533931
 30
0.0
 10
3.957777902489901
 20
6.747148101983535
 30
0.0
 10
3.976233133502697
 20
6.733717695474852
 30
0.0
  0
SPLINE
  5
84
330
70
100
AcDbEntity
  8
Layer 1
 62
   250
420
  2301728
370
    15
100
AcDbSpline
210
0.0
220
0.0
230
1.0
 70
     8
 71
     3
 72
    17
 73
    13
 74
     0
 42
0.0000000001
 43
0.0000000001
 40
0.0
 40
0.0
 40
0.0
 40
0.0
 40
1.0
 40
1.0
 40
1.0
 40
2.0
 40
2.0
 40
2.0
 40
3.0
 40
3.0
 40
3.0
 40
4.0
 40
4.0
 40
4.0
 40
4.0
 10
3.626018560102213
 20
7.192376369246024
 30
0.0
 10
3.659422193761681
 20
7.178958827111373
 30
0.0
 10
3.697866089174112
 20
7.164010424464726
 30
0.0
 10
3.734472951972141
 20
7.164010424464726
 30
0.0
 10
3.771082574401412
 20
7.164010424464726
 30
0.0
 10
3.859699914729086
 20
7.169197340081861
 30
0.0
 10
3.896309350401931
 20
7.152414477695629
 30
0.0
 10
3.93291640404464
 20
7.135641906808611
 30
0.0
 10
4.008118771024202
 20
7.112148986917645
 30
0.0
 10
4.04472563382223
 20
7.102238273149143
 30
0.0
 10
4.081335069495076
 20
7.092324986505849
 30
0.0
 10
4.149976796553598
 20
7.082249608749533
 30
0.0
 10
4.179878747596527
 20
7.055566324094039
 30
0.0
  0
SPLINE
  5
85
330
70
100
AcDbEntity
  8
Layer 1
 62
   250
420
  2301728
370
    15
100
AcDbSpline
210
0.0
220
0.0
230
1.0
 70
     8
 71
     3
 72
     8
 73
     4
 74
     0
 42
0.0000000001
 43
0.0000000001
 40
0.0
 40
0.0
 40
0.0
 40
0.0
 40
1.0
 40
1.0
 40
1.0
 40
1.0
 10
4.069739122725978
 20
7.412478090625199
 30
0.0
 10
4.106345985524007
 20
7.397527115103734
 30
0.0
 10
4.169952596579175
 20
7.369009370708643
 30
0.0
 10
4.181548543348273
 20
7.362440821318474
 30
0.0
  0
SPLINE
  5
86
330
70
100
AcDbEntity
  8
Layer 1
 62
   250
420
  2301728
370
    15
100
AcDbSpline
210
0.0
220
0.0
230
1.0
 70
    11
 71
     3
 72
    11
 73
     7
 74
     0
 42
0.0000000001
 43
0.0000000001
 40
0.0
 40
0.0
 40
0.0
 40
0.0
 40
1.0
 40
1.0
 40
1.0
 40
2.0
 40
2.0
 40
2.0
 40
2.0
 10
3.796710793628335
 20
6.966483106669303
 30
0.0
 10
3.796710793628335
 20
6.922551269286941
 30
0.0
 10
3.745453981661638
 20
6.903028295227941
 30
0.0
 10
3.745453981661638
 20
6.94207424334594
 30
0.0
 10
3.745453981661638
 20
6.993331055312662
 30
0.0
 10
3.796710793628335
 20
7.010414944051691
 30
0.0
 10
3.796710793628335
 20
6.966483106669303
 30
0.0
  0
HATCH
  5
87
330
70
100
AcDbEntity
  8
Layer 1
 62
   250
420
  2301728
440
 33554687
100
AcDbHatch
 10
0.0
 20
0.0
 30
0.0
210
0.0
220
0.0
230
1.0
  2
SOLID
 70
     1
 71
     1
 91
        1
 92
        1
 93
        1
 72
     4
 94
        3
 73
     0
 74
     0
 95
       11
 96
        7
 40
0.0
 40
0.0
 40
0.0
 40
0.0
 40
1.0
 40
1.0
 40
1.0
 40
2.0
 40
2.0
 40
2.0
 40
2.0
 10
3.796710793628335
 20
6.966483106669303
 10
3.796710793628335
 20
6.922551269286941
 10
3.745453981661638
 20
6.903028295227941
 10
3.745453981661638
 20
6.94207424334594
 10
3.745453981661638
 20
6.993331055312662
 10
3.796710793628335
 20
7.010414944051691
 10
3.796710793628335
 20
6.966483106669303
 97
        0
 97
        1
330
86
 75
     2
 76
     1
 98
        1
 10
0.0
 20
0.0
450
        0
451
        0
460
0.0
461
0.0
452
        0
462
0.0
453
        0
470

  0
SPLINE
  5
88
330
70
100
AcDbEntity
  8
Layer 1
 62
   250
420
  2301728
370
    15
100
AcDbSpline
210
0.0
220
0.0
230
1.0
 70
     8
 71
     3
 72
     8
 73
     4
 74
     0
 42
0.0000000001
 43
0.0000000001
 40
0.0
 40
0.0
 40
0.0
 40
0.0
 40
1.0
 40
1.0
 40
1.0
 40
1.0
 10
2.862963067548737
 20
7.11682390044757
 30
0.0
 10
2.885990297099093
 20
7.12735210417049
 30
0.0
 10
2.954935623385204
 20
7.13025200917693
 30
0.0
 10
2.981783572028537
 20
7.12735210417049
 30
0.0
  0
LINE
  5
89
330
70
100
AcDbEntity
  8
Layer 1
 62
   250
420
  2301728
370
    30
100
AcDbLine
 10
2.862798403560898
 20
7.104461236985065
 30
0.0
 11
2.983767258507125
 21
7.046810831115281
 31
0.0
  0
SPLINE
  5
8A
330
70
100
AcDbEntity
  8
Layer 1
 62
   250
420
  2301728
370
    15
100
AcDbSpline
210
0.0
220
0.0
230
1.0
 70
     8
 71
     3
 72
     8
 73
     4
 74
     0
 42
0.0000000001
 43
0.0000000001
 40
0.0
 40
0.0
 40
0.0
 40
0.0
 40
1.0
 40
1.0
 40
1.0
 40
1.0
 10
2.863866146607076
 20
7.171433168291842
 30
0.0
 10
2.875462093376174
 20
7.177224709489362
 30
0.0
 10
2.963477567754706
 20
7.186685170166078
 30
0.0
 10
2.982699515460934
 20
7.185769226733681
 30
0.0
  0
SPLINE
  5
8B
330
70
100
AcDbEntity
  8
Layer 1
 62
   250
420
  2301728
370
    15
100
AcDbSpline
210
0.0
220
0.0
230
1.0
 70
     8
 71
     3
 72
     8
 73
     4
 74
     0
 42
0.0000000001
 43
0.0000000001
 40
0.0
 40
0.0
 40
0.0
 40
0.0
 40
1.0
 40
1.0
 40
1.0
 40
1.0
 10
2.864933889653267
 20
7.217338400653564
 30
0.0
 10
2.880198920152376
 20
7.224048458158272
 30
0.0
 10
2.96439608406192
 20
7.232904293254629
 30
0.0
 10
2.982699515460934
 20
7.231823685834392
 30
0.0
  0
SPLINE
  5
8C
330
70
100
AcDbEntity
  8
Layer 1
 62
   250
420
  2301728
370
    15
100
AcDbSpline
210
0.0
220
0.0
230
1.0
 70
     8
 71
     3
 72
     8
 73
     4
 74
     0
 42
0.0000000001
 43
0.0000000001
 40
0.0
 40
0.0
 40
0.0
 40
0.0
 40
1.0
 40
1.0
 40
1.0
 40
1.0
 10
2.712560524775021
 20
7.176156966443183
 30
0.0
 10
2.729796213127858
 20
7.187752913212281
 30
0.0
 10
2.75175569963201
 20
7.200254511914534
 30
0.0
 10
2.760449443615319
 20
7.201170455346932
 30
0.0
  0
SPLINE
  5
8D
330
70
100
AcDbEntity
  8
Layer 1
 62
   250
420
  2301728
370
    15
100
AcDbSpline
210
0.0
220
0.0
230
1.0
 70
     8
 71
     3
 72
     8
 73
     4
 74
     0
 42
0.0000000001
 43
0.0000000001
 40
0.0
 40
0.0
 40
0.0
 40
0.0
 40
1.0
 40
1.0
 40
1.0
 40
1.0
 10
2.813075024981003
 20
7.251961576972992
 30
0.0
 10
2.833212916119615
 20
7.258519834863944
 30
0.0
 10
2.953101163645606
 20
7.280631120981878
 30
0.0
 10
2.983767258507125
 20
7.273921342202052
 30
0.0
  0
SPLINE
  5
8E
330
70
100
AcDbEntity
  8
Layer 1
 62
   250
420
  2301728
370
    15
100
AcDbSpline
210
0.0
220
0.0
230
1.0
 70
     8
 71
     3
 72
     8
 73
     4
 74
     0
 42
0.0000000001
 43
0.0000000001
 40
0.0
 40
0.0
 40
0.0
 40
0.0
 40
1.0
 40
1.0
 40
1.0
 40
1.0
 10
2.660850886841747
 20
7.202086675689492
 30
0.0
 10
2.681894429913502
 20
7.214587997481556
 30
0.0
 10
2.744294362682732
 20
7.25104563354062
 30
0.0
 10
2.759533500182934
 20
7.251961576972992
 30
0.0
  0
SPLINE
  5
8F
330
70
100
AcDbEntity
  8
Layer 1
 62
   250
420
  2301728
370
    15
100
AcDbSpline
210
0.0
220
0.0
230
1.0
 70
     8
 71
     3
 72
    14
 73
    10
 74
     0
 42
0.0000000001
 43
0.0000000001
 40
0.0
 40
0.0
 40
0.0
 40
0.0
 40
1.0
 40
1.0
 40
1.0
 40
2.0
 40
2.0
 40
2.0
 40
3.0
 40
3.0
 40
3.0
 40
3.0
 10
2.648338996640252
 20
7.233658145573977
 30
0.0
 10
2.660850886841747
 20
7.250894112069974
 30
0.0
 10
2.732685551539589
 20
7.28826741341825
 30
0.0
 10
2.759533500182934
 20
7.292075268137194
 30
0.0
 10
2.786378875951463
 20
7.295893693635307
 30
0.0
 10
2.886605378591361
 20
7.317855473734349
 30
0.0
 10
2.916656557132417
 20
7.316033878368797
 30
0.0
 10
2.946393679015677
 20
7.314186833997204
 30
0.0
 10
2.975073514523804
 20
7.319839160212924
 30
0.0
 10
2.984683368829829
 20
7.315102497687525
 30
0.0
  0
SPLINE
  5
90
330
70
100
AcDbEntity
  8
Layer 1
 62
   250
420
  2301728
370
    15
100
AcDbSpline
210
0.0
220
0.0
230
1.0
 70
     8
 71
     3
 72
    11
 73
     7
 74
     0
 42
0.0000000001
 43
0.0000000001
 40
0.0
 40
0.0
 40
0.0
 40
0.0
 40
1.0
 40
1.0
 40
1.0
 40
2.0
 40
2.0
 40
2.0
 40
2.0
 10
2.650322683118841
 20
7.271950241372628
 30
0.0
 10
2.658867200363159
 20
7.287351749050028
 30
0.0
 10
2.72781252664927
 20
7.328682130935223
 30
0.0
 10
2.753742120041642
 20
7.334324445393753
 30
0.0
 10
2.779671391321547
 20
7.339977051351525
 30
0.0
 10
2.941669880864348
 20
7.37642182303653
 30
0.0
 10
2.967447513586686
 20
7.369714338406613
 30
0.0
  0
SPLINE
  5
91
330
70
100
AcDbEntity
  8
Layer 1
 62
   250
420
  2301728
370
    15
100
AcDbSpline
210
0.0
220
0.0
230
1.0
 70
     8
 71
     3
 72
     8
 73
     4
 74
     0
 42
0.0000000001
 43
0.0000000001
 40
0.0
 40
0.0
 40
0.0
 40
0.0
 40
1.0
 40
1.0
 40
1.0
 40
1.0
 10
2.649254940072649
 20
7.322741362998713
 30
0.0
 10
2.666493201300277
 20
7.341950446330884
 30
0.0
 10
2.861882460128501
 20
7.419589516600303
 30
0.0
 10
2.884006774967512
 20
7.409990120683838
 30
0.0
  0
SPLINE
  5
92
330
70
100
AcDbEntity
  8
Layer 1
 62
   250
420
  2301728
370
    15
100
AcDbSpline
210
0.0
220
0.0
230
1.0
 70
     8
 71
     3
 72
     8
 73
     4
 74
     0
 42
0.0000000001
 43
0.0000000001
 40
0.0
 40
0.0
 40
0.0
 40
0.0
 40
1.0
 40
1.0
 40
1.0
 40
1.0
 10
2.650322683118841
 20
7.367892743041061
 30
0.0
 10
2.670311347518463
 20
7.392741567956957
 30
0.0
 10
2.805600823657679
 20
7.442629610524691
 30
0.0
 10
2.827573174535889
 20
7.435906688645925
 30
0.0
  0
SPLINE
  5
93
330
70
100
AcDbEntity
  8
Layer 1
 62
   250
420
  2301728
370
    15
100
AcDbSpline
210
0.0
220
0.0
230
1.0
 70
     8
 71
     3
 72
     8
 73
     4
 74
     0
 42
0.0000000001
 43
0.0000000001
 40
0.0
 40
0.0
 40
0.0
 40
0.0
 40
1.0
 40
1.0
 40
1.0
 40
1.0
 10
2.651241199426042
 20
7.401296376700529
 30
0.0
 10
2.657032740623561
 20
7.412879459095569
 30
0.0
 10
2.739405900543563
 20
7.468245152134007
 30
0.0
 10
2.756644161771191
 20
7.469325759554243
 30
0.0
  0
SPLINE
  5
94
330
70
100
AcDbEntity
  8
Layer 1
 62
   250
420
  2301728
370
    15
100
AcDbSpline
210
0.0
220
0.0
230
1.0
 70
     8
 71
     3
 72
     8
 73
     4
 74
     0
 42
0.0000000001
 43
0.0000000001
 40
0.0
 40
0.0
 40
0.0
 40
0.0
 40
1.0
 40
1.0
 40
1.0
 40
1.0
 10
2.652157142858439
 20
7.452074633952557
 30
0.0
 10
2.657032740623561
 20
7.458784691457278
 30
0.0
 10
2.688614778917477
 20
7.489451070488408
 30
0.0
 10
2.70875267005609
 20
7.492352989104587
 30
0.0
  0
SPLINE
  5
95
330
70
100
AcDbEntity
  8
Layer 1
 62
   250
420
  2301728
370
    15
100
AcDbSpline
210
0.0
220
0.0
230
1.0
 70
     8
 71
     3
 72
     8
 73
     4
 74
     0
 42
0.0000000001
 43
0.0000000001
 40
0.0
 40
0.0
 40
0.0
 40
0.0
 40
1.0
 40
1.0
 40
1.0
 40
1.0
 10
2.851266778662054
 20
4.709639869193728
 30
0.0
 10
2.875688506359463
 20
4.677931546088479
 30
0.0
 10
2.949746134893239
 20
4.569490018592609
 30
0.0
 10
2.95219551171245
 20
4.549967254445593
 30
0.0
  0
SPLINE
  5
96
330
70
100
AcDbEntity
  8
Layer 1
 62
   250
420
  2301728
370
    15
100
AcDbSpline
210
0.0
220
0.0
230
1.0
 70
     8
 71
     3
 72
    11
 73
     7
 74
     0
 42
0.0000000001
 43
0.0000000001
 40
0.0
 40
0.0
 40
0.0
 40
0.0
 40
1.0
 40
1.0
 40
1.0
 40
2.0
 40
2.0
 40
2.0
 40
2.0
 10
2.820399999565337
 20
4.700143174324011
 30
0.0
 10
2.844808862888713
 20
4.663533951432125
 30
0.0
 10
2.896052810481364
 20
4.567025414867455
 30
0.0
 10
2.908263674330075
 20
4.540192693130038
 30
0.0
 10
2.92046167380474
 20
4.513331880112647
 30
0.0
 10
2.942436763380846
 20
4.488935881163342
 30
0.0
 10
2.95219551171245
 20
4.469412907104342
 30
0.0
  0
SPLINE
  5
97
330
70
100
AcDbEntity
  8
Layer 1
 62
   250
420
  2301728
370
    15
100
AcDbSpline
210
0.0
220
0.0
230
1.0
 70
     8
 71
     3
 72
    11
 73
     7
 74
     0
 42
0.0000000001
 43
0.0000000001
 40
0.0
 40
0.0
 40
0.0
 40
0.0
 40
1.0
 40
1.0
 40
1.0
 40
2.0
 40
2.0
 40
2.0
 40
2.0
 10
2.822836512010503
 20
4.63913773970186
 30
0.0
 10
2.842372350443547
 20
4.604967389348985
 30
0.0
 10
2.857006862363366
 20
4.557276581869069
 30
0.0
 10
2.876529836422365
 20
4.520669719071039
 30
0.0
 10
2.896052810481364
 20
4.48403712752492
 30
0.0
 10
2.947309622448074
 20
4.413283070247315
 30
0.0
 10
2.949746134893239
 20
4.384011473532861
 30
0.0
  0
SPLINE
  5
98
330
70
100
AcDbEntity
  8
Layer 1
 62
   250
420
  2301728
370
    15
100
AcDbSpline
210
0.0
220
0.0
230
1.0
 70
     8
 71
     3
 72
     8
 73
     4
 74
     0
 42
0.0000000001
 43
0.0000000001
 40
0.0
 40
0.0
 40
0.0
 40
0.0
 40
1.0
 40
1.0
 40
1.0
 40
1.0
 10
2.66907894048442
 20
4.834364907417036
 30
0.0
 10
2.695926889127766
 20
4.800191984189368
 30
0.0
 10
2.730097399939558
 20
4.768458146281646
 30
0.0
 10
2.734985862202241
 20
4.744062147332341
 30
0.0
  0
SPLINE
  5
99
330
70
100
AcDbEntity
  8
Layer 1
 62
   250
420
  2301728
370
    15
100
AcDbSpline
210
0.0
220
0.0
230
1.0
 70
     8
 71
     3
 72
    14
 73
    10
 74
     0
 42
0.0000000001
 43
0.0000000001
 40
0.0
 40
0.0
 40
0.0
 40
0.0
 40
1.0
 40
1.0
 40
1.0
 40
2.0
 40
2.0
 40
2.0
 40
3.0
 40
3.0
 40
3.0
 40
3.0
 10
2.598314748837411
 20
4.834364907417036
 30
0.0
 10
2.637357966950768
 20
4.80265679825743
 30
0.0
 10
2.74230810332934
 20
4.687932310475313
 30
0.0
 10
2.756945188123975
 20
4.65375938724762
 30
0.0
 10
2.771592564417839
 20
4.61958924856554
 30
0.0
 10
2.861882460128501
 20
4.46453730933922
 30
0.0
 10
2.869220299086893
 20
4.440115581641799
 30
0.0
 10
2.876529836422365
 20
4.415719582692468
 30
0.0
 10
2.91557594968487
 20
4.35715066051547
 30
0.0
 10
2.908263674330075
 20
4.335191174011318
 30
0.0
  0
SPLINE
  5
9A
330
70
100
AcDbEntity
  8
Layer 1
 62
   250
420
  2301728
370
    15
100
AcDbSpline
210
0.0
220
0.0
230
1.0
 70
     8
 71
     3
 72
    11
 73
     7
 74
     0
 42
0.0000000001
 43
0.0000000001
 40
0.0
 40
0.0
 40
0.0
 40
0.0
 40
1.0
 40
1.0
 40
1.0
 40
2.0
 40
2.0
 40
2.0
 40
2.0
 10
2.598314748837411
 20
4.780671583005187
 30
0.0
 10
2.632484942060449
 20
4.734288010497114
 30
0.0
 10
2.715462727560811
 20
4.63913773970186
 30
0.0
 10
2.727660727035476
 20
4.614739167877738
 30
0.0
 10
2.739858726510128
 20
4.590317440180316
 30
0.0
 10
2.843000131897219
 20
4.416725576743222
 30
0.0
 10
2.840550918327241
 20
4.392352939597533
 30
0.0
  0
SPLINE
  5
9B
330
70
100
AcDbEntity
  8
Layer 1
 62
   250
420
  2301728
370
    15
100
AcDbSpline
210
0.0
220
0.0
230
1.0
 70
     8
 71
     3
 72
    11
 73
     7
 74
     0
 42
0.0000000001
 43
0.0000000001
 40
0.0
 40
0.0
 40
0.0
 40
0.0
 40
1.0
 40
1.0
 40
1.0
 40
2.0
 40
2.0
 40
2.0
 40
2.0
 10
2.598314748837411
 20
4.709917525727582
 30
0.0
 10
2.632484942060449
 20
4.673282361306645
 30
0.0
 10
2.676403915068767
 20
4.636701227256708
 30
0.0
 10
2.69105129136263
 20
4.595218766693556
 30
0.0
 10
2.705688376157266
 20
4.553710577382288
 30
0.0
 10
2.754508675678809
 20
4.529312005558166
 30
0.0
 10
2.752056725984794
 20
4.468283415062715
 30
0.0
  0
SPLINE
  5
9C
330
70
100
AcDbEntity
  8
Layer 1
 62
   250
420
  2301728
370
    15
100
AcDbSpline
210
0.0
220
0.0
230
1.0
 70
     8
 71
     3
 72
     8
 73
     4
 74
     0
 42
0.0000000001
 43
0.0000000001
 40
0.0
 40
0.0
 40
0.0
 40
0.0
 40
1.0
 40
1.0
 40
1.0
 40
1.0
 10
2.598314748837411
 20
4.636701227256708
 30
0.0
 10
2.610512591182239
 20
4.622051278088014
 30
0.0
 10
2.654444428564602
 20
4.583005329970015
 30
0.0
 10
2.656880941009767
 20
4.536624115768441
 30
0.0
  0
SPLINE
  5
9D
330
70
100
AcDbEntity
  8
Layer 1
 62
   250
420
  2301728
370
    15
100
AcDbSpline
210
0.0
220
0.0
230
1.0
 70
     8
 71
     3
 72
    11
 73
     7
 74
     0
 42
0.0000000001
 43
0.0000000001
 40
0.0
 40
0.0
 40
0.0
 40
0.0
 40
1.0
 40
1.0
 40
1.0
 40
2.0
 40
2.0
 40
2.0
 40
2.0
 10
5.018046747355911
 20
6.172861861371908
 30
0.0
 10
5.064579761171292
 20
6.234947903414295
 30
0.0
 10
5.177294833726717
 20
6.558466327785228
 30
0.0
 10
5.216515737331822
 20
6.675151346172671
 30
0.0
 10
5.306339942701848
 20
6.941621417379362
 30
0.0
 10
5.321892970928855
 20
7.450003469730429
 30
0.0
 10
5.272169592348973
 20
7.589563918054396
 30
0.0
  0
SPLINE
  5
9E
330
70
100
AcDbEntity
  8
Layer 1
 62
   250
420
  2301728
370
    15
100
AcDbSpline
210
0.0
220
0.0
230
1.0
 70
     8
 71
     3
 72
    14
 73
    10
 74
     0
 42
0.0000000001
 43
0.0000000001
 40
0.0
 40
0.0
 40
0.0
 40
0.0
 40
1.0
 40
1.0
 40
1.0
 40
2.0
 40
2.0
 40
2.0
 40
3.0
 40
3.0
 40
3.0
 40
3.0
 10
5.185535751743473
 20
7.561648226364872
 30
0.0
 10
5.200936980356699
 20
7.434599668242387
 30
0.0
 10
5.20719421189483
 20
7.214487932587442
 30
0.0
 10
5.194679971538081
 20
7.130756017544247
 30
0.0
 10
5.18234281410413
 20
7.047024379724511
 30
0.0
 10
5.154403966541318
 20
6.89204726553847
 30
0.0
 10
5.13581259439598
 20
6.833167025509434
 30
0.0
 10
5.117192478162905
 20
6.774297076979665
 30
0.0
 10
5.086238221322673
 20
6.541845556512018
 30
0.0
 10
5.015005609330374
 20
6.47975951446963
 30
0.0
  0
SPLINE
  5
9F
330
70
100
AcDbEntity
  8
Layer 1
 62
   250
420
  2301728
370
    15
100
AcDbSpline
210
0.0
220
0.0
230
1.0
 70
     8
 71
     3
 72
    11
 73
     7
 74
     0
 42
0.0000000001
 43
0.0000000001
 40
0.0
 40
0.0
 40
0.0
 40
0.0
 40
1.0
 40
1.0
 40
1.0
 40
2.0
 40
2.0
 40
2.0
 40
2.0
 10
5.095534018011524
 20
7.530694254736115
 30
0.0
 10
5.104832387575217
 20
7.459299266419305
 30
0.0
 10
5.095534018011524
 20
7.171018935447413
 30
0.0
 10
5.086238221322673
 20
7.109097557392866
 30
0.0
 10
5.07691669588568
 20
7.047024379724511
 30
0.0
 10
5.07691669588568
 20
6.904409929000975
 30
0.0
 10
5.015005609330374
 20
6.842475954398018
 30
0.0
  0
LWPOLYLINE
  5
A0
330
70
100
AcDbEntity
  8
Layer 1
 62
   250
420
  2301728
370
    35
100
AcDbPolyline
 90
        3
 70
     0
 43
0.0
 10
5.002645518742686
 20
4.439989510776109
 10
5.021237112120439
 20
7.501561308049922
 10
5.76820184561158
 20
7.766196919517028
  0
LWPOLYLINE
  5
A1
330
70
100
AcDbEntity
  8
Layer 1
 62
   250
420
  2301728
370
    30
100
AcDbPolyline
 90
        3
 70
     0
 43
0.0
 10
3.679863684127894
 20
8.341237012448029
 10
3.730201979787402
 20
8.328110205166922
 10
3.686118342791233
 20
8.40713090920936
  0
LWPOLYLINE
  5
A2
330
70
100
AcDbEntity
  8
Layer 1
 62
   250
420
  2301728
370
    30
100
AcDbPolyline
 90
        3
 70
     0
 43
0.0
 10
3.371232090063509
 20
8.311476569519653
 10
3.411947657277904
 20
8.328411231519705
 10
3.368479113947159
 20
8.402080355957144
  0
SPLINE
  5
A3
330
70
100
AcDbEntity
  8
Layer 1
 62
   250
420
  2301728
370
    15
100
AcDbSpline
210
0.0
220
0.0
230
1.0
 70
     8
 71
     3
 72
    17
 73
    13
 74
     0
 42
0.0000000001
 43
0.0000000001
 40
0.0
 40
0.0
 40
0.0
 40
0.0
 40
1.0
 40
1.0
 40
1.0
 40
2.0
 40
2.0
 40
2.0
 40
3.0
 40
3.0
 40
3.0
 40
4.0
 40
4.0
 40
4.0
 40
4.0
 10
5.012846967364717
 20
5.94253578058864
 30
0.0
 10
5.069002532969837
 20
6.00356437262581
 30
0.0
 10
5.127568882272018
 20
6.198791293708027
 30
0.0
 10
5.183701292003862
 20
6.269571079733749
 30
0.0
 10
5.239831128860891
 20
6.340350865759445
 30
0.0
 10
5.283752899713716
 20
6.516055318995212
 30
0.0
 10
5.30327307592822
 20
6.579509870857009
 30
0.0
 10
5.322796049987219
 20
6.64296468229837
 30
0.0
 10
5.359431214408155
 20
6.840654091206816
 30
0.0
 10
5.361867726853309
 20
6.877250662505603
 30
0.0
 10
5.364304239298462
 20
6.913857525303632
 30
0.0
 10
5.435084025324183
 20
7.448320809604624
 30
0.0
 10
5.378951615592338
 20
7.628923756899236
 30
0.0
  0
SPLINE
  5
A4
330
70
100
AcDbEntity
  8
Layer 1
 62
   250
420
  2301728
370
    15
100
AcDbSpline
210
0.0
220
0.0
230
1.0
 70
     8
 71
     3
 72
    17
 73
    13
 74
     0
 42
0.0000000001
 43
0.0000000001
 40
0.0
 40
0.0
 40
0.0
 40
0.0
 40
1.0
 40
1.0
 40
1.0
 40
2.0
 40
2.0
 40
2.0
 40
3.0
 40
3.0
 40
3.0
 40
4.0
 40
4.0
 40
4.0
 40
4.0
 10
5.471690888122211
 20
7.660644730432888
 30
0.0
 10
5.486315338629638
 20
7.511775621045999
 30
0.0
 10
5.469254375677033
 20
7.340944732698162
 30
0.0
 10
5.479002998332488
 20
7.233557803456404
 30
0.0
 10
5.488777349736033
 20
7.126181446131895
 30
0.0
 10
5.471690888122211
 20
6.889448661980268
 30
0.0
 10
5.439957050214489
 20
6.76987430518112
 30
0.0
 10
5.408223212306792
 20
6.650289656882705
 30
0.0
 10
5.308174402441434
 20
6.328140001910746
 30
0.0
 10
5.261790615365043
 20
6.225626377977327
 30
0.0
 10
5.215435129911585
 20
6.123164211540117
 30
0.0
 10
5.122695857381712
 20
5.810750314849529
 30
0.0
 10
5.010407882044748
 20
5.715597685747803
 30
0.0
  0
SPLINE
  5
A5
330
70
100
AcDbEntity
  8
Layer 1
 62
   250
420
  2301728
370
    15
100
AcDbSpline
210
0.0
220
0.0
230
1.0
 70
     8
 71
     3
 72
    14
 73
    10
 74
     0
 42
0.0000000001
 43
0.0000000001
 40
0.0
 40
0.0
 40
0.0
 40
0.0
 40
1.0
 40
1.0
 40
1.0
 40
2.0
 40
2.0
 40
2.0
 40
3.0
 40
3.0
 40
3.0
 40
3.0
 10
5.00797136959957
 20
5.525220387049658
 30
0.0
 10
5.076314643180138
 20
5.588664906991779
 30
0.0
 10
5.264252856558313
 20
5.935249154035217
 30
0.0
 10
5.310610914886612
 20
6.052358696766305
 30
0.0
 10
5.356992129088186
 20
6.169519696993599
 30
0.0
 10
5.451239106256758
 20
6.447423623856366
 30
0.0
 10
5.500962484836665
 20
6.682010630416369
 30
0.0
 10
5.596163998559783
 20
7.131057043897018
 30
0.0
 10
5.56443016065206
 20
7.528859509785029
 30
0.0
 10
5.542470674147907
 20
7.687492679076235
 30
0.0
  0
SPLINE
  5
A6
330
70
100
AcDbEntity
  8
Layer 1
 62
   250
420
  2301728
370
    15
100
AcDbSpline
210
0.0
220
0.0
230
1.0
 70
     8
 71
     3
 72
    20
 73
    16
 74
     0
 42
0.0000000001
 43
0.0000000001
 40
0.0
 40
0.0
 40
0.0
 40
0.0
 40
1.0
 40
1.0
 40
1.0
 40
2.0
 40
2.0
 40
2.0
 40
3.0
 40
3.0
 40
3.0
 40
4.0
 40
4.0
 40
4.0
 40
5.0
 40
5.0
 40
5.0
 40
5.0
 10
5.627874914257163
 20
7.716774567289917
 30
0.0
 10
5.654732920736781
 20
7.558143970873516
 30
0.0
 10
5.688903506294309
 20
7.240882778040738
 30
0.0
 10
5.664507272140326
 20
7.087138070888713
 30
0.0
 10
5.640085544442904
 20
6.933380499362631
 30
0.0
 10
5.635209946677782
 20
6.755226928887243
 30
0.0
 10
5.576641024500784
 20
6.569748383827496
 30
0.0
 10
5.518074675198603
 20
6.384269838767774
 30
0.0
 10
5.439957050214489
 20
6.115826372581724
 30
0.0
 10
5.383827213357461
 20
6.006003211312822
 30
0.0
 10
5.327697602580252
 20
5.896177477169127
 30
0.0
 10
5.269128454323436
 20
5.735097503933502
 30
0.0
 10
5.203224266062862
 20
5.637482633638506
 30
0.0
 10
5.137317504927472
 20
5.539870336218326
 30
0.0
 10
5.044580805272415
 20
5.369039167452456
 30
0.0
 10
5.005560585902533
 20
5.271401369421154
 30
0.0
  0
SPLINE
  5
A7
330
70
100
AcDbEntity
  8
Layer 1
 62
   250
420
  2301728
370
    15
100
AcDbSpline
210
0.0
220
0.0
230
1.0
 70
     8
 71
     3
 72
    17
 73
    13
 74
     0
 42
0.0000000001
 43
0.0000000001
 40
0.0
 40
0.0
 40
0.0
 40
0.0
 40
1.0
 40
1.0
 40
1.0
 40
2.0
 40
2.0
 40
2.0
 40
3.0
 40
3.0
 40
3.0
 40
4.0
 40
4.0
 40
4.0
 40
4.0
 10
5.00797136959957
 20
5.149390272039858
 30
0.0
 10
5.076314643180138
 20
5.222606570510732
 30
0.0
 10
5.230082729819287
 20
5.427608089629453
 30
0.0
 10
5.29598669446601
 20
5.569165088806079
 30
0.0
 10
5.361867726853309
 20
5.71069893210938
 30
0.0
 10
5.488777349736033
 20
5.974269373405124
 30
0.0
 10
5.520485458895664
 20
6.062133048169849
 30
0.0
 10
5.552245025551453
 20
6.149973567061301
 30
0.0
 10
5.642522056888057
 20
6.435526650734471
 30
0.0
 10
5.681591160879356
 20
6.594157247150885
 30
0.0
 10
5.720611380249263
 20
6.752787843567274
 30
0.0
 10
5.75234521815696
 20
6.869938552295302
 30
0.0
 10
5.764558654880475
 20
7.045642745951504
 30
0.0
  0
SPLINE
  5
A8
330
70
100
AcDbEntity
  8
Layer 1
 62
   250
420
  2301728
370
    15
100
AcDbSpline
210
0.0
220
0.0
230
1.0
 70
     8
 71
     3
 72
    14
 73
    10
 74
     0
 42
0.0000000001
 43
0.0000000001
 40
0.0
 40
0.0
 40
0.0
 40
0.0
 40
1.0
 40
1.0
 40
1.0
 40
2.0
 40
2.0
 40
2.0
 40
3.0
 40
3.0
 40
3.0
 40
3.0
 10
5.762119569560505
 20
6.523377461125164
 30
0.0
 10
5.715764319990259
 20
6.342787378204623
 30
0.0
 10
5.644958803427723
 20
6.076780424463726
 30
0.0
 10
5.58395313471106
 20
5.925474802631671
 30
0.0
 10
5.522947700088908
 20
5.774141120013963
 30
0.0
 10
5.498525972391487
 20
5.725348881278073
 30
0.0
 10
5.381390700912308
 20
5.530095984814781
 30
0.0
 10
5.264252856558313
 20
5.334868817099605
 30
0.0
 10
5.122695857381712
 20
5.103034786586375
 30
0.0
 10
5.005560585902533
 20
5.020044136711955
 30
0.0
  0
SPLINE
  5
A9
330
70
100
AcDbEntity
  8
Layer 1
 62
   250
420
  2301728
370
    15
100
AcDbSpline
210
0.0
220
0.0
230
1.0
 70
     8
 71
     3
 72
    14
 73
    10
 74
     0
 42
0.0000000001
 43
0.0000000001
 40
0.0
 40
0.0
 40
0.0
 40
0.0
 40
1.0
 40
1.0
 40
1.0
 40
2.0
 40
2.0
 40
2.0
 40
3.0
 40
3.0
 40
3.0
 40
3.0
 10
5.003098344709264
 20
4.883383318298986
 30
0.0
 10
5.09829728555759
 20
4.961475214534983
 30
0.0
 10
5.154403966541318
 20
5.027379402795556
 30
0.0
 10
5.254481078029584
 20
5.166476733653704
 30
0.0
 10
5.354529887894917
 20
5.305571491637061
 30
0.0
 10
5.44726916042479
 20
5.430044834219239
 30
0.0
 10
5.522947700088908
 20
5.581352796781477
 30
0.0
 10
5.598603083879752
 20
5.732658418613532
 30
0.0
 10
5.720611380249263
 20
6.064569560615002
 30
0.0
 10
5.759657565359298
 20
6.140224944405846
 30
0.0
  0
SPLINE
  5
AA
330
70
100
AcDbEntity
  8
Layer 1
 62
   250
420
  2301728
370
    15
100
AcDbSpline
210
0.0
220
0.0
230
1.0
 70
     8
 71
     3
 72
    14
 73
    10
 74
     0
 42
0.0000000001
 43
0.0000000001
 40
0.0
 40
0.0
 40
0.0
 40
0.0
 40
1.0
 40
1.0
 40
1.0
 40
2.0
 40
2.0
 40
2.0
 40
3.0
 40
3.0
 40
3.0
 40
3.0
 10
5.759657565359298
 20
5.871781721523626
 30
0.0
 10
5.691342356409626
 20
5.744869282462255
 30
0.0
 10
5.603476108770059
 20
5.547182446428627
 30
0.0
 10
5.522947700088908
 20
5.405648603125301
 30
0.0
 10
5.442419291407759
 20
5.264089031073884
 30
0.0
 10
5.43018527168576
 20
5.225043082955886
 30
0.0
 10
5.335006913835917
 20
5.124994273090552
 30
0.0
 10
5.239831128860891
 20
5.024917161602287
 30
0.0
 10
5.122695857381712
 20
4.844339943055779
 30
0.0
 10
5.003098344709264
 20
4.77112364458493
 30
0.0
  0
SPLINE
  5
AB
330
70
100
AcDbEntity
  8
Layer 1
 62
   250
420
  2301728
370
    15
100
AcDbSpline
210
0.0
220
0.0
230
1.0
 70
     8
 71
     3
 72
    14
 73
    10
 74
     0
 42
0.0000000001
 43
0.0000000001
 40
0.0
 40
0.0
 40
0.0
 40
0.0
 40
1.0
 40
1.0
 40
1.0
 40
2.0
 40
2.0
 40
2.0
 40
3.0
 40
3.0
 40
3.0
 40
3.0
 10
5.003098344709264
 20
4.63446282617191
 30
0.0
 10
5.086086421708866
 20
4.717430320173055
 30
0.0
 10
5.188574316894194
 20
4.80529399493778
 30
0.0
 10
5.274001703937098
 20
4.915117156206684
 30
0.0
 10
5.359431214408155
 20
5.024917161602287
 30
0.0
 10
5.425309673920637
 20
5.105471299031553
 30
0.0
 10
5.503424956549022
 20
5.212832219107187
 30
0.0
 10
5.581516622265906
 20
5.320221440805728
 30
0.0
 10
5.713301842913779
 20
5.556954224957356
 30
0.0
 10
5.757220815922108
 20
5.647256985042076
 30
0.0
  0
SPLINE
  5
AC
330
70
100
AcDbEntity
  8
Layer 1
 62
   250
420
  2301728
370
    15
100
AcDbSpline
210
0.0
220
0.0
230
1.0
 70
     8
 71
     3
 72
    14
 73
    10
 74
     0
 42
0.0000000001
 43
0.0000000001
 40
0.0
 40
0.0
 40
0.0
 40
0.0
 40
1.0
 40
1.0
 40
1.0
 40
2.0
 40
2.0
 40
2.0
 40
3.0
 40
3.0
 40
3.0
 40
3.0
 10
5.005560585902533
 20
4.524639664903032
 30
0.0
 10
5.061690422759562
 20
4.573457602055163
 30
0.0
 10
5.17636345304547
 20
4.678384372055057
 30
0.0
 10
5.266666213130191
 20
4.778433181920389
 30
0.0
 10
5.356992129088186
 20
4.878510293408655
 30
0.0
 10
5.488777349736033
 20
5.024917161602287
 30
0.0
 10
5.552245025551453
 20
5.117682162880251
 30
0.0
 10
5.615686972618783
 20
5.210395706662009
 30
0.0
 10
5.698651893745085
 20
5.366602655007302
 30
0.0
 10
5.757220815922108
 20
5.449567576133631
 30
0.0
  0
SPLINE
  5
AD
330
70
100
AcDbEntity
  8
Layer 1
 62
   250
420
  2301728
370
    15
100
AcDbSpline
210
0.0
220
0.0
230
1.0
 70
     8
 71
     3
 72
    17
 73
    13
 74
     0
 42
0.0000000001
 43
0.0000000001
 40
0.0
 40
0.0
 40
0.0
 40
0.0
 40
1.0
 40
1.0
 40
1.0
 40
2.0
 40
2.0
 40
2.0
 40
3.0
 40
3.0
 40
3.0
 40
4.0
 40
4.0
 40
4.0
 40
4.0
 10
5.059228181566291
 20
4.47338285293631
 30
0.0
 10
5.137317504927472
 20
4.553936990365577
 30
0.0
 10
5.222747240121861
 20
4.639338423937058
 30
0.0
 10
5.29842577978598
 20
4.695468260794086
 30
0.0
 10
5.374052861953916
 20
4.751600670525905
 30
0.0
 10
5.459480253682436
 20
4.846776455500958
 30
0.0
 10
5.513173348685364
 20
4.922429266416984
 30
0.0
 10
5.566869245972029
 20
4.998084871440217
 30
0.0
 10
5.647395081778388
 20
5.103034786586375
 30
0.0
 10
5.671819617123674
 20
5.161601135888582
 30
0.0
 10
5.696215381299932
 20
5.220170058065579
 30
0.0
 10
5.703553220258324
 20
5.26165251862873
 30
0.0
 10
5.757220815922108
 20
5.281201221435821
 30
0.0
  0
SPLINE
  5
AE
330
70
100
AcDbEntity
  8
Layer 1
 62
   250
420
  2301728
370
    15
100
AcDbSpline
210
0.0
220
0.0
230
1.0
 70
     8
 71
     3
 72
    14
 73
    10
 74
     0
 42
0.0000000001
 43
0.0000000001
 40
0.0
 40
0.0
 40
0.0
 40
0.0
 40
1.0
 40
1.0
 40
1.0
 40
2.0
 40
2.0
 40
2.0
 40
3.0
 40
3.0
 40
3.0
 40
3.0
 10
5.75480745935023
 20
5.139615920636313
 30
0.0
 10
5.718174867804084
 20
5.105471299031553
 30
0.0
 10
5.718174867804084
 20
5.100572545393131
 30
0.0
 10
5.662070759695173
 20
5.010295514056527
 30
0.0
 10
5.605912621215237
 20
4.919992753971806
 30
0.0
 10
5.598603083879752
 20
4.885822403618956
 30
0.0
 10
5.544907186593061
 20
4.841900857735809
 30
0.0
 10
5.491213862181211
 20
4.797956155979388
 30
0.0
 10
5.410685453500036
 20
4.673508774289908
 30
0.0
 10
5.36674075174364
 20
4.64667626289545
 30
0.0
  0
SPLINE
  5
AF
330
70
100
AcDbEntity
  8
Layer 1
 62
   250
420
  2301728
370
    15
100
AcDbSpline
210
0.0
220
0.0
230
1.0
 70
     8
 71
     3
 72
    11
 73
     7
 74
     0
 42
0.0000000001
 43
0.0000000001
 40
0.0
 40
0.0
 40
0.0
 40
0.0
 40
1.0
 40
1.0
 40
1.0
 40
2.0
 40
2.0
 40
2.0
 40
2.0
 10
5.530260041496199
 20
4.74185226262989
 30
0.0
 10
5.574179015614011
 20
4.822380456551627
 30
0.0
 10
5.603476108770059
 20
4.837027832845503
 30
0.0
 10
5.649857322971658
 20
4.890695428509261
 30
0.0
 10
5.696215381299932
 20
4.944388972797089
 30
0.0
 10
5.735287058166047
 20
4.99320905244268
 30
0.0
 10
5.75480745935023
 20
5.022506377905225
 30
0.0
  0
SPLINE
  5
B0
330
70
100
AcDbEntity
  8
Layer 1
 62
   250
420
  2301728
370
    15
100
AcDbSpline
210
0.0
220
0.0
230
1.0
 70
     8
 71
     3
 72
    11
 73
     7
 74
     0
 42
0.0000000001
 43
0.0000000001
 40
0.0
 40
0.0
 40
0.0
 40
0.0
 40
1.0
 40
1.0
 40
1.0
 40
2.0
 40
2.0
 40
2.0
 40
2.0
 10
5.757220815922108
 20
4.941952240475958
 30
0.0
 10
5.732824816972778
 20
4.919992753971806
 30
0.0
 10
5.715764319990259
 20
4.915117156206684
 30
0.0
 10
5.70109097906508
 20
4.893134513829232
 30
0.0
 10
5.686441029896387
 20
4.871172454450262
 30
0.0
 10
5.652296408291627
 20
4.827253481441933
 30
0.0
 10
5.647395081778388
 20
4.80529399493778
 30
0.0
  0
LINE
  5
B1
330
70
100
AcDbEntity
  8
Layer 1
 62
   250
420
  2301728
370
    35
100
AcDbLine
 10
3.079949037532893
 20
8.209755391027744
 30
0.0
 11
5.020182233448293
 21
7.499575048696518
 31
0.0
  0
LWPOLYLINE
  5
B2
330
70
100
AcDbEntity
  8
Layer 1
 62
   250
420
  2301728
370
    35
100
AcDbPolyline
 90
        3
 70
     0
 43
0.0
 10
2.65199505174539
 20
7.518897338520332
 10
2.986355737498633
 20
7.362703254549096
 10
4.175757002150754
 20
7.807077327374624
  0
LINE
  5
B3
330
70
100
AcDbEntity
  8
Layer 1
 62
   250
420
  2301728
370
    35
100
AcDbLine
 10
3.070187550503394
 20
7.667969705017235
 30
0.0
 11
3.82675958669837
 21
7.933974085883315
 31
0.0
  0
LWPOLYLINE
  5
B4
330
70
100
AcDbEntity
  8
Layer 1
 62
   250
420
  2301728
370
    35
100
AcDbPolyline
 90
        4
 70
     0
 43
0.0
 10
2.983919058120919
 20
7.365139766994261
 10
2.983919058120919
 20
7.045429197342273
 10
4.178193514595906
 20
7.482491159957488
 10
4.180632797018435
 20
7.804628242687069
  0
LWPOLYLINE
  5
B5
330
70
100
AcDbEntity
  8
Layer 1
 62
   250
420
  2301728
370
    40
100
AcDbPolyline
 90
        4
 70
     0
 43
0.0
 10
3.568054263505599
 20
7.260403179224921
 10
3.629072562501808
 20
7.250641692195434
 10
4.183081976735087
 20
7.455643494629725
 10
4.178193514595906
 20
6.773430018168659
  0
LINE
  5
B6
330
70
100
AcDbEntity
  8
Layer 1
 62
   250
420
  2301728
370
    30
100
AcDbLine
 10
4.180632797018435
 20
7.455643494629725
 30
0.0
 11
4.141586651797878
 21
7.46784121078882
 31
0.0
  0
LWPOLYLINE
  5
B7
330
70
100
AcDbEntity
  8
Layer 1
 62
   250
420
  2301728
370
    40
100
AcDbPolyline
 90
        4
 70
     0
 43
0.0
 10
3.626633477181838
 20
7.250641692195434
 10
3.604661126303628
 20
4.990746811249411
 10
3.470439393210603
 20
5.073737461123831
 10
3.494837965034725
 20
7.233557803456404
  0
LINE
  5
B8
330
70
100
AcDbEntity
  8
Layer 1
 62
   250
420
  2301728
370
    15
100
AcDbLine
 10
3.518745117770119
 20
7.240882778040738
 30
0.0
 11
3.499723854299089
 21
5.059087734728614
 31
0.0
  0
LINE
  5
B9
330
70
100
AcDbEntity
  8
Layer 1
 62
   250
420
  2301728
370
    15
100
AcDbLine
 10
3.536333470798101
 20
5.034691513005832
 30
0.0
 11
3.550967801891753
 21
7.253093641889436
 31
0.0
  0
LINE
  5
BA
330
70
100
AcDbEntity
  8
Layer 1
 62
   250
420
  2301728
370
    15
100
AcDbLine
 10
3.592463126828963
 20
7.255530154334614
 30
0.0
 11
3.570490775950752
 21
5.01273202650168
 31
0.0
  0
LWPOLYLINE
  5
BB
330
70
100
AcDbEntity
  8
Layer 1
 62
   250
420
  2301728
370
    30
100
AcDbPolyline
 90
        6
 70
     0
 43
0.0
 10
2.734985862202241
 20
4.949089395199179
 10
2.734985862202241
 20
4.692805335365619
 10
2.820399999565337
 20
4.622051278088014
 10
2.864331836947712
 20
7.218707447382585
 10
2.762736729321495
 20
7.285982700586878
 10
2.760915133955955
 20
7.154349279552812
  0
LINE
  5
BC
330
70
100
AcDbEntity
  8
Layer 1
 62
   250
420
  2301728
370
    15
100
AcDbLine
 10
2.781354051447338
 20
7.27133275141821
 30
0.0
 11
2.754732515787294
 21
4.677931546088479
 31
0.0
  0
LINE
  5
BD
330
70
100
AcDbEntity
  8
Layer 1
 62
   250
420
  2301728
370
    15
100
AcDbLine
 10
2.776303498195122
 20
4.66597282397116
 30
0.0
 11
2.810036622308643
 21
7.258218808511148
 31
0.0
  0
LINE
  5
BE
330
70
100
AcDbEntity
  8
Layer 1
 62
   250
420
  2301728
370
    15
100
AcDbLine
 10
2.836354396262739
 20
7.237375949674564
 30
0.0
 11
2.801517671334055
 21
4.641172883676643
 31
0.0
  0
LINE
  5
BF
330
70
100
AcDbEntity
  8
Layer 1
 62
   250
420
  2301728
370
    30
100
AcDbLine
 10
2.600751104152739
 20
4.880720392870519
 30
0.0
 11
2.737270414451181
 21
4.787857622349772
 31
0.0
  0
LWPOLYLINE
  5
C0
330
70
100
AcDbEntity
  8
Layer 1
 62
   250
420
  2301728
370
    30
100
AcDbPolyline
 90
        4
 70
     0
 43
0.0
 10
3.470439393210603
 20
5.071300948678677
 10
2.82101491664495
 20
4.738885523214421
 10
2.95463459703242
 20
4.63848422950011
 10
2.949746134893239
 20
4.308332933868743
  0
LINE
  5
C1
330
70
100
AcDbEntity
  8
Layer 1
 62
   250
420
  2301728
370
    30
100
AcDbLine
 10
2.95463459703242
 20
4.63848422950011
 30
0.0
 11
3.760855210274864
 21
5.076173973569009
 31
0.0
  0
SPLINE
  5
C2
330
70
100
AcDbEntity
  8
Layer 1
 62
   250
420
  2301728
370
    15
100
AcDbSpline
210
0.0
220
0.0
230
1.0
 70
     9
 71
     3
 72
    11
 73
     7
 74
     0
 42
0.0000000001
 43
0.0000000001
 40
0.0
 40
0.0
 40
0.0
 40
0.0
 40
1.0
 40
1.0
 40
1.0
 40
2.0
 40
2.0
 40
2.0
 40
2.0
 10
3.808908793103
 20
6.956055245064008
 30
0.0
 10
3.808908793103
 20
6.912123677266738
 30
0.0
 10
3.757652167553437
 20
6.892600433622621
 30
0.0
 10
3.757652167553437
 20
6.93164638174062
 30
0.0
 10
3.757652167553437
 20
6.982903465080475
 30
0.0
 10
3.808908793103
 20
6.999989655321187
 30
0.0
 10
3.808908793103
 20
6.956055245064008
 30
0.0
  0
HATCH
  5
C3
330
70
100
AcDbEntity
  8
Layer 1
 62
   254
420
 13358815
440
 33554687
100
AcDbHatch
 10
0.0
 20
0.0
 30
0.0
210
0.0
220
0.0
230
1.0
  2
SOLID
 70
     1
 71
     1
 91
        1
 92
        1
 93
        1
 72
     4
 94
        3
 73
     0
 74
     0
 95
       11
 96
        7
 40
0.0
 40
0.0
 40
0.0
 40
0.0
 40
1.0
 40
1.0
 40
1.0
 40
2.0
 40
2.0
 40
2.0
 40
2.0
 10
3.808908793103
 20
6.956055245064008
 10
3.808908793103
 20
6.912123677266738
 10
3.757652167553437
 20
6.892600433622621
 10
3.757652167553437
 20
6.93164638174062
 10
3.757652167553437
 20
6.982903465080475
 10
3.808908793103
 20
6.999989655321187
 10
3.808908793103
 20
6.956055245064008
 97
        0
 97
        1
330
C2
 75
     2
 76
     1
 98
        1
 10
0.0
 20
0.0
450
        0
451
        0
460
0.0
461
0.0
452
        0
462
0.0
453
        0
470

  0
INSERT
  5
C5
330
70
100
AcDbEntity
  8
Layer 1
100
AcDbBlockReference
  2
Block_0
 10
0.0
 20
0.0
 30
0.0
  0
MTEXT
  5
117
330
70
100
AcDbEntity
  8
callout
100
AcDbMText
 10
3.538207372029622
 20
2.988911310831705
 30
0.0
 40
0.2
 41
0.0
 46
0.0
 71
     7
 72
     1
  1
\C250;\c2105123;\FHelvetica Neue LT Std 55 Roman|b0|i0|c1;\H0.118000;\W1.000000;SIMPSON Strong-Tie\H0.068794;®\H0.118000; ^C
 73
     1
 44
1.0
  0
MTEXT
  5
118
330
70
100
AcDbEntity
  8
callout
100
AcDbMText
 10
3.234584596421983
 20
2.788905885484483
 30
0.0
 40
0.2
 41
0.0
 46
0.0
 71
     7
 72
     1
  1
\C250;\c2105123;\FHelvetica Neue LT Std 55 Roman|b0|i0|c1;\H0.118000;\W1.000000;HU Face Fix I-Joist Installation 
 73
     1
 44
1.0
  0
MTEXT
  5
119
330
70
100
AcDbEntity
  8
callout
100
AcDbMText
 10
4.112728118896484
 20
3.706504821777343
 30
0.0
 40
0.2
 41
0.0
 46
0.0
 71
     7
 72
     1
  1
\C250;\c2105123;\FHelvetica Neue LT Std 57 Condensed|b0|i0|c1;\H0.118000;\W1.000000;HU
 73
     1
 44
1.0
  0
LINE
  5
11A
330
70
100
AcDbEntity
  8
callout
 62
   250
420
  2301728
370
    18
100
AcDbLine
 10
4.18013980494297
 20
3.881759336569226
 30
0.0
 11
3.941578558127616
 21
4.804345587431953
 31
0.0
  0
MTEXT
  5
11B
330
70
100
AcDbEntity
  8
callout
100
AcDbMText
 10
5.466498268975152
 20
3.968938403659396
 30
0.0
 40
0.2
 41
0.0
 46
0.0
 71
     7
 72
     1
  1
\C250;\c2105123;\FHelvetica Neue LT Std 57 Condensed|b0|i0|c1;\H0.118000;\W1.000000;Beam
 73
     1
 44
1.0
  0
MTEXT
  5
11C
330
70
100
AcDbEntity
  8
callout
100
AcDbMText
 10
2.983371522691514
 20
3.814387639363606
 30
0.0
 40
0.2
 41
0.0
 46
0.0
 71
     7
 72
     1
  1
\C250;\c2105123;\FHelvetica Neue LT Std 57 Condensed|b0|i0|c1;\H0.118000;\W1.000000;I-Joist
 73
     1
 44
1.0
  0
LINE
  5
11D
330
70
100
AcDbEntity
  8
callout
 62
   250
420
  2301728
370
    18
100
AcDbLine
 10
5.599705475107435
 20
4.128651357895352
 30
0.0
 11
5.36181235469793
 21
4.572290510506844
 31
0.0
  0
LINE
  5
11E
330
70
100
AcDbEntity
  8
callout
 62
   250
420
  2301728
370
    18
100
AcDbLine
 10
3.148999851686211
 20
4.016606860690646
 30
0.0
 11
3.054435483870962
 21
4.335191174011318
 31
0.0
  0
ENDSEC
  0
SECTION
  2
OBJECTS
  0
DICTIONARY
  5
C
330
0
100
AcDbDictionary
281
     1
  3
ACAD_COLOR
350
63
  3
ACAD_DETAILVIEWSTYLE
350
6A
  3
ACAD_GROUP
350
D
  3
ACAD_LAYOUT
350
62
  3
ACAD_MATERIAL
350
10
  3
ACAD_MLEADERSTYLE
350
66
  3
ACAD_MLINESTYLE
350
5F
  3
ACAD_PLOTSETTINGS
350
61
  3
ACAD_PLOTSTYLENAME
350
E
  3
ACAD_SCALELIST
350
42
  3
ACAD_SECTIONVIEWSTYLE
350
68
  3
ACAD_TABLESTYLE
350
64
  3
ACAD_VISUALSTYLE
350
29
  3
ACDB_RECOMPOSE_DATA
350
127
  3
AcDbVariableDictionary
350
11F
  0
DICTIONARY
  5
63
102
{ACAD_REACTORS
330
C
102
}
330
C
100
AcDbDictionary
281
     1
  0
DICTIONARY
  5
6A
102
{ACAD_REACTORS
330
C
102
}
330
C
100
AcDbDictionary
281
     1
  3
Imperial24
350
6B
  0
DICTIONARY
  5
D
102
{ACAD_REACTORS
330
C
102
}
330
C
100
AcDbDictionary
281
     1
  0
DICTIONARY
  5
62
102
{ACAD_REACTORS
330
C
102
}
330
C
100
AcDbDictionary
281
     1
  3
Layout1
350
6F
  3
Layout2
350
77
  3
Model
350
73
  0
DICTIONARY
  5
10
102
{ACAD_REACTORS
330
C
102
}
330
C
100
AcDbDictionary
281
     1
  3
ByBlock
350
19
  3
ByLayer
350
11
  3
Global
350
21
  0
DICTIONARY
  5
66
102
{ACAD_REACTORS
330
C
102
}
330
C
100
AcDbDictionary
281
     1
  3
Standard
350
67
  0
DICTIONARY
  5
5F
102
{ACAD_REACTORS
330
C
102
}
330
C
100
AcDbDictionary
281
     1
  3
Standard
350
60
  0
DICTIONARY
  5
61
102
{ACAD_REACTORS
330
C
102
}
330
C
100
AcDbDictionary
281
     1
  0
ACDBDICTIONARYWDFLT
  5
E
102
{ACAD_REACTORS
330
C
102
}
330
C
100
AcDbDictionary
281
     1
  3
Normal
350
F
100
AcDbDictionaryWithDefault
340
F
  0
DICTIONARY
  5
42
102
{ACAD_REACTORS
330
C
102
}
330
C
100
AcDbDictionary
281
     1
  3
A0
350
43
  3
A1
350
44
  3
A2
350
45
  3
A3
350
46
  3
A4
350
47
  3
A5
350
48
  3
A6
350
49
  3
A7
350
4A
  3
A8
350
4B
  3
A9
350
4C
  3
B0
350
4D
  3
B1
350
4E
  3
B2
350
4F
  3
B3
350
50
  3
B4
350
51
  3
B5
350
52
  3
B6
350
53
  0
DICTIONARY
  5
68
102
{ACAD_REACTORS
330
C
102
}
330
C
100
AcDbDictionary
281
     1
  3
Imperial24
350
69
  0
DICTIONARY
  5
64
102
{ACAD_REACTORS
330
C
102
}
330
C
100
AcDbDictionary
281
     1
  3
Standard
350
65
  0
DICTIONARY
  5
29
102
{ACAD_REACTORS
330
C
102
}
330
C
100
AcDbDictionary
281
     1
  3
2dWireframe
350
2F
  3
Basic
350
2E
  3
Brighten
350
35
  3
ColorChange
350
39
  3
Conceptual
350
32
  3
Dim
350
34
  3
EdgeColorOff
350
41
  3
Facepattern
350
38
  3
Flat
350
2A
  3
FlatWithEdges
350
2B
  3
Gouraud
350
2C
  3
GouraudWithEdges
350
2D
  3
Hidden
350
31
  3
JitterOff
350
3F
  3
Linepattern
350
37
  3
OverhangOff
350
40
  3
Realistic
350
33
  3
Shaded
350
3E
  3
Shaded with edges
350
3D
  3
Shades of Gray
350
3A
  3
Sketchy
350
3B
  3
Thicken
350
36
  3
Wireframe
350
30
  3
X-Ray
350
3C
  0
XRECORD
  5
127
102
{ACAD_REACTORS
330
C
102
}
330
C
100
AcDbXrecord
280
     1
 90
        1
330
65
  0
DICTIONARY
  5
11F
102
{ACAD_REACTORS
330
C
102
}
330
C
100
AcDbDictionary
281
     1
  3
CANNOSCALE
350
124
  3
CMLEADERSTYLE
350
121
  3
CTABLESTYLE
350
120
  3
CVIEWDETAILSTYLE
350
122
  3
CVIEWSECTIONSTYLE
350
123
  0
ACDBDETAILVIEWSTYLE
  5
6B
102
{ACAD_REACTORS
330
6A
102
}
330
6A
100
AcDbModelDocViewStyle
 70
     0
  3
Imperial24
290
     1
300
Imperial24
 90
        0
100
AcDbDetailViewStyle
 70
     0
 71
     0
 90
        3
 71
     1
340
55
 62
   256
 40
0.24
340
0
 62
   256
 40
0.24
300

 40
0.36
280
     3
 71
     2
340
5D
 90
       25
 62
   256
 71
     3
340
55
 62
   256
 40
0.24
 90
        1
 40
0.75
 90
        1
300
%<\AcVar ViewType \f "%tc1">% %<\AcVar ViewDetailId>%\PSCALE %<\AcVar ViewScale \f "%sn">%
 71
     4
340
5D
 90
       25
 62
   256
340
5D
 90
       25
 62
   256
280
     0
  0
LAYOUT
  5
6F
102
{ACAD_REACTORS
330
62
102
}
330
62
100
AcDbPlotSettings
  1

  2

  4

  6

 40
0.0
 41
0.0
 42
0.0
 43
0.0
 44
0.0
 45
0.0
 46
0.0
 47
0.0
 48
0.0
 49
0.0
140
0.0
141
0.0
142
1.0
143
1.0
 70
   688
 72
     0
 73
     0
 74
     5
  7

 75
    16
147
1.0
 76
     0
 77
     2
 78
   300
148
0.0
149
0.0
100
AcDbLayout
  1
Layout1
 70
     1
 71
     1
 10
0.0
 20
0.0
 11
12.0
 21
9.0
 12
0.0
 22
0.0
 32
0.0
 14
0.0
 24
0.0
 34
0.0
 15
0.0
 25
0.0
 35
0.0
146
0.0
 13
0.0
 23
0.0
 33
0.0
 16
1.0
 26
0.0
 36
0.0
 17
0.0
 27
1.0
 37
0.0
 76
     0
330
6C
  0
LAYOUT
  5
77
102
{ACAD_REACTORS
330
62
102
}
330
62
100
AcDbPlotSettings
  1

  2

  4

  6

 40
0.0
 41
0.0
 42
0.0
 43
0.0
 44
0.0
 45
0.0
 46
0.0
 47
0.0
 48
0.0
 49
0.0
140
0.0
141
0.0
142
1.0
143
1.0
 70
   688
 72
     0
 73
     0
 74
     5
  7

 75
    16
147
1.0
 76
     0
 77
     2
 78
   300
148
0.0
149
0.0
100
AcDbLayout
  1
Layout2
 70
     1
 71
     2
 10
0.0
 20
0.0
 11
12.0
 21
9.0
 12
0.0
 22
0.0
 32
0.0
 14
0.0
 24
0.0
 34
0.0
 15
0.0
 25
0.0
 35
0.0
146
0.0
 13
0.0
 23
0.0
 33
0.0
 16
1.0
 26
0.0
 36
0.0
 17
0.0
 27
1.0
 37
0.0
 76
     0
330
74
  0
LAYOUT
  5
73
102
{ACAD_REACTORS
330
62
102
}
330
62
100
AcDbPlotSettings
  1

  2

  4

  6

 40
0.0
 41
0.0
 42
0.0
 43
0.0
 44
0.0
 45
0.0
 46
0.0
 47
0.0
 48
0.0
 49
0.0
140
0.0
141
0.0
142
1.0
143
1.0
 70
  1712
 72
     0
 73
     0
 74
     0
  7

 75
     0
147
1.0
 76
     0
 77
     2
 78
   300
148
0.0
149
0.0
100
AcDbLayout
  1
Model
 70
     1
 71
     0
 10
0.0
 20
0.0
 11
12.0
 21
9.0
 12
0.0
 22
0.0
 32
0.0
 14
0.0
 24
0.0
 34
0.0
 15
0.0
 25
0.0
 35
0.0
146
0.0
 13
0.0
 23
0.0
 33
0.0
 16
1.0
 26
0.0
 36
0.0
 17
0.0
 27
1.0
 37
0.0
 76
     0
330
70
  0
MATERIAL
  5
19
102
{ACAD_XDICTIONARY
360
1A
102
}
102
{ACAD_REACTORS
330
10
102
}
330
10
100
AcDbMaterial
  1
ByBlock
 72
     0
 43
0.0208333333333333
 43
0.0
 43
0.0
 43
0.0
 43
0.0
 43
0.0208333333333333
 43
0.0
 43
0.0
 43
0.0
 43
0.0
 43
1.0
 43
0.0
 43
0.0
 43
0.0
 43
0.0
 43
1.0
 77
     0
 47
0.0208333333333333
 47
0.0
 47
0.0
 47
0.0
 47
0.0
 47
0.0208333333333333
 47
0.0
 47
0.0
 47
0.0
 47
0.0
 47
1.0
 47
0.0
 47
0.0
 47
0.0
 47
0.0
 47
1.0
171
     0
 49
0.0208333333333333
 49
0.0
 49
0.0
 49
0.0
 49
0.0
 49
0.0208333333333333
 49
0.0
 49
0.0
 49
0.0
 49
0.0
 49
1.0
 49
0.0
 49
0.0
 49
0.0
 49
0.0
 49
1.0
175
     0
142
0.0208333333333333
142
0.0
142
0.0
142
0.0
142
0.0
142
0.0208333333333333
142
0.0
142
0.0
142
0.0
142
0.0
142
1.0
142
0.0
142
0.0
142
0.0
142
0.0
142
1.0
179
     0
144
0.0208333333333333
144
0.0
144
0.0
144
0.0
144
0.0
144
0.0208333333333333
144
0.0
144
0.0
144
0.0
144
0.0
144
1.0
144
0.0
144
0.0
144
0.0
144
0.0
144
1.0
147
0.0208333333333333
147
0.0
147
0.0
147
0.0
147
0.0
147
0.0208333333333333
147
0.0
147
0.0
147
0.0
147
0.0
147
1.0
147
0.0
147
0.0
147
0.0
147
0.0
147
1.0
  0
MATERIAL
  5
11
102
{ACAD_XDICTIONARY
360
12
102
}
102
{ACAD_REACTORS
330
10
102
}
330
10
100
AcDbMaterial
  1
ByLayer
 72
     0
 43
0.0208333333333333
 43
0.0
 43
0.0
 43
0.0
 43
0.0
 43
0.0208333333333333
 43
0.0
 43
0.0
 43
0.0
 43
0.0
 43
1.0
 43
0.0
 43
0.0
 43
0.0
 43
0.0
 43
1.0
 77
     0
 47
0.0208333333333333
 47
0.0
 47
0.0
 47
0.0
 47
0.0
 47
0.0208333333333333
 47
0.0
 47
0.0
 47
0.0
 47
0.0
 47
1.0
 47
0.0
 47
0.0
 47
0.0
 47
0.0
 47
1.0
171
     0
 49
0.0208333333333333
 49
0.0
 49
0.0
 49
0.0
 49
0.0
 49
0.0208333333333333
 49
0.0
 49
0.0
 49
0.0
 49
0.0
 49
1.0
 49
0.0
 49
0.0
 49
0.0
 49
0.0
 49
1.0
175
     0
142
0.0208333333333333
142
0.0
142
0.0
142
0.0
142
0.0
142
0.0208333333333333
142
0.0
142
0.0
142
0.0
142
0.0
142
1.0
142
0.0
142
0.0
142
0.0
142
0.0
142
1.0
179
     0
144
0.0208333333333333
144
0.0
144
0.0
144
0.0
144
0.0
144
0.0208333333333333
144
0.0
144
0.0
144
0.0
144
0.0
144
1.0
144
0.0
144
0.0
144
0.0
144
0.0
144
1.0
147
0.0208333333333333
147
0.0
147
0.0
147
0.0
147
0.0
147
0.0208333333333333
147
0.0
147
0.0
147
0.0
147
0.0
147
1.0
147
0.0
147
0.0
147
0.0
147
0.0
147
1.0
  0
MATERIAL
  5
21
102
{ACAD_XDICTIONARY
360
22
102
}
102
{ACAD_REACTORS
330
10
102
}
330
10
100
AcDbMaterial
  1
Global
 72
     0
 43
0.0208333333333333
 43
0.0
 43
0.0
 43
0.0
 43
0.0
 43
0.0208333333333333
 43
0.0
 43
0.0
 43
0.0
 43
0.0
 43
1.0
 43
0.0
 43
0.0
 43
0.0
 43
0.0
 43
1.0
 77
     0
 47
0.0208333333333333
 47
0.0
 47
0.0
 47
0.0
 47
0.0
 47
0.0208333333333333
 47
0.0
 47
0.0
 47
0.0
 47
0.0
 47
1.0
 47
0.0
 47
0.0
 47
0.0
 47
0.0
 47
1.0
171
     0
 49
0.0208333333333333
 49
0.0
 49
0.0
 49
0.0
 49
0.0
 49
0.0208333333333333
 49
0.0
 49
0.0
 49
0.0
 49
0.0
 49
1.0
 49
0.0
 49
0.0
 49
0.0
 49
0.0
 49
1.0
175
     0
142
0.0208333333333333
142
0.0
142
0.0
142
0.0
142
0.0
142
0.0208333333333333
142
0.0
142
0.0
142
0.0
142
0.0
142
1.0
142
0.0
142
0.0
142
0.0
142
0.0
142
1.0
179
     0
144
0.0208333333333333
144
0.0
144
0.0
144
0.0
144
0.0
144
0.0208333333333333
144
0.0
144
0.0
144
0.0
144
0.0
144
1.0
144
0.0
144
0.0
144
0.0
144
0.0
144
1.0
147
0.0208333333333333
147
0.0
147
0.0
147
0.0
147
0.0
147
0.0208333333333333
147
0.0
147
0.0
147
0.0
147
0.0
147
1.0
147
0.0
147
0.0
147
0.0
147
0.0
147
1.0
  0
MLEADERSTYLE
  5
67
102
{ACAD_REACTORS
330
66
102
}
330
66
100
AcDbMLeaderStyle
179
     2
170
     2
171
     1
172
     0
 90
        2
 40
0.0
 41
0.0
173
     1
 91
-1056964608
340
5B
 92
       -2
290
     1
 42
0.09
291
     1
 43
0.36
  3
Standard
 44
0.18
300

342
55
174
     1
178
     6
175
     1
176
     0
 93
-1056964608
 45
0.18
292
     0
297
     0
 46
0.18
 94
-1056964608
 47
1.0
 49
1.0
140
1.0
293
     1
141
0.0
294
     1
177
     0
142
1.0
295
     1
296
     0
143
0.125
271
     0
272
     9
273
     9
298
     1
  0
MLINESTYLE
  5
60
102
{ACAD_REACTORS
330
5F
102
}
330
5F
100
AcDbMlineStyle
  2
STANDARD
 70
     0
  3

 62
   256
 51
90.0
 52
90.0
 71
     2
 49
0.5
 62
   256
  6
BYLAYER
 49
-0.5
 62
   256
  6
BYLAYER
  0
ACDBPLACEHOLDER
  5
F
102
{ACAD_REACTORS
330
E
102
}
330
E
  0
SCALE
  5
43
102
{ACAD_REACTORS
330
42
102
}
330
42
100
AcDbScale
 70
     0
300
1:1
140
1.0
141
1.0
290
     1
  0
SCALE
  5
44
102
{ACAD_REACTORS
330
42
102
}
330
42
100
AcDbScale
 70
     0
300
1/128" = 1'-0"
140
0.0078125
141
12.0
290
     0
  0
SCALE
  5
45
102
{ACAD_REACTORS
330
42
102
}
330
42
100
AcDbScale
 70
     0
300
1/64" = 1'-0"
140
0.015625
141
12.0
290
     0
  0
SCALE
  5
46
102
{ACAD_REACTORS
330
42
102
}
330
42
100
AcDbScale
 70
     0
300
1/32" = 1'-0"
140
0.03125
141
12.0
290
     0
  0
SCALE
  5
47
102
{ACAD_REACTORS
330
42
102
}
330
42
100
AcDbScale
 70
     0
300
1/16" = 1'-0"
140
0.0625
141
12.0
290
     0
  0
SCALE
  5
48
102
{ACAD_REACTORS
330
42
102
}
330
42
100
AcDbScale
 70
     0
300
3/32" = 1'-0"
140
0.09375
141
12.0
290
     0
  0
SCALE
  5
49
102
{ACAD_REACTORS
330
42
102
}
330
42
100
AcDbScale
 70
     0
300
1/8" = 1'-0"
140
0.125
141
12.0
290
     0
  0
SCALE
  5
4A
102
{ACAD_REACTORS
330
42
102
}
330
42
100
AcDbScale
 70
     0
300
3/16" = 1'-0"
140
0.1875
141
12.0
290
     0
  0
SCALE
  5
4B
102
{ACAD_REACTORS
330
42
102
}
330
42
100
AcDbScale
 70
     0
300
1/4" = 1'-0"
140
0.25
141
12.0
290
     0
  0
SCALE
  5
4C
102
{ACAD_REACTORS
330
42
102
}
330
42
100
AcDbScale
 70
     0
300
3/8" = 1'-0"
140
0.375
141
12.0
290
     0
  0
SCALE
  5
4D
102
{ACAD_REACTORS
330
42
102
}
330
42
100
AcDbScale
 70
     0
300
1/2" = 1'-0"
140
0.5
141
12.0
290
     0
  0
SCALE
  5
4E
102
{ACAD_REACTORS
330
42
102
}
330
42
100
AcDbScale
 70
     0
300
3/4" = 1'-0"
140
0.75
141
12.0
290
     0
  0
SCALE
  5
4F
102
{ACAD_REACTORS
330
42
102
}
330
42
100
AcDbScale
 70
     0
300
1" = 1'-0"
140
1.0
141
12.0
290
     0
  0
SCALE
  5
50
102
{ACAD_REACTORS
330
42
102
}
330
42
100
AcDbScale
 70
     0
300
1-1/2" = 1'-0"
140
1.5
141
12.0
290
     0
  0
SCALE
  5
51
102
{ACAD_REACTORS
330
42
102
}
330
42
100
AcDbScale
 70
     0
300
3" = 1'-0"
140
3.0
141
12.0
290
     0
  0
SCALE
  5
52
102
{ACAD_REACTORS
330
42
102
}
330
42
100
AcDbScale
 70
     0
300
6" = 1'-0"
140
6.0
141
12.0
290
     0
  0
SCALE
  5
53
102
{ACAD_REACTORS
330
42
102
}
330
42
100
AcDbScale
 70
     0
300
1'-0" = 1'-0"
140
12.0
141
12.0
290
     0
  0
ACDBSECTIONVIEWSTYLE
  5
69
102
{ACAD_REACTORS
330
68
102
}
330
68
100
AcDbModelDocViewStyle
 70
     0
  3
Imperial24
290
     1
300
Imperial24
 90
        0
100
AcDbSectionViewStyle
 70
     0
 71
     0
 90
       78
 71
     1
340
55
 62
   256
 40
0.24
340
0
340
0
 62
   256
 40
0.24
300
I, O, Q, S, X, Z
 40
0.48
 90
        3
 40
0.18
 90
        1
 71
     2
340
5D
 90
       25
 62
   256
340
5D
 90
       50
 62
   256
 40
0.24
 40
0.0
 40
0.24
 71
     3
340
55
 62
   256
 40
0.24
 90
        1
 40
0.75
 90
        1
300
%<\AcVar ViewType \f "%tc1">% %<\AcVar ViewSectionStartId>%-%<\AcVar ViewSectionEndId>%\PSCALE %<\AcVar ViewScale \f "%sn">%
 71
     4
 62
   256
 62
   257
300
ANSI31
 40
1.0
 90
        0
290
     0
290
     0
 90
        6
 40
0.0
 40
1.570796326794896
 40
0.2617993877991494
 40
1.308996938995747
 40
-0.2617993877991494
 40
1.832595714594046
  0
TABLESTYLE
  5
65
102
{ACAD_XDICTIONARY
360
125
102
}
102
{ACAD_REACTORS
330
64
102
}
330
64
100
AcDbTableStyle
280
     0
  3
Standard
 70
     0
 71
     0
 40
0.06
 41
0.06
280
     0
281
     0
  7
Standard
140
0.18
170
     2
 62
     0
 63
     7
283
     0
 90
      512
 91
        0
  1

274
    -2
284
     1
 64
     0
275
    -2
285
     1
 65
     0
276
    -2
286
     1
 66
     0
277
    -2
287
     1
 67
     0
278
    -2
288
     1
 68
     0
279
    -2
289
     1
 69
     0
  7
Standard
140
0.25
170
     5
 62
     0
 63
     7
283
     0
 90
      512
 91
        0
  1

274
    -2
284
     1
 64
     0
275
    -2
285
     1
 65
     0
276
    -2
286
     1
 66
     0
277
    -2
287
     1
 67
     0
278
    -2
288
     1
 68
     0
279
    -2
289
     1
 69
     0
  7
Standard
140
0.18
170
     5
 62
     0
 63
     7
283
     0
 90
      512
 91
        0
  1

274
    -2
284
     1
 64
     0
275
    -2
285
     1
 65
     0
276
    -2
286
     1
 66
     0
277
    -2
287
     1
 67
     0
278
    -2
288
     1
 68
     0
279
    -2
289
     1
 69
     0
  0
VISUALSTYLE
  5
2F
102
{ACAD_REACTORS
330
29
102
}
330
29
100
AcDbVisualStyle
  2
2dWireframe
 70
     4
177
     3
291
     0
 70
    58
 90
        0
176
     1
 90
        2
176
     1
 90
        0
176
     1
 90
        0
176
     1
 40
0.6
176
     1
 40
30.0
176
     1
 62
     7
420
 16777215
176
     1
 90
        1
176
     1
 90
        4
176
     1
 62
     7
176
     1
 62
   257
176
     1
 90
        1
176
     1
 90
        1
176
     1
 40
1.0
176
     1
 90
        0
176
     1
 62
   257
176
     1
 40
1.0
176
     1
 90
        1
176
     1
 90
        6
176
     1
 90
        2
176
     1
 62
     7
176
     1
 90
        5
176
     1
 90
        0
176
     1
 90
        0
176
     1
290
     0
176
     1
 90
        1
176
     1
 40
0.0
176
     1
 90
        0
176
     1
290
     1
176
     1
290
     1
176
     1
290
     0
176
     1
290
     0
176
     1
290
     0
176
     1
290
     0
176
     1
290
     0
176
     1
290
     0
176
     1
290
     0
176
     1
 90
       50
176
     1
 40
0.0
176
     1
 40
1.0
176
     1
 90
        0
176
     1
 62
    18
420
        0
176
     1
 90
       50
176
     1
 90
        3
176
     1
 62
     5
420
      255
176
     1
290
     0
176
     1
 90
       50
176
     1
 90
       50
176
     1
 90
       50
176
     1
290
     0
176
     1
 90
       50
176
     1
 62
   256
176
     0
 40
1.0
176
     0
 90
        2
176
     1
  1
strokes_ogs.tif
176
     1
290
     0
176
     1
 40
1.0
176
     1
 40
1.0
176
     1
  0
VISUALSTYLE
  5
2E
102
{ACAD_REACTORS
330
29
102
}
330
29
100
AcDbVisualStyle
  2
Basic
 70
     7
177
     3
291
     1
 70
    58
 90
        1
176
     1
 90
        0
176
     1
 90
        1
176
     1
 90
        0
176
     1
 40
0.6
176
     1
 40
30.0
176
     1
 62
     7
420
 16777215
176
     1
 90
        0
176
     1
 90
        4
176
     1
 62
     7
176
     1
 62
   257
176
     1
 90
        1
176
     1
 90
        1
176
     1
 40
1.0
176
     1
 90
        8
176
     1
 62
     7
176
     1
 40
1.0
176
     1
 90
        1
176
     1
 90
        6
176
     1
 90
        2
176
     1
 62
     7
176
     1
 90
        5
176
     1
 90
        0
176
     1
 90
        0
176
     1
290
     0
176
     1
 90
        1
176
     1
 40
0.0
176
     1
 90
        0
176
     1
290
     0
176
     1
290
     1
176
     1
290
     1
176
     1
290
     0
176
     1
290
     0
176
     1
290
     0
176
     1
290
     0
176
     1
290
     0
176
     1
290
     0
176
     1
 90
       50
176
     1
 40
0.0
176
     1
 40
1.0
176
     1
 90
        0
176
     1
 62
    18
420
        0
176
     1
 90
       50
176
     1
 90
        3
176
     1
 62
     5
420
      255
176
     1
290
     0
176
     1
 90
       50
176
     1
 90
       50
176
     1
 90
       50
176
     1
290
     0
176
     1
 90
       50
176
     1
 62
   256
176
     0
 40
1.0
176
     0
 90
        2
176
     1
  1
strokes_ogs.tif
176
     1
290
     0
176
     1
 40
1.0
176
     1
 40
1.0
176
     1
  0
VISUALSTYLE
  5
35
102
{ACAD_REACTORS
330
29
102
}
330
29
100
AcDbVisualStyle
  2
Brighten
 70
    12
177
     3
291
     1
 70
    58
 90
        2
176
     1
 90
        2
176
     1
 90
        0
176
     1
 90
        0
176
     1
 40
0.6
176
     1
 40
30.0
176
     1
 62
     7
420
 16777215
176
     1
 90
        1
176
     1
 90
        4
176
     1
 62
     7
176
     1
 62
   257
176
     1
 90
        1
176
     1
 90
        1
176
     1
 40
1.0
176
     1
 90
        8
176
     1
 62
     7
176
     1
 40
1.0
176
     1
 90
        1
176
     1
 90
        6
176
     1
 90
        2
176
     1
 62
     7
176
     1
 90
        5
176
     1
 90
        0
176
     1
 90
        0
176
     1
290
     0
176
     1
 90
        1
176
     1
 40
50.0
176
     1
 90
        0
176
     1
290
     0
176
     1
290
     1
176
     1
290
     1
176
     1
290
     0
176
     1
290
     0
176
     1
290
     0
176
     1
290
     0
176
     1
290
     0
176
     1
290
     0
176
     1
 90
       50
176
     1
 40
0.0
176
     1
 40
1.0
176
     1
 90
        0
176
     1
 62
    18
420
        0
176
     1
 90
       50
176
     1
 90
        3
176
     1
 62
     5
420
      255
176
     1
290
     0
176
     1
 90
       50
176
     1
 90
       50
176
     1
 90
       50
176
     1
290
     0
176
     1
 90
       50
176
     1
 62
   256
176
     0
 40
1.0
176
     0
 90
        2
176
     1
  1
strokes_ogs.tif
176
     1
290
     0
176
     1
 40
1.0
176
     1
 40
1.0
176
     1
  0
VISUALSTYLE
  5
39
102
{ACAD_REACTORS
330
29
102
}
330
29
100
AcDbVisualStyle
  2
ColorChange
 70
    16
177
     3
291
     1
 70
    58
 90
        2
176
     1
 90
        2
176
     1
 90
        3
176
     1
 90
        0
176
     1
 40
0.6
176
     1
 40
30.0
176
     1
 62
     8
420
  8421504
176
     1
 90
        1
176
     1
 90
        4
176
     1
 62
     7
176
     1
 62
   257
176
     1
 90
        1
176
     1
 90
        1
176
     1
 40
1.0
176
     1
 90
        8
176
     1
 62
     8
420
  8421504
176
     1
 40
1.0
176
     1
 90
        1
176
     1
 90
        6
176
     1
 90
        2
176
     1
 62
     7
176
     1
 90
        5
176
     1
 90
        0
176
     1
 90
        0
176
     1
290
     0
176
     1
 90
        1
176
     1
 40
0.0
176
     1
 90
        0
176
     1
290
     0
176
     1
290
     1
176
     1
290
     1
176
     1
290
     0
176
     1
290
     0
176
     1
290
     0
176
     1
290
     0
176
     1
290
     0
176
     1
290
     0
176
     1
 90
       50
176
     1
 40
0.0
176
     1
 40
1.0
176
     1
 90
        0
176
     1
 62
    18
420
        0
176
     1
 90
       50
176
     1
 90
        3
176
     1
 62
     5
420
      255
176
     1
290
     0
176
     1
 90
       50
176
     1
 90
       50
176
     1
 90
       50
176
     1
290
     0
176
     1
 90
       50
176
     1
 62
   256
176
     0
 40
1.0
176
     0
 90
        2
176
     1
  1
strokes_ogs.tif
176
     1
290
     0
176
     1
 40
1.0
176
     1
 40
1.0
176
     1
  0
VISUALSTYLE
  5
32
102
{ACAD_REACTORS
330
29
102
}
330
29
100
AcDbVisualStyle
  2
Conceptual
 70
     9
177
     3
291
     0
 70
    58
 90
        3
176
     1
 90
        2
176
     1
 90
        0
176
     1
 90
        0
176
     1
 40
0.6
176
     1
 40
30.0
176
     1
 62
     7
420
 16777215
176
     1
 90
        2
176
     1
 90
        2
176
     1
 62
     7
176
     1
 62
   257
176
     1
 90
        1
176
     1
 90
        1
176
     1
 40
179.0
176
     1
 90
        8
176
     1
 62
     7
176
     1
 40
1.0
176
     1
 90
        1
176
     1
 90
        6
176
     1
 90
        2
176
     1
 62
     7
176
     1
 90
        3
176
     1
 90
        0
176
     1
 90
        0
176
     1
290
     0
176
     1
 90
        1
176
     1
 40
0.0
176
     1
 90
        0
176
     1
290
     0
176
     1
290
     1
176
     1
290
     1
176
     1
290
     0
176
     1
290
     0
176
     1
290
     0
176
     1
290
     0
176
     1
290
     0
176
     1
290
     0
176
     1
 90
       50
176
     1
 40
0.0
176
     1
 40
1.0
176
     1
 90
        0
176
     1
 62
    18
420
        0
176
     1
 90
       50
176
     1
 90
        3
176
     1
 62
     5
420
      255
176
     1
290
     0
176
     1
 90
       50
176
     1
 90
       50
176
     1
 90
       50
176
     1
290
     0
176
     1
 90
       50
176
     1
 62
   256
176
     0
 40
1.0
176
     0
 90
        2
176
     1
  1
strokes_ogs.tif
176
     1
290
     0
176
     1
 40
1.0
176
     1
 40
1.0
176
     1
  0
VISUALSTYLE
  5
34
102
{ACAD_REACTORS
330
29
102
}
330
29
100
AcDbVisualStyle
  2
Dim
 70
    11
177
     3
291
     1
 70
    58
 90
        2
176
     1
 90
        2
176
     1
 90
        0
176
     1
 90
        0
176
     1
 40
0.6
176
     1
 40
30.0
176
     1
 62
     7
420
 16777215
176
     1
 90
        1
176
     1
 90
        4
176
     1
 62
     7
176
     1
 62
   257
176
     1
 90
        1
176
     1
 90
        1
176
     1
 40
1.0
176
     1
 90
        8
176
     1
 62
     7
176
     1
 40
1.0
176
     1
 90
        1
176
     1
 90
        6
176
     1
 90
        2
176
     1
 62
     7
176
     1
 90
        5
176
     1
 90
        0
176
     1
 90
        0
176
     1
290
     0
176
     1
 90
        1
176
     1
 40
-50.0
176
     1
 90
        0
176
     1
290
     0
176
     1
290
     1
176
     1
290
     1
176
     1
290
     0
176
     1
290
     0
176
     1
290
     0
176
     1
290
     0
176
     1
290
     0
176
     1
290
     0
176
     1
 90
       50
176
     1
 40
0.0
176
     1
 40
1.0
176
     1
 90
        0
176
     1
 62
    18
420
        0
176
     1
 90
       50
176
     1
 90
        3
176
     1
 62
     5
420
      255
176
     1
290
     0
176
     1
 90
       50
176
     1
 90
       50
176
     1
 90
       50
176
     1
290
     0
176
     1
 90
       50
176
     1
 62
   256
176
     0
 40
1.0
176
     0
 90
        2
176
     1
  1
strokes_ogs.tif
176
     1
290
     0
176
     1
 40
1.0
176
     1
 40
1.0
176
     1
  0
VISUALSTYLE
  5
41
102
{ACAD_REACTORS
330
29
102
}
330
29
100
AcDbVisualStyle
  2
EdgeColorOff
 70
    22
177
     3
291
     1
 70
    58
 90
        2
176
     0
 90
        2
176
     0
 90
        0
176
     0
 90
        0
176
     0
 40
0.6
176
     0
 40
30.0
176
     0
 62
     7
420
 16777215
176
     0
 90
        1
176
     0
 90
        4
176
     0
 62
     7
176
     0
 62
   257
176
     0
 90
        1
176
     0
 90
        1
176
     0
 40
1.0
176
     0
 90
        8
176
     2
 62
     7
176
     0
 40
1.0
176
     0
 90
        1
176
     0
 90
        6
176
     0
 90
        2
176
     0
 62
     7
176
     0
 90
        5
176
     0
 90
        0
176
     0
 90
        0
176
     0
290
     0
176
     0
 90
        1
176
     0
 40
0.0
176
     0
 90
        0
176
     0
290
     0
176
     0
290
     1
176
     0
290
     1
176
     0
290
     0
176
     0
290
     0
176
     0
290
     0
176
     0
290
     0
176
     0
290
     0
176
     0
290
     0
176
     0
 90
       50
176
     0
 40
0.0
176
     0
 40
1.0
176
     0
 90
        0
176
     0
 62
    18
420
        0
176
     0
 90
       50
176
     0
 90
        3
176
     0
 62
     5
420
      255
176
     0
290
     0
176
     0
 90
       50
176
     0
 90
       50
176
     0
 90
       50
176
     0
290
     0
176
     0
 90
       50
176
     0
 62
   256
176
     0
 40
1.0
176
     0
 90
        2
176
     0
  1
strokes_ogs.tif
176
     0
290
     0
176
     0
 40
1.0
176
     0
 40
1.0
176
     0
  0
VISUALSTYLE
  5
38
102
{ACAD_REACTORS
330
29
102
}
330
29
100
AcDbVisualStyle
  2
Facepattern
 70
    15
177
     3
291
     1
 70
    58
 90
        2
176
     1
 90
        2
176
     1
 90
        0
176
     1
 90
        0
176
     1
 40
0.6
176
     1
 40
30.0
176
     1
 62
     7
420
 16777215
176
     1
 90
        1
176
     1
 90
        4
176
     1
 62
     7
176
     1
 62
   257
176
     1
 90
        1
176
     1
 90
        1
176
     1
 40
1.0
176
     1
 90
        8
176
     1
 62
     7
176
     1
 40
1.0
176
     1
 90
        1
176
     1
 90
        6
176
     1
 90
        2
176
     1
 62
     7
176
     1
 90
        5
176
     1
 90
        0
176
     1
 90
        0
176
     1
290
     0
176
     1
 90
        1
176
     1
 40
0.0
176
     1
 90
        0
176
     1
290
     0
176
     1
290
     1
176
     1
290
     1
176
     1
290
     0
176
     1
290
     0
176
     1
290
     0
176
     1
290
     0
176
     1
290
     0
176
     1
290
     0
176
     1
 90
       50
176
     1
 40
0.0
176
     1
 40
1.0
176
     1
 90
        0
176
     1
 62
    18
420
        0
176
     1
 90
       50
176
     1
 90
        3
176
     1
 62
     5
420
      255
176
     1
290
     0
176
     1
 90
       50
176
     1
 90
       50
176
     1
 90
       50
176
     1
290
     0
176
     1
 90
       50
176
     1
 62
   256
176
     0
 40
1.0
176
     0
 90
        2
176
     1
  1
strokes_ogs.tif
176
     1
290
     0
176
     1
 40
1.0
176
     1
 40
1.0
176
     1
  0
VISUALSTYLE
  5
2A
102
{ACAD_REACTORS
330
29
102
}
330
29
100
AcDbVisualStyle
  2
Flat
 70
     0
177
     3
291
     1
 70
    58
 90
        2
176
     1
 90
        1
176
     1
 90
        1
176
     1
 90
        2
176
     1
 40
0.6
176
     1
 40
30.0
176
     1
 62
     7
420
 16777215
176
     1
 90
        0
176
     1
 90
        0
176
     1
 62
     7
176
     1
 62
   257
176
     1
 90
        1
176
     1
 90
        1
176
     1
 40
1.0
176
     1
 90
        8
176
     1
 62
     7
176
     1
 40
1.0
176
     1
 90
        1
176
     1
 90
        6
176
     1
 90
        2
176
     1
 62
     7
176
     1
 90
        5
176
     1
 90
        0
176
     1
 90
        0
176
     1
290
     0
176
     1
 90
       13
176
     1
 40
0.0
176
     1
 90
        0
176
     1
290
     0
176
     1
290
     1
176
     1
290
     1
176
     1
290
     0
176
     1
290
     0
176
     1
290
     0
176
     1
290
     0
176
     1
290
     0
176
     1
290
     0
176
     1
 90
       50
176
     1
 40
0.0
176
     1
 40
1.0
176
     1
 90
        0
176
     1
 62
    18
420
        0
176
     1
 90
       50
176
     1
 90
        3
176
     1
 62
     5
420
      255
176
     1
290
     0
176
     1
 90
       50
176
     1
 90
       50
176
     1
 90
       50
176
     1
290
     0
176
     1
 90
       50
176
     1
 62
   256
176
     0
 40
1.0
176
     0
 90
        2
176
     1
  1
strokes_ogs.tif
176
     1
290
     0
176
     1
 40
1.0
176
     1
 40
1.0
176
     1
  0
VISUALSTYLE
  5
2B
102
{ACAD_REACTORS
330
29
102
}
330
29
100
AcDbVisualStyle
  2
FlatWithEdges
 70
     1
177
     3
291
     1
 70
    58
 90
        2
176
     1
 90
        1
176
     1
 90
        1
176
     1
 90
        2
176
     1
 40
0.6
176
     1
 40
30.0
176
     1
 62
     7
420
 16777215
176
     1
 90
        1
176
     1
 90
        0
176
     1
 62
     7
176
     1
 62
   257
176
     1
 90
        1
176
     1
 90
        1
176
     1
 40
1.0
176
     1
 90
        0
176
     1
 62
   257
176
     1
 40
1.0
176
     1
 90
        1
176
     1
 90
        6
176
     1
 90
        2
176
     1
 62
     7
176
     1
 90
        5
176
     1
 90
        0
176
     1
 90
        0
176
     1
290
     0
176
     1
 90
       13
176
     1
 40
0.0
176
     1
 90
        0
176
     1
290
     0
176
     1
290
     1
176
     1
290
     1
176
     1
290
     0
176
     1
290
     0
176
     1
290
     0
176
     1
290
     0
176
     1
290
     0
176
     1
290
     0
176
     1
 90
       50
176
     1
 40
0.0
176
     1
 40
1.0
176
     1
 90
        0
176
     1
 62
    18
420
        0
176
     1
 90
       50
176
     1
 90
        3
176
     1
 62
     5
420
      255
176
     1
290
     0
176
     1
 90
       50
176
     1
 90
       50
176
     1
 90
       50
176
     1
290
     0
176
     1
 90
       50
176
     1
 62
   256
176
     0
 40
1.0
176
     0
 90
        2
176
     1
  1
strokes_ogs.tif
176
     1
290
     0
176
     1
 40
1.0
176
     1
 40
1.0
176
     1
  0
VISUALSTYLE
  5
2C
102
{ACAD_REACTORS
330
29
102
}
330
29
100
AcDbVisualStyle
  2
Gouraud
 70
     2
177
     3
291
     1
 70
    58
 90
        2
176
     1
 90
        2
176
     1
 90
        1
176
     1
 90
        2
176
     1
 40
0.6
176
     1
 40
30.0
176
     1
 62
     7
420
 16777215
176
     1
 90
        0
176
     1
 90
        0
176
     1
 62
     7
176
     1
 62
   257
176
     1
 90
        1
176
     1
 90
        1
176
     1
 40
1.0
176
     1
 90
        0
176
     1
 62
     7
176
     1
 40
1.0
176
     1
 90
        1
176
     1
 90
        6
176
     1
 90
        2
176
     1
 62
     7
176
     1
 90
        5
176
     1
 90
        0
176
     1
 90
        0
176
     1
290
     0
176
     1
 90
       13
176
     1
 40
0.0
176
     1
 90
        0
176
     1
290
     0
176
     1
290
     1
176
     1
290
     1
176
     1
290
     0
176
     1
290
     0
176
     1
290
     0
176
     1
290
     0
176
     1
290
     0
176
     1
290
     0
176
     1
 90
       50
176
     1
 40
0.0
176
     1
 40
1.0
176
     1
 90
        0
176
     1
 62
    18
420
        0
176
     1
 90
       50
176
     1
 90
        3
176
     1
 62
     5
420
      255
176
     1
290
     0
176
     1
 90
       50
176
     1
 90
       50
176
     1
 90
       50
176
     1
290
     0
176
     1
 90
       50
176
     1
 62
   256
176
     0
 40
1.0
176
     0
 90
        2
176
     1
  1
strokes_ogs.tif
176
     1
290
     0
176
     1
 40
1.0
176
     1
 40
1.0
176
     1
  0
VISUALSTYLE
  5
2D
102
{ACAD_REACTORS
330
29
102
}
330
29
100
AcDbVisualStyle
  2
GouraudWithEdges
 70
     3
177
     3
291
     1
 70
    58
 90
        2
176
     1
 90
        2
176
     1
 90
        1
176
     1
 90
        2
176
     1
 40
0.6
176
     1
 40
30.0
176
     1
 62
     7
420
 16777215
176
     1
 90
        1
176
     1
 90
        0
176
     1
 62
     7
176
     1
 62
   257
176
     1
 90
        1
176
     1
 90
        1
176
     1
 40
1.0
176
     1
 90
        0
176
     1
 62
   257
176
     1
 40
1.0
176
     1
 90
        1
176
     1
 90
        6
176
     1
 90
        2
176
     1
 62
     7
176
     1
 90
        5
176
     1
 90
        0
176
     1
 90
        0
176
     1
290
     0
176
     1
 90
       13
176
     1
 40
0.0
176
     1
 90
        0
176
     1
290
     0
176
     1
290
     1
176
     1
290
     1
176
     1
290
     0
176
     1
290
     0
176
     1
290
     0
176
     1
290
     0
176
     1
290
     0
176
     1
290
     0
176
     1
 90
       50
176
     1
 40
0.0
176
     1
 40
1.0
176
     1
 90
        0
176
     1
 62
    18
420
        0
176
     1
 90
       50
176
     1
 90
        3
176
     1
 62
     5
420
      255
176
     1
290
     0
176
     1
 90
       50
176
     1
 90
       50
176
     1
 90
       50
176
     1
290
     0
176
     1
 90
       50
176
     1
 62
   256
176
     0
 40
1.0
176
     0
 90
        2
176
     1
  1
strokes_ogs.tif
176
     1
290
     0
176
     1
 40
1.0
176
     1
 40
1.0
176
     1
  0
VISUALSTYLE
  5
31
102
{ACAD_REACTORS
330
29
102
}
330
29
100
AcDbVisualStyle
  2
Hidden
 70
     6
177
     3
291
     0
 70
    58
 90
        1
176
     1
 90
        2
176
     1
 90
        2
176
     1
 90
        0
176
     1
 40
0.6
176
     1
 40
30.0
176
     1
 62
     7
420
 16777215
176
     1
 90
        2
176
     1
 90
        2
176
     1
 62
     7
176
     1
 62
   257
176
     1
 90
        2
176
     1
 90
        1
176
     1
 40
40.0
176
     1
 90
        0
176
     1
 62
   257
176
     1
 40
1.0
176
     1
 90
        1
176
     1
 90
        6
176
     1
 90
        2
176
     1
 62
     7
176
     1
 90
        3
176
     1
 90
        0
176
     1
 90
        0
176
     1
290
     0
176
     1
 90
        1
176
     1
 40
0.0
176
     1
 90
        0
176
     1
290
     0
176
     1
290
     1
176
     1
290
     1
176
     1
290
     0
176
     1
290
     0
176
     1
290
     0
176
     1
290
     0
176
     1
290
     0
176
     1
290
     0
176
     1
 90
       50
176
     1
 40
0.0
176
     1
 40
1.0
176
     1
 90
        0
176
     1
 62
    18
420
        0
176
     1
 90
       50
176
     1
 90
        3
176
     1
 62
     5
420
      255
176
     1
290
     0
176
     1
 90
       50
176
     1
 90
       50
176
     1
 90
       50
176
     1
290
     0
176
     1
 90
       50
176
     1
 62
   256
176
     0
 40
1.0
176
     0
 90
        2
176
     1
  1
strokes_ogs.tif
176
     1
290
     0
176
     1
 40
1.0
176
     1
 40
1.0
176
     1
  0
VISUALSTYLE
  5
3F
102
{ACAD_REACTORS
330
29
102
}
330
29
100
AcDbVisualStyle
  2
JitterOff
 70
    20
177
     3
291
     1
 70
    58
 90
        2
176
     0
 90
        2
176
     0
 90
        0
176
     0
 90
        0
176
     0
 40
0.6
176
     0
 40
30.0
176
     0
 62
     7
420
 16777215
176
     0
 90
        1
176
     0
 90
        4
176
     0
 62
     7
176
     0
 62
   257
176
     0
 90
        1
176
     0
 90
        1
176
     0
 40
1.0
176
     0
 90
       10
176
     2
 62
     7
176
     0
 40
1.0
176
     0
 90
        1
176
     0
 90
        6
176
     0
 90
        2
176
     0
 62
     7
176
     0
 90
        5
176
     0
 90
        0
176
     0
 90
        0
176
     0
290
     0
176
     0
 90
        1
176
     0
 40
0.0
176
     0
 90
        0
176
     0
290
     0
176
     0
290
     1
176
     0
290
     1
176
     0
290
     0
176
     0
290
     0
176
     0
290
     0
176
     0
290
     0
176
     0
290
     0
176
     0
290
     0
176
     0
 90
       50
176
     0
 40
0.0
176
     0
 40
1.0
176
     0
 90
        0
176
     0
 62
    18
420
        0
176
     0
 90
       50
176
     0
 90
        3
176
     0
 62
     5
420
      255
176
     0
290
     0
176
     0
 90
       50
176
     0
 90
       50
176
     0
 90
       50
176
     0
290
     0
176
     0
 90
       50
176
     0
 62
   256
176
     0
 40
1.0
176
     0
 90
        2
176
     0
  1
strokes_ogs.tif
176
     0
290
     0
176
     0
 40
1.0
176
     0
 40
1.0
176
     0
  0
VISUALSTYLE
  5
37
102
{ACAD_REACTORS
330
29
102
}
330
29
100
AcDbVisualStyle
  2
Linepattern
 70
    14
177
     3
291
     1
 70
    58
 90
        2
176
     1
 90
        2
176
     1
 90
        0
176
     1
 90
        0
176
     1
 40
0.6
176
     1
 40
30.0
176
     1
 62
     7
420
 16777215
176
     1
 90
        1
176
     1
 90
        4
176
     1
 62
     7
176
     1
 62
   257
176
     1
 90
        7
176
     1
 90
        7
176
     1
 40
1.0
176
     1
 90
        8
176
     1
 62
     7
176
     1
 40
1.0
176
     1
 90
        1
176
     1
 90
        6
176
     1
 90
        2
176
     1
 62
     7
176
     1
 90
        5
176
     1
 90
        0
176
     1
 90
        0
176
     1
290
     0
176
     1
 90
        1
176
     1
 40
0.0
176
     1
 90
        0
176
     1
290
     0
176
     1
290
     1
176
     1
290
     1
176
     1
290
     0
176
     1
290
     0
176
     1
290
     0
176
     1
290
     0
176
     1
290
     0
176
     1
290
     0
176
     1
 90
       50
176
     1
 40
0.0
176
     1
 40
1.0
176
     1
 90
        0
176
     1
 62
    18
420
        0
176
     1
 90
       50
176
     1
 90
        3
176
     1
 62
     5
420
      255
176
     1
290
     0
176
     1
 90
       50
176
     1
 90
       50
176
     1
 90
       50
176
     1
290
     0
176
     1
 90
       50
176
     1
 62
   256
176
     0
 40
1.0
176
     0
 90
        2
176
     1
  1
strokes_ogs.tif
176
     1
290
     0
176
     1
 40
1.0
176
     1
 40
1.0
176
     1
  0
VISUALSTYLE
  5
40
102
{ACAD_REACTORS
330
29
102
}
330
29
100
AcDbVisualStyle
  2
OverhangOff
 70
    21
177
     3
291
     1
 70
    58
 90
        2
176
     0
 90
        2
176
     0
 90
        0
176
     0
 90
        0
176
     0
 40
0.6
176
     0
 40
30.0
176
     0
 62
     7
420
 16777215
176
     0
 90
        1
176
     0
 90
        4
176
     0
 62
     7
176
     0
 62
   257
176
     0
 90
        1
176
     0
 90
        1
176
     0
 40
1.0
176
     0
 90
        9
176
     2
 62
     7
176
     0
 40
1.0
176
     0
 90
        1
176
     0
 90
        6
176
     0
 90
        2
176
     0
 62
     7
176
     0
 90
        5
176
     0
 90
        0
176
     0
 90
        0
176
     0
290
     0
176
     0
 90
        1
176
     0
 40
0.0
176
     0
 90
        0
176
     0
290
     0
176
     0
290
     1
176
     0
290
     1
176
     0
290
     0
176
     0
290
     0
176
     0
290
     0
176
     0
290
     0
176
     0
290
     0
176
     0
290
     0
176
     0
 90
       50
176
     0
 40
0.0
176
     0
 40
1.0
176
     0
 90
        0
176
     0
 62
    18
420
        0
176
     0
 90
       50
176
     0
 90
        3
176
     0
 62
     5
420
      255
176
     0
290
     0
176
     0
 90
       50
176
     0
 90
       50
176
     0
 90
       50
176
     0
290
     0
176
     0
 90
       50
176
     0
 62
   256
176
     0
 40
1.0
176
     0
 90
        2
176
     0
  1
strokes_ogs.tif
176
     0
290
     0
176
     0
 40
1.0
176
     0
 40
1.0
176
     0
  0
VISUALSTYLE
  5
33
102
{ACAD_REACTORS
330
29
102
}
330
29
100
AcDbVisualStyle
  2
Realistic
 70
     8
177
     3
291
     0
 70
    58
 90
        2
176
     1
 90
        3
176
     1
 90
        0
176
     1
 90
        2
176
     1
 40
0.6
176
     1
 40
30.0
176
     1
 62
     7
420
 16777215
176
     1
 90
        0
176
     1
 90
        0
176
     1
 62
     7
176
     1
 62
   257
176
     1
 90
        1
176
     1
 90
        1
176
     1
 40
1.0
176
     1
 90
        8
176
     1
 62
   257
176
     1
 40
1.0
176
     1
 90
        1
176
     1
 90
        6
176
     1
 90
        2
176
     1
 62
     7
176
     1
 90
        3
176
     1
 90
        0
176
     1
 90
        0
176
     1
290
     0
176
     1
 90
       13
176
     1
 40
0.0
176
     1
 90
        0
176
     1
290
     0
176
     1
290
     1
176
     1
290
     1
176
     1
290
     0
176
     1
290
     0
176
     1
290
     0
176
     1
290
     0
176
     1
290
     0
176
     1
290
     0
176
     1
 90
       50
176
     1
 40
0.0
176
     1
 40
1.0
176
     1
 90
        0
176
     1
 62
    18
420
        0
176
     1
 90
       50
176
     1
 90
        3
176
     1
 62
     5
420
      255
176
     1
290
     0
176
     1
 90
       50
176
     1
 90
       50
176
     1
 90
       50
176
     1
290
     0
176
     1
 90
       50
176
     1
 62
   256
176
     0
 40
1.0
176
     0
 90
        2
176
     1
  1
strokes_ogs.tif
176
     1
290
     0
176
     1
 40
1.0
176
     1
 40
1.0
176
     1
  0
VISUALSTYLE
  5
3E
102
{ACAD_REACTORS
330
29
102
}
330
29
100
AcDbVisualStyle
  2
Shaded
 70
    27
177
     3
291
     0
 70
    58
 90
        2
176
     1
 90
        2
176
     1
 90
        1
176
     1
 90
        2
176
     1
 40
0.6
176
     1
 40
30.0
176
     1
 62
     7
420
 16777215
176
     1
 90
        0
176
     1
 90
        4
176
     1
 62
     7
176
     1
 62
   257
176
     1
 90
        1
176
     1
 90
        1
176
     1
 40
1.0
176
     1
 90
        8
176
     1
 62
   257
176
     1
 40
1.0
176
     1
 90
        1
176
     1
 90
        6
176
     1
 90
        2
176
     1
 62
     8
420
  7895160
176
     1
 90
        3
176
     1
 90
        0
176
     1
 90
        0
176
     1
290
     0
176
     1
 90
        5
176
     1
 40
0.0
176
     1
 90
        0
176
     1
290
     0
176
     1
290
     1
176
     1
290
     1
176
     1
290
     0
176
     1
290
     0
176
     1
290
     0
176
     1
290
     0
176
     1
290
     0
176
     1
290
     0
176
     1
 90
       50
176
     1
 40
0.0
176
     1
 40
1.0
176
     1
 90
        0
176
     1
 62
    18
420
        0
176
     1
 90
       50
176
     1
 90
        3
176
     1
 62
     5
420
      255
176
     1
290
     0
176
     1
 90
       50
176
     1
 90
       50
176
     1
 90
       50
176
     1
290
     0
176
     1
 90
       50
176
     1
 62
   256
176
     0
 40
1.0
176
     0
 90
        2
176
     1
  1
strokes_ogs.tif
176
     1
290
     0
176
     1
 40
1.0
176
     1
 40
1.0
176
     1
  0
VISUALSTYLE
  5
3D
102
{ACAD_REACTORS
330
29
102
}
330
29
100
AcDbVisualStyle
  2
Shaded with edges
 70
    26
177
     3
291
     0
 70
    58
 90
        2
176
     1
 90
        2
176
     1
 90
        1
176
     1
 90
        2
176
     1
 40
0.6
176
     1
 40
30.0
176
     1
 62
     7
420
 16777215
176
     1
 90
        1
176
     1
 90
        2
176
     1
 62
     7
176
     1
 62
   257
176
     1
 90
        2
176
     1
 90
        1
176
     1
 40
1.0
176
     1
 90
        8
176
     1
 62
   257
176
     1
 40
1.0
176
     1
 90
        1
176
     1
 90
        6
176
     1
 90
        2
176
     1
 62
     7
176
     1
 90
        3
176
     1
 90
        0
176
     1
 90
        0
176
     1
290
     0
176
     1
 90
        5
176
     1
 40
0.0
176
     1
 90
        0
176
     1
290
     0
176
     1
290
     1
176
     1
290
     1
176
     1
290
     0
176
     1
290
     0
176
     1
290
     0
176
     1
290
     0
176
     1
290
     0
176
     1
290
     0
176
     1
 90
       50
176
     1
 40
0.0
176
     1
 40
1.0
176
     1
 90
        0
176
     1
 62
    18
420
        0
176
     1
 90
       50
176
     1
 90
        3
176
     1
 62
     5
420
      255
176
     1
290
     0
176
     1
 90
       50
176
     1
 90
       50
176
     1
 90
       50
176
     1
290
     0
176
     1
 90
       50
176
     1
 62
   256
176
     0
 40
1.0
176
     0
 90
        2
176
     1
  1
strokes_ogs.tif
176
     1
290
     0
176
     1
 40
1.0
176
     1
 40
1.0
176
     1
  0
VISUALSTYLE
  5
3A
102
{ACAD_REACTORS
330
29
102
}
330
29
100
AcDbVisualStyle
  2
Shades of Gray
 70
    23
177
     3
291
     0
 70
    58
 90
        2
176
     1
 90
        2
176
     1
 90
        3
176
     1
 90
        0
176
     1
 40
0.6
176
     1
 40
30.0
176
     1
 62
     7
420
 16777215
176
     1
 90
        2
176
     1
 90
        2
176
     1
 62
     7
176
     1
 62
     7
176
     1
 90
        1
176
     1
 90
        1
176
     1
 40
40.0
176
     1
 90
        8
176
     1
 62
     7
176
     1
 40
1.0
176
     1
 90
        1
176
     1
 90
        6
176
     1
 90
        2
176
     1
 62
     7
176
     1
 90
        3
176
     1
 90
        0
176
     1
 90
        0
176
     1
290
     0
176
     1
 90
        1
176
     1
 40
0.0
176
     1
 90
        0
176
     1
290
     0
176
     1
290
     1
176
     1
290
     1
176
     1
290
     0
176
     1
290
     0
176
     1
290
     0
176
     1
290
     0
176
     1
290
     0
176
     1
290
     0
176
     1
 90
       50
176
     1
 40
0.0
176
     1
 40
1.0
176
     1
 90
        0
176
     1
 62
    18
420
        0
176
     1
 90
       50
176
     1
 90
        3
176
     1
 62
     5
420
      255
176
     1
290
     0
176
     1
 90
       50
176
     1
 90
       50
176
     1
 90
       50
176
     1
290
     0
176
     1
 90
       50
176
     1
 62
   256
176
     0
 40
1.0
176
     0
 90
        2
176
     1
  1
strokes_ogs.tif
176
     1
290
     0
176
     1
 40
1.0
176
     1
 40
1.0
176
     1
  0
VISUALSTYLE
  5
3B
102
{ACAD_REACTORS
330
29
102
}
330
29
100
AcDbVisualStyle
  2
Sketchy
 70
    24
177
     3
291
     0
 70
    58
 90
        1
176
     1
 90
        2
176
     1
 90
        2
176
     1
 90
        0
176
     1
 40
0.6
176
     1
 40
30.0
176
     1
 62
     7
420
 16777215
176
     1
 90
        2
176
     1
 90
        2
176
     1
 62
     7
176
     1
 62
     7
176
     1
 90
        1
176
     1
 90
        1
176
     1
 40
40.0
176
     1
 90
       11
176
     1
 62
     7
176
     1
 40
1.0
176
     1
 90
        1
176
     1
 90
        6
176
     1
 90
        2
176
     1
 62
     7
176
     1
 90
        6
176
     1
 90
        0
176
     1
 90
        0
176
     1
290
     0
176
     1
 90
        1
176
     1
 40
0.0
176
     1
 90
        0
176
     1
290
     0
176
     1
290
     1
176
     1
290
     1
176
     1
290
     0
176
     1
290
     0
176
     1
290
     0
176
     1
290
     0
176
     1
290
     0
176
     1
290
     0
176
     1
 90
       50
176
     1
 40
0.0
176
     1
 40
1.0
176
     1
 90
        0
176
     1
 62
    18
420
        0
176
     1
 90
       50
176
     1
 90
        3
176
     1
 62
     5
420
      255
176
     1
290
     0
176
     1
 90
       50
176
     1
 90
       50
176
     1
 90
       50
176
     1
290
     0
176
     1
 90
       50
176
     1
 62
   256
176
     0
 40
1.0
176
     0
 90
        2
176
     1
  1
strokes_ogs.tif
176
     1
290
     0
176
     1
 40
1.0
176
     1
 40
1.0
176
     1
  0
VISUALSTYLE
  5
36
102
{ACAD_REACTORS
330
29
102
}
330
29
100
AcDbVisualStyle
  2
Thicken
 70
    13
177
     3
291
     1
 70
    58
 90
        2
176
     1
 90
        2
176
     1
 90
        0
176
     1
 90
        0
176
     1
 40
0.6
176
     1
 40
30.0
176
     1
 62
     7
420
 16777215
176
     1
 90
        1
176
     1
 90
        4
176
     1
 62
     7
176
     1
 62
   257
176
     1
 90
        1
176
     1
 90
        1
176
     1
 40
1.0
176
     1
 90
       12
176
     1
 62
     7
176
     1
 40
1.0
176
     1
 90
        1
176
     1
 90
        6
176
     1
 90
        2
176
     1
 62
     7
176
     1
 90
        5
176
     1
 90
        0
176
     1
 90
        0
176
     1
290
     0
176
     1
 90
        1
176
     1
 40
0.0
176
     1
 90
        0
176
     1
290
     0
176
     1
290
     1
176
     1
290
     1
176
     1
290
     0
176
     1
290
     0
176
     1
290
     0
176
     1
290
     0
176
     1
290
     0
176
     1
290
     0
176
     1
 90
       50
176
     1
 40
0.0
176
     1
 40
1.0
176
     1
 90
        0
176
     1
 62
    18
420
        0
176
     1
 90
       50
176
     1
 90
        3
176
     1
 62
     5
420
      255
176
     1
290
     0
176
     1
 90
       50
176
     1
 90
       50
176
     1
 90
       50
176
     1
290
     0
176
     1
 90
       50
176
     1
 62
   256
176
     0
 40
1.0
176
     0
 90
        2
176
     1
  1
strokes_ogs.tif
176
     1
290
     0
176
     1
 40
1.0
176
     1
 40
1.0
176
     1
  0
VISUALSTYLE
  5
30
102
{ACAD_REACTORS
330
29
102
}
330
29
100
AcDbVisualStyle
  2
Wireframe
 70
     5
177
     3
291
     0
 70
    58
 90
        0
176
     1
 90
        2
176
     1
 90
        0
176
     1
 90
        0
176
     1
 40
0.6
176
     1
 40
30.0
176
     1
 62
     7
420
 16777215
176
     1
 90
        1
176
     1
 90
        4
176
     1
 62
     7
176
     1
 62
   257
176
     1
 90
        1
176
     1
 90
        1
176
     1
 40
1.0
176
     1
 90
        0
176
     1
 62
   257
176
     1
 40
1.0
176
     1
 90
        1
176
     1
 90
        6
176
     1
 90
        2
176
     1
 62
     7
176
     1
 90
        3
176
     1
 90
        0
176
     1
 90
        0
176
     1
290
     0
176
     1
 90
        1
176
     1
 40
0.0
176
     1
 90
        0
176
     1
290
     0
176
     1
290
     1
176
     1
290
     1
176
     1
290
     0
176
     1
290
     0
176
     1
290
     0
176
     1
290
     0
176
     1
290
     0
176
     1
290
     0
176
     1
 90
       50
176
     1
 40
0.0
176
     1
 40
1.0
176
     1
 90
        0
176
     1
 62
    18
420
        0
176
     1
 90
       50
176
     1
 90
        3
176
     1
 62
     5
420
      255
176
     1
290
     0
176
     1
 90
       50
176
     1
 90
       50
176
     1
 90
       50
176
     1
290
     0
176
     1
 90
       50
176
     1
 62
   256
176
     0
 40
1.0
176
     0
 90
        2
176
     1
  1
strokes_ogs.tif
176
     1
290
     0
176
     1
 40
1.0
176
     1
 40
1.0
176
     1
  0
VISUALSTYLE
  5
3C
102
{ACAD_REACTORS
330
29
102
}
330
29
100
AcDbVisualStyle
  2
X-Ray
 70
    25
177
     3
291
     0
 70
    58
 90
        2
176
     1
 90
        2
176
     1
 90
        1
176
     1
 90
        1
176
     1
 40
0.5
176
     1
 40
30.0
176
     1
 62
     7
420
 16777215
176
     1
 90
        1
176
     1
 90
        0
176
     1
 62
     7
176
     1
 62
   257
176
     1
 90
        1
176
     1
 90
        1
176
     1
 40
1.0
176
     1
 90
        8
176
     1
 62
     7
176
     1
 40
1.0
176
     1
 90
        1
176
     1
 90
        6
176
     1
 90
        2
176
     1
 62
     7
176
     1
 90
        3
176
     1
 90
        0
176
     1
 90
        0
176
     1
290
     0
176
     1
 90
       13
176
     1
 40
0.0
176
     1
 90
        0
176
     1
290
     0
176
     1
290
     1
176
     1
290
     1
176
     1
290
     0
176
     1
290
     0
176
     1
290
     0
176
     1
290
     0
176
     1
290
     0
176
     1
290
     0
176
     1
 90
       50
176
     1
 40
0.0
176
     1
 40
1.0
176
     1
 90
        0
176
     1
 62
    18
420
        0
176
     1
 90
       50
176
     1
 90
        3
176
     1
 62
     5
420
      255
176
     1
290
     0
176
     1
 90
       50
176
     1
 90
       50
176
     1
 90
       50
176
     1
290
     0
176
     1
 90
       50
176
     1
 62
   256
176
     0
 40
1.0
176
     0
 90
        2
176
     1
  1
strokes_ogs.tif
176
     1
290
     0
176
     1
 40
1.0
176
     1
 40
1.0
176
     1
  0
DICTIONARYVAR
  5
124
102
{ACAD_REACTORS
330
11F
102
}
330
11F
100
DictionaryVariables
280
     0
  1
1:1
  0
DICTIONARYVAR
  5
121
102
{ACAD_REACTORS
330
11F
102
}
330
11F
100
DictionaryVariables
280
     0
  1
STANDARD
  0
DICTIONARYVAR
  5
120
102
{ACAD_REACTORS
330
11F
102
}
330
11F
100
DictionaryVariables
280
     0
  1
STANDARD
  0
DICTIONARYVAR
  5
122
102
{ACAD_REACTORS
330
11F
102
}
330
11F
100
DictionaryVariables
280
     0
  1
Imperial24
  0
DICTIONARYVAR
  5
123
102
{ACAD_REACTORS
330
11F
102
}
330
11F
100
DictionaryVariables
280
     0
  1
Imperial24
  0
DICTIONARY
  5
1A
330
19
100
AcDbDictionary
280
     1
281
     1
  3
BUMPTILE
360
1C
  3
DIFFUSETILE
360
1B
  3
OPACITYTILE
360
1F
  3
REFLECTIONTILE
360
1E
  3
REFRACTIONTILE
360
20
  3
SPECULARTILE
360
1D
  0
DICTIONARY
  5
12
330
11
100
AcDbDictionary
280
     1
281
     1
  3
BUMPTILE
360
14
  3
DIFFUSETILE
360
13
  3
OPACITYTILE
360
17
  3
REFLECTIONTILE
360
16
  3
REFRACTIONTILE
360
18
  3
SPECULARTILE
360
15
  0
DICTIONARY
  5
22
330
21
100
AcDbDictionary
280
     1
281
     1
  3
BUMPTILE
360
24
  3
DIFFUSETILE
360
23
  3
OPACITYTILE
360
27
  3
REFLECTIONTILE
360
26
  3
REFRACTIONTILE
360
28
  3
SPECULARTILE
360
25
  0
DICTIONARY
  5
125
330
65
100
AcDbDictionary
280
     1
281
     1
  3
ACAD_ROUNDTRIP_2008_TABLESTYLE_CELLSTYLEMAP
360
126
  0
XRECORD
  5
1C
102
{ACAD_REACTORS
330
1A
102
}
330
1A
100
AcDbXrecord
280
     1
270
     1
271
     1
  0
XRECORD
  5
1B
102
{ACAD_REACTORS
330
1A
102
}
330
1A
100
AcDbXrecord
280
     1
270
     1
271
     1
  0
XRECORD
  5
1F
102
{ACAD_REACTORS
330
1A
102
}
330
1A
100
AcDbXrecord
280
     1
270
     1
271
     1
  0
XRECORD
  5
1E
102
{ACAD_REACTORS
330
1A
102
}
330
1A
100
AcDbXrecord
280
     1
270
     1
271
     1
  0
XRECORD
  5
20
102
{ACAD_REACTORS
330
1A
102
}
330
1A
100
AcDbXrecord
280
     1
270
     1
271
     1
  0
XRECORD
  5
1D
102
{ACAD_REACTORS
330
1A
102
}
330
1A
100
AcDbXrecord
280
     1
270
     1
271
     1
  0
XRECORD
  5
14
102
{ACAD_REACTORS
330
12
102
}
330
12
100
AcDbXrecord
280
     1
270
     1
271
     1
  0
XRECORD
  5
13
102
{ACAD_REACTORS
330
12
102
}
330
12
100
AcDbXrecord
280
     1
270
     1
271
     1
  0
XRECORD
  5
17
102
{ACAD_REACTORS
330
12
102
}
330
12
100
AcDbXrecord
280
     1
270
     1
271
     1
  0
XRECORD
  5
16
102
{ACAD_REACTORS
330
12
102
}
330
12
100
AcDbXrecord
280
     1
270
     1
271
     1
  0
XRECORD
  5
18
102
{ACAD_REACTORS
330
12
102
}
330
12
100
AcDbXrecord
280
     1
270
     1
271
     1
  0
XRECORD
  5
15
102
{ACAD_REACTORS
330
12
102
}
330
12
100
AcDbXrecord
280
     1
270
     1
271
     1
  0
XRECORD
  5
24
102
{ACAD_REACTORS
330
22
102
}
330
22
100
AcDbXrecord
280
     1
270
     1
271
     1
  0
XRECORD
  5
23
102
{ACAD_REACTORS
330
22
102
}
330
22
100
AcDbXrecord
280
     1
270
     1
271
     1
  0
XRECORD
  5
27
102
{ACAD_REACTORS
330
22
102
}
330
22
100
AcDbXrecord
280
     1
270
     1
271
     1
  0
XRECORD
  5
26
102
{ACAD_REACTORS
330
22
102
}
330
22
100
AcDbXrecord
280
     1
270
     1
271
     1
  0
XRECORD
  5
28
102
{ACAD_REACTORS
330
22
102
}
330
22
100
AcDbXrecord
280
     1
270
     1
271
     1
  0
XRECORD
  5
25
102
{ACAD_REACTORS
330
22
102
}
330
22
100
AcDbXrecord
280
     1
270
     1
271
     1
  0
CELLSTYLEMAP
  5
126
102
{ACAD_REACTORS
330
125
102
}
330
125
100
AcDbCellStyleMap
 90
        3
300
CELLSTYLE
  1
TABLEFORMAT_BEGIN
 90
        5
170
     1
 91
        0
 92
    32768
 62
   257
 93
        1
300
CONTENTFORMAT
  1
CONTENTFORMAT_BEGIN
 90
        0
 91
        0
 92
      512
 93
        0
300

 40
0.0
140
1.0
 94
        5
 62
     0
340
55
144
0.25
309
CONTENTFORMAT_END
171
     0
 94
        0
309
TABLEFORMAT_END
  1
CELLSTYLE_BEGIN
 90
        1
 91
        1
300
_TITLE
309
CELLSTYLE_END
300
CELLSTYLE
  1
TABLEFORMAT_BEGIN
 90
        5
170
     1
 91
        0
 92
        0
 62
   257
 93
        1
300
CONTENTFORMAT
  1
CONTENTFORMAT_BEGIN
 90
        0
 91
        0
 92
      512
 93
        0
300

 40
0.0
140
1.0
 94
        5
 62
     0
340
55
144
0.18
309
CONTENTFORMAT_END
171
     0
 94
        0
309
TABLEFORMAT_END
  1
CELLSTYLE_BEGIN
 90
        2
 91
        1
300
_HEADER
309
CELLSTYLE_END
300
CELLSTYLE
  1
TABLEFORMAT_BEGIN
 90
        5
170
     1
 91
        0
 92
        0
 62
   257
 93
        1
300
CONTENTFORMAT
  1
CONTENTFORMAT_BEGIN
 90
        0
 91
        0
 92
      512
 93
        0
300

 40
0.0
140
1.0
 94
        2
 62
     0
340
55
144
0.18
309
CONTENTFORMAT_END
171
     0
 94
        0
309
TABLEFORMAT_END
  1
CELLSTYLE_BEGIN
 90
        3
 91
        2
300
_DATA
309
CELLSTYLE_END
  0
ENDSEC
  0
EOF
