  0
SECTION
  2
HEADER
  9
$ACADVER
  1
AC1024
  9
$ACADMAINTVER
 70
     6
  9
$DWGCODEPAGE
  3
ANSI_1252
  9
$INSBASE
 10
0.0
 20
0.0
 30
0.0
  9
$EXTMIN
 10
1.000000000000000E+20
 20
1.000000000000000E+20
 30
1.000000000000000E+20
  9
$EXTMAX
 10
-1.000000000000000E+20
 20
-1.000000000000000E+20
 30
-1.000000000000000E+20
  9
$LIMMIN
 10
0.0
 20
0.0
  9
$LIMMAX
 10
12.0
 20
9.0
  9
$ORTHOMODE
 70
     0
  9
$REGENMODE
 70
     1
  9
$FILLMODE
 70
     1
  9
$QTEXTMODE
 70
     0
  9
$MIRRTEXT
 70
     1
  9
$LTSCALE
 40
1.0
  9
$ATTMODE
 70
     1
  9
$TEXTSIZE
 40
0.2
  9
$TRACEWID
 40
0.05
  9
$TEXTSTYLE
  7
Standard
  9
$CLAYER
  8
0
  9
$CELTYPE
  6
ByLayer
  9
$CECOLOR
 62
   256
  9
$CELTSCALE
 40
1.0
  9
$DISPSILH
 70
     0
  9
$DIMSCALE
 40
1.0
  9
$DIMASZ
 40
0.18
  9
$DIMEXO
 40
0.0625
  9
$DIMDLI
 40
0.38
  9
$DIMRND
 40
0.0
  9
$DIMDLE
 40
0.0
  9
$DIMEXE
 40
0.18
  9
$DIMTP
 40
0.0
  9
$DIMTM
 40
0.0
  9
$DIMTXT
 40
0.18
  9
$DIMCEN
 40
0.09
  9
$DIMTSZ
 40
0.0
  9
$DIMTOL
 70
     0
  9
$DIMLIM
 70
     0
  9
$DIMTIH
 70
     1
  9
$DIMTOH
 70
     1
  9
$DIMSE1
 70
     0
  9
$DIMSE2
 70
     0
  9
$DIMTAD
 70
     0
  9
$DIMZIN
 70
     0
  9
$DIMBLK
  1

  9
$DIMASO
 70
     1
  9
$DIMSHO
 70
     1
  9
$DIMPOST
  1

  9
$DIMAPOST
  1

  9
$DIMALT
 70
     0
  9
$DIMALTD
 70
     2
  9
$DIMALTF
 40
25.4
  9
$DIMLFAC
 40
1.0
  9
$DIMTOFL
 70
     0
  9
$DIMTVP
 40
0.0
  9
$DIMTIX
 70
     0
  9
$DIMSOXD
 70
     0
  9
$DIMSAH
 70
     0
  9
$DIMBLK1
  1

  9
$DIMBLK2
  1

  9
$DIMSTYLE
  2
Standard
  9
$DIMCLRD
 70
     0
  9
$DIMCLRE
 70
     0
  9
$DIMCLRT
 70
     0
  9
$DIMTFAC
 40
1.0
  9
$DIMGAP
 40
0.09
  9
$DIMJUST
 70
     0
  9
$DIMSD1
 70
     0
  9
$DIMSD2
 70
     0
  9
$DIMTOLJ
 70
     1
  9
$DIMTZIN
 70
     0
  9
$DIMALTZ
 70
     0
  9
$DIMALTTZ
 70
     0
  9
$DIMUPT
 70
     0
  9
$DIMDEC
 70
     4
  9
$DIMTDEC
 70
     4
  9
$DIMALTU
 70
     2
  9
$DIMALTTD
 70
     2
  9
$DIMTXSTY
  7
Standard
  9
$DIMAUNIT
 70
     0
  9
$DIMADEC
 70
     0
  9
$DIMALTRND
 40
0.0
  9
$DIMAZIN
 70
     0
  9
$DIMDSEP
 70
    46
  9
$DIMATFIT
 70
     3
  9
$DIMFRAC
 70
     0
  9
$DIMLDRBLK
  1

  9
$DIMLUNIT
 70
     2
  9
$DIMLWD
 70
    -2
  9
$DIMLWE
 70
    -2
  9
$DIMTMOVE
 70
     0
  9
$DIMFXL
 40
1.0
  9
$DIMFXLON
 70
     0
  9
$DIMJOGANG
 40
0.7853981633974483
  9
$DIMTFILL
 70
     0
  9
$DIMTFILLCLR
 70
     0
  9
$DIMARCSYM
 70
     0
  9
$DIMLTYPE
  6

  9
$DIMLTEX1
  6

  9
$DIMLTEX2
  6

  9
$DIMTXTDIRECTION
 70
     0
  9
$LUNITS
 70
     2
  9
$LUPREC
 70
     4
  9
$SKETCHINC
 40
0.1
  9
$FILLETRAD
 40
0.5
  9
$AUNITS
 70
     0
  9
$AUPREC
 70
     0
  9
$MENU
  1
.
  9
$ELEVATION
 40
0.0
  9
$PELEVATION
 40
0.0
  9
$THICKNESS
 40
0.0
  9
$LIMCHECK
 70
     0
  9
$CHAMFERA
 40
0.5
  9
$CHAMFERB
 40
0.5
  9
$CHAMFERC
 40
1.0
  9
$CHAMFERD
 40
0.0
  9
$SKPOLY
 70
     0
  9
$TDCREATE
 40
2458775.662447604
  9
$TDUCREATE
 40
2458775.120780937
  9
$TDUPDATE
 40
2458775.662447604
  9
$TDUUPDATE
 40
2458775.120780937
  9
$TDINDWG
 40
0.0000000116
  9
$TDUSRTIMER
 40
0.0000000116
  9
$USRTIMER
 70
     1
  9
$ANGBASE
 50
0.0
  9
$ANGDIR
 70
     0
  9
$PDMODE
 70
     0
  9
$PDSIZE
 40
0.0
  9
$PLINEWID
 40
0.0
  9
$SPLFRAME
 70
     0
  9
$SPLINETYPE
 70
     6
  9
$SPLINESEGS
 70
     8
  9
$HANDSEED
  5
1D2
  9
$SURFTAB1
 70
     6
  9
$SURFTAB2
 70
     6
  9
$SURFTYPE
 70
     6
  9
$SURFU
 70
     6
  9
$SURFV
 70
     6
  9
$UCSBASE
  2

  9
$UCSNAME
  2

  9
$UCSORG
 10
0.0
 20
0.0
 30
0.0
  9
$UCSXDIR
 10
1.0
 20
0.0
 30
0.0
  9
$UCSYDIR
 10
0.0
 20
1.0
 30
0.0
  9
$UCSORTHOREF
  2

  9
$UCSORTHOVIEW
 70
     0
  9
$UCSORGTOP
 10
0.0
 20
0.0
 30
0.0
  9
$UCSORGBOTTOM
 10
0.0
 20
0.0
 30
0.0
  9
$UCSORGLEFT
 10
0.0
 20
0.0
 30
0.0
  9
$UCSORGRIGHT
 10
0.0
 20
0.0
 30
0.0
  9
$UCSORGFRONT
 10
0.0
 20
0.0
 30
0.0
  9
$UCSORGBACK
 10
0.0
 20
0.0
 30
0.0
  9
$PUCSBASE
  2

  9
$PUCSNAME
  2

  9
$PUCSORG
 10
0.0
 20
0.0
 30
0.0
  9
$PUCSXDIR
 10
1.0
 20
0.0
 30
0.0
  9
$PUCSYDIR
 10
0.0
 20
1.0
 30
0.0
  9
$PUCSORTHOREF
  2

  9
$PUCSORTHOVIEW
 70
     0
  9
$PUCSORGTOP
 10
0.0
 20
0.0
 30
0.0
  9
$PUCSORGBOTTOM
 10
0.0
 20
0.0
 30
0.0
  9
$PUCSORGLEFT
 10
0.0
 20
0.0
 30
0.0
  9
$PUCSORGRIGHT
 10
0.0
 20
0.0
 30
0.0
  9
$PUCSORGFRONT
 10
0.0
 20
0.0
 30
0.0
  9
$PUCSORGBACK
 10
0.0
 20
0.0
 30
0.0
  9
$USERI1
 70
     0
  9
$USERI2
 70
     0
  9
$USERI3
 70
     0
  9
$USERI4
 70
     0
  9
$USERI5
 70
     0
  9
$USERR1
 40
0.0
  9
$USERR2
 40
0.0
  9
$USERR3
 40
0.0
  9
$USERR4
 40
0.0
  9
$USERR5
 40
0.0
  9
$WORLDVIEW
 70
     1
  9
$SHADEDGE
 70
     3
  9
$SHADEDIF
 70
    70
  9
$TILEMODE
 70
     1
  9
$MAXACTVP
 70
    64
  9
$PINSBASE
 10
0.0
 20
0.0
 30
0.0
  9
$PLIMCHECK
 70
     0
  9
$PEXTMIN
 10
1.000000000000000E+20
 20
1.000000000000000E+20
 30
1.000000000000000E+20
  9
$PEXTMAX
 10
-1.000000000000000E+20
 20
-1.000000000000000E+20
 30
-1.000000000000000E+20
  9
$PLIMMIN
 10
0.0
 20
0.0
  9
$PLIMMAX
 10
12.0
 20
9.0
  9
$UNITMODE
 70
     0
  9
$VISRETAIN
 70
     1
  9
$PLINEGEN
 70
     0
  9
$PSLTSCALE
 70
     1
  9
$TREEDEPTH
 70
  3020
  9
$CMLSTYLE
  2
Standard
  9
$CMLJUST
 70
     0
  9
$CMLSCALE
 40
1.0
  9
$PROXYGRAPHICS
 70
     1
  9
$MEASUREMENT
 70
     0
  9
$CELWEIGHT
370
    -1
  9
$ENDCAPS
280
     0
  9
$JOINSTYLE
280
     0
  9
$LWDISPLAY
290
     1
  9
$INSUNITS
 70
     1
  9
$HYPERLINKBASE
  1

  9
$STYLESHEET
  1

  9
$XEDIT
290
     1
  9
$CEPSNTYPE
380
     0
  9
$PSTYLEMODE
290
     1
  9
$FINGERPRINTGUID
  2
{9949966E-28E8-4EE7-A76F-B74D36180341}
  9
$VERSIONGUID
  2
{FAEB1C32-E019-11D5-929B-00C0DF256EC4}
  9
$EXTNAMES
290
     1
  9
$PSVPSCALE
 40
0.0
  9
$OLESTARTUP
290
     0
  9
$SORTENTS
280
   127
  9
$INDEXCTL
280
     0
  9
$HIDETEXT
280
     1
  9
$XCLIPFRAME
280
     2
  9
$HALOGAP
280
     0
  9
$OBSCOLOR
 70
   257
  9
$OBSLTYPE
280
     0
  9
$INTERSECTIONDISPLAY
280
     0
  9
$INTERSECTIONCOLOR
 70
   257
  9
$DIMASSOC
280
     2
  9
$PROJECTNAME
  1

  9
$CAMERADISPLAY
290
     0
  9
$LENSLENGTH
 40
50.0
  9
$CAMERAHEIGHT
 40
0.0
  9
$STEPSPERSEC
 40
2.0
  9
$STEPSIZE
 40
6.0
  9
$3DDWFPREC
 40
2.0
  9
$PSOLWIDTH
 40
0.25
  9
$PSOLHEIGHT
 40
4.0
  9
$LOFTANG1
 40
1.570796326794897
  9
$LOFTANG2
 40
1.570796326794897
  9
$LOFTMAG1
 40
0.0
  9
$LOFTMAG2
 40
0.0
  9
$LOFTPARAM
 70
     7
  9
$LOFTNORMALS
280
     1
  9
$LATITUDE
 40
37.795
  9
$LONGITUDE
 40
-122.394
  9
$NORTHDIRECTION
 40
0.0
  9
$TIMEZONE
 70
 -8000
  9
$LIGHTGLYPHDISPLAY
280
     1
  9
$TILEMODELIGHTSYNCH
280
     1
  9
$CMATERIAL
347
3C
  9
$SOLIDHIST
280
     1
  9
$SHOWHIST
280
     1
  9
$DWFFRAME
280
     2
  9
$DGNFRAME
280
     2
  9
$REALWORLDSCALE
290
     1
  9
$INTERFERECOLOR
 62
   256
  9
$CSHADOW
280
     0
  9
$SHADOWPLANELOCATION
 40
0.0
  0
ENDSEC
  0
SECTION
  2
CLASSES
  0
CLASS
  1
ACDBDICTIONARYWDFLT
  2
AcDbDictionaryWithDefault
  3
ObjectDBX Classes
 90
        0
 91
        4
280
     0
281
     0
  0
CLASS
  1
VISUALSTYLE
  2
AcDbVisualStyle
  3
ObjectDBX Classes
 90
     4095
 91
        4
280
     0
281
     0
  0
CLASS
  1
MATERIAL
  2
AcDbMaterial
  3
ObjectDBX Classes
 90
     1153
 91
        4
280
     0
281
     0
  0
CLASS
  1
SUN
  2
AcDbSun
  3
SCENEOE
 90
     1024
 91
        4
280
     0
281
     0
  0
ENDSEC
  0
SECTION
  2
TABLES
  0
TABLE
  2
VPORT
  5
8
330
0
100
AcDbSymbolTable
 70
     1
  0
VPORT
  5
29
330
8
100
AcDbSymbolTableRecord
100
AcDbViewportTableRecord
  2
*Active
 70
     0
 10
0.0
 20
0.0
 11
1.0
 21
1.0
 12
0.0
 22
0.0
 13
0.0
 23
0.0
 14
0.5
 24
0.5
 15
0.5
 25
0.5
 16
0.0
 26
0.0
 36
1.0
 17
4.471258220379847
 27
5.873989434943875
 37
0.0
 40
11.69291338582677
 41
0.7070707070707065
 42
50.0
 43
0.0
 44
0.0
 50
0.0
 51
0.0
 71
     0
 72
   100
 73
     1
 74
     3
 75
     0
 76
     0
 77
     0
 78
     0
281
     0
 65
     1
110
0.0
120
0.0
130
0.0
111
1.0
121
0.0
131
0.0
112
0.0
122
1.0
132
0.0
 79
     0
146
0.0
 60
     3
 61
     5
292
     1
282
     1
141
0.0
142
0.0
 63
   250
361
3F
  0
ENDTAB
  0
TABLE
  2
LTYPE
  5
5
330
0
100
AcDbSymbolTable
 70
     1
  0
LTYPE
  5
14
330
5
100
AcDbSymbolTableRecord
100
AcDbLinetypeTableRecord
  2
ByBlock
 70
     0
  3

 72
    65
 73
     0
 40
0.0
  0
LTYPE
  5
15
330
5
100
AcDbSymbolTableRecord
100
AcDbLinetypeTableRecord
  2
ByLayer
 70
     0
  3

 72
    65
 73
     0
 40
0.0
  0
LTYPE
  5
16
330
5
100
AcDbSymbolTableRecord
100
AcDbLinetypeTableRecord
  2
Continuous
 70
     0
  3
Solid line
 72
    65
 73
     0
 40
0.0
  0
ENDTAB
  0
TABLE
  2
LAYER
  5
2
330
0
100
AcDbSymbolTable
 70
     4
  0
LAYER
  5
10
330
2
100
AcDbSymbolTableRecord
100
AcDbLayerTableRecord
  2
0
 70
     0
 62
     7
  6
Continuous
370
    -3
390
F
347
3E
  0
LAYER
  5
40
330
2
100
AcDbSymbolTableRecord
100
AcDbLayerTableRecord
  2
Layer 2
 70
     0
 62
     7
  6
Continuous
370
    -3
390
F
347
3E
  0
LAYER
  5
18F
330
2
100
AcDbSymbolTableRecord
100
AcDbLayerTableRecord
  2
Callout
 70
     0
 62
     7
  6
Continuous
370
    -3
390
F
347
3E
  0
LAYER
  5
190
330
2
100
AcDbSymbolTableRecord
100
AcDbLayerTableRecord
  2
callouts
 70
     0
 62
     7
  6
Continuous
370
    -3
390
F
347
3E
  0
ENDTAB
  0
TABLE
  2
STYLE
  5
3
330
0
100
AcDbSymbolTable
 70
     1
  0
STYLE
  5
11
330
3
100
AcDbSymbolTableRecord
100
AcDbTextStyleTableRecord
  2
Standard
 70
     0
 40
0.0
 41
1.0
 50
0.0
 71
     0
 42
0.2
  3
txt
  4

  0
ENDTAB
  0
TABLE
  2
VIEW
  5
6
330
0
100
AcDbSymbolTable
 70
     0
  0
ENDTAB
  0
TABLE
  2
UCS
  5
7
330
0
100
AcDbSymbolTable
 70
     0
  0
ENDTAB
  0
TABLE
  2
APPID
  5
9
330
0
100
AcDbSymbolTable
 70
     1
  0
APPID
  5
12
330
9
100
AcDbSymbolTableRecord
100
AcDbRegAppTableRecord
  2
ACAD
 70
     0
  0
ENDTAB
  0
TABLE
  2
DIMSTYLE
  5
A
330
0
100
AcDbSymbolTable
 70
     1
100
AcDbDimStyleTable
  0
DIMSTYLE
105
27
330
A
100
AcDbSymbolTableRecord
100
AcDbDimStyleTableRecord
  2
Standard
 70
     0
178
     0
340
11
  0
ENDTAB
  0
TABLE
  2
BLOCK_RECORD
  5
1
330
0
100
AcDbSymbolTable
 70
    16
  0
BLOCK_RECORD
  5
1F
330
1
100
AcDbSymbolTableRecord
100
AcDbBlockTableRecord
  2
*Model_Space
340
22
 70
     0
280
     1
281
     0
  0
BLOCK_RECORD
  5
1B
330
1
100
AcDbSymbolTableRecord
100
AcDbBlockTableRecord
  2
*Paper_Space
340
1E
 70
     0
280
     1
281
     0
  0
BLOCK_RECORD
  5
23
330
1
100
AcDbSymbolTableRecord
100
AcDbBlockTableRecord
  2
*Paper_Space0
340
26
 70
     0
280
     1
281
     0
  0
BLOCK_RECORD
  5
41
330
1
100
AcDbSymbolTableRecord
100
AcDbBlockTableRecord
  2
block 2
340
0
102
{BLKREFS
331
42
102
}
 70
     0
280
     1
281
     0
  0
BLOCK_RECORD
  5
BE
330
1
100
AcDbSymbolTableRecord
100
AcDbBlockTableRecord
  2
block 3
340
0
102
{BLKREFS
331
BF
102
}
 70
     0
280
     1
281
     0
  0
BLOCK_RECORD
  5
123
330
1
100
AcDbSymbolTableRecord
100
AcDbBlockTableRecord
  2
block 4
340
0
102
{BLKREFS
331
124
102
}
 70
     0
280
     1
281
     0
  0
BLOCK_RECORD
  5
14F
330
1
100
AcDbSymbolTableRecord
100
AcDbBlockTableRecord
  2
block 5
340
0
102
{BLKREFS
331
150
102
}
 70
     0
280
     1
281
     0
  0
BLOCK_RECORD
  5
153
330
1
100
AcDbSymbolTableRecord
100
AcDbBlockTableRecord
  2
block 6
340
0
102
{BLKREFS
331
154
102
}
 70
     0
280
     1
281
     0
  0
BLOCK_RECORD
  5
15A
330
1
100
AcDbSymbolTableRecord
100
AcDbBlockTableRecord
  2
block 7
340
0
102
{BLKREFS
331
15B
102
}
 70
     0
280
     1
281
     0
  0
BLOCK_RECORD
  5
161
330
1
100
AcDbSymbolTableRecord
100
AcDbBlockTableRecord
  2
block 8
340
0
102
{BLKREFS
331
162
102
}
 70
     0
280
     1
281
     0
  0
BLOCK_RECORD
  5
168
330
1
100
AcDbSymbolTableRecord
100
AcDbBlockTableRecord
  2
block 9
340
0
102
{BLKREFS
331
169
102
}
 70
     0
280
     1
281
     0
  0
BLOCK_RECORD
  5
16F
330
1
100
AcDbSymbolTableRecord
100
AcDbBlockTableRecord
  2
block 10
340
0
102
{BLKREFS
331
170
102
}
 70
     0
280
     1
281
     0
  0
BLOCK_RECORD
  5
173
330
1
100
AcDbSymbolTableRecord
100
AcDbBlockTableRecord
  2
block 11
340
0
102
{BLKREFS
331
174
102
}
 70
     0
280
     1
281
     0
  0
BLOCK_RECORD
  5
17A
330
1
100
AcDbSymbolTableRecord
100
AcDbBlockTableRecord
  2
block 12
340
0
102
{BLKREFS
331
17B
102
}
 70
     0
280
     1
281
     0
  0
BLOCK_RECORD
  5
181
330
1
100
AcDbSymbolTableRecord
100
AcDbBlockTableRecord
  2
block 13
340
0
102
{BLKREFS
331
182
102
}
 70
     0
280
     1
281
     0
  0
BLOCK_RECORD
  5
188
330
1
100
AcDbSymbolTableRecord
100
AcDbBlockTableRecord
  2
block 14
340
0
102
{BLKREFS
331
189
102
}
 70
     0
280
     1
281
     0
  0
BLOCK_RECORD
  5
191
330
1
100
AcDbSymbolTableRecord
100
AcDbBlockTableRecord
  2
block 15
340
0
102
{BLKREFS
331
192
102
}
 70
     0
280
     1
281
     0
  0
BLOCK_RECORD
  5
1A8
330
1
100
AcDbSymbolTableRecord
100
AcDbBlockTableRecord
  2
block 16
340
0
102
{BLKREFS
331
1A9
102
}
 70
     0
280
     1
281
     0
  0
ENDTAB
  0
ENDSEC
  0
SECTION
  2
BLOCKS
  0
BLOCK
  5
20
330
1F
100
AcDbEntity
  8
0
100
AcDbBlockBegin
  2
*Model_Space
 70
     0
 10
0.0
 20
0.0
 30
0.0
  3
*Model_Space
  1

  0
ENDBLK
  5
21
330
1F
100
AcDbEntity
  8
0
100
AcDbBlockEnd
  0
BLOCK
  5
1C
330
1B
100
AcDbEntity
 67
     1
  8
0
100
AcDbBlockBegin
  2
*Paper_Space
 70
     0
 10
0.0
 20
0.0
 30
0.0
  3
*Paper_Space
  1

  0
ENDBLK
  5
1D
330
1B
100
AcDbEntity
 67
     1
  8
0
100
AcDbBlockEnd
  0
BLOCK
  5
24
330
23
100
AcDbEntity
  8
0
100
AcDbBlockBegin
  2
*Paper_Space0
 70
     0
 10
0.0
 20
0.0
 30
0.0
  3
*Paper_Space0
  1

  0
ENDBLK
  5
25
330
23
100
AcDbEntity
  8
0
100
AcDbBlockEnd
  0
BLOCK
  5
43
330
41
100
AcDbEntity
  8
0
100
AcDbBlockBegin
  2
block 2
 70
     0
 10
0.0
 20
0.0
 30
0.0
  3
block 2
  1

  0
POLYLINE
  5
45
330
41
100
AcDbEntity
  8
Layer 2
 62
     7
420
 16777215
370
    30
100
AcDb2dPolyline
 66
     1
 10
0.0
 20
0.0
 30
0.0
  0
VERTEX
  5
46
330
45
100
AcDbEntity
  8
Layer 2
 62
     7
420
 16777215
370
    30
100
AcDbVertex
100
AcDb2dVertex
 10
2.795452285067338
 20
6.130897498806007
 30
0.0
  0
VERTEX
  5
47
330
45
100
AcDbEntity
  8
Layer 2
 62
     7
420
 16777215
370
    30
100
AcDbVertex
100
AcDb2dVertex
 10
2.795452285067338
 20
6.719664927141669
 30
0.0
  0
VERTEX
  5
48
330
45
100
AcDbEntity
  8
Layer 2
 62
     7
420
 16777215
370
    30
100
AcDbVertex
100
AcDb2dVertex
 10
3.037692956945016
 20
6.820598941777815
 30
0.0
  0
VERTEX
  5
49
330
45
100
AcDbEntity
  8
Layer 2
 62
     7
420
 16777215
370
    30
100
AcDbVertex
100
AcDb2dVertex
 10
3.15544210178987
 20
6.807154199955511
 30
0.0
  0
VERTEX
  5
4A
330
45
100
AcDbEntity
  8
Layer 2
 62
     7
420
 16777215
370
    30
100
AcDbVertex
100
AcDb2dVertex
 10
3.15544210178987
 20
6.904716350842515
 30
0.0
  0
VERTEX
  5
4B
330
45
100
AcDbEntity
  8
Layer 2
 62
     7
420
 16777215
370
    30
100
AcDbVertex
100
AcDb2dVertex
 10
3.3034923564773
 20
6.894622853863577
 30
0.0
  0
VERTEX
  5
4C
330
45
100
AcDbEntity
  8
Layer 2
 62
     7
420
 16777215
370
    30
100
AcDbVertex
100
AcDb2dVertex
 10
3.451521992258967
 20
6.968647981207292
 30
0.0
  0
VERTEX
  5
4D
330
45
100
AcDbEntity
  8
Layer 2
 62
     7
420
 16777215
370
    30
100
AcDbVertex
100
AcDb2dVertex
 10
6.021981136134248
 20
5.865098099273736
 30
0.0
  0
VERTEX
  5
4E
330
45
100
AcDbEntity
  8
Layer 2
 62
     7
420
 16777215
370
    30
100
AcDbVertex
100
AcDb2dVertex
 10
6.021981136134248
 20
5.168635955671738
 30
0.0
  0
VERTEX
  5
4F
330
45
100
AcDbEntity
  8
Layer 2
 62
     7
420
 16777215
370
    30
100
AcDbVertex
100
AcDb2dVertex
 10
5.31879625529104
 20
4.80192329046147
 30
0.0
  0
VERTEX
  5
50
330
45
100
AcDbEntity
  8
Layer 2
 62
     7
420
 16777215
370
    30
100
AcDbVertex
100
AcDb2dVertex
 10
2.795452285067338
 20
6.130897498806007
 30
0.0
  0
SEQEND
  5
52
330
45
100
AcDbEntity
  8
Layer 2
 62
     7
420
 16777215
370
    30
  0
HATCH
  5
51
330
41
100
AcDbEntity
  8
Layer 2
 62
    43
420
 15510365
100
AcDbHatch
 10
0.0
 20
0.0
 30
0.0
210
0.0
220
0.0
230
1.0
  2
SOLID
 70
     1
 71
     0
 91
        1
 92
        1
 93
       10
 72
     1
 10
2.795452285067338
 20
6.130897498806007
 11
2.795452285067338
 21
6.719664927141669
 72
     1
 10
2.795452285067338
 20
6.719664927141669
 11
3.037692956945016
 21
6.820598941777815
 72
     1
 10
3.037692956945016
 20
6.820598941777815
 11
3.15544210178987
 21
6.807154199955511
 72
     1
 10
3.15544210178987
 20
6.807154199955511
 11
3.15544210178987
 21
6.904716350842515
 72
     1
 10
3.15544210178987
 20
6.904716350842515
 11
3.3034923564773
 21
6.894622853863577
 72
     1
 10
3.3034923564773
 20
6.894622853863577
 11
3.451521992258967
 21
6.968647981207292
 72
     1
 10
3.451521992258967
 20
6.968647981207292
 11
6.021981136134248
 21
5.865098099273736
 72
     1
 10
6.021981136134248
 20
5.865098099273736
 11
6.021981136134248
 21
5.168635955671738
 72
     1
 10
6.021981136134248
 20
5.168635955671738
 11
5.31879625529104
 21
4.80192329046147
 72
     1
 10
5.31879625529104
 20
4.80192329046147
 11
2.795452285067338
 21
6.130897498806007
 97
        0
 75
     2
 76
     1
 98
        0
  0
POLYLINE
  5
53
330
41
100
AcDbEntity
  8
Layer 2
 62
     7
420
 16777215
370
    30
100
AcDb2dPolyline
 66
     1
 10
0.0
 20
0.0
 30
0.0
  0
VERTEX
  5
54
330
53
100
AcDbEntity
  8
Layer 2
 62
     7
420
 16777215
370
    30
100
AcDbVertex
100
AcDb2dVertex
 10
3.162601259692034
 20
6.896734663897013
 30
0.0
  0
VERTEX
  5
55
330
53
100
AcDbEntity
  8
Layer 2
 62
     7
420
 16777215
370
    30
100
AcDbVertex
100
AcDb2dVertex
 10
3.229467229133585
 20
6.798323882256605
 30
0.0
  0
VERTEX
  5
56
330
53
100
AcDbEntity
  8
Layer 2
 62
     7
420
 16777215
370
    30
100
AcDbVertex
100
AcDb2dVertex
 10
3.155030808879966
 20
6.807154199955511
 30
0.0
  0
SEQEND
  5
57
330
53
100
AcDbEntity
  8
Layer 2
 62
     7
420
 16777215
370
    30
  0
POLYLINE
  5
58
330
41
100
AcDbEntity
  8
Layer 2
 62
     7
420
 16777215
370
    20
100
AcDb2dPolyline
 66
     1
 10
0.0
 20
0.0
 30
0.0
  0
VERTEX
  5
59
330
58
100
AcDbEntity
  8
Layer 2
 62
     7
420
 16777215
370
    20
100
AcDbVertex
100
AcDb2dVertex
 10
2.795452285067338
 20
6.719664927141669
 30
0.0
  0
VERTEX
  5
5A
330
58
100
AcDbEntity
  8
Layer 2
 62
     7
420
 16777215
370
    20
100
AcDbVertex
100
AcDb2dVertex
 10
5.315445029253523
 20
5.532017039791236
 30
0.0
  0
VERTEX
  5
5B
330
58
100
AcDbEntity
  8
Layer 2
 62
     7
420
 16777215
370
    20
100
AcDbVertex
100
AcDb2dVertex
 10
6.021981136134248
 20
5.865098099273736
 30
0.0
  0
SEQEND
  5
5C
330
58
100
AcDbEntity
  8
Layer 2
 62
     7
420
 16777215
370
    20
  0
POLYLINE
  5
5D
330
41
100
AcDbEntity
  8
Layer 2
 62
     7
420
 16777215
370
    20
100
AcDb2dPolyline
 66
     1
 10
0.0
 20
0.0
 30
0.0
  0
VERTEX
  5
5E
330
5D
100
AcDbEntity
  8
Layer 2
 62
     7
420
 16777215
370
    20
100
AcDbVertex
100
AcDb2dVertex
 10
5.315445029253523
 20
5.532017039791236
 30
0.0
  0
VERTEX
  5
5F
330
5D
100
AcDbEntity
  8
Layer 2
 62
     7
420
 16777215
370
    20
100
AcDbVertex
100
AcDb2dVertex
 10
5.315445029253523
 20
4.80192329046147
 30
0.0
  0
SEQEND
  5
60
330
5D
100
AcDbEntity
  8
Layer 2
 62
     7
420
 16777215
370
    20
  0
POLYLINE
  5
61
330
41
100
AcDbEntity
  8
Layer 2
 62
     7
420
 16777215
370
    20
100
AcDb2dPolyline
 66
     1
 10
0.0
 20
0.0
 30
0.0
  0
VERTEX
  5
62
330
61
100
AcDbEntity
  8
Layer 2
 62
     7
420
 16777215
370
    20
100
AcDbVertex
100
AcDb2dVertex
 10
2.795452285067338
 20
6.420234041819917
 30
0.0
  0
VERTEX
  5
63
330
61
100
AcDbEntity
  8
Layer 2
 62
     7
420
 16777215
370
    20
100
AcDbVertex
100
AcDb2dVertex
 10
5.312053761856557
 20
5.158582611298773
 30
0.0
  0
VERTEX
  5
64
330
61
100
AcDbEntity
  8
Layer 2
 62
     7
420
 16777215
370
    20
100
AcDbVertex
100
AcDb2dVertex
 10
6.018589868737283
 20
5.508478931042393
 30
0.0
  0
SEQEND
  5
65
330
61
100
AcDbEntity
  8
Layer 2
 62
     7
420
 16777215
370
    20
  0
POLYLINE
  5
66
330
41
100
AcDbEntity
  8
Layer 2
 62
     7
420
 16777215
370
    13
100
AcDb2dPolyline
 66
     1
 10
0.0
 20
0.0
 30
0.0
  0
VERTEX
  5
67
330
66
100
AcDbEntity
  8
Layer 2
 62
     7
420
 16777215
370
    13
100
AcDbVertex
100
AcDb2dVertex
 10
5.317141205554789
 20
5.446223943278659
 30
0.0
  0
VERTEX
  5
68
330
66
100
AcDbEntity
  8
Layer 2
 62
     7
420
 16777215
370
    13
100
AcDbVertex
100
AcDb2dVertex
 10
5.431518616702887
 20
5.53875942197918
 30
0.0
  0
VERTEX
  5
69
330
66
100
AcDbEntity
  8
Layer 2
 62
     7
420
 16777215
370
    13
100
AcDbVertex
100
AcDb2dVertex
 10
5.529101386495666
 20
5.631275366979505
 30
0.0
  0
SEQEND
  5
6A
330
66
100
AcDbEntity
  8
Layer 2
 62
     7
420
 16777215
370
    13
  0
POLYLINE
  5
6B
330
41
100
AcDbEntity
  8
Layer 2
 62
     7
420
 16777215
370
    13
100
AcDb2dPolyline
 66
     1
 10
0.0
 20
0.0
 30
0.0
  0
VERTEX
  5
6C
330
6B
100
AcDbEntity
  8
Layer 2
 62
     7
420
 16777215
370
    13
100
AcDbVertex
100
AcDb2dVertex
 10
5.318836296650488
 20
5.3452900586949
 30
0.0
  0
VERTEX
  5
6D
330
6B
100
AcDbEntity
  8
Layer 2
 62
     7
420
 16777215
370
    13
100
AcDbVertex
100
AcDb2dVertex
 10
5.643479882849331
 20
5.648090627240612
 30
0.0
  0
VERTEX
  5
6E
330
6B
100
AcDbEntity
  8
Layer 2
 62
     7
420
 16777215
370
    13
100
AcDbVertex
100
AcDb2dVertex
 10
5.81171604628907
 20
5.762489742500052
 30
0.0
  0
SEQEND
  5
6F
330
6B
100
AcDbEntity
  8
Layer 2
 62
     7
420
 16777215
370
    13
  0
POLYLINE
  5
70
330
41
100
AcDbEntity
  8
Layer 2
 62
     7
420
 16777215
370
    13
100
AcDb2dPolyline
 66
     1
 10
0.0
 20
0.0
 30
0.0
  0
VERTEX
  5
71
330
70
100
AcDbEntity
  8
Layer 2
 62
     7
420
 16777215
370
    13
100
AcDbVertex
100
AcDb2dVertex
 10
5.317141205554789
 20
5.247727907807908
 30
0.0
  0
VERTEX
  5
72
330
70
100
AcDbEntity
  8
Layer 2
 62
     7
420
 16777215
370
    13
100
AcDbVertex
100
AcDb2dVertex
 10
5.621637950401767
 20
5.533713216092502
 30
0.0
  0
VERTEX
  5
73
330
70
100
AcDbEntity
  8
Layer 2
 62
     7
420
 16777215
370
    13
100
AcDbVertex
100
AcDb2dVertex
 10
5.796576343423466
 20
5.67502000338642
 30
0.0
  0
VERTEX
  5
74
330
70
100
AcDbEntity
  8
Layer 2
 62
     7
420
 16777215
370
    13
100
AcDbVertex
100
AcDb2dVertex
 10
6.021981136134248
 20
5.814631699584639
 30
0.0
  0
SEQEND
  5
75
330
70
100
AcDbEntity
  8
Layer 2
 62
     7
420
 16777215
370
    13
  0
POLYLINE
  5
76
330
41
100
AcDbEntity
  8
Layer 2
 62
     7
420
 16777215
370
    13
100
AcDb2dPolyline
 66
     1
 10
0.0
 20
0.0
 30
0.0
  0
VERTEX
  5
77
330
76
100
AcDbEntity
  8
Layer 2
 62
     7
420
 16777215
370
    13
100
AcDbVertex
100
AcDb2dVertex
 10
5.360865223055927
 20
5.183815899847104
 30
0.0
  0
VERTEX
  5
78
330
76
100
AcDbEntity
  8
Layer 2
 62
     7
420
 16777215
370
    13
100
AcDbVertex
100
AcDb2dVertex
 10
5.591357459464967
 20
5.4075461316642
 30
0.0
  0
VERTEX
  5
79
330
76
100
AcDbEntity
  8
Layer 2
 62
     7
420
 16777215
370
    13
100
AcDbVertex
100
AcDb2dVertex
 10
5.813412222590336
 20
5.60941281562614
 30
0.0
  0
VERTEX
  5
7A
330
76
100
AcDbEntity
  8
Layer 2
 62
     7
420
 16777215
370
    13
100
AcDbVertex
100
AcDb2dVertex
 10
6.016934930247569
 20
5.733884911558435
 30
0.0
  0
SEQEND
  5
7B
330
76
100
AcDbEntity
  8
Layer 2
 62
     7
420
 16777215
370
    13
  0
POLYLINE
  5
7C
330
41
100
AcDbEntity
  8
Layer 2
 62
     7
420
 16777215
370
    13
100
AcDb2dPolyline
 66
     1
 10
0.0
 20
0.0
 30
0.0
  0
VERTEX
  5
7D
330
7C
100
AcDbEntity
  8
Layer 2
 62
     7
420
 16777215
370
    13
100
AcDbVertex
100
AcDb2dVertex
 10
5.547593289357843
 20
5.279682962060203
 30
0.0
  0
VERTEX
  5
7E
330
7C
100
AcDbEntity
  8
Layer 2
 62
     7
420
 16777215
370
    13
100
AcDbVertex
100
AcDb2dVertex
 10
5.734320270454165
 20
5.461363646144289
 30
0.0
  0
VERTEX
  5
7F
330
7C
100
AcDbEntity
  8
Layer 2
 62
     7
420
 16777215
370
    13
100
AcDbVertex
100
AcDb2dVertex
 10
5.855441273799114
 20
5.565669264424792
 30
0.0
  0
VERTEX
  5
80
330
7C
100
AcDbEntity
  8
Layer 2
 62
     7
420
 16777215
370
    13
100
AcDbVertex
100
AcDb2dVertex
 10
6.015279991757855
 20
5.669973797499741
 30
0.0
  0
SEQEND
  5
81
330
7C
100
AcDbEntity
  8
Layer 2
 62
     7
420
 16777215
370
    13
  0
POLYLINE
  5
82
330
41
100
AcDbEntity
  8
Layer 2
 62
     7
420
 16777215
370
    13
100
AcDb2dPolyline
 66
     1
 10
0.0
 20
0.0
 30
0.0
  0
VERTEX
  5
83
330
82
100
AcDbEntity
  8
Layer 2
 62
     7
420
 16777215
370
    13
100
AcDbVertex
100
AcDb2dVertex
 10
5.707432132119897
 20
5.357078646769549
 30
0.0
  0
VERTEX
  5
84
330
82
100
AcDbEntity
  8
Layer 2
 62
     7
420
 16777215
370
    13
100
AcDbVertex
100
AcDb2dVertex
 10
5.825160658058975
 20
5.478199621451696
 30
0.0
  0
VERTEX
  5
85
330
82
100
AcDbEntity
  8
Layer 2
 62
     7
420
 16777215
370
    13
100
AcDbVertex
100
AcDb2dVertex
 10
5.944625512905329
 20
5.572391027706961
 30
0.0
  0
VERTEX
  5
86
330
82
100
AcDbEntity
  8
Layer 2
 62
     7
420
 16777215
370
    13
100
AcDbVertex
100
AcDb2dVertex
 10
6.021981136134248
 20
5.612763930417132
 30
0.0
  0
SEQEND
  5
87
330
82
100
AcDbEntity
  8
Layer 2
 62
     7
420
 16777215
370
    13
  0
POLYLINE
  5
88
330
41
100
AcDbEntity
  8
Layer 2
 62
     7
420
 16777215
370
    13
100
AcDb2dPolyline
 66
     1
 10
0.0
 20
0.0
 30
0.0
  0
VERTEX
  5
89
330
88
100
AcDbEntity
  8
Layer 2
 62
     7
420
 16777215
370
    13
100
AcDbVertex
100
AcDb2dVertex
 10
5.916001045663809
 20
5.461363646144289
 30
0.0
  0
VERTEX
  5
8A
330
88
100
AcDbEntity
  8
Layer 2
 62
     7
420
 16777215
370
    13
100
AcDbVertex
100
AcDb2dVertex
 10
5.971514864180739
 20
5.523619719113563
 30
0.0
  0
VERTEX
  5
8B
330
88
100
AcDbEntity
  8
Layer 2
 62
     7
420
 16777215
370
    13
100
AcDbVertex
100
AcDb2dVertex
 10
6.021981136134248
 20
5.569039912915981
 30
0.0
  0
SEQEND
  5
8C
330
88
100
AcDbEntity
  8
Layer 2
 62
     7
420
 16777215
370
    13
  0
POLYLINE
  5
8D
330
41
100
AcDbEntity
  8
Layer 2
 62
     7
420
 16777215
370
    13
100
AcDb2dPolyline
 66
     1
 10
0.0
 20
0.0
 30
0.0
  0
VERTEX
  5
8E
330
8D
100
AcDbEntity
  8
Layer 2
 62
     7
420
 16777215
370
    13
100
AcDbVertex
100
AcDb2dVertex
 10
3.160077014766633
 20
6.841220973115671
 30
0.0
  0
VERTEX
  5
8F
330
8D
100
AcDbEntity
  8
Layer 2
 62
     7
420
 16777215
370
    13
100
AcDbVertex
100
AcDb2dVertex
 10
3.181523932387841
 20
6.809677302898851
 30
0.0
  0
SEQEND
  5
90
330
8D
100
AcDbEntity
  8
Layer 2
 62
     7
420
 16777215
370
    13
  0
POLYLINE
  5
91
330
41
100
AcDbEntity
  8
Layer 2
 62
     7
420
 16777215
370
    13
100
AcDb2dPolyline
 66
     1
 10
0.0
 20
0.0
 30
0.0
  0
VERTEX
  5
92
330
91
100
AcDbEntity
  8
Layer 2
 62
     7
420
 16777215
370
    13
100
AcDbVertex
100
AcDb2dVertex
 10
5.885288642911342
 20
5.443288557478454
 30
0.0
  0
VERTEX
  5
93
330
91
100
AcDbEntity
  8
Layer 2
 62
     7
420
 16777215
370
    13
100
AcDbVertex
100
AcDb2dVertex
 10
5.963512430593886
 20
5.449594591769861
 30
0.0
  0
VERTEX
  5
94
330
91
100
AcDbEntity
  8
Layer 2
 62
     7
420
 16777215
370
    13
100
AcDbVertex
100
AcDb2dVertex
 10
6.021549224318556
 20
5.462211191692126
 30
0.0
  0
SEQEND
  5
95
330
91
100
AcDbEntity
  8
Layer 2
 62
     7
420
 16777215
370
    13
  0
POLYLINE
  5
96
330
41
100
AcDbEntity
  8
Layer 2
 62
     7
420
 16777215
370
    13
100
AcDb2dPolyline
 66
     1
 10
0.0
 20
0.0
 30
0.0
  0
VERTEX
  5
97
330
96
100
AcDbEntity
  8
Layer 2
 62
     7
420
 16777215
370
    13
100
AcDbVertex
100
AcDb2dVertex
 10
5.807064855228797
 20
5.401651295024092
 30
0.0
  0
VERTEX
  5
98
330
96
100
AcDbEntity
  8
Layer 2
 62
     7
420
 16777215
370
    13
100
AcDbVertex
100
AcDb2dVertex
 10
5.925662630827067
 20
5.413007971283049
 30
0.0
  0
VERTEX
  5
99
330
96
100
AcDbEntity
  8
Layer 2
 62
     7
420
 16777215
370
    13
100
AcDbVertex
100
AcDb2dVertex
 10
6.017761856889643
 20
5.409221689059702
 30
0.0
  0
SEQEND
  5
9A
330
96
100
AcDbEntity
  8
Layer 2
 62
     7
420
 16777215
370
    13
  0
POLYLINE
  5
9B
330
41
100
AcDbEntity
  8
Layer 2
 62
     7
420
 16777215
370
    13
100
AcDb2dPolyline
 66
     1
 10
0.0
 20
0.0
 30
0.0
  0
VERTEX
  5
9C
330
9B
100
AcDbEntity
  8
Layer 2
 62
     7
420
 16777215
370
    13
100
AcDbVertex
100
AcDb2dVertex
 10
5.663233879785947
 20
5.333521004320472
 30
0.0
  0
VERTEX
  5
9D
330
9B
100
AcDbEntity
  8
Layer 2
 62
     7
420
 16777215
370
    13
100
AcDbVertex
100
AcDb2dVertex
 10
5.76038148214636
 20
5.346137604242762
 30
0.0
  0
VERTEX
  5
9E
330
9B
100
AcDbEntity
  8
Layer 2
 62
     7
420
 16777215
370
    13
100
AcDbVertex
100
AcDb2dVertex
 10
5.915569133848142
 20
5.37263506857289
 30
0.0
  0
VERTEX
  5
9F
330
9B
100
AcDbEntity
  8
Layer 2
 62
     7
420
 16777215
370
    13
100
AcDbVertex
100
AcDb2dVertex
 10
6.019026121375216
 20
5.367587777480645
 30
0.0
  0
SEQEND
  5
A0
330
9B
100
AcDbEntity
  8
Layer 2
 62
     7
420
 16777215
370
    13
  0
POLYLINE
  5
A1
330
41
100
AcDbEntity
  8
Layer 2
 62
     7
420
 16777215
370
    13
100
AcDb2dPolyline
 66
     1
 10
0.0
 20
0.0
 30
0.0
  0
VERTEX
  5
A2
330
A1
100
AcDbEntity
  8
Layer 2
 62
     7
420
 16777215
370
    13
100
AcDbVertex
100
AcDb2dVertex
 10
5.436133995979465
 20
5.219970519814447
 30
0.0
  0
VERTEX
  5
A3
330
A1
100
AcDbEntity
  8
Layer 2
 62
     7
420
 16777215
370
    13
100
AcDbVertex
100
AcDb2dVertex
 10
5.699820500272759
 20
5.276747389875809
 30
0.0
  0
VERTEX
  5
A4
330
A1
100
AcDbEntity
  8
Layer 2
 62
     7
420
 16777215
370
    13
100
AcDbVertex
100
AcDb2dVertex
 10
5.872672042989052
 20
5.308287804475943
 30
0.0
  0
VERTEX
  5
A5
330
A1
100
AcDbEntity
  8
Layer 2
 62
     7
420
 16777215
370
    13
100
AcDbVertex
100
AcDb2dVertex
 10
6.016503018431877
 20
5.30450477786927
 30
0.0
  0
SEQEND
  5
A6
330
A1
100
AcDbEntity
  8
Layer 2
 62
     7
420
 16777215
370
    13
  0
POLYLINE
  5
A7
330
41
100
AcDbEntity
  8
Layer 2
 62
     7
420
 16777215
370
    13
100
AcDb2dPolyline
 66
     1
 10
0.0
 20
0.0
 30
0.0
  0
VERTEX
  5
A8
330
A7
100
AcDbEntity
  8
Layer 2
 62
     7
420
 16777215
370
    13
100
AcDbVertex
100
AcDb2dVertex
 10
5.320059323324535
 20
5.121560823379619
 30
0.0
  0
VERTEX
  5
A9
330
A7
100
AcDbEntity
  8
Layer 2
 62
     7
420
 16777215
370
    13
100
AcDbVertex
100
AcDb2dVertex
 10
5.617813804783887
 20
5.182120720047629
 30
0.0
  0
VERTEX
  5
AA
330
A7
100
AcDbEntity
  8
Layer 2
 62
     7
420
 16777215
370
    13
100
AcDbVertex
100
AcDb2dVertex
 10
5.868885760765705
 20
5.24142069305233
 30
0.0
  0
VERTEX
  5
AB
330
A7
100
AcDbEntity
  8
Layer 2
 62
     7
420
 16777215
370
    13
100
AcDbVertex
100
AcDb2dVertex
 10
6.022809147981889
 20
5.250251010751248
 30
0.0
  0
SEQEND
  5
AC
330
A7
100
AcDbEntity
  8
Layer 2
 62
     7
420
 16777215
370
    13
  0
POLYLINE
  5
AD
330
41
100
AcDbEntity
  8
Layer 2
 62
     7
420
 16777215
370
    13
100
AcDb2dPolyline
 66
     1
 10
0.0
 20
0.0
 30
0.0
  0
VERTEX
  5
AE
330
AD
100
AcDbEntity
  8
Layer 2
 62
     7
420
 16777215
370
    13
100
AcDbVertex
100
AcDb2dVertex
 10
5.316273041101163
 20
5.042077197156888
 30
0.0
  0
VERTEX
  5
AF
330
AD
100
AcDbEntity
  8
Layer 2
 62
     7
420
 16777215
370
    13
100
AcDbVertex
100
AcDb2dVertex
 10
5.79570817896984
 20
5.135440602581891
 30
0.0
  0
VERTEX
  5
B0
330
AD
100
AcDbEntity
  8
Layer 2
 62
     7
420
 16777215
370
    13
100
AcDbVertex
100
AcDb2dVertex
 10
5.897905368709644
 20
5.172027223068704
 30
0.0
  0
VERTEX
  5
B1
330
AD
100
AcDbEntity
  8
Layer 2
 62
     7
420
 16777215
370
    13
100
AcDbVertex
100
AcDb2dVertex
 10
6.022809147981889
 20
5.18338389932766
 30
0.0
  0
SEQEND
  5
B2
330
AD
100
AcDbEntity
  8
Layer 2
 62
     7
420
 16777215
370
    13
  0
POLYLINE
  5
B3
330
41
100
AcDbEntity
  8
Layer 2
 62
     7
420
 16777215
370
    13
100
AcDb2dPolyline
 66
     1
 10
0.0
 20
0.0
 30
0.0
  0
VERTEX
  5
B4
330
B3
100
AcDbEntity
  8
Layer 2
 62
     7
420
 16777215
370
    13
100
AcDbVertex
100
AcDb2dVertex
 10
5.313750049276879
 20
4.977729847936795
 30
0.0
  0
VERTEX
  5
B5
330
B3
100
AcDbEntity
  8
Layer 2
 62
     7
420
 16777215
370
    13
100
AcDbVertex
100
AcDb2dVertex
 10
5.553466421886595
 20
5.026936323962546
 30
0.0
  0
VERTEX
  5
B6
330
B3
100
AcDbEntity
  8
Layer 2
 62
     7
420
 16777215
370
    13
100
AcDbVertex
100
AcDb2dVertex
 10
5.726317964602887
 20
5.069833414821637
 30
0.0
  0
VERTEX
  5
B7
330
B3
100
AcDbEntity
  8
Layer 2
 62
     7
420
 16777215
370
    13
100
AcDbVertex
100
AcDb2dVertex
 10
5.833557978736659
 20
5.07614062957719
 30
0.0
  0
SEQEND
  5
B8
330
B3
100
AcDbEntity
  8
Layer 2
 62
     7
420
 16777215
370
    13
  0
POLYLINE
  5
B9
330
41
100
AcDbEntity
  8
Layer 2
 62
     7
420
 16777215
370
    13
100
AcDb2dPolyline
 66
     1
 10
0.0
 20
0.0
 30
0.0
  0
VERTEX
  5
BA
330
B9
100
AcDbEntity
  8
Layer 2
 62
     7
420
 16777215
370
    13
100
AcDbVertex
100
AcDb2dVertex
 10
5.321319246987842
 20
4.890675742555332
 30
0.0
  0
VERTEX
  5
BB
330
B9
100
AcDbEntity
  8
Layer 2
 62
     7
420
 16777215
370
    13
100
AcDbVertex
100
AcDb2dVertex
 10
5.515616622119776
 20
4.951236724428908
 30
0.0
  0
VERTEX
  5
BC
330
B9
100
AcDbEntity
  8
Layer 2
 62
     7
420
 16777215
370
    13
100
AcDbVertex
100
AcDb2dVertex
 10
5.611504300816856
 20
4.956282930315587
 30
0.0
  0
SEQEND
  5
BD
330
B9
100
AcDbEntity
  8
Layer 2
 62
     7
420
 16777215
370
    13
  0
ENDBLK
  5
44
330
41
100
AcDbEntity
  8
0
100
AcDbBlockEnd
  0
BLOCK
  5
C0
330
BE
100
AcDbEntity
  8
0
100
AcDbBlockBegin
  2
block 3
 70
     0
 10
0.0
 20
0.0
 30
0.0
  3
block 3
  1

  0
POLYLINE
  5
C2
330
BE
100
AcDbEntity
  8
Layer 2
 62
     7
420
 16777215
370
    30
100
AcDb2dPolyline
 66
     1
 10
0.0
 20
0.0
 30
0.0
  0
VERTEX
  5
C3
330
C2
100
AcDbEntity
  8
Layer 2
 62
     7
420
 16777215
370
    30
100
AcDbVertex
100
AcDb2dVertex
 10
3.454892640750156
 20
4.768291684733691
 30
0.0
  0
VERTEX
  5
C4
330
C2
100
AcDbEntity
  8
Layer 2
 62
     7
420
 16777215
370
    30
100
AcDbVertex
100
AcDb2dVertex
 10
3.165535598768808
 20
4.933137665982005
 30
0.0
  0
VERTEX
  5
C5
330
C2
100
AcDbEntity
  8
Layer 2
 62
     7
420
 16777215
370
    30
100
AcDbVertex
100
AcDb2dVertex
 10
3.165535598768808
 20
6.423605655578361
 30
0.0
  0
VERTEX
  5
C6
330
C2
100
AcDbEntity
  8
Layer 2
 62
     7
420
 16777215
370
    30
100
AcDbVertex
100
AcDb2dVertex
 10
4.84440721206253
 20
7.755930978713902
 30
0.0
  0
VERTEX
  5
C7
330
C2
100
AcDbEntity
  8
Layer 2
 62
     7
420
 16777215
370
    30
100
AcDbVertex
100
AcDb2dVertex
 10
5.113577260086029
 20
7.654997094130143
 30
0.0
  0
VERTEX
  5
C8
330
C2
100
AcDbEntity
  8
Layer 2
 62
     7
420
 16777215
370
    30
100
AcDbVertex
100
AcDb2dVertex
 10
5.328889641023452
 20
7.254633289491885
 30
0.0
  0
VERTEX
  5
C9
330
C2
100
AcDbEntity
  8
Layer 2
 62
     7
420
 16777215
370
    30
100
AcDbVertex
100
AcDb2dVertex
 10
5.321359399593828
 20
7.21171666493261
 30
0.0
  0
VERTEX
  5
CA
330
C2
100
AcDbEntity
  8
Layer 2
 62
     7
420
 16777215
370
    30
100
AcDbVertex
100
AcDb2dVertex
 10
5.493734537066201
 20
7.140235397565093
 30
0.0
  0
VERTEX
  5
CB
330
C2
100
AcDbEntity
  8
Layer 2
 62
     7
420
 16777215
370
    30
100
AcDbVertex
100
AcDb2dVertex
 10
5.433174640398192
 20
7.025836144178558
 30
0.0
  0
VERTEX
  5
CC
330
C2
100
AcDbEntity
  8
Layer 2
 62
     7
420
 16777215
370
    30
100
AcDbVertex
100
AcDb2dVertex
 10
5.675415312275845
 20
6.601914697091249
 30
0.0
  0
VERTEX
  5
CD
330
C2
100
AcDbEntity
  8
Layer 2
 62
     7
420
 16777215
370
    30
100
AcDbVertex
100
AcDb2dVertex
 10
5.214511144669763
 20
6.221737886410842
 30
0.0
  0
VERTEX
  5
CE
330
C2
100
AcDbEntity
  8
Layer 2
 62
     7
420
 16777215
370
    30
100
AcDbVertex
100
AcDb2dVertex
 10
4.598815425393872
 20
5.875191596252661
 30
0.0
  0
VERTEX
  5
CF
330
C2
100
AcDbEntity
  8
Layer 2
 62
     7
420
 16777215
370
    30
100
AcDbVertex
100
AcDb2dVertex
 10
4.598815425393872
 20
5.693510821043017
 30
0.0
  0
VERTEX
  5
D0
330
C2
100
AcDbEntity
  8
Layer 2
 62
     7
420
 16777215
370
    30
100
AcDbVertex
100
AcDb2dVertex
 10
3.454892640750156
 20
4.768291684733691
 30
0.0
  0
SEQEND
  5
D2
330
C2
100
AcDbEntity
  8
Layer 2
 62
     7
420
 16777215
370
    30
  0
HATCH
  5
D1
330
BE
100
AcDbEntity
  8
Layer 2
 62
    43
420
 15510365
100
AcDbHatch
 10
0.0
 20
0.0
 30
0.0
210
0.0
220
0.0
230
1.0
  2
SOLID
 70
     1
 71
     0
 91
        1
 92
        1
 93
       13
 72
     1
 10
3.454892640750156
 20
4.768291684733691
 11
3.165535598768808
 21
4.933137665982005
 72
     1
 10
3.165535598768808
 20
4.933137665982005
 11
3.165535598768808
 21
6.423605655578361
 72
     1
 10
3.165535598768808
 20
6.423605655578361
 11
4.84440721206253
 21
7.755930978713902
 72
     1
 10
4.84440721206253
 20
7.755930978713902
 11
5.113577260086029
 21
7.654997094130143
 72
     1
 10
5.113577260086029
 20
7.654997094130143
 11
5.328889641023452
 21
7.254633289491885
 72
     1
 10
5.328889641023452
 20
7.254633289491885
 11
5.321359399593828
 21
7.21171666493261
 72
     1
 10
5.321359399593828
 20
7.21171666493261
 11
5.493734537066201
 21
7.140235397565093
 72
     1
 10
5.493734537066201
 20
7.140235397565093
 11
5.433174640398192
 21
7.025836144178558
 72
     1
 10
5.433174640398192
 20
7.025836144178558
 11
5.675415312275845
 21
6.601914697091249
 72
     1
 10
5.675415312275845
 20
6.601914697091249
 11
5.214511144669763
 21
6.221737886410842
 72
     1
 10
5.214511144669763
 20
6.221737886410842
 11
4.598815425393872
 21
5.875191596252661
 72
     1
 10
4.598815425393872
 20
5.875191596252661
 11
4.598815425393872
 21
5.693510821043017
 72
     1
 10
4.598815425393872
 20
5.693510821043017
 11
3.454892640750156
 21
4.768291684733691
 97
        0
 75
     2
 76
     1
 98
        0
  0
POLYLINE
  5
D3
330
BE
100
AcDbEntity
  8
Layer 2
 62
     7
420
 16777215
370
    30
100
AcDb2dPolyline
 66
     1
 10
0.0
 20
0.0
 30
0.0
  0
VERTEX
  5
D4
330
D3
100
AcDbEntity
  8
Layer 2
 62
     7
420
 16777215
370
    30
100
AcDbVertex
100
AcDb2dVertex
 10
5.322187411441468
 20
7.220982150063896
 30
0.0
  0
VERTEX
  5
D5
330
D3
100
AcDbEntity
  8
Layer 2
 62
     7
420
 16777215
370
    30
100
AcDbVertex
100
AcDb2dVertex
 10
5.297781138239012
 20
7.106584120010021
 30
0.0
  0
VERTEX
  5
D6
330
D3
100
AcDbEntity
  8
Layer 2
 62
     7
420
 16777215
370
    30
100
AcDbVertex
100
AcDb2dVertex
 10
5.493734537066201
 20
7.140235397565093
 30
0.0
  0
SEQEND
  5
D7
330
D3
100
AcDbEntity
  8
Layer 2
 62
     7
420
 16777215
370
    30
  0
POLYLINE
  5
D8
330
BE
100
AcDbEntity
  8
Layer 2
 62
     7
420
 16777215
370
    20
100
AcDb2dPolyline
 66
     1
 10
0.0
 20
0.0
 30
0.0
  0
VERTEX
  5
D9
330
D8
100
AcDbEntity
  8
Layer 2
 62
     7
420
 16777215
370
    20
100
AcDbVertex
100
AcDb2dVertex
 10
3.165535598768808
 20
6.423605655578361
 30
0.0
  0
VERTEX
  5
DA
330
D8
100
AcDbEntity
  8
Layer 2
 62
     7
420
 16777215
370
    20
100
AcDbVertex
100
AcDb2dVertex
 10
3.461615489237892
 20
6.287345074171121
 30
0.0
  0
VERTEX
  5
DB
330
D8
100
AcDbEntity
  8
Layer 2
 62
     7
420
 16777215
370
    20
100
AcDbVertex
100
AcDb2dVertex
 10
5.113577260086029
 20
7.654997094130143
 30
0.0
  0
SEQEND
  5
DC
330
D8
100
AcDbEntity
  8
Layer 2
 62
     7
420
 16777215
370
    20
  0
POLYLINE
  5
DD
330
BE
100
AcDbEntity
  8
Layer 2
 62
     7
420
 16777215
370
    20
100
AcDb2dPolyline
 66
     1
 10
0.0
 20
0.0
 30
0.0
  0
VERTEX
  5
DE
330
DD
100
AcDbEntity
  8
Layer 2
 62
     7
420
 16777215
370
    20
100
AcDbVertex
100
AcDb2dVertex
 10
3.458264374446912
 20
6.287345074171121
 30
0.0
  0
VERTEX
  5
DF
330
DD
100
AcDbEntity
  8
Layer 2
 62
     7
420
 16777215
370
    20
100
AcDbVertex
100
AcDb2dVertex
 10
3.458264374446912
 20
4.768291684733691
 30
0.0
  0
SEQEND
  5
E0
330
DD
100
AcDbEntity
  8
Layer 2
 62
     7
420
 16777215
370
    20
  0
POLYLINE
  5
E1
330
BE
100
AcDbEntity
  8
Layer 2
 62
     7
420
 16777215
370
    13
100
AcDb2dPolyline
 66
     1
 10
0.0
 20
0.0
 30
0.0
  0
VERTEX
  5
E2
330
E1
100
AcDbEntity
  8
Layer 2
 62
     7
420
 16777215
370
    13
100
AcDbVertex
100
AcDb2dVertex
 10
3.209281320381289
 20
6.396696898338316
 30
0.0
  0
VERTEX
  5
E3
330
E1
100
AcDbEntity
  8
Layer 2
 62
     7
420
 16777215
370
    13
100
AcDbVertex
100
AcDb2dVertex
 10
3.192464974914615
 20
6.228459649693023
 30
0.0
  0
VERTEX
  5
E4
330
E1
100
AcDbEntity
  8
Layer 2
 62
     7
420
 16777215
370
    13
100
AcDbVertex
100
AcDb2dVertex
 10
3.162184483977815
 20
6.134268147297209
 30
0.0
  0
SEQEND
  5
E5
330
E1
100
AcDbEntity
  8
Layer 2
 62
     7
420
 16777215
370
    13
  0
POLYLINE
  5
E6
330
BE
100
AcDbEntity
  8
Layer 2
 62
     7
420
 16777215
370
    13
100
AcDb2dPolyline
 66
     1
 10
0.0
 20
0.0
 30
0.0
  0
VERTEX
  5
E7
330
E6
100
AcDbEntity
  8
Layer 2
 62
     7
420
 16777215
370
    13
100
AcDbVertex
100
AcDb2dVertex
 10
3.256396605279406
 20
6.373139255889264
 30
0.0
  0
VERTEX
  5
E8
330
E6
100
AcDbEntity
  8
Layer 2
 62
     7
420
 16777215
370
    13
100
AcDbVertex
100
AcDb2dVertex
 10
3.239560726112523
 20
6.167899753024989
 30
0.0
  0
VERTEX
  5
E9
330
E6
100
AcDbEntity
  8
Layer 2
 62
     7
420
 16777215
370
    13
100
AcDbVertex
100
AcDb2dVertex
 10
3.165556217674571
 20
5.871840481461681
 30
0.0
  0
SEQEND
  5
EA
330
E6
100
AcDbEntity
  8
Layer 2
 62
     7
420
 16777215
370
    13
  0
POLYLINE
  5
EB
330
BE
100
AcDbEntity
  8
Layer 2
 62
     7
420
 16777215
370
    13
100
AcDb2dPolyline
 66
     1
 10
0.0
 20
0.0
 30
0.0
  0
VERTEX
  5
EC
330
EB
100
AcDbEntity
  8
Layer 2
 62
     7
420
 16777215
370
    13
100
AcDbVertex
100
AcDb2dVertex
 10
3.310214119759482
 20
6.352952261931401
 30
0.0
  0
VERTEX
  5
ED
330
EB
100
AcDbEntity
  8
Layer 2
 62
     7
420
 16777215
370
    13
100
AcDbVertex
100
AcDb2dVertex
 10
3.28372105608782
 20
6.104404375298158
 30
0.0
  0
VERTEX
  5
EE
330
EB
100
AcDbEntity
  8
Layer 2
 62
     7
420
 16777215
370
    13
100
AcDbVertex
100
AcDb2dVertex
 10
3.162184483977815
 20
5.666603149008552
 30
0.0
  0
SEQEND
  5
EF
330
EB
100
AcDbEntity
  8
Layer 2
 62
     7
420
 16777215
370
    13
  0
POLYLINE
  5
F0
330
BE
100
AcDbEntity
  8
Layer 2
 62
     7
420
 16777215
370
    13
100
AcDb2dPolyline
 66
     1
 10
0.0
 20
0.0
 30
0.0
  0
VERTEX
  5
F1
330
F0
100
AcDbEntity
  8
Layer 2
 62
     7
420
 16777215
370
    13
100
AcDbVertex
100
AcDb2dVertex
 10
3.360681604654145
 20
6.32604241948579
 30
0.0
  0
VERTEX
  5
F2
330
F0
100
AcDbEntity
  8
Layer 2
 62
     7
420
 16777215
370
    13
100
AcDbVertex
100
AcDb2dVertex
 10
3.33292427773986
 20
6.038797187537877
 30
0.0
  0
VERTEX
  5
F3
330
F0
100
AcDbEntity
  8
Layer 2
 62
     7
420
 16777215
370
    13
100
AcDbVertex
100
AcDb2dVertex
 10
3.276583599237268
 20
5.814631699584639
 30
0.0
  0
VERTEX
  5
F4
330
F0
100
AcDbEntity
  8
Layer 2
 62
     7
420
 16777215
370
    13
100
AcDbVertex
100
AcDb2dVertex
 10
3.165556217674571
 20
5.444548385883182
 30
0.0
  0
SEQEND
  5
F5
330
F0
100
AcDbEntity
  8
Layer 2
 62
     7
420
 16777215
370
    13
  0
POLYLINE
  5
F6
330
BE
100
AcDbEntity
  8
Layer 2
 62
     7
420
 16777215
370
    13
100
AcDb2dPolyline
 66
     1
 10
0.0
 20
0.0
 30
0.0
  0
VERTEX
  5
F7
330
F6
100
AcDbEntity
  8
Layer 2
 62
     7
420
 16777215
370
    13
100
AcDbVertex
100
AcDb2dVertex
 10
3.431334998301092
 20
6.302484777036739
 30
0.0
  0
VERTEX
  5
F8
330
F6
100
AcDbEntity
  8
Layer 2
 62
     7
420
 16777215
370
    13
100
AcDbVertex
100
AcDb2dVertex
 10
3.380868660902365
 20
6.02324185094009
 30
0.0
  0
VERTEX
  5
F9
330
F6
100
AcDbEntity
  8
Layer 2
 62
     7
420
 16777215
370
    13
100
AcDbVertex
100
AcDb2dVertex
 10
3.33714349590529
 20
5.777629549070424
 30
0.0
  0
VERTEX
  5
FA
330
F6
100
AcDbEntity
  8
Layer 2
 62
     7
420
 16777215
370
    13
100
AcDbVertex
100
AcDb2dVertex
 10
3.165556217674571
 20
5.262867610673538
 30
0.0
  0
SEQEND
  5
FB
330
F6
100
AcDbEntity
  8
Layer 2
 62
     7
420
 16777215
370
    13
  0
POLYLINE
  5
FC
330
BE
100
AcDbEntity
  8
Layer 2
 62
     7
420
 16777215
370
    13
100
AcDb2dPolyline
 66
     1
 10
0.0
 20
0.0
 30
0.0
  0
VERTEX
  5
FD
330
FC
100
AcDbEntity
  8
Layer 2
 62
     7
420
 16777215
370
    13
100
AcDbVertex
100
AcDb2dVertex
 10
3.455308274482339
 20
6.002207311434378
 30
0.0
  0
VERTEX
  5
FE
330
FC
100
AcDbEntity
  8
Layer 2
 62
     7
420
 16777215
370
    13
100
AcDbVertex
100
AcDb2dVertex
 10
3.390962095590933
 20
5.781000093856859
 30
0.0
  0
VERTEX
  5
FF
330
FC
100
AcDbEntity
  8
Layer 2
 62
     7
420
 16777215
370
    13
100
AcDbVertex
100
AcDb2dVertex
 10
3.293398859498375
 20
5.427732040416509
 30
0.0
  0
VERTEX
  5
100
330
FC
100
AcDbEntity
  8
Layer 2
 62
     7
420
 16777215
370
    13
100
AcDbVertex
100
AcDb2dVertex
 10
3.165556217674571
 20
5.10811621160969
 30
0.0
  0
SEQEND
  5
101
330
FC
100
AcDbEntity
  8
Layer 2
 62
     7
420
 16777215
370
    13
  0
POLYLINE
  5
102
330
BE
100
AcDbEntity
  8
Layer 2
 62
     7
420
 16777215
370
    13
100
AcDb2dPolyline
 66
     1
 10
0.0
 20
0.0
 30
0.0
  0
VERTEX
  5
103
330
102
100
AcDbEntity
  8
Layer 2
 62
     7
420
 16777215
370
    13
100
AcDbVertex
100
AcDb2dVertex
 10
3.456568198145659
 20
5.751136321857794
 30
0.0
  0
VERTEX
  5
104
330
102
100
AcDbEntity
  8
Layer 2
 62
     7
420
 16777215
370
    13
100
AcDbVertex
100
AcDb2dVertex
 10
3.333771762208521
 20
5.373894992236223
 30
0.0
  0
VERTEX
  5
105
330
102
100
AcDbEntity
  8
Layer 2
 62
     7
420
 16777215
370
    13
100
AcDbVertex
100
AcDb2dVertex
 10
3.165556217674571
 20
4.949972459943334
 30
0.0
  0
SEQEND
  5
106
330
102
100
AcDbEntity
  8
Layer 2
 62
     7
420
 16777215
370
    13
  0
POLYLINE
  5
107
330
BE
100
AcDbEntity
  8
Layer 2
 62
     7
420
 16777215
370
    13
100
AcDb2dPolyline
 66
     1
 10
0.0
 20
0.0
 30
0.0
  0
VERTEX
  5
108
330
107
100
AcDbEntity
  8
Layer 2
 62
     7
420
 16777215
370
    13
100
AcDbVertex
100
AcDb2dVertex
 10
3.457832462631232
 20
5.540434979374671
 30
0.0
  0
VERTEX
  5
109
330
107
100
AcDbEntity
  8
Layer 2
 62
     7
420
 16777215
370
    13
100
AcDbVertex
100
AcDb2dVertex
 10
3.293398859498375
 20
5.104724944212724
 30
0.0
  0
VERTEX
  5
10A
330
107
100
AcDbEntity
  8
Layer 2
 62
     7
420
 16777215
370
    13
100
AcDbVertex
100
AcDb2dVertex
 10
3.239560726112523
 20
4.906248442442171
 30
0.0
  0
SEQEND
  5
10B
330
107
100
AcDbEntity
  8
Layer 2
 62
     7
420
 16777215
370
    13
  0
POLYLINE
  5
10C
330
BE
100
AcDbEntity
  8
Layer 2
 62
     7
420
 16777215
370
    13
100
AcDb2dPolyline
 66
     1
 10
0.0
 20
0.0
 30
0.0
  0
VERTEX
  5
10D
330
10C
100
AcDbEntity
  8
Layer 2
 62
     7
420
 16777215
370
    13
100
AcDbVertex
100
AcDb2dVertex
 10
3.456568198145659
 20
5.300717410440357
 30
0.0
  0
VERTEX
  5
10E
330
10C
100
AcDbEntity
  8
Layer 2
 62
     7
420
 16777215
370
    13
100
AcDbVertex
100
AcDb2dVertex
 10
3.350588107675208
 20
5.077835720672889
 30
0.0
  0
VERTEX
  5
10F
330
10C
100
AcDbEntity
  8
Layer 2
 62
     7
420
 16777215
370
    13
100
AcDbVertex
100
AcDb2dVertex
 10
3.300121707986111
 20
4.865874454526445
 30
0.0
  0
SEQEND
  5
110
330
10C
100
AcDbEntity
  8
Layer 2
 62
     7
420
 16777215
370
    13
  0
POLYLINE
  5
111
330
BE
100
AcDbEntity
  8
Layer 2
 62
     7
420
 16777215
370
    13
100
AcDb2dPolyline
 66
     1
 10
0.0
 20
0.0
 30
0.0
  0
VERTEX
  5
112
330
111
100
AcDbEntity
  8
Layer 2
 62
     7
420
 16777215
370
    13
100
AcDbVertex
100
AcDb2dVertex
 10
3.459091301088986
 20
5.115253608624041
 30
0.0
  0
VERTEX
  5
113
330
111
100
AcDbEntity
  8
Layer 2
 62
     7
420
 16777215
370
    13
100
AcDbVertex
100
AcDb2dVertex
 10
3.401054507364304
 20
5.01053344181691
 30
0.0
  0
VERTEX
  5
114
330
111
100
AcDbEntity
  8
Layer 2
 62
     7
420
 16777215
370
    13
100
AcDbVertex
100
AcDb2dVertex
 10
3.360681604654145
 20
4.835595128702203
 30
0.0
  0
SEQEND
  5
115
330
111
100
AcDbEntity
  8
Layer 2
 62
     7
420
 16777215
370
    13
  0
POLYLINE
  5
116
330
BE
100
AcDbEntity
  8
Layer 2
 62
     7
420
 16777215
370
    13
100
AcDb2dPolyline
 66
     1
 10
0.0
 20
0.0
 30
0.0
  0
VERTEX
  5
117
330
116
100
AcDbEntity
  8
Layer 2
 62
     7
420
 16777215
370
    13
100
AcDbVertex
100
AcDb2dVertex
 10
3.398531404420964
 20
4.811188854883185
 30
0.0
  0
VERTEX
  5
118
330
116
100
AcDbEntity
  8
Layer 2
 62
     7
420
 16777215
370
    13
100
AcDbVertex
100
AcDb2dVertex
 10
3.431334998301092
 20
4.903292342477597
 30
0.0
  0
VERTEX
  5
119
330
116
100
AcDbEntity
  8
Layer 2
 62
     7
420
 16777215
370
    13
100
AcDbVertex
100
AcDb2dVertex
 10
3.456568198145659
 20
4.926002439378812
 30
0.0
  0
SEQEND
  5
11A
330
116
100
AcDbEntity
  8
Layer 2
 62
     7
420
 16777215
370
    13
  0
POLYLINE
  5
11B
330
BE
100
AcDbEntity
  8
Layer 2
 62
     7
420
 16777215
370
    13
100
AcDb2dPolyline
 66
     1
 10
0.0
 20
0.0
 30
0.0
  0
VERTEX
  5
11C
330
11B
100
AcDbEntity
  8
Layer 2
 62
     7
420
 16777215
370
    13
100
AcDbVertex
100
AcDb2dVertex
 10
5.423516310851634
 20
7.170515750374811
 30
0.0
  0
VERTEX
  5
11D
330
11B
100
AcDbEntity
  8
Layer 2
 62
     7
420
 16777215
370
    13
100
AcDbVertex
100
AcDb2dVertex
 10
5.345293608374655
 20
7.118788341816829
 30
0.0
  0
SEQEND
  5
11E
330
11B
100
AcDbEntity
  8
Layer 2
 62
     7
420
 16777215
370
    13
  0
POLYLINE
  5
11F
330
BE
100
AcDbEntity
  8
Layer 2
 62
     7
420
 16777215
370
    13
100
AcDb2dPolyline
 66
     1
 10
0.0
 20
0.0
 30
0.0
  0
VERTEX
  5
120
330
11F
100
AcDbEntity
  8
Layer 2
 62
     7
420
 16777215
370
    13
100
AcDbVertex
100
AcDb2dVertex
 10
5.370526808219185
 20
7.188178556183756
 30
0.0
  0
VERTEX
  5
121
330
11F
100
AcDbEntity
  8
Layer 2
 62
     7
420
 16777215
370
    13
100
AcDbVertex
100
AcDb2dVertex
 10
5.30744272340227
 20
7.14275836238135
 30
0.0
  0
SEQEND
  5
122
330
11F
100
AcDbEntity
  8
Layer 2
 62
     7
420
 16777215
370
    13
  0
ENDBLK
  5
C1
330
BE
100
AcDbEntity
  8
0
100
AcDbBlockEnd
  0
BLOCK
  5
125
330
123
100
AcDbEntity
  8
0
100
AcDbBlockBegin
  2
block 4
 70
     0
 10
0.0
 20
0.0
 30
0.0
  3
block 4
  1

  0
POLYLINE
  5
127
330
123
100
AcDbEntity
  8
Layer 2
 62
     7
420
 16777215
370
    30
100
AcDb2dPolyline
 66
     1
 10
0.0
 20
0.0
 30
0.0
  0
VERTEX
  5
128
330
127
100
AcDbEntity
  8
Layer 2
 62
     7
420
 16777215
370
    30
100
AcDbVertex
100
AcDb2dVertex
 10
4.600471449089178
 20
5.752415779221324
 30
0.0
  0
VERTEX
  5
129
330
127
100
AcDbEntity
  8
Layer 2
 62
     7
420
 16777215
370
    30
100
AcDbVertex
100
AcDb2dVertex
 10
4.600471449089178
 20
5.483266350103602
 30
0.0
  0
VERTEX
  5
12A
330
127
100
AcDbEntity
  8
Layer 2
 62
     7
420
 16777215
370
    30
100
AcDbVertex
100
AcDb2dVertex
 10
4.903272017634865
 20
5.326818774738513
 30
0.0
  0
VERTEX
  5
12B
330
127
100
AcDbEntity
  8
Layer 2
 62
     7
420
 16777215
370
    30
100
AcDbVertex
100
AcDb2dVertex
 10
4.933552508571665
 20
5.341959562809708
 30
0.0
  0
VERTEX
  5
12C
330
127
100
AcDbEntity
  8
Layer 2
 62
     7
420
 16777215
370
    30
100
AcDbVertex
100
AcDb2dVertex
 10
4.933552508571665
 20
5.710367319115676
 30
0.0
  0
VERTEX
  5
12D
330
127
100
AcDbEntity
  8
Layer 2
 62
     7
420
 16777215
370
    30
100
AcDbVertex
100
AcDb2dVertex
 10
4.647586733987282
 20
6.093915863492839
 30
0.0
  0
VERTEX
  5
12E
330
127
100
AcDbEntity
  8
Layer 2
 62
     7
420
 16777215
370
    30
100
AcDbVertex
100
AcDb2dVertex
 10
4.647586733987282
 20
6.425301951945976
 30
0.0
  0
VERTEX
  5
12F
330
127
100
AcDbEntity
  8
Layer 2
 62
     7
420
 16777215
370
    30
100
AcDbVertex
100
AcDb2dVertex
 10
4.612260037163802
 20
6.442137711046497
 30
0.0
  0
VERTEX
  5
130
330
127
100
AcDbEntity
  8
Layer 2
 62
     7
420
 16777215
370
    30
100
AcDbVertex
100
AcDb2dVertex
 10
4.327950286274699
 20
6.309227159224683
 30
0.0
  0
VERTEX
  5
131
330
127
100
AcDbEntity
  8
Layer 2
 62
     7
420
 16777215
370
    30
100
AcDbVertex
100
AcDb2dVertex
 10
4.327950286274699
 20
5.982257977495692
 30
0.0
  0
VERTEX
  5
132
330
127
100
AcDbEntity
  8
Layer 2
 62
     7
420
 16777215
370
    30
100
AcDbVertex
100
AcDb2dVertex
 10
4.600471449089178
 20
5.752415779221324
 30
0.0
  0
SEQEND
  5
134
330
127
100
AcDbEntity
  8
Layer 2
 62
     7
420
 16777215
370
    30
  0
HATCH
  5
133
330
123
100
AcDbEntity
  8
Layer 2
 62
   254
420
 13358815
100
AcDbHatch
 10
0.0
 20
0.0
 30
0.0
210
0.0
220
0.0
230
1.0
  2
SOLID
 70
     1
 71
     0
 91
        1
 92
        1
 93
       10
 72
     1
 10
4.600471449089178
 20
5.752415779221324
 11
4.600471449089178
 21
5.483266350103602
 72
     1
 10
4.600471449089178
 20
5.483266350103602
 11
4.903272017634865
 21
5.326818774738513
 72
     1
 10
4.903272017634865
 20
5.326818774738513
 11
4.933552508571665
 21
5.341959562809708
 72
     1
 10
4.933552508571665
 20
5.341959562809708
 11
4.933552508571665
 21
5.710367319115676
 72
     1
 10
4.933552508571665
 20
5.710367319115676
 11
4.647586733987282
 21
6.093915863492839
 72
     1
 10
4.647586733987282
 20
6.093915863492839
 11
4.647586733987282
 21
6.425301951945976
 72
     1
 10
4.647586733987282
 20
6.425301951945976
 11
4.612260037163802
 21
6.442137711046497
 72
     1
 10
4.612260037163802
 20
6.442137711046497
 11
4.327950286274699
 21
6.309227159224683
 72
     1
 10
4.327950286274699
 20
6.309227159224683
 11
4.327950286274699
 21
5.982257977495692
 72
     1
 10
4.327950286274699
 20
5.982257977495692
 11
4.600471449089178
 21
5.752415779221324
 97
        0
 75
     2
 76
     1
 98
        0
  0
POLYLINE
  5
135
330
123
100
AcDbEntity
  8
Layer 2
 62
     7
420
 16777215
370
    13
100
AcDb2dPolyline
 66
     1
 10
0.0
 20
0.0
 30
0.0
  0
VERTEX
  5
136
330
135
100
AcDbEntity
  8
Layer 2
 62
     7
420
 16777215
370
    13
100
AcDbVertex
100
AcDb2dVertex
 10
4.362448971250513
 20
5.956391017600001
 30
0.0
  0
VERTEX
  5
137
330
135
100
AcDbEntity
  8
Layer 2
 62
     7
420
 16777215
370
    13
100
AcDbVertex
100
AcDb2dVertex
 10
4.362448971250513
 20
6.29010583713365
 30
0.0
  0
VERTEX
  5
138
330
135
100
AcDbEntity
  8
Layer 2
 62
     7
420
 16777215
370
    13
100
AcDbVertex
100
AcDb2dVertex
 10
4.647586733987282
 20
6.425301951945976
 30
0.0
  0
SEQEND
  5
139
330
135
100
AcDbEntity
  8
Layer 2
 62
     7
420
 16777215
370
    13
  0
POLYLINE
  5
13A
330
123
100
AcDbEntity
  8
Layer 2
 62
     7
420
 16777215
370
    20
100
AcDb2dPolyline
 66
     1
 10
0.0
 20
0.0
 30
0.0
  0
VERTEX
  5
13B
330
13A
100
AcDbEntity
  8
Layer 2
 62
     7
420
 16777215
370
    20
100
AcDbVertex
100
AcDb2dVertex
 10
4.612260037163802
 20
6.047231405204823
 30
0.0
  0
VERTEX
  5
13C
330
13A
100
AcDbEntity
  8
Layer 2
 62
     7
420
 16777215
370
    20
100
AcDbVertex
100
AcDb2dVertex
 10
4.612260037163802
 20
5.831488302722619
 30
0.0
  0
SEQEND
  5
13D
330
13A
100
AcDbEntity
  8
Layer 2
 62
     7
420
 16777215
370
    20
  0
POLYLINE
  5
13E
330
123
100
AcDbEntity
  8
Layer 2
 62
     7
420
 16777215
370
    13
100
AcDb2dPolyline
 66
     1
 10
0.0
 20
0.0
 30
0.0
  0
VERTEX
  5
13F
330
13E
100
AcDbEntity
  8
Layer 2
 62
     7
420
 16777215
370
    13
100
AcDbVertex
100
AcDb2dVertex
 10
4.633710210401684
 20
6.052277611091514
 30
0.0
  0
VERTEX
  5
140
330
13E
100
AcDbEntity
  8
Layer 2
 62
     7
420
 16777215
370
    13
100
AcDbVertex
100
AcDb2dVertex
 10
4.633710210401684
 20
5.865550629995179
 30
0.0
  0
SEQEND
  5
141
330
13E
100
AcDbEntity
  8
Layer 2
 62
     7
420
 16777215
370
    13
  0
POLYLINE
  5
142
330
123
100
AcDbEntity
  8
Layer 2
 62
     7
420
 16777215
370
    13
100
AcDb2dPolyline
 66
     1
 10
0.0
 20
0.0
 30
0.0
  0
VERTEX
  5
143
330
142
100
AcDbEntity
  8
Layer 2
 62
     7
420
 16777215
370
    13
100
AcDbVertex
100
AcDb2dVertex
 10
4.637493331043717
 20
6.051018772633761
 30
0.0
  0
VERTEX
  5
144
330
142
100
AcDbEntity
  8
Layer 2
 62
     7
420
 16777215
370
    13
100
AcDbVertex
100
AcDb2dVertex
 10
4.902444005787225
 20
5.697750719193398
 30
0.0
  0
VERTEX
  5
145
330
142
100
AcDbEntity
  8
Layer 2
 62
     7
420
 16777215
370
    13
100
AcDbVertex
100
AcDb2dVertex
 10
4.902444005787225
 20
5.334389168774098
 30
0.0
  0
SEQEND
  5
146
330
142
100
AcDbEntity
  8
Layer 2
 62
     7
420
 16777215
370
    13
  0
POLYLINE
  5
147
330
123
100
AcDbEntity
  8
Layer 2
 62
     7
420
 16777215
370
    13
100
AcDb2dPolyline
 66
     1
 10
0.0
 20
0.0
 30
0.0
  0
VERTEX
  5
148
330
147
100
AcDbEntity
  8
Layer 2
 62
     7
420
 16777215
370
    13
100
AcDbVertex
100
AcDb2dVertex
 10
4.330908556650431
 20
6.307135968097024
 30
0.0
  0
VERTEX
  5
149
330
147
100
AcDbEntity
  8
Layer 2
 62
     7
420
 16777215
370
    13
100
AcDbVertex
100
AcDb2dVertex
 10
4.362448971250513
 20
6.29010583713365
 30
0.0
  0
SEQEND
  5
14A
330
147
100
AcDbEntity
  8
Layer 2
 62
     7
420
 16777215
370
    13
  0
POLYLINE
  5
14B
330
123
100
AcDbEntity
  8
Layer 2
 62
     7
420
 16777215
370
    13
100
AcDb2dPolyline
 66
     1
 10
0.0
 20
0.0
 30
0.0
  0
VERTEX
  5
14C
330
14B
100
AcDbEntity
  8
Layer 2
 62
     7
420
 16777215
370
    13
100
AcDbVertex
100
AcDb2dVertex
 10
4.933552508571665
 20
5.710367319115676
 30
0.0
  0
VERTEX
  5
14D
330
14B
100
AcDbEntity
  8
Layer 2
 62
     7
420
 16777215
370
    13
100
AcDbVertex
100
AcDb2dVertex
 10
4.902444005787225
 20
5.697750719193398
 30
0.0
  0
SEQEND
  5
14E
330
14B
100
AcDbEntity
  8
Layer 2
 62
     7
420
 16777215
370
    13
  0
INSERT
  5
150
330
123
100
AcDbEntity
  8
Layer 2
100
AcDbBlockReference
  2
block 5
 10
0.0
 20
0.0
 30
0.0
  0
INSERT
  5
170
330
123
100
AcDbEntity
  8
Layer 2
100
AcDbBlockReference
  2
block 10
 10
0.0
 20
0.0
 30
0.0
  0
ENDBLK
  5
126
330
123
100
AcDbEntity
  8
0
100
AcDbBlockEnd
  0
BLOCK
  5
151
330
14F
100
AcDbEntity
  8
0
100
AcDbBlockBegin
  2
block 5
 70
     0
 10
0.0
 20
0.0
 30
0.0
  3
block 5
  1

  0
INSERT
  5
154
330
14F
100
AcDbEntity
  8
Layer 2
100
AcDbBlockReference
  2
block 6
 10
0.0
 20
0.0
 30
0.0
  0
INSERT
  5
15B
330
14F
100
AcDbEntity
  8
Layer 2
100
AcDbBlockReference
  2
block 7
 10
0.0
 20
0.0
 30
0.0
  0
INSERT
  5
162
330
14F
100
AcDbEntity
  8
Layer 2
100
AcDbBlockReference
  2
block 8
 10
0.0
 20
0.0
 30
0.0
  0
INSERT
  5
169
330
14F
100
AcDbEntity
  8
Layer 2
100
AcDbBlockReference
  2
block 9
 10
0.0
 20
0.0
 30
0.0
  0
ENDBLK
  5
152
330
14F
100
AcDbEntity
  8
0
100
AcDbBlockEnd
  0
BLOCK
  5
155
330
153
100
AcDbEntity
  8
0
100
AcDbBlockBegin
  2
block 6
 70
     0
 10
0.0
 20
0.0
 30
0.0
  3
block 6
  1

  0
SPLINE
  5
157
330
153
100
AcDbEntity
  8
Layer 2
 62
     7
420
 16777215
370
    20
100
AcDbSpline
210
0.0
220
0.0
230
1.0
 70
    11
 71
     3
 72
    17
 73
    13
 74
     0
 42
0.0000000001
 43
0.0000000001
 12
1.0
 22
0.0
 32
0.0
 13
1.0
 23
0.0
 33
0.0
 40
0.0
 40
0.0
 40
0.0
 40
0.0
 40
1.0
 40
1.0
 40
1.0
 40
2.0
 40
2.0
 40
2.0
 40
3.0
 40
3.0
 40
3.0
 40
4.0
 40
4.0
 40
4.0
 40
4.0
 10
4.550358826414922
 20
6.303885777423766
 30
0.0
 10
4.545550280547407
 20
6.285237604959952
 30
0.0
 10
4.55217220491742
 20
6.267395740232435
 30
0.0
 10
4.565103514454121
 20
6.264045710647022
 30
0.0
 10
4.578116214408358
 20
6.260690255033763
 30
0.0
 10
4.592545107627605
 20
6.273093069459352
 30
0.0
 10
4.597357994317361
 20
6.29176186082893
 30
0.0
 10
4.602166540184852
 20
6.310390499592535
 30
0.0
 10
4.595541360198139
 20
6.328210660208722
 30
0.0
 10
4.582568812849886
 20
6.331582393905478
 30
0.0
 10
4.569600606323901
 20
6.334912889790681
 30
0.0
 10
4.555167372282439
 20
6.322533949887593
 30
0.0
 10
4.550358826414922
 20
6.303885777423766
 30
0.0
  0
SPLINE
  5
158
330
153
100
AcDbEntity
  8
Layer 2
 62
     7
420
 16777215
370
    20
100
AcDbSpline
210
0.0
220
0.0
230
1.0
 70
    11
 71
     3
 72
    17
 73
    13
 74
     0
 42
0.0000000001
 43
0.0000000001
 12
1.0
 22
0.0
 32
0.0
 13
1.0
 23
0.0
 33
0.0
 40
0.0
 40
0.0
 40
0.0
 40
0.0
 40
1.0
 40
1.0
 40
1.0
 40
2.0
 40
2.0
 40
2.0
 40
3.0
 40
3.0
 40
3.0
 40
4.0
 40
4.0
 40
4.0
 40
4.0
 10
4.562503361915534
 20
6.300849372247221
 30
0.0
 10
4.557690475225778
 20
6.282201199783407
 30
0.0
 10
4.564275502606506
 20
6.264360420261457
 30
0.0
 10
4.577248049954758
 20
6.261009305470477
 30
0.0
 10
4.590259664703429
 20
6.257653849857219
 30
0.0
 10
4.604649490522206
 20
6.270056664282795
 30
0.0
 10
4.609461292006421
 20
6.288725455652385
 30
0.0
 10
4.614311075685489
 20
6.3073736281162
 30
0.0
 10
4.607685895698776
 20
6.325175340237731
 30
0.0
 10
4.594677536566804
 20
6.328545988728933
 30
0.0
 10
4.581741886207813
 20
6.331877569819703
 30
0.0
 10
4.567311907783025
 20
6.319498629916615
 30
0.0
 10
4.562503361915534
 20
6.300849372247221
 30
0.0
  0
HATCH
  5
159
330
153
100
AcDbEntity
  8
Layer 2
 62
   254
420
 13358815
100
AcDbHatch
 10
0.0
 20
0.0
 30
0.0
210
0.0
220
0.0
230
1.0
  2
SOLID
 70
     1
 71
     0
 91
        1
 92
        1
 93
        1
 72
     4
 94
        3
 73
     0
 74
     1
 95
       17
 96
       13
 40
0.0
 40
0.0
 40
0.0
 40
0.0
 40
1.0
 40
1.0
 40
1.0
 40
2.0
 40
2.0
 40
2.0
 40
3.0
 40
3.0
 40
3.0
 40
4.0
 40
4.0
 40
4.0
 40
4.0
 10
4.562503361915534
 20
6.300849372247221
 10
4.557690475225778
 20
6.282201199783407
 10
4.564275502606506
 20
6.264360420261457
 10
4.577248049954758
 20
6.261009305470477
 10
4.590259664703429
 20
6.257653849857219
 10
4.604649490522206
 20
6.270056664282795
 10
4.609461292006421
 20
6.288725455652385
 10
4.614311075685489
 20
6.3073736281162
 10
4.607685895698776
 20
6.325175340237731
 10
4.594677536566804
 20
6.328545988728933
 10
4.581741886207813
 20
6.331877569819703
 10
4.567311907783025
 20
6.319498629916615
 10
4.562503361915534
 20
6.300849372247221
 97
        0
 97
        0
 75
     2
 76
     1
 98
        0
  0
ENDBLK
  5
156
330
153
100
AcDbEntity
  8
0
100
AcDbBlockEnd
  0
BLOCK
  5
15C
330
15A
100
AcDbEntity
  8
0
100
AcDbBlockBegin
  2
block 7
 70
     0
 10
0.0
 20
0.0
 30
0.0
  3
block 7
  1

  0
SPLINE
  5
15E
330
15A
100
AcDbEntity
  8
Layer 2
 62
     7
420
 16777215
370
    20
100
AcDbSpline
210
0.0
220
0.0
230
1.0
 70
    11
 71
     3
 72
    17
 73
    13
 74
     0
 42
0.0000000001
 43
0.0000000001
 12
1.0
 22
0.0
 32
0.0
 13
1.0
 23
0.0
 33
0.0
 40
0.0
 40
0.0
 40
0.0
 40
0.0
 40
1.0
 40
1.0
 40
1.0
 40
2.0
 40
2.0
 40
2.0
 40
3.0
 40
3.0
 40
3.0
 40
4.0
 40
4.0
 40
4.0
 40
4.0
 10
4.406529024378364
 20
6.238278589663499
 30
0.0
 10
4.401720390310149
 20
6.219630417199672
 30
0.0
 10
4.408301076868611
 20
6.201789637677734
 30
0.0
 10
4.421312691617307
 20
6.198438522886741
 30
0.0
 10
4.434285238965559
 20
6.195083067273496
 30
0.0
 10
4.44867397957877
 20
6.20748588169906
 30
0.0
 10
4.453486866268551
 20
6.22615467306865
 30
0.0
 10
4.458335564742052
 20
6.244783311832268
 30
0.0
 10
4.451710384755339
 20
6.262603472448442
 30
0.0
 10
4.438738922612629
 20
6.265975206145198
 30
0.0
 10
4.425730563480657
 20
6.269305702030401
 30
0.0
 10
4.41137763465114
 20
6.25692784733288
 30
0.0
 10
4.406529024378364
 20
6.238278589663499
 30
0.0
  0
SPLINE
  5
15F
330
15A
100
AcDbEntity
  8
Layer 2
 62
     7
420
 16777215
370
    20
100
AcDbSpline
210
0.0
220
0.0
230
1.0
 70
    11
 71
     3
 72
    17
 73
    13
 74
     0
 42
0.0000000001
 43
0.0000000001
 12
1.0
 22
0.0
 32
0.0
 13
1.0
 23
0.0
 33
0.0
 40
0.0
 40
0.0
 40
0.0
 40
0.0
 40
1.0
 40
1.0
 40
1.0
 40
2.0
 40
2.0
 40
2.0
 40
3.0
 40
3.0
 40
3.0
 40
4.0
 40
4.0
 40
4.0
 40
4.0
 10
4.41863223386675
 20
6.235243269692533
 30
0.0
 10
4.413824773204801
 20
6.216594012023127
 30
0.0
 10
4.420445612369248
 20
6.198753232501176
 30
0.0
 10
4.433457227117893
 20
6.195402117710197
 30
0.0
 10
4.446389621860185
 20
6.192046662096964
 30
0.0
 10
4.460818515079406
 20
6.204449476522515
 30
0.0
 10
4.465631401769163
 20
6.223118267892105
 30
0.0
 10
4.470439947636678
 20
6.241767525561486
 30
0.0
 10
4.463854920255926
 20
6.259568152477463
 30
0.0
 10
4.450882372907674
 20
6.262938800968653
 30
0.0
 10
4.437874013775702
 20
6.266270382059436
 30
0.0
 10
4.423480932340226
 20
6.253891442156335
 30
0.0
 10
4.41863223386675
 20
6.235243269692533
 30
0.0
  0
HATCH
  5
160
330
15A
100
AcDbEntity
  8
Layer 2
 62
   254
420
 13358815
100
AcDbHatch
 10
0.0
 20
0.0
 30
0.0
210
0.0
220
0.0
230
1.0
  2
SOLID
 70
     1
 71
     0
 91
        1
 92
        1
 93
        1
 72
     4
 94
        3
 73
     0
 74
     1
 95
       17
 96
       13
 40
0.0
 40
0.0
 40
0.0
 40
0.0
 40
1.0
 40
1.0
 40
1.0
 40
2.0
 40
2.0
 40
2.0
 40
3.0
 40
3.0
 40
3.0
 40
4.0
 40
4.0
 40
4.0
 40
4.0
 10
4.41863223386675
 20
6.235243269692533
 10
4.413824773204801
 20
6.216594012023127
 10
4.420445612369248
 20
6.198753232501176
 10
4.433457227117893
 20
6.195402117710197
 10
4.446389621860185
 20
6.192046662096964
 10
4.460818515079406
 20
6.204449476522515
 10
4.465631401769163
 20
6.223118267892105
 10
4.470439947636678
 20
6.241767525561486
 10
4.463854920255926
 20
6.259568152477463
 10
4.450882372907674
 20
6.262938800968653
 10
4.437874013775702
 20
6.266270382059436
 10
4.423480932340226
 20
6.253891442156335
 10
4.41863223386675
 20
6.235243269692533
 97
        0
 97
        0
 75
     2
 76
     1
 98
        0
  0
ENDBLK
  5
15D
330
15A
100
AcDbEntity
  8
0
100
AcDbBlockEnd
  0
BLOCK
  5
163
330
161
100
AcDbEntity
  8
0
100
AcDbBlockBegin
  2
block 8
 70
     0
 10
0.0
 20
0.0
 30
0.0
  3
block 8
  1

  0
SPLINE
  5
165
330
161
100
AcDbEntity
  8
Layer 2
 62
     7
420
 16777215
370
    20
100
AcDbSpline
210
0.0
220
0.0
230
1.0
 70
    11
 71
     3
 72
    17
 73
    13
 74
     0
 42
0.0000000001
 43
0.0000000001
 12
1.0
 22
0.0
 32
0.0
 13
1.0
 23
0.0
 33
0.0
 40
0.0
 40
0.0
 40
0.0
 40
0.0
 40
1.0
 40
1.0
 40
1.0
 40
2.0
 40
2.0
 40
2.0
 40
3.0
 40
3.0
 40
3.0
 40
4.0
 40
4.0
 40
4.0
 40
4.0
 10
4.550358826414922
 20
6.129775396249721
 30
0.0
 10
4.545550280547407
 20
6.111126138580326
 30
0.0
 10
4.55217220491742
 20
6.093285359058377
 30
0.0
 10
4.565103514454121
 20
6.089934244267397
 30
0.0
 10
4.578116214408358
 20
6.086579873859717
 30
0.0
 10
4.592545107627605
 20
6.098982688285282
 30
0.0
 10
4.597357994317361
 20
6.117650394449305
 30
0.0
 10
4.602166540184852
 20
6.13627914597795
 30
0.0
 10
4.595541360198139
 20
6.154100279034664
 30
0.0
 10
4.582568812849886
 20
6.157470927525853
 30
0.0
 10
4.569600606323901
 20
6.160802508616623
 30
0.0
 10
4.555167372282439
 20
6.148423568713548
 30
0.0
 10
4.550358826414922
 20
6.129775396249721
 30
0.0
  0
SPLINE
  5
166
330
161
100
AcDbEntity
  8
Layer 2
 62
     7
420
 16777215
370
    20
100
AcDbSpline
210
0.0
220
0.0
230
1.0
 70
    11
 71
     3
 72
    17
 73
    13
 74
     0
 42
0.0000000001
 43
0.0000000001
 12
1.0
 22
0.0
 32
0.0
 13
1.0
 23
0.0
 33
0.0
 40
0.0
 40
0.0
 40
0.0
 40
0.0
 40
1.0
 40
1.0
 40
1.0
 40
2.0
 40
2.0
 40
2.0
 40
3.0
 40
3.0
 40
3.0
 40
4.0
 40
4.0
 40
4.0
 40
4.0
 10
4.562503361915534
 20
6.126738991073176
 30
0.0
 10
4.557690475225778
 20
6.108090818609349
 30
0.0
 10
4.564275502606506
 20
6.090248953881832
 30
0.0
 10
4.577248049954758
 20
6.086898924296419
 30
0.0
 10
4.590259664703429
 20
6.083543468683173
 30
0.0
 10
4.604649490522206
 20
6.095946283108737
 30
0.0
 10
4.609461292006421
 20
6.114615074478327
 30
0.0
 10
4.614311075685489
 20
6.133263246942142
 30
0.0
 10
4.607685895698776
 20
6.151063873858119
 30
0.0
 10
4.594677536566804
 20
6.154435607554874
 30
0.0
 10
4.581741886207813
 20
6.157766216747922
 30
0.0
 10
4.567311907783025
 20
6.14538716353699
 30
0.0
 10
4.562503361915534
 20
6.126738991073176
 30
0.0
  0
HATCH
  5
167
330
161
100
AcDbEntity
  8
Layer 2
 62
   254
420
 13358815
100
AcDbHatch
 10
0.0
 20
0.0
 30
0.0
210
0.0
220
0.0
230
1.0
  2
SOLID
 70
     1
 71
     0
 91
        1
 92
        1
 93
        1
 72
     4
 94
        3
 73
     0
 74
     1
 95
       17
 96
       13
 40
0.0
 40
0.0
 40
0.0
 40
0.0
 40
1.0
 40
1.0
 40
1.0
 40
2.0
 40
2.0
 40
2.0
 40
3.0
 40
3.0
 40
3.0
 40
4.0
 40
4.0
 40
4.0
 40
4.0
 10
4.562503361915534
 20
6.126738991073176
 10
4.557690475225778
 20
6.108090818609349
 10
4.564275502606506
 20
6.090248953881832
 10
4.577248049954758
 20
6.086898924296419
 10
4.590259664703429
 20
6.083543468683173
 10
4.604649490522206
 20
6.095946283108737
 10
4.609461292006421
 20
6.114615074478327
 10
4.614311075685489
 20
6.133263246942142
 10
4.607685895698776
 20
6.151063873858119
 10
4.594677536566804
 20
6.154435607554874
 10
4.581741886207813
 20
6.157766216747922
 10
4.567311907783025
 20
6.14538716353699
 10
4.562503361915534
 20
6.126738991073176
 97
        0
 97
        0
 75
     2
 76
     1
 98
        0
  0
ENDBLK
  5
164
330
161
100
AcDbEntity
  8
0
100
AcDbBlockEnd
  0
BLOCK
  5
16A
330
168
100
AcDbEntity
  8
0
100
AcDbBlockBegin
  2
block 9
 70
     0
 10
0.0
 20
0.0
 30
0.0
  3
block 9
  1

  0
SPLINE
  5
16C
330
168
100
AcDbEntity
  8
Layer 2
 62
     7
420
 16777215
370
    20
100
AcDbSpline
210
0.0
220
0.0
230
1.0
 70
    11
 71
     3
 72
    17
 73
    13
 74
     0
 42
0.0000000001
 43
0.0000000001
 12
1.0
 22
0.0
 32
0.0
 13
1.0
 23
0.0
 33
0.0
 40
0.0
 40
0.0
 40
0.0
 40
0.0
 40
1.0
 40
1.0
 40
1.0
 40
2.0
 40
2.0
 40
2.0
 40
3.0
 40
3.0
 40
3.0
 40
4.0
 40
4.0
 40
4.0
 40
4.0
 10
4.406529024378364
 20
6.06416820848944
 30
0.0
 10
4.401720390310149
 20
6.045520036025626
 30
0.0
 10
4.408301076868611
 20
6.027678171298109
 30
0.0
 10
4.421312691617307
 20
6.024327056507117
 30
0.0
 10
4.434285238965559
 20
6.02097268609945
 30
0.0
 10
4.44867397957877
 20
6.033375500525001
 30
0.0
 10
4.453486866268551
 20
6.052044291894592
 30
0.0
 10
4.458335564742052
 20
6.070671845452643
 30
0.0
 10
4.451710384755339
 20
6.088493091274383
 30
0.0
 10
4.438738922612629
 20
6.09186482497114
 30
0.0
 10
4.425730563480657
 20
6.095195320856356
 30
0.0
 10
4.41137763465114
 20
6.082816380953255
 30
0.0
 10
4.406529024378364
 20
6.06416820848944
 30
0.0
  0
SPLINE
  5
16D
330
168
100
AcDbEntity
  8
Layer 2
 62
     7
420
 16777215
370
    20
100
AcDbSpline
210
0.0
220
0.0
230
1.0
 70
    11
 71
     3
 72
    17
 73
    13
 74
     0
 42
0.0000000001
 43
0.0000000001
 12
1.0
 22
0.0
 32
0.0
 13
1.0
 23
0.0
 33
0.0
 40
0.0
 40
0.0
 40
0.0
 40
0.0
 40
1.0
 40
1.0
 40
1.0
 40
2.0
 40
2.0
 40
2.0
 40
3.0
 40
3.0
 40
3.0
 40
4.0
 40
4.0
 40
4.0
 40
4.0
 10
4.41863223386675
 20
6.061132888518462
 30
0.0
 10
4.413824773204801
 20
6.042483630849081
 30
0.0
 10
4.420445612369248
 20
6.024642851327118
 30
0.0
 10
4.433457227117893
 20
6.021291736536138
 30
0.0
 10
4.446389621860185
 20
6.017936280922893
 30
0.0
 10
4.460818515079406
 20
6.030339095348457
 30
0.0
 10
4.465631401769163
 20
6.049007886718047
 30
0.0
 10
4.470439947636678
 20
6.067656059181874
 30
0.0
 10
4.463854920255926
 20
6.085456686097839
 30
0.0
 10
4.450882372907674
 20
6.088828419794595
 30
0.0
 10
4.437874013775702
 20
6.092158915679811
 30
0.0
 10
4.423480932340226
 20
6.079781060982277
 30
0.0
 10
4.41863223386675
 20
6.061132888518462
 30
0.0
  0
HATCH
  5
16E
330
168
100
AcDbEntity
  8
Layer 2
 62
   254
420
 13358815
100
AcDbHatch
 10
0.0
 20
0.0
 30
0.0
210
0.0
220
0.0
230
1.0
  2
SOLID
 70
     1
 71
     0
 91
        1
 92
        1
 93
        1
 72
     4
 94
        3
 73
     0
 74
     1
 95
       17
 96
       13
 40
0.0
 40
0.0
 40
0.0
 40
0.0
 40
1.0
 40
1.0
 40
1.0
 40
2.0
 40
2.0
 40
2.0
 40
3.0
 40
3.0
 40
3.0
 40
4.0
 40
4.0
 40
4.0
 40
4.0
 10
4.41863223386675
 20
6.061132888518462
 10
4.413824773204801
 20
6.042483630849081
 10
4.420445612369248
 20
6.024642851327118
 10
4.433457227117893
 20
6.021291736536138
 10
4.446389621860185
 20
6.017936280922893
 10
4.460818515079406
 20
6.030339095348457
 10
4.465631401769163
 20
6.049007886718047
 10
4.470439947636678
 20
6.067656059181874
 10
4.463854920255926
 20
6.085456686097839
 10
4.450882372907674
 20
6.088828419794595
 10
4.437874013775702
 20
6.092158915679811
 10
4.423480932340226
 20
6.079781060982277
 10
4.41863223386675
 20
6.061132888518462
 97
        0
 97
        0
 75
     2
 76
     1
 98
        0
  0
ENDBLK
  5
16B
330
168
100
AcDbEntity
  8
0
100
AcDbBlockEnd
  0
BLOCK
  5
171
330
16F
100
AcDbEntity
  8
0
100
AcDbBlockBegin
  2
block 10
 70
     0
 10
0.0
 20
0.0
 30
0.0
  3
block 10
  1

  0
INSERT
  5
174
330
16F
100
AcDbEntity
  8
Layer 2
100
AcDbBlockReference
  2
block 11
 10
0.0
 20
0.0
 30
0.0
  0
INSERT
  5
17B
330
16F
100
AcDbEntity
  8
Layer 2
100
AcDbBlockReference
  2
block 12
 10
0.0
 20
0.0
 30
0.0
  0
INSERT
  5
182
330
16F
100
AcDbEntity
  8
Layer 2
100
AcDbBlockReference
  2
block 13
 10
0.0
 20
0.0
 30
0.0
  0
INSERT
  5
189
330
16F
100
AcDbEntity
  8
Layer 2
100
AcDbBlockReference
  2
block 14
 10
0.0
 20
0.0
 30
0.0
  0
ENDBLK
  5
172
330
16F
100
AcDbEntity
  8
0
100
AcDbBlockEnd
  0
BLOCK
  5
175
330
173
100
AcDbEntity
  8
0
100
AcDbBlockBegin
  2
block 11
 70
     0
 10
0.0
 20
0.0
 30
0.0
  3
block 11
  1

  0
SPLINE
  5
177
330
173
100
AcDbEntity
  8
Layer 2
 62
     7
420
 16777215
370
    20
100
AcDbSpline
210
0.0
220
0.0
230
1.0
 70
    11
 71
     3
 72
    17
 73
    13
 74
     0
 42
0.0000000001
 43
0.0000000001
 12
1.0
 22
0.0
 32
0.0
 13
1.0
 23
0.0
 33
0.0
 40
0.0
 40
0.0
 40
0.0
 40
0.0
 40
1.0
 40
1.0
 40
1.0
 40
2.0
 40
2.0
 40
2.0
 40
3.0
 40
3.0
 40
3.0
 40
4.0
 40
4.0
 40
4.0
 40
4.0
 10
4.858719988286061
 20
5.640282573185837
 30
0.0
 10
4.863528534153576
 20
5.621634400722024
 30
0.0
 10
4.856943606351984
 20
5.603773002294298
 30
0.0
 10
4.843975399498403
 20
5.600421887503317
 30
0.0
 10
4.830963784421025
 20
5.597070772712325
 30
0.0
 10
4.816569518857123
 20
5.609489865221399
 30
0.0
 10
4.811720820383647
 20
5.628142478435898
 30
0.0
 10
4.806912274516131
 20
5.646750398365321
 30
0.0
 10
4.813537454502844
 20
5.664571644187061
 30
0.0
 10
4.826505661028831
 20
5.667922758978054
 30
0.0
 10
4.839478208377082
 20
5.671273873769021
 30
0.0
 10
4.85391144241857
 20
5.658894933865946
 30
0.0
 10
4.858719988286061
 20
5.640282573185837
 30
0.0
  0
SPLINE
  5
178
330
173
100
AcDbEntity
  8
Layer 2
 62
     7
420
 16777215
370
    20
100
AcDbSpline
210
0.0
220
0.0
230
1.0
 70
    11
 71
     3
 72
    17
 73
    13
 74
     0
 42
0.0000000001
 43
0.0000000001
 12
1.0
 22
0.0
 32
0.0
 13
1.0
 23
0.0
 33
0.0
 40
0.0
 40
0.0
 40
0.0
 40
0.0
 40
1.0
 40
1.0
 40
1.0
 40
2.0
 40
2.0
 40
2.0
 40
3.0
 40
3.0
 40
3.0
 40
4.0
 40
4.0
 40
4.0
 40
4.0
 10
4.846615605391435
 20
5.637246168009293
 30
0.0
 10
4.85138833947523
 20
5.618597995545466
 30
0.0
 10
4.844803312094503
 20
5.600776749723726
 30
0.0
 10
4.831830764746251
 20
5.59738548232676
 30
0.0
 10
4.81885930260354
 20
5.594034466602541
 30
0.0
 10
4.804429324178778
 20
5.60645780086712
 30
0.0
 10
4.799616437488996
 20
5.625142870320221
 30
0.0
 10
4.794808976827071
 20
5.643713993188777
 30
0.0
 10
4.801392919002233
 20
5.661535239010517
 30
0.0
 10
4.814365466350485
 20
5.664966659013468
 30
0.0
 10
4.827333672876471
 20
5.668237468592489
 30
0.0
 10
4.841766906917958
 20
5.655898681295374
 30
0.0
 10
4.846615605391435
 20
5.637246168009293
 30
0.0
  0
HATCH
  5
179
330
173
100
AcDbEntity
  8
Layer 2
 62
   254
420
 13358815
100
AcDbHatch
 10
0.0
 20
0.0
 30
0.0
210
0.0
220
0.0
230
1.0
  2
SOLID
 70
     1
 71
     0
 91
        1
 92
        1
 93
        1
 72
     4
 94
        3
 73
     0
 74
     1
 95
       17
 96
       13
 40
0.0
 40
0.0
 40
0.0
 40
0.0
 40
1.0
 40
1.0
 40
1.0
 40
2.0
 40
2.0
 40
2.0
 40
3.0
 40
3.0
 40
3.0
 40
4.0
 40
4.0
 40
4.0
 40
4.0
 10
4.846615605391435
 20
5.637246168009293
 10
4.85138833947523
 20
5.618597995545466
 10
4.844803312094503
 20
5.600776749723726
 10
4.831830764746251
 20
5.59738548232676
 10
4.81885930260354
 20
5.594034466602541
 10
4.804429324178778
 20
5.60645780086712
 10
4.799616437488996
 20
5.625142870320221
 10
4.794808976827071
 20
5.643713993188777
 10
4.801392919002233
 20
5.661535239010517
 10
4.814365466350485
 20
5.664966659013468
 10
4.827333672876471
 20
5.668237468592489
 10
4.841766906917958
 20
5.655898681295374
 10
4.846615605391435
 20
5.637246168009293
 97
        0
 97
        0
 75
     2
 76
     1
 98
        0
  0
ENDBLK
  5
176
330
173
100
AcDbEntity
  8
0
100
AcDbBlockEnd
  0
BLOCK
  5
17C
330
17A
100
AcDbEntity
  8
0
100
AcDbBlockBegin
  2
block 12
 70
     0
 10
0.0
 20
0.0
 30
0.0
  3
block 12
  1

  0
SPLINE
  5
17E
330
17A
100
AcDbEntity
  8
Layer 2
 62
     7
420
 16777215
370
    20
100
AcDbSpline
210
0.0
220
0.0
230
1.0
 70
    11
 71
     3
 72
    17
 73
    13
 74
     0
 42
0.0000000001
 43
0.0000000001
 12
1.0
 22
0.0
 32
0.0
 13
1.0
 23
0.0
 33
0.0
 40
0.0
 40
0.0
 40
0.0
 40
0.0
 40
1.0
 40
1.0
 40
1.0
 40
2.0
 40
2.0
 40
2.0
 40
3.0
 40
3.0
 40
3.0
 40
4.0
 40
4.0
 40
4.0
 40
4.0
 10
4.714889012843236
 20
5.713460154981703
 30
0.0
 10
4.719697654822767
 20
5.694810897312323
 30
0.0
 10
4.713112531330024
 20
5.676949498884596
 30
0.0
 10
4.700144324804038
 20
5.673599469299183
 30
0.0
 10
4.687132710055367
 20
5.670248455500301
 30
0.0
 10
4.672739628619865
 20
5.682666361811698
 30
0.0
 10
4.667889939744049
 20
5.701318875097791
 30
0.0
 10
4.663082478960683
 20
5.719927980161199
 30
0.0
 10
4.669707564265587
 20
5.737748243474647
 30
0.0
 10
4.682674685586006
 20
5.741099255568352
 30
0.0
 10
4.695647232934258
 20
5.744450370359332
 30
0.0
 10
4.710080466975746
 20
5.732071430456244
 30
0.0
 10
4.714889012843236
 20
5.713460154981703
 30
0.0
  0
SPLINE
  5
17F
330
17A
100
AcDbEntity
  8
Layer 2
 62
     7
420
 16777215
370
    20
100
AcDbSpline
210
0.0
220
0.0
230
1.0
 70
    11
 71
     3
 72
    17
 73
    13
 74
     0
 42
0.0000000001
 43
0.0000000001
 12
1.0
 22
0.0
 32
0.0
 13
1.0
 23
0.0
 33
0.0
 40
0.0
 40
0.0
 40
0.0
 40
0.0
 40
1.0
 40
1.0
 40
1.0
 40
2.0
 40
2.0
 40
2.0
 40
3.0
 40
3.0
 40
3.0
 40
4.0
 40
4.0
 40
4.0
 40
4.0
 10
4.70278462994861
 20
5.710423749805159
 30
0.0
 10
4.707557364032406
 20
5.691775577341344
 30
0.0
 10
4.700972336651678
 20
5.673954331519604
 30
0.0
 10
4.687960721903007
 20
5.670563165122669
 30
0.0
 10
4.675028327160716
 20
5.667211949331659
 30
0.0
 10
4.660598348735953
 20
5.67963429745742
 30
0.0
 10
4.655786547251737
 20
5.698319366910507
 30
0.0
 10
4.650978001384222
 20
5.716891574984642
 30
0.0
 10
4.657563028764975
 20
5.73475307603399
 30
0.0
 10
4.67053449090766
 20
5.738144240809333
 30
0.0
 10
4.683502697433647
 20
5.741455202994353
 30
0.0
 10
4.697935931475134
 20
5.729076263091239
 30
0.0
 10
4.70278462994861
 20
5.710423749805159
 30
0.0
  0
HATCH
  5
180
330
17A
100
AcDbEntity
  8
Layer 2
 62
   254
420
 13358815
100
AcDbHatch
 10
0.0
 20
0.0
 30
0.0
210
0.0
220
0.0
230
1.0
  2
SOLID
 70
     1
 71
     0
 91
        1
 92
        1
 93
        1
 72
     4
 94
        3
 73
     0
 74
     1
 95
       17
 96
       13
 40
0.0
 40
0.0
 40
0.0
 40
0.0
 40
1.0
 40
1.0
 40
1.0
 40
2.0
 40
2.0
 40
2.0
 40
3.0
 40
3.0
 40
3.0
 40
4.0
 40
4.0
 40
4.0
 40
4.0
 10
4.70278462994861
 20
5.710423749805159
 10
4.707557364032406
 20
5.691775577341344
 10
4.700972336651678
 20
5.673954331519604
 10
4.687960721903007
 20
5.670563165122669
 10
4.675028327160716
 20
5.667211949331659
 10
4.660598348735953
 20
5.67963429745742
 10
4.655786547251737
 20
5.698319366910507
 10
4.650978001384222
 20
5.716891574984642
 10
4.657563028764975
 20
5.73475307603399
 10
4.67053449090766
 20
5.738144240809333
 10
4.683502697433647
 20
5.741455202994353
 10
4.697935931475134
 20
5.729076263091239
 10
4.70278462994861
 20
5.710423749805159
 97
        0
 97
        0
 75
     2
 76
     1
 98
        0
  0
ENDBLK
  5
17D
330
17A
100
AcDbEntity
  8
0
100
AcDbBlockEnd
  0
BLOCK
  5
183
330
181
100
AcDbEntity
  8
0
100
AcDbBlockBegin
  2
block 13
 70
     0
 10
0.0
 20
0.0
 30
0.0
  3
block 13
  1

  0
SPLINE
  5
185
330
181
100
AcDbEntity
  8
Layer 2
 62
     7
420
 16777215
370
    20
100
AcDbSpline
210
0.0
220
0.0
230
1.0
 70
    11
 71
     3
 72
    17
 73
    13
 74
     0
 42
0.0000000001
 43
0.0000000001
 12
1.0
 22
0.0
 32
0.0
 13
1.0
 23
0.0
 33
0.0
 40
0.0
 40
0.0
 40
0.0
 40
0.0
 40
1.0
 40
1.0
 40
1.0
 40
2.0
 40
2.0
 40
2.0
 40
3.0
 40
3.0
 40
3.0
 40
4.0
 40
4.0
 40
4.0
 40
4.0
 10
4.858719988286061
 20
5.470354574267124
 30
0.0
 10
4.863528534153576
 20
5.451702060981031
 30
0.0
 10
4.856943606351984
 20
5.433880815159278
 30
0.0
 10
4.843975399498403
 20
5.430530785573865
 30
0.0
 10
4.830963784421025
 20
5.427138432971333
 30
0.0
 10
4.816569518857123
 20
5.43959767808638
 30
0.0
 10
4.811720820383647
 20
5.458210134402052
 30
0.0
 10
4.806912274516131
 20
5.476899449041866
 30
0.0
 10
4.813537454502844
 20
5.494719609658028
 30
0.0
 10
4.826505661028831
 20
5.498030571843047
 30
0.0
 10
4.839478208377082
 20
5.501381686634027
 30
0.0
 10
4.85391144241857
 20
5.489043984542477
 30
0.0
 10
4.858719988286061
 20
5.470354574267124
 30
0.0
  0
SPLINE
  5
186
330
181
100
AcDbEntity
  8
Layer 2
 62
     7
420
 16777215
370
    20
100
AcDbSpline
210
0.0
220
0.0
230
1.0
 70
    11
 71
     3
 72
    17
 73
    13
 74
     0
 42
0.0000000001
 43
0.0000000001
 12
1.0
 22
0.0
 32
0.0
 13
1.0
 23
0.0
 33
0.0
 40
0.0
 40
0.0
 40
0.0
 40
0.0
 40
1.0
 40
1.0
 40
1.0
 40
2.0
 40
2.0
 40
2.0
 40
3.0
 40
3.0
 40
3.0
 40
4.0
 40
4.0
 40
4.0
 40
4.0
 10
4.846615605391435
 20
5.467355066079841
 30
0.0
 10
4.85138833947523
 20
5.448669996626752
 30
0.0
 10
4.844803312094503
 20
5.4308454951883
 30
0.0
 10
4.831830764746251
 20
5.42749438039732
 30
0.0
 10
4.81885930260354
 20
5.42414326560634
 30
0.0
 10
4.804429324178778
 20
5.43652546112614
 30
0.0
 10
4.799616437488996
 20
5.455214966961395
 30
0.0
 10
4.794808976827071
 20
5.473822891259336
 30
0.0
 10
4.801392919002233
 20
5.491602899269524
 30
0.0
 10
4.814365466350485
 20
5.49499416666649
 30
0.0
 10
4.827333672876471
 20
5.498305128851497
 30
0.0
 10
4.841766906917958
 20
5.485967426759948
 30
0.0
 10
4.846615605391435
 20
5.467355066079841
 30
0.0
  0
HATCH
  5
187
330
181
100
AcDbEntity
  8
Layer 2
 62
   254
420
 13358815
100
AcDbHatch
 10
0.0
 20
0.0
 30
0.0
210
0.0
220
0.0
230
1.0
  2
SOLID
 70
     1
 71
     0
 91
        1
 92
        1
 93
        1
 72
     4
 94
        3
 73
     0
 74
     1
 95
       17
 96
       13
 40
0.0
 40
0.0
 40
0.0
 40
0.0
 40
1.0
 40
1.0
 40
1.0
 40
2.0
 40
2.0
 40
2.0
 40
3.0
 40
3.0
 40
3.0
 40
4.0
 40
4.0
 40
4.0
 40
4.0
 10
4.846615605391435
 20
5.467355066079841
 10
4.85138833947523
 20
5.448669996626752
 10
4.844803312094503
 20
5.4308454951883
 10
4.831830764746251
 20
5.42749438039732
 10
4.81885930260354
 20
5.42414326560634
 10
4.804429324178778
 20
5.43652546112614
 10
4.799616437488996
 20
5.455214966961395
 10
4.794808976827071
 20
5.473822891259336
 10
4.801392919002233
 20
5.491602899269524
 10
4.814365466350485
 20
5.49499416666649
 10
4.827333672876471
 20
5.498305128851497
 10
4.841766906917958
 20
5.485967426759948
 10
4.846615605391435
 20
5.467355066079841
 97
        0
 97
        0
 75
     2
 76
     1
 98
        0
  0
ENDBLK
  5
184
330
181
100
AcDbEntity
  8
0
100
AcDbBlockEnd
  0
BLOCK
  5
18A
330
188
100
AcDbEntity
  8
0
100
AcDbBlockBegin
  2
block 14
 70
     0
 10
0.0
 20
0.0
 30
0.0
  3
block 14
  1

  0
SPLINE
  5
18C
330
188
100
AcDbEntity
  8
Layer 2
 62
     7
420
 16777215
370
    20
100
AcDbSpline
210
0.0
220
0.0
230
1.0
 70
    11
 71
     3
 72
    17
 73
    13
 74
     0
 42
0.0000000001
 43
0.0000000001
 12
1.0
 22
0.0
 32
0.0
 13
1.0
 23
0.0
 33
0.0
 40
0.0
 40
0.0
 40
0.0
 40
0.0
 40
1.0
 40
1.0
 40
1.0
 40
2.0
 40
2.0
 40
2.0
 40
3.0
 40
3.0
 40
3.0
 40
4.0
 40
4.0
 40
4.0
 40
4.0
 10
4.714889012843236
 20
5.543532156062977
 30
0.0
 10
4.719697654822767
 20
5.524879642776884
 30
0.0
 10
4.713112531330024
 20
5.507058396955143
 30
0.0
 10
4.700144324804038
 20
5.503707282164163
 30
0.0
 10
4.687132710055367
 20
5.500316111466431
 30
0.0
 10
4.672739628619865
 20
5.51277525988227
 30
0.0
 10
4.667889939744049
 20
5.531387620562365
 30
0.0
 10
4.663082478960683
 20
5.550075945632153
 30
0.0
 10
4.669707564265587
 20
5.567897191453905
 30
0.0
 10
4.682674685586006
 20
5.5712081536389
 30
0.0
 10
4.695647232934258
 20
5.574558183224338
 30
0.0
 10
4.710080466975746
 20
5.562220481132777
 30
0.0
 10
4.714889012843236
 20
5.543532156062977
 30
0.0
  0
SPLINE
  5
18D
330
188
100
AcDbEntity
  8
Layer 2
 62
     7
420
 16777215
370
    20
100
AcDbSpline
210
0.0
220
0.0
230
1.0
 70
    11
 71
     3
 72
    17
 73
    13
 74
     0
 42
0.0000000001
 43
0.0000000001
 12
1.0
 22
0.0
 32
0.0
 13
1.0
 23
0.0
 33
0.0
 40
0.0
 40
0.0
 40
0.0
 40
0.0
 40
1.0
 40
1.0
 40
1.0
 40
2.0
 40
2.0
 40
2.0
 40
3.0
 40
3.0
 40
3.0
 40
4.0
 40
4.0
 40
4.0
 40
4.0
 10
4.70278462994861
 20
5.540531562670139
 30
0.0
 10
4.707557364032406
 20
5.521847578422631
 30
0.0
 10
4.700972336651678
 20
5.504021991778599
 30
0.0
 10
4.687960721903007
 20
5.500670876987619
 30
0.0
 10
4.675028327160716
 20
5.497319762196639
 30
0.0
 10
4.660598348735953
 20
5.509703139858364
 30
0.0
 10
4.655786547251737
 20
5.528391367991794
 30
0.0
 10
4.650978001384222
 20
5.546999387849635
 30
0.0
 10
4.657563028764975
 20
5.564820732000144
 30
0.0
 10
4.67053449090766
 20
5.568211901068353
 30
0.0
 10
4.683502697433647
 20
5.571482710647362
 30
0.0
 10
4.697935931475134
 20
5.559143923350247
 30
0.0
 10
4.70278462994861
 20
5.540531562670139
 30
0.0
  0
HATCH
  5
18E
330
188
100
AcDbEntity
  8
Layer 2
 62
   254
420
 13358815
100
AcDbHatch
 10
0.0
 20
0.0
 30
0.0
210
0.0
220
0.0
230
1.0
  2
SOLID
 70
     1
 71
     0
 91
        1
 92
        1
 93
        1
 72
     4
 94
        3
 73
     0
 74
     1
 95
       17
 96
       13
 40
0.0
 40
0.0
 40
0.0
 40
0.0
 40
1.0
 40
1.0
 40
1.0
 40
2.0
 40
2.0
 40
2.0
 40
3.0
 40
3.0
 40
3.0
 40
4.0
 40
4.0
 40
4.0
 40
4.0
 10
4.70278462994861
 20
5.540531562670139
 10
4.707557364032406
 20
5.521847578422631
 10
4.700972336651678
 20
5.504021991778599
 10
4.687960721903007
 20
5.500670876987619
 10
4.675028327160716
 20
5.497319762196639
 10
4.660598348735953
 20
5.509703139858364
 10
4.655786547251737
 20
5.528391367991794
 10
4.650978001384222
 20
5.546999387849635
 10
4.657563028764975
 20
5.564820732000144
 10
4.67053449090766
 20
5.568211901068353
 10
4.683502697433647
 20
5.571482710647362
 10
4.697935931475134
 20
5.559143923350247
 10
4.70278462994861
 20
5.540531562670139
 97
        0
 97
        0
 75
     2
 76
     1
 98
        0
  0
ENDBLK
  5
18B
330
188
100
AcDbEntity
  8
0
100
AcDbBlockEnd
  0
BLOCK
  5
193
330
191
100
AcDbEntity
  8
0
100
AcDbBlockBegin
  2
block 15
 70
     0
 10
0.0
 20
0.0
 30
0.0
  3
block 15
  1

  0
POLYLINE
  5
195
330
191
100
AcDbEntity
  8
callouts
 62
   250
420
  2301728
370
    80
100
AcDb2dPolyline
 66
     1
 10
0.0
 20
0.0
 30
0.0
  0
VERTEX
  5
196
330
195
100
AcDbEntity
  8
callouts
 62
   250
420
  2301728
370
    80
100
AcDbVertex
100
AcDb2dVertex
 10
3.754393099166514
 20
5.655156400687525
 30
0.0
  0
VERTEX
  5
197
330
195
100
AcDbEntity
  8
callouts
 62
   250
420
  2301728
370
    80
100
AcDbVertex
100
AcDb2dVertex
 10
4.140379015247214
 20
5.855406234024182
 30
0.0
  0
SEQEND
  5
198
330
195
100
AcDbEntity
  8
callouts
 62
   250
420
  2301728
370
    80
  0
POLYLINE
  5
199
330
191
100
AcDbEntity
  8
callouts
370
     0
100
AcDb2dPolyline
 66
     1
 10
0.0
 20
0.0
 30
0.0
  0
VERTEX
  5
19A
330
199
100
AcDbEntity
  8
callouts
370
     0
100
AcDbVertex
100
AcDb2dVertex
 10
3.779340889946929
 20
5.599216224118347
 30
0.0
  0
VERTEX
  5
19B
330
199
100
AcDbEntity
  8
callouts
370
     0
100
AcDbVertex
100
AcDb2dVertex
 10
3.779340889946929
 20
5.740324418793496
 30
0.0
  0
VERTEX
  5
19C
330
199
100
AcDbEntity
  8
callouts
370
     0
100
AcDbVertex
100
AcDb2dVertex
 10
3.655902012314148
 20
5.608321098825727
 30
0.0
  0
VERTEX
  5
19D
330
199
100
AcDbEntity
  8
callouts
370
     0
100
AcDbVertex
100
AcDb2dVertex
 10
3.779340889946929
 20
5.599216224118347
 30
0.0
  0
SEQEND
  5
19F
330
199
100
AcDbEntity
  8
callouts
370
     0
  0
HATCH
  5
19E
330
191
100
AcDbEntity
  8
callouts
 62
   250
420
  2301728
100
AcDbHatch
 10
0.0
 20
0.0
 30
0.0
210
0.0
220
0.0
230
1.0
  2
SOLID
 70
     1
 71
     0
 91
        1
 92
        1
 93
        3
 72
     1
 10
3.779340889946929
 20
5.599216224118347
 11
3.779340889946929
 21
5.740324418793496
 72
     1
 10
3.779340889946929
 20
5.740324418793496
 11
3.655902012314148
 21
5.608321098825727
 72
     1
 10
3.655902012314148
 20
5.608321098825727
 11
3.779340889946929
 21
5.599216224118347
 97
        0
 75
     2
 76
     1
 98
        0
  0
POLYLINE
  5
1A0
330
191
100
AcDbEntity
  8
callouts
370
     0
100
AcDb2dPolyline
 66
     1
 10
0.0
 20
0.0
 30
0.0
  0
VERTEX
  5
1A1
330
1A0
100
AcDbEntity
  8
callouts
370
     0
100
AcDbVertex
100
AcDb2dVertex
 10
4.083117058297388
 20
5.902538776541784
 30
0.0
  0
VERTEX
  5
1A2
330
1A0
100
AcDbEntity
  8
callouts
370
     0
100
AcDbVertex
100
AcDb2dVertex
 10
4.083117058297388
 20
5.76142515583879
 30
0.0
  0
VERTEX
  5
1A3
330
1A0
100
AcDbEntity
  8
callouts
370
     0
100
AcDbVertex
100
AcDb2dVertex
 10
4.206555935930181
 20
5.893428475806571
 30
0.0
  0
VERTEX
  5
1A4
330
1A0
100
AcDbEntity
  8
callouts
370
     0
100
AcDbVertex
100
AcDb2dVertex
 10
4.083117058297388
 20
5.902538776541784
 30
0.0
  0
SEQEND
  5
1A6
330
1A0
100
AcDbEntity
  8
callouts
370
     0
  0
HATCH
  5
1A5
330
191
100
AcDbEntity
  8
callouts
 62
   250
420
  2301728
100
AcDbHatch
 10
0.0
 20
0.0
 30
0.0
210
0.0
220
0.0
230
1.0
  2
SOLID
 70
     1
 71
     0
 91
        1
 92
        1
 93
        3
 72
     1
 10
4.083117058297388
 20
5.902538776541784
 11
4.083117058297388
 21
5.76142515583879
 72
     1
 10
4.083117058297388
 20
5.76142515583879
 11
4.206555935930181
 21
5.893428475806571
 72
     1
 10
4.206555935930181
 20
5.893428475806571
 11
4.083117058297388
 21
5.902538776541784
 97
        0
 75
     2
 76
     1
 98
        0
  0
MTEXT
  5
1A7
330
191
100
AcDbEntity
  8
callouts
 62
   250
420
  2301728
100
AcDbMText
 10
3.831222802905055
 20
5.344725665998541
 30
0.0
 40
0.1824215337977686
 41
0.0
 46
0.0
 71
     7
 72
     1
  1
\fHelvetica Neue LT Std 67 Medium Condensed|b0|i0|c0|p34;\W1.20466;F\H0.143331;2
 11
0.8287976470748991
 21
0.5595484431245529
 31
0.0
 73
     1
 44
1.0
  0
ENDBLK
  5
194
330
191
100
AcDbEntity
  8
0
100
AcDbBlockEnd
  0
BLOCK
  5
1AA
330
1A8
100
AcDbEntity
  8
0
100
AcDbBlockBegin
  2
block 16
 70
     0
 10
0.0
 20
0.0
 30
0.0
  3
block 16
  1

  0
POLYLINE
  5
1AC
330
1A8
100
AcDbEntity
  8
callouts
 62
   250
420
  2301728
370
    80
100
AcDb2dPolyline
 66
     1
 10
0.0
 20
0.0
 30
0.0
  0
VERTEX
  5
1AD
330
1AC
100
AcDbEntity
  8
callouts
 62
   250
420
  2301728
370
    80
100
AcDbVertex
100
AcDb2dVertex
 10
5.177766084170192
 20
5.990303691569642
 30
0.0
  0
VERTEX
  5
1AE
330
1AC
100
AcDbEntity
  8
callouts
 62
   250
420
  2301728
370
    80
100
AcDbVertex
100
AcDb2dVertex
 10
5.602624063661854
 20
5.822604704885596
 30
0.0
  0
SEQEND
  5
1AF
330
1AC
100
AcDbEntity
  8
callouts
 62
   250
420
  2301728
370
    80
  0
POLYLINE
  5
1B0
330
1A8
100
AcDbEntity
  8
callouts
370
     0
100
AcDb2dPolyline
 66
     1
 10
0.0
 20
0.0
 30
0.0
  0
VERTEX
  5
1B1
330
1B0
100
AcDbEntity
  8
callouts
370
     0
100
AcDbVertex
100
AcDb2dVertex
 10
5.151978451313249
 20
5.947752781286454
 30
0.0
  0
VERTEX
  5
1B2
330
1B0
100
AcDbEntity
  8
callouts
370
     0
100
AcDbVertex
100
AcDb2dVertex
 10
5.261777273141711
 20
6.015860282673164
 30
0.0
  0
VERTEX
  5
1B3
330
1B0
100
AcDbEntity
  8
callouts
370
     0
100
AcDbVertex
100
AcDb2dVertex
 10
5.071307418044701
 20
6.02909436456308
 30
0.0
  0
VERTEX
  5
1B4
330
1B0
100
AcDbEntity
  8
callouts
370
     0
100
AcDbVertex
100
AcDb2dVertex
 10
5.151978451313249
 20
5.947752781286454
 30
0.0
  0
SEQEND
  5
1B6
330
1B0
100
AcDbEntity
  8
callouts
370
     0
  0
HATCH
  5
1B5
330
1A8
100
AcDbEntity
  8
callouts
 62
   250
420
  2301728
100
AcDbHatch
 10
0.0
 20
0.0
 30
0.0
210
0.0
220
0.0
230
1.0
  2
SOLID
 70
     1
 71
     0
 91
        1
 92
        1
 93
        3
 72
     1
 10
5.151978451313249
 20
5.947752781286454
 11
5.261777273141711
 21
6.015860282673164
 72
     1
 10
5.261777273141711
 20
6.015860282673164
 11
5.071307418044701
 21
6.02909436456308
 72
     1
 10
5.071307418044701
 20
6.02909436456308
 11
5.151978451313249
 21
5.947752781286454
 97
        0
 75
     2
 76
     1
 98
        0
  0
POLYLINE
  5
1B7
330
1A8
100
AcDbEntity
  8
callouts
370
     0
100
AcDb2dPolyline
 66
     1
 10
0.0
 20
0.0
 30
0.0
  0
VERTEX
  5
1B8
330
1B7
100
AcDbEntity
  8
callouts
370
     0
100
AcDbVertex
100
AcDb2dVertex
 10
5.594996153731219
 20
5.880462439691718
 30
0.0
  0
VERTEX
  5
1B9
330
1B7
100
AcDbEntity
  8
callouts
370
     0
100
AcDbVertex
100
AcDb2dVertex
 10
5.485195054459255
 20
5.812353853099441
 30
0.0
  0
VERTEX
  5
1BA
330
1B7
100
AcDbEntity
  8
callouts
370
     0
100
AcDbVertex
100
AcDb2dVertex
 10
5.67566611502366
 20
5.799119771209537
 30
0.0
  0
VERTEX
  5
1BB
330
1B7
100
AcDbEntity
  8
callouts
370
     0
100
AcDbVertex
100
AcDb2dVertex
 10
5.594996153731219
 20
5.880462439691718
 30
0.0
  0
SEQEND
  5
1BD
330
1B7
100
AcDbEntity
  8
callouts
370
     0
  0
HATCH
  5
1BC
330
1A8
100
AcDbEntity
  8
callouts
 62
   250
420
  2301728
100
AcDbHatch
 10
0.0
 20
0.0
 30
0.0
210
0.0
220
0.0
230
1.0
  2
SOLID
 70
     1
 71
     0
 91
        1
 92
        1
 93
        3
 72
     1
 10
5.594996153731219
 20
5.880462439691718
 11
5.485195054459255
 21
5.812353853099441
 72
     1
 10
5.485195054459255
 20
5.812353853099441
 11
5.67566611502366
 21
5.799119771209537
 72
     1
 10
5.67566611502366
 20
5.799119771209537
 11
5.594996153731219
 21
5.880462439691718
 97
        0
 75
     2
 76
     1
 98
        0
  0
MTEXT
  5
1BE
330
1A8
100
AcDbEntity
  8
callouts
 62
   250
420
  2301728
100
AcDbMText
 10
5.016286932555683
 20
5.787753432993163
 30
0.0
 40
0.1661598656224736
 41
0.0
 46
0.0
 71
     7
 72
     1
  1
\fHelvetica Neue LT Std 67 Medium Condensed|b0|i0|c0|p34;\W1.10372;F\H0.130554;1
 11
0.9476906694587072
 21
-0.319190217614681
 31
0.0
 73
     1
 44
1.0
  0
ENDBLK
  5
1AB
330
1A8
100
AcDbEntity
  8
0
100
AcDbBlockEnd
  0
ENDSEC
  0
SECTION
  2
ENTITIES
  0
INSERT
  5
42
330
1F
100
AcDbEntity
  8
Layer 2
100
AcDbBlockReference
  2
block 2
 10
0.0
 20
0.0
 30
0.0
  0
INSERT
  5
BF
330
1F
100
AcDbEntity
  8
Layer 2
100
AcDbBlockReference
  2
block 3
 10
0.0
 20
0.0
 30
0.0
  0
INSERT
  5
124
330
1F
100
AcDbEntity
  8
Layer 2
100
AcDbBlockReference
  2
block 4
 10
0.0
 20
0.0
 30
0.0
  0
INSERT
  5
192
330
1F
100
AcDbEntity
  8
callouts
100
AcDbBlockReference
  2
block 15
 10
0.0
 20
0.0
 30
0.0
  0
INSERT
  5
1A9
330
1F
100
AcDbEntity
  8
callouts
100
AcDbBlockReference
  2
block 16
 10
0.0
 20
0.0
 30
0.0
  0
MTEXT
  5
1BF
330
1F
100
AcDbEntity
  8
callouts
 62
   250
420
  2236191
100
AcDbMText
 10
3.497222847408718
 20
4.016662703620063
 30
0.0
 40
0.118
 41
0.0
 46
0.0
 71
     7
 72
     1
  1
\fHelvetica Neue LT Std 55 Roman|b0|i0|c0|p34;\W1;SIMPSON Strong-Tie\H0.068794;®\H0.118; ^C
 73
     1
 44
1.0
  0
MTEXT
  5
1C0
330
1F
100
AcDbEntity
  8
callouts
 62
   250
420
  2236191
100
AcDbMText
 10
2.895680692460802
 20
3.816670841640896
 30
0.0
 40
0.118
 41
0.0
 46
0.0
 71
     7
 72
     1
  1
\fHelvetica Neue LT Std 55 Roman|b0|i0|c0|p34;\W1;H3 Truss/Rafter-to-Top Plate Tie Down
 73
     1
 44
1.0
  0
MTEXT
  5
1C1
330
1F
100
AcDbEntity
  8
callouts
 62
   250
420
  2236191
100
AcDbMText
 10
3.38056755065918
 20
7.760734770033094
 30
0.0
 40
0.118
 41
0.0
 46
0.0
 71
     7
 72
     1
  1
\fHelvetica Neue LT Std 57 Condensed|b0|i0|c0|p34;\W1;Truss / Rafter
 73
     1
 44
1.0
  0
MTEXT
  5
1C2
330
1F
100
AcDbEntity
  8
callouts
 62
   250
420
  2236191
100
AcDbMText
 10
4.238242891099718
 20
4.599794599745008
 30
0.0
 40
0.118
 41
0.0
 46
0.0
 71
     7
 72
     1
  1
\fHelvetica Neue LT Std 57 Condensed|b0|i0|c0|p34;\W1;H3
 73
     1
 44
1.0
  0
MTEXT
  5
1C3
330
1F
100
AcDbEntity
  8
callouts
 62
   250
420
  2236191
100
AcDbMText
 10
5.75632561577691
 20
6.45602904425727
 30
0.0
 40
0.118
 41
0.0
 46
0.0
 71
     7
 72
     1
  1
\fHelvetica Neue LT Std 57 Condensed|b0|i0|c0|p34;\W1;Top Plate
 73
     1
 44
1.0
  0
POLYLINE
  5
1C4
330
1F
100
AcDbEntity
  8
callouts
 62
   250
420
  2236191
370
    18
100
AcDb2dPolyline
 66
     1
 10
0.0
 20
0.0
 30
0.0
  0
VERTEX
  5
1C5
330
1C4
100
AcDbEntity
  8
callouts
 62
   250
420
  2236191
370
    18
100
AcDbVertex
100
AcDb2dVertex
 10
3.804979140509886
 20
7.686691535660795
 30
0.0
  0
VERTEX
  5
1C6
330
1C4
100
AcDbEntity
  8
callouts
 62
   250
420
  2236191
370
    18
100
AcDbVertex
100
AcDb2dVertex
 10
4.155382793245027
 20
7.296801235534694
 30
0.0
  0
SEQEND
  5
1C7
330
1C4
100
AcDbEntity
  8
callouts
 62
   250
420
  2236191
370
    18
  0
POLYLINE
  5
1C8
330
1F
100
AcDbEntity
  8
callouts
 62
   250
420
  2236191
370
    18
100
AcDb2dPolyline
 66
     1
 10
0.0
 20
0.0
 30
0.0
  0
VERTEX
  5
1C9
330
1C8
100
AcDbEntity
  8
callouts
 62
   250
420
  2236191
370
    18
100
AcDbVertex
100
AcDb2dVertex
 10
5.922664989882529
 20
6.373771088630102
 30
0.0
  0
VERTEX
  5
1CA
330
1C8
100
AcDbEntity
  8
callouts
 62
   250
420
  2236191
370
    18
100
AcDbVertex
100
AcDb2dVertex
 10
5.700769984904077
 20
6.00230325460364
 30
0.0
  0
SEQEND
  5
1CB
330
1C8
100
AcDbEntity
  8
callouts
 62
   250
420
  2236191
370
    18
  0
POLYLINE
  5
1CC
330
1F
100
AcDbEntity
  8
callouts
 62
   250
420
  2236191
370
    18
100
AcDb2dPolyline
 66
     1
 10
0.0
 20
0.0
 30
0.0
  0
VERTEX
  5
1CD
330
1CC
100
AcDbEntity
  8
callouts
 62
   250
420
  2236191
370
    18
100
AcDbVertex
100
AcDb2dVertex
 10
4.330908556650431
 20
4.798984679868858
 30
0.0
  0
VERTEX
  5
1CE
330
1CC
100
AcDbEntity
  8
callouts
 62
   250
420
  2236191
370
    18
100
AcDbVertex
100
AcDb2dVertex
 10
4.657388390768372
 20
5.462211191692126
 30
0.0
  0
SEQEND
  5
1CF
330
1CC
100
AcDbEntity
  8
callouts
 62
   250
420
  2236191
370
    18
  0
ENDSEC
  0
SECTION
  2
OBJECTS
  0
DICTIONARY
  5
C
330
0
100
AcDbDictionary
281
     1
  3
ACAD_GROUP
350
D
  3
ACAD_LAYOUT
350
1A
  3
ACAD_MATERIAL
350
3B
  3
ACAD_MLEADERSTYLE
350
1D1
  3
ACAD_MLINESTYLE
350
17
  3
ACAD_PLOTSETTINGS
350
19
  3
ACAD_PLOTSTYLENAME
350
E
  3
ACAD_TABLESTYLE
350
1D0
  3
ACAD_VISUALSTYLE
350
2A
  0
SUN
  5
3F
330
29
100
AcDbSun
 90
        1
290
     0
 63
     7
421
 16777215
 40
1.0
291
     1
 91
  2455826
 92
 54000000
292
     0
 70
     2
 71
   256
280
     1
  0
DICTIONARY
  5
D
102
{ACAD_REACTORS
330
C
102
}
330
C
100
AcDbDictionary
281
     1
  0
DICTIONARY
  5
1A
102
{ACAD_REACTORS
330
C
102
}
330
C
100
AcDbDictionary
281
     1
  3
Layout1
350
1E
  3
Layout2
350
26
  3
Model
350
22
  0
DICTIONARY
  5
3B
102
{ACAD_REACTORS
330
C
102
}
330
C
100
AcDbDictionary
281
     1
  3
ByBlock
350
3D
  3
ByLayer
350
3C
  3
Global
350
3E
  0
DICTIONARY
  5
1D1
102
{ACAD_REACTORS
330
C
102
}
330
C
100
AcDbDictionary
281
     1
  0
DICTIONARY
  5
17
102
{ACAD_REACTORS
330
C
102
}
330
C
100
AcDbDictionary
281
     1
  3
Standard
350
18
  0
DICTIONARY
  5
19
102
{ACAD_REACTORS
330
C
102
}
330
C
100
AcDbDictionary
281
     1
  0
ACDBDICTIONARYWDFLT
  5
E
102
{ACAD_REACTORS
330
C
102
}
330
C
100
AcDbDictionary
281
     1
  3
Normal
350
F
100
AcDbDictionaryWithDefault
340
F
  0
DICTIONARY
  5
1D0
102
{ACAD_REACTORS
330
C
102
}
330
C
100
AcDbDictionary
281
     1
  0
DICTIONARY
  5
2A
102
{ACAD_REACTORS
330
C
102
}
330
C
100
AcDbDictionary
281
     1
  3
2dWireframe
350
2F
  3
3D Hidden
350
31
  3
3dWireframe
350
30
  3
Basic
350
32
  3
Brighten
350
36
  3
ColorChange
350
3A
  3
Conceptual
350
34
  3
Dim
350
35
  3
Facepattern
350
39
  3
Flat
350
2B
  3
FlatWithEdges
350
2C
  3
Gouraud
350
2D
  3
GouraudWithEdges
350
2E
  3
Linepattern
350
38
  3
Realistic
350
33
  3
Thicken
350
37
  0
LAYOUT
  5
1E
102
{ACAD_REACTORS
330
1A
102
}
330
1A
100
AcDbPlotSettings
  1

  2
none_device
  4

  6

 40
0.0
 41
0.0
 42
0.0
 43
0.0
 44
0.0
 45
0.0
 46
0.0
 47
0.0
 48
0.0
 49
0.0
140
0.0
141
0.0
142
1.0
143
1.0
 70
   688
 72
     0
 73
     0
 74
     5
  7

 75
    16
 76
     0
 77
     2
 78
   300
147
1.0
148
0.0
149
0.0
100
AcDbLayout
  1
Layout1
 70
     1
 71
     1
 10
0.0
 20
0.0
 11
12.0
 21
9.0
 12
0.0
 22
0.0
 32
0.0
 14
1.000000000000000E+20
 24
1.000000000000000E+20
 34
1.000000000000000E+20
 15
-1.000000000000000E+20
 25
-1.000000000000000E+20
 35
-1.000000000000000E+20
146
0.0
 13
0.0
 23
0.0
 33
0.0
 16
1.0
 26
0.0
 36
0.0
 17
0.0
 27
1.0
 37
0.0
 76
     0
330
1B
  0
LAYOUT
  5
26
102
{ACAD_REACTORS
330
1A
102
}
330
1A
100
AcDbPlotSettings
  1

  2
none_device
  4

  6

 40
0.0
 41
0.0
 42
0.0
 43
0.0
 44
0.0
 45
0.0
 46
0.0
 47
0.0
 48
0.0
 49
0.0
140
0.0
141
0.0
142
1.0
143
1.0
 70
   688
 72
     0
 73
     0
 74
     5
  7

 75
    16
 76
     0
 77
     2
 78
   300
147
1.0
148
0.0
149
0.0
100
AcDbLayout
  1
Layout2
 70
     1
 71
     2
 10
0.0
 20
0.0
 11
0.0
 21
0.0
 12
0.0
 22
0.0
 32
0.0
 14
0.0
 24
0.0
 34
0.0
 15
0.0
 25
0.0
 35
0.0
146
0.0
 13
0.0
 23
0.0
 33
0.0
 16
1.0
 26
0.0
 36
0.0
 17
0.0
 27
1.0
 37
0.0
 76
     0
330
23
  0
LAYOUT
  5
22
102
{ACAD_REACTORS
330
1A
102
}
330
1A
100
AcDbPlotSettings
  1

  2
none_device
  4

  6

 40
0.0
 41
0.0
 42
0.0
 43
0.0
 44
0.0
 45
0.0
 46
0.0
 47
0.0
 48
0.0
 49
0.0
140
0.0
141
0.0
142
1.0
143
1.0
 70
  1712
 72
     0
 73
     0
 74
     0
  7

 75
     0
 76
     0
 77
     2
 78
   300
147
1.0
148
0.0
149
0.0
100
AcDbLayout
  1
Model
 70
     1
 71
     0
 10
0.0
 20
0.0
 11
12.0
 21
9.0
 12
0.0
 22
0.0
 32
0.0
 14
1.000000000000000E+20
 24
1.000000000000000E+20
 34
1.000000000000000E+20
 15
-1.000000000000000E+20
 25
-1.000000000000000E+20
 35
-1.000000000000000E+20
146
0.0
 13
0.0
 23
0.0
 33
0.0
 16
1.0
 26
0.0
 36
0.0
 17
0.0
 27
1.0
 37
0.0
 76
     0
330
1F
331
29
  0
MATERIAL
  5
3D
102
{ACAD_REACTORS
330
3B
102
}
330
3B
100
AcDbMaterial
  1
ByBlock
 72
     1
 94
      127
  0
MATERIAL
  5
3C
102
{ACAD_REACTORS
330
3B
102
}
330
3B
100
AcDbMaterial
  1
ByLayer
 72
     1
 94
      127
  0
MATERIAL
  5
3E
102
{ACAD_REACTORS
330
3B
102
}
330
3B
100
AcDbMaterial
  1
Global
 72
     1
 94
      127
  0
MLINESTYLE
  5
18
102
{ACAD_REACTORS
330
17
102
}
330
17
100
AcDbMlineStyle
  2
Standard
 70
     0
  3

 62
   256
 51
90.0
 52
90.0
 71
     2
 49
0.5
 62
   256
  6
BYLAYER
 49
-0.5
 62
   256
  6
BYLAYER
  0
ACDBPLACEHOLDER
  5
F
102
{ACAD_REACTORS
330
E
102
}
330
E
  0
VISUALSTYLE
  5
2F
102
{ACAD_REACTORS
330
2A
102
}
330
2A
100
AcDbVisualStyle
  2
2dWireframe
 70
     4
177
     2
291
     0
 71
     0
176
     1
 72
     2
176
     1
 73
     0
176
     1
 90
        0
176
     1
 40
-0.6
176
     1
 41
-30.0
176
     1
 62
     5
 63
     7
421
 16777215
176
     1
 74
     1
176
     1
 91
        4
176
     1
 64
     7
176
     1
 65
   257
176
     1
 75
     1
176
     1
175
     1
176
     1
 42
1.0
176
     1
 92
        0
176
     1
 66
   257
176
     1
 43
1.0
176
     1
 76
     1
176
     1
 77
     6
176
     1
 78
     2
176
     1
 67
     7
176
     1
 79
     5
176
     1
170
     0
176
     1
171
     0
176
     1
290
     0
176
     1
 93
        1
176
     1
 44
0.0
176
     1
173
     0
176
     1
  0
VISUALSTYLE
  5
31
102
{ACAD_REACTORS
330
2A
102
}
330
2A
100
AcDbVisualStyle
  2
3D Hidden
 70
     6
177
     2
291
     0
 71
     1
176
     1
 72
     2
176
     1
 73
     2
176
     1
 90
        0
176
     1
 40
-0.6
176
     1
 41
-30.0
176
     1
 62
     5
 63
     7
421
 16777215
176
     1
 74
     2
176
     1
 91
        2
176
     1
 64
     7
176
     1
 65
   257
176
     1
 75
     2
176
     1
175
     1
176
     1
 42
40.0
176
     1
 92
        0
176
     1
 66
   257
176
     1
 43
1.0
176
     1
 76
     1
176
     1
 77
     6
176
     1
 78
     2
176
     1
 67
     7
176
     1
 79
     3
176
     1
170
     0
176
     1
171
     0
176
     1
290
     0
176
     1
 93
        1
176
     1
 44
0.0
176
     1
173
     0
176
     1
  0
VISUALSTYLE
  5
30
102
{ACAD_REACTORS
330
2A
102
}
330
2A
100
AcDbVisualStyle
  2
3dWireframe
 70
     5
177
     2
291
     0
 71
     0
176
     1
 72
     2
176
     1
 73
     0
176
     1
 90
        0
176
     1
 40
-0.6
176
     1
 41
-30.0
176
     1
 62
     5
 63
     7
421
 16777215
176
     1
 74
     1
176
     1
 91
        4
176
     1
 64
     7
176
     1
 65
   257
176
     1
 75
     1
176
     1
175
     1
176
     1
 42
1.0
176
     1
 92
        0
176
     1
 66
   257
176
     1
 43
1.0
176
     1
 76
     1
176
     1
 77
     6
176
     1
 78
     2
176
     1
 67
     7
176
     1
 79
     5
176
     1
170
     0
176
     1
171
     0
176
     1
290
     0
176
     1
 93
        1
176
     1
 44
0.0
176
     1
173
     0
176
     1
  0
VISUALSTYLE
  5
32
102
{ACAD_REACTORS
330
2A
102
}
330
2A
100
AcDbVisualStyle
  2
Basic
 70
     7
177
     2
291
     1
 71
     1
176
     1
 72
     0
176
     1
 73
     1
176
     1
 90
        0
176
     1
 40
-0.6
176
     1
 41
-30.0
176
     1
 62
     5
 63
     7
421
 16777215
176
     1
 74
     0
176
     1
 91
        4
176
     1
 64
     7
176
     1
 65
   257
176
     1
 75
     1
176
     1
175
     1
176
     1
 42
1.0
176
     1
 92
        8
176
     1
 66
     7
176
     1
 43
1.0
176
     1
 76
     1
176
     1
 77
     6
176
     1
 78
     2
176
     1
 67
     7
176
     1
 79
     5
176
     1
170
     0
176
     1
171
     0
176
     1
290
     0
176
     1
 93
        1
176
     1
 44
0.0
176
     1
173
     0
176
     1
  0
VISUALSTYLE
  5
36
102
{ACAD_REACTORS
330
2A
102
}
330
2A
100
AcDbVisualStyle
  2
Brighten
 70
    12
177
     2
291
     1
 71
     2
176
     1
 72
     2
176
     1
 73
     0
176
     1
 90
        0
176
     1
 40
-0.6
176
     1
 41
-30.0
176
     1
 62
     5
 63
     7
421
 16777215
176
     1
 74
     1
176
     1
 91
        4
176
     1
 64
     7
176
     1
 65
   257
176
     1
 75
     1
176
     1
175
     1
176
     1
 42
1.0
176
     1
 92
        8
176
     1
 66
     7
176
     1
 43
1.0
176
     1
 76
     1
176
     1
 77
     6
176
     1
 78
     2
176
     1
 67
     7
176
     1
 79
     5
176
     1
170
     0
176
     1
171
     0
176
     1
290
     0
176
     1
 93
        1
176
     1
 44
50.0
176
     1
173
     0
176
     1
  0
VISUALSTYLE
  5
3A
102
{ACAD_REACTORS
330
2A
102
}
330
2A
100
AcDbVisualStyle
  2
ColorChange
 70
    16
177
     2
291
     1
 71
     2
176
     1
 72
     2
176
     1
 73
     3
176
     1
 90
        0
176
     1
 40
-0.6
176
     1
 41
-30.0
176
     1
 62
     5
 63
     8
421
  8421504
176
     1
 74
     1
176
     1
 91
        4
176
     1
 64
     7
176
     1
 65
   257
176
     1
 75
     1
176
     1
175
     1
176
     1
 42
1.0
176
     1
 92
        8
176
     1
 66
     8
424
  8421504
176
     1
 43
1.0
176
     1
 76
     1
176
     1
 77
     6
176
     1
 78
     2
176
     1
 67
     7
176
     1
 79
     5
176
     1
170
     0
176
     1
171
     0
176
     1
290
     0
176
     1
 93
        1
176
     1
 44
0.0
176
     1
173
     0
176
     1
  0
VISUALSTYLE
  5
34
102
{ACAD_REACTORS
330
2A
102
}
330
2A
100
AcDbVisualStyle
  2
Conceptual
 70
     9
177
     2
291
     0
 71
     3
176
     1
 72
     2
176
     1
 73
     0
176
     1
 90
        0
176
     1
 40
-0.6
176
     1
 41
-30.0
176
     1
 62
     5
 63
     7
421
 16777215
176
     1
 74
     2
176
     1
 91
        2
176
     1
 64
     7
176
     1
 65
   257
176
     1
 75
     1
176
     1
175
     1
176
     1
 42
40.0
176
     1
 92
        8
176
     1
 66
     7
176
     1
 43
1.0
176
     1
 76
     1
176
     1
 77
     6
176
     1
 78
     2
176
     1
 67
     7
176
     1
 79
     3
176
     1
170
     0
176
     1
171
     0
176
     1
290
     0
176
     1
 93
        1
176
     1
 44
0.0
176
     1
173
     0
176
     1
  0
VISUALSTYLE
  5
35
102
{ACAD_REACTORS
330
2A
102
}
330
2A
100
AcDbVisualStyle
  2
Dim
 70
    11
177
     2
291
     1
 71
     2
176
     1
 72
     2
176
     1
 73
     0
176
     1
 90
        0
176
     1
 40
-0.6
176
     1
 41
-30.0
176
     1
 62
     5
 63
     7
421
 16777215
176
     1
 74
     1
176
     1
 91
        4
176
     1
 64
     7
176
     1
 65
   257
176
     1
 75
     1
176
     1
175
     1
176
     1
 42
1.0
176
     1
 92
        8
176
     1
 66
     7
176
     1
 43
1.0
176
     1
 76
     1
176
     1
 77
     6
176
     1
 78
     2
176
     1
 67
     7
176
     1
 79
     5
176
     1
170
     0
176
     1
171
     0
176
     1
290
     0
176
     1
 93
        1
176
     1
 44
-50.0
176
     1
173
     0
176
     1
  0
VISUALSTYLE
  5
39
102
{ACAD_REACTORS
330
2A
102
}
330
2A
100
AcDbVisualStyle
  2
Facepattern
 70
    15
177
     2
291
     1
 71
     2
176
     1
 72
     2
176
     1
 73
     0
176
     1
 90
        0
176
     1
 40
-0.6
176
     1
 41
-30.0
176
     1
 62
     5
 63
     7
421
 16777215
176
     1
 74
     1
176
     1
 91
        4
176
     1
 64
     7
176
     1
 65
   257
176
     1
 75
     1
176
     1
175
     1
176
     1
 42
1.0
176
     1
 92
        8
176
     1
 66
     7
176
     1
 43
1.0
176
     1
 76
     1
176
     1
 77
     6
176
     1
 78
     2
176
     1
 67
     7
176
     1
 79
     5
176
     1
170
     0
176
     1
171
     0
176
     1
290
     0
176
     1
 93
        1
176
     1
 44
0.0
176
     1
173
     0
176
     1
  0
VISUALSTYLE
  5
2B
102
{ACAD_REACTORS
330
2A
102
}
330
2A
100
AcDbVisualStyle
  2
Flat
 70
     0
177
     2
291
     1
 71
     2
176
     1
 72
     1
176
     1
 73
     1
176
     1
 90
        2
176
     1
 40
-0.6
176
     1
 41
30.0
176
     1
 62
     5
 63
     7
421
 16777215
176
     1
 74
     0
176
     1
 91
        4
176
     1
 64
     7
176
     1
 65
   257
176
     1
 75
     1
176
     1
175
     1
176
     1
 42
1.0
176
     1
 92
        8
176
     1
 66
     7
176
     1
 43
1.0
176
     1
 76
     1
176
     1
 77
     6
176
     1
 78
     2
176
     1
 67
     7
176
     1
 79
     5
176
     1
170
     0
176
     1
171
     0
176
     1
290
     0
176
     1
 93
       13
176
     1
 44
0.0
176
     1
173
     0
176
     1
  0
VISUALSTYLE
  5
2C
102
{ACAD_REACTORS
330
2A
102
}
330
2A
100
AcDbVisualStyle
  2
FlatWithEdges
 70
     1
177
     2
291
     1
 71
     2
176
     1
 72
     1
176
     1
 73
     1
176
     1
 90
        2
176
     1
 40
-0.6
176
     1
 41
30.0
176
     1
 62
     5
 63
     7
421
 16777215
176
     1
 74
     1
176
     1
 91
        4
176
     1
 64
     7
176
     1
 65
   257
176
     1
 75
     1
176
     1
175
     1
176
     1
 42
1.0
176
     1
 92
        0
176
     1
 66
   257
176
     1
 43
1.0
176
     1
 76
     1
176
     1
 77
     6
176
     1
 78
     2
176
     1
 67
     7
176
     1
 79
     5
176
     1
170
     0
176
     1
171
     0
176
     1
290
     0
176
     1
 93
       13
176
     1
 44
0.0
176
     1
173
     0
176
     1
  0
VISUALSTYLE
  5
2D
102
{ACAD_REACTORS
330
2A
102
}
330
2A
100
AcDbVisualStyle
  2
Gouraud
 70
     2
177
     2
291
     1
 71
     2
176
     1
 72
     2
176
     1
 73
     1
176
     1
 90
        2
176
     1
 40
-0.6
176
     1
 41
30.0
176
     1
 62
     5
 63
     7
421
 16777215
176
     1
 74
     0
176
     1
 91
        4
176
     1
 64
     7
176
     1
 65
   257
176
     1
 75
     1
176
     1
175
     1
176
     1
 42
1.0
176
     1
 92
        0
176
     1
 66
     7
176
     1
 43
1.0
176
     1
 76
     1
176
     1
 77
     6
176
     1
 78
     2
176
     1
 67
     7
176
     1
 79
     5
176
     1
170
     0
176
     1
171
     0
176
     1
290
     0
176
     1
 93
       13
176
     1
 44
0.0
176
     1
173
     0
176
     1
  0
VISUALSTYLE
  5
2E
102
{ACAD_REACTORS
330
2A
102
}
330
2A
100
AcDbVisualStyle
  2
GouraudWithEdges
 70
     3
177
     2
291
     1
 71
     2
176
     1
 72
     2
176
     1
 73
     1
176
     1
 90
        2
176
     1
 40
-0.6
176
     1
 41
30.0
176
     1
 62
     5
 63
     7
421
 16777215
176
     1
 74
     1
176
     1
 91
        4
176
     1
 64
     7
176
     1
 65
   257
176
     1
 75
     1
176
     1
175
     1
176
     1
 42
1.0
176
     1
 92
        0
176
     1
 66
   257
176
     1
 43
1.0
176
     1
 76
     1
176
     1
 77
     6
176
     1
 78
     2
176
     1
 67
     7
176
     1
 79
     5
176
     1
170
     0
176
     1
171
     0
176
     1
290
     0
176
     1
 93
       13
176
     1
 44
0.0
176
     1
173
     0
176
     1
  0
VISUALSTYLE
  5
38
102
{ACAD_REACTORS
330
2A
102
}
330
2A
100
AcDbVisualStyle
  2
Linepattern
 70
    14
177
     2
291
     1
 71
     2
176
     1
 72
     2
176
     1
 73
     0
176
     1
 90
        0
176
     1
 40
-0.6
176
     1
 41
-30.0
176
     1
 62
     5
 63
     7
421
 16777215
176
     1
 74
     1
176
     1
 91
        4
176
     1
 64
     7
176
     1
 65
   257
176
     1
 75
     7
176
     1
175
     7
176
     1
 42
1.0
176
     1
 92
        8
176
     1
 66
     7
176
     1
 43
1.0
176
     1
 76
     1
176
     1
 77
     6
176
     1
 78
     2
176
     1
 67
     7
176
     1
 79
     5
176
     1
170
     0
176
     1
171
     0
176
     1
290
     0
176
     1
 93
        1
176
     1
 44
0.0
176
     1
173
     0
176
     1
  0
VISUALSTYLE
  5
33
102
{ACAD_REACTORS
330
2A
102
}
330
2A
100
AcDbVisualStyle
  2
Realistic
 70
     8
177
     2
291
     0
 71
     2
176
     1
 72
     2
176
     1
 73
     0
176
     1
 90
        0
176
     1
 40
-0.6
176
     1
 41
-30.0
176
     1
 62
     5
 63
     7
421
 16777215
176
     1
 74
     1
176
     1
 91
        0
176
     1
 64
     7
176
     1
 65
   257
176
     1
 75
     1
176
     1
175
     1
176
     1
 42
1.0
176
     1
 92
        8
176
     1
 66
     8
424
  7895160
176
     1
 43
1.0
176
     1
 76
     1
176
     1
 77
     6
176
     1
 78
     2
176
     1
 67
     7
176
     1
 79
     5
176
     1
170
     0
176
     1
171
     0
176
     1
290
     0
176
     1
 93
       13
176
     1
 44
0.0
176
     1
173
     0
176
     1
  0
VISUALSTYLE
  5
37
102
{ACAD_REACTORS
330
2A
102
}
330
2A
100
AcDbVisualStyle
  2
Thicken
 70
    13
177
     2
291
     1
 71
     2
176
     1
 72
     2
176
     1
 73
     0
176
     1
 90
        0
176
     1
 40
-0.6
176
     1
 41
-30.0
176
     1
 62
     5
 63
     7
421
 16777215
176
     1
 74
     1
176
     1
 91
        4
176
     1
 64
     7
176
     1
 65
   257
176
     1
 75
     1
176
     1
175
     1
176
     1
 42
1.0
176
     1
 92
       12
176
     1
 66
     7
176
     1
 43
1.0
176
     1
 76
     1
176
     1
 77
     6
176
     1
 78
     2
176
     1
 67
     7
176
     1
 79
     5
176
     1
170
     0
176
     1
171
     0
176
     1
290
     0
176
     1
 93
        1
176
     1
 44
0.0
176
     1
173
     0
176
     1
  0
ENDSEC
  0
EOF
