  0
SECTION
  2
HEADER
  9
$ACADVER
  1
AC1024
  9
$ACADMAINTVER
 70
     6
  9
$DWGCODEPAGE
  3
ANSI_1252
  9
$INSBASE
 10
0.0
 20
0.0
 30
0.0
  9
$EXTMIN
 10
1.000000000000000E+20
 20
1.000000000000000E+20
 30
1.000000000000000E+20
  9
$EXTMAX
 10
-1.000000000000000E+20
 20
-1.000000000000000E+20
 30
-1.000000000000000E+20
  9
$LIMMIN
 10
0.0
 20
0.0
  9
$LIMMAX
 10
12.0
 20
9.0
  9
$ORTHOMODE
 70
     0
  9
$REGENMODE
 70
     1
  9
$FILLMODE
 70
     1
  9
$QTEXTMODE
 70
     0
  9
$MIRRTEXT
 70
     1
  9
$LTSCALE
 40
1.0
  9
$ATTMODE
 70
     1
  9
$TEXTSIZE
 40
0.2
  9
$TRACEWID
 40
0.05
  9
$TEXTSTYLE
  7
Standard
  9
$CLAYER
  8
0
  9
$CELTYPE
  6
ByLayer
  9
$CECOLOR
 62
   256
  9
$CELTSCALE
 40
1.0
  9
$DISPSILH
 70
     0
  9
$DIMSCALE
 40
1.0
  9
$DIMASZ
 40
0.18
  9
$DIMEXO
 40
0.0625
  9
$DIMDLI
 40
0.38
  9
$DIMRND
 40
0.0
  9
$DIMDLE
 40
0.0
  9
$DIMEXE
 40
0.18
  9
$DIMTP
 40
0.0
  9
$DIMTM
 40
0.0
  9
$DIMTXT
 40
0.18
  9
$DIMCEN
 40
0.09
  9
$DIMTSZ
 40
0.0
  9
$DIMTOL
 70
     0
  9
$DIMLIM
 70
     0
  9
$DIMTIH
 70
     1
  9
$DIMTOH
 70
     1
  9
$DIMSE1
 70
     0
  9
$DIMSE2
 70
     0
  9
$DIMTAD
 70
     0
  9
$DIMZIN
 70
     0
  9
$DIMBLK
  1

  9
$DIMASO
 70
     1
  9
$DIMSHO
 70
     1
  9
$DIMPOST
  1

  9
$DIMAPOST
  1

  9
$DIMALT
 70
     0
  9
$DIMALTD
 70
     2
  9
$DIMALTF
 40
25.4
  9
$DIMLFAC
 40
1.0
  9
$DIMTOFL
 70
     0
  9
$DIMTVP
 40
0.0
  9
$DIMTIX
 70
     0
  9
$DIMSOXD
 70
     0
  9
$DIMSAH
 70
     0
  9
$DIMBLK1
  1

  9
$DIMBLK2
  1

  9
$DIMSTYLE
  2
Standard
  9
$DIMCLRD
 70
     0
  9
$DIMCLRE
 70
     0
  9
$DIMCLRT
 70
     0
  9
$DIMTFAC
 40
1.0
  9
$DIMGAP
 40
0.09
  9
$DIMJUST
 70
     0
  9
$DIMSD1
 70
     0
  9
$DIMSD2
 70
     0
  9
$DIMTOLJ
 70
     1
  9
$DIMTZIN
 70
     0
  9
$DIMALTZ
 70
     0
  9
$DIMALTTZ
 70
     0
  9
$DIMUPT
 70
     0
  9
$DIMDEC
 70
     4
  9
$DIMTDEC
 70
     4
  9
$DIMALTU
 70
     2
  9
$DIMALTTD
 70
     2
  9
$DIMTXSTY
  7
Standard
  9
$DIMAUNIT
 70
     0
  9
$DIMADEC
 70
     0
  9
$DIMALTRND
 40
0.0
  9
$DIMAZIN
 70
     0
  9
$DIMDSEP
 70
    46
  9
$DIMATFIT
 70
     3
  9
$DIMFRAC
 70
     0
  9
$DIMLDRBLK
  1

  9
$DIMLUNIT
 70
     2
  9
$DIMLWD
 70
    -2
  9
$DIMLWE
 70
    -2
  9
$DIMTMOVE
 70
     0
  9
$DIMFXL
 40
1.0
  9
$DIMFXLON
 70
     0
  9
$DIMJOGANG
 40
0.7853981633974483
  9
$DIMTFILL
 70
     0
  9
$DIMTFILLCLR
 70
     0
  9
$DIMARCSYM
 70
     0
  9
$DIMLTYPE
  6

  9
$DIMLTEX1
  6

  9
$DIMLTEX2
  6

  9
$DIMTXTDIRECTION
 70
     0
  9
$LUNITS
 70
     2
  9
$LUPREC
 70
     4
  9
$SKETCHINC
 40
0.1
  9
$FILLETRAD
 40
0.5
  9
$AUNITS
 70
     0
  9
$AUPREC
 70
     0
  9
$MENU
  1
.
  9
$ELEVATION
 40
0.0
  9
$PELEVATION
 40
0.0
  9
$THICKNESS
 40
0.0
  9
$LIMCHECK
 70
     0
  9
$CHAMFERA
 40
0.5
  9
$CHAMFERB
 40
0.5
  9
$CHAMFERC
 40
1.0
  9
$CHAMFERD
 40
0.0
  9
$SKPOLY
 70
     0
  9
$TDCREATE
 40
2458775.651718681
  9
$TDUCREATE
 40
2458775.110052014
  9
$TDUPDATE
 40
2458775.651718785
  9
$TDUUPDATE
 40
2458775.110052118
  9
$TDINDWG
 40
0.0000000116
  9
$TDUSRTIMER
 40
0.0000000116
  9
$USRTIMER
 70
     1
  9
$ANGBASE
 50
0.0
  9
$ANGDIR
 70
     0
  9
$PDMODE
 70
     0
  9
$PDSIZE
 40
0.0
  9
$PLINEWID
 40
0.0
  9
$SPLFRAME
 70
     0
  9
$SPLINETYPE
 70
     6
  9
$SPLINESEGS
 70
     8
  9
$HANDSEED
  5
12F
  9
$SURFTAB1
 70
     6
  9
$SURFTAB2
 70
     6
  9
$SURFTYPE
 70
     6
  9
$SURFU
 70
     6
  9
$SURFV
 70
     6
  9
$UCSBASE
  2

  9
$UCSNAME
  2

  9
$UCSORG
 10
0.0
 20
0.0
 30
0.0
  9
$UCSXDIR
 10
1.0
 20
0.0
 30
0.0
  9
$UCSYDIR
 10
0.0
 20
1.0
 30
0.0
  9
$UCSORTHOREF
  2

  9
$UCSORTHOVIEW
 70
     0
  9
$UCSORGTOP
 10
0.0
 20
0.0
 30
0.0
  9
$UCSORGBOTTOM
 10
0.0
 20
0.0
 30
0.0
  9
$UCSORGLEFT
 10
0.0
 20
0.0
 30
0.0
  9
$UCSORGRIGHT
 10
0.0
 20
0.0
 30
0.0
  9
$UCSORGFRONT
 10
0.0
 20
0.0
 30
0.0
  9
$UCSORGBACK
 10
0.0
 20
0.0
 30
0.0
  9
$PUCSBASE
  2

  9
$PUCSNAME
  2

  9
$PUCSORG
 10
0.0
 20
0.0
 30
0.0
  9
$PUCSXDIR
 10
1.0
 20
0.0
 30
0.0
  9
$PUCSYDIR
 10
0.0
 20
1.0
 30
0.0
  9
$PUCSORTHOREF
  2

  9
$PUCSORTHOVIEW
 70
     0
  9
$PUCSORGTOP
 10
0.0
 20
0.0
 30
0.0
  9
$PUCSORGBOTTOM
 10
0.0
 20
0.0
 30
0.0
  9
$PUCSORGLEFT
 10
0.0
 20
0.0
 30
0.0
  9
$PUCSORGRIGHT
 10
0.0
 20
0.0
 30
0.0
  9
$PUCSORGFRONT
 10
0.0
 20
0.0
 30
0.0
  9
$PUCSORGBACK
 10
0.0
 20
0.0
 30
0.0
  9
$USERI1
 70
     0
  9
$USERI2
 70
     0
  9
$USERI3
 70
     0
  9
$USERI4
 70
     0
  9
$USERI5
 70
     0
  9
$USERR1
 40
0.0
  9
$USERR2
 40
0.0
  9
$USERR3
 40
0.0
  9
$USERR4
 40
0.0
  9
$USERR5
 40
0.0
  9
$WORLDVIEW
 70
     1
  9
$SHADEDGE
 70
     3
  9
$SHADEDIF
 70
    70
  9
$TILEMODE
 70
     1
  9
$MAXACTVP
 70
    64
  9
$PINSBASE
 10
0.0
 20
0.0
 30
0.0
  9
$PLIMCHECK
 70
     0
  9
$PEXTMIN
 10
1.000000000000000E+20
 20
1.000000000000000E+20
 30
1.000000000000000E+20
  9
$PEXTMAX
 10
-1.000000000000000E+20
 20
-1.000000000000000E+20
 30
-1.000000000000000E+20
  9
$PLIMMIN
 10
0.0
 20
0.0
  9
$PLIMMAX
 10
12.0
 20
9.0
  9
$UNITMODE
 70
     0
  9
$VISRETAIN
 70
     1
  9
$PLINEGEN
 70
     0
  9
$PSLTSCALE
 70
     1
  9
$TREEDEPTH
 70
  3020
  9
$CMLSTYLE
  2
Standard
  9
$CMLJUST
 70
     0
  9
$CMLSCALE
 40
1.0
  9
$PROXYGRAPHICS
 70
     1
  9
$MEASUREMENT
 70
     0
  9
$CELWEIGHT
370
    -1
  9
$ENDCAPS
280
     0
  9
$JOINSTYLE
280
     0
  9
$LWDISPLAY
290
     1
  9
$INSUNITS
 70
     4
  9
$HYPERLINKBASE
  1

  9
$STYLESHEET
  1

  9
$XEDIT
290
     1
  9
$CEPSNTYPE
380
     0
  9
$PSTYLEMODE
290
     1
  9
$FINGERPRINTGUID
  2
{76D9A276-2EDF-4F2D-912C-8FB7A8B0082F}
  9
$VERSIONGUID
  2
{FAEB1C32-E019-11D5-929B-00C0DF256EC4}
  9
$EXTNAMES
290
     1
  9
$PSVPSCALE
 40
0.0
  9
$OLESTARTUP
290
     0
  9
$SORTENTS
280
   127
  9
$INDEXCTL
280
     0
  9
$HIDETEXT
280
     1
  9
$XCLIPFRAME
280
     2
  9
$HALOGAP
280
     0
  9
$OBSCOLOR
 70
   257
  9
$OBSLTYPE
280
     0
  9
$INTERSECTIONDISPLAY
280
     0
  9
$INTERSECTIONCOLOR
 70
   257
  9
$DIMASSOC
280
     2
  9
$PROJECTNAME
  1

  9
$CAMERADISPLAY
290
     0
  9
$LENSLENGTH
 40
50.0
  9
$CAMERAHEIGHT
 40
0.0
  9
$STEPSPERSEC
 40
2.0
  9
$STEPSIZE
 40
6.0
  9
$3DDWFPREC
 40
2.0
  9
$PSOLWIDTH
 40
0.25
  9
$PSOLHEIGHT
 40
4.0
  9
$LOFTANG1
 40
1.570796326794897
  9
$LOFTANG2
 40
1.570796326794897
  9
$LOFTMAG1
 40
0.0
  9
$LOFTMAG2
 40
0.0
  9
$LOFTPARAM
 70
     7
  9
$LOFTNORMALS
280
     1
  9
$LATITUDE
 40
37.795
  9
$LONGITUDE
 40
-122.394
  9
$NORTHDIRECTION
 40
0.0
  9
$TIMEZONE
 70
 -8000
  9
$LIGHTGLYPHDISPLAY
280
     1
  9
$TILEMODELIGHTSYNCH
280
     1
  9
$CMATERIAL
347
3C
  9
$SOLIDHIST
280
     1
  9
$SHOWHIST
280
     1
  9
$DWFFRAME
280
     2
  9
$DGNFRAME
280
     2
  9
$REALWORLDSCALE
290
     1
  9
$INTERFERECOLOR
 62
   256
  9
$CSHADOW
280
     0
  9
$SHADOWPLANELOCATION
 40
0.0
  0
ENDSEC
  0
SECTION
  2
CLASSES
  0
CLASS
  1
ACDBDICTIONARYWDFLT
  2
AcDbDictionaryWithDefault
  3
ObjectDBX Classes
 90
        0
 91
        4
280
     0
281
     0
  0
CLASS
  1
VISUALSTYLE
  2
AcDbVisualStyle
  3
ObjectDBX Classes
 90
     4095
 91
        4
280
     0
281
     0
  0
CLASS
  1
MATERIAL
  2
AcDbMaterial
  3
ObjectDBX Classes
 90
     1153
 91
        4
280
     0
281
     0
  0
CLASS
  1
SUN
  2
AcDbSun
  3
SCENEOE
 90
     1024
 91
        4
280
     0
281
     0
  0
ENDSEC
  0
SECTION
  2
TABLES
  0
TABLE
  2
VPORT
  5
8
330
0
100
AcDbSymbolTable
 70
     1
  0
VPORT
  5
29
330
8
100
AcDbSymbolTableRecord
100
AcDbViewportTableRecord
  2
*Active
 70
     0
 10
0.0
 20
0.0
 11
1.0
 21
1.0
 12
0.0
 22
0.0
 13
0.0
 23
0.0
 14
0.5
 24
0.5
 15
0.5
 25
0.5
 16
0.0
 26
0.0
 36
1.0
 17
16.64581992474954
 27
17.77470773676387
 37
0.0
 40
296.9999999257499
 41
0.7070707070707065
 42
50.0
 43
0.0
 44
0.0
 50
0.0
 51
0.0
 71
     0
 72
   100
 73
     1
 74
     3
 75
     0
 76
     0
 77
     0
 78
     0
281
     0
 65
     1
110
0.0
120
0.0
130
0.0
111
1.0
121
0.0
131
0.0
112
0.0
122
1.0
132
0.0
 79
     0
146
0.0
 60
     3
 61
     5
292
     1
282
     1
141
0.0
142
0.0
 63
   250
361
3F
  0
ENDTAB
  0
TABLE
  2
LTYPE
  5
5
330
0
100
AcDbSymbolTable
 70
     9
  0
LTYPE
  5
14
330
5
100
AcDbSymbolTableRecord
100
AcDbLinetypeTableRecord
  2
ByBlock
 70
     0
  3

 72
    65
 73
     0
 40
0.0
  0
LTYPE
  5
15
330
5
100
AcDbSymbolTableRecord
100
AcDbLinetypeTableRecord
  2
ByLayer
 70
     0
  3

 72
    65
 73
     0
 40
0.0
  0
LTYPE
  5
16
330
5
100
AcDbSymbolTableRecord
100
AcDbLinetypeTableRecord
  2
Continuous
 70
     0
  3
Solid line
 72
    65
 73
     0
 40
0.0
  0
LTYPE
  5
95
330
5
100
AcDbSymbolTableRecord
100
AcDbLinetypeTableRecord
  2
AI-Linetype-1
 70
     0
  3
Adobe Illustrator Linetype No. 1
 72
    65
 73
     4
 40
2.480873985465037
 49
0.6202184963662594
 74
     0
 49
-0.6202184963662594
 74
     0
 49
0.6202184963662594
 74
     0
 49
-0.6202184963662594
 74
     0
  0
LTYPE
  5
A6
330
5
100
AcDbSymbolTableRecord
100
AcDbLinetypeTableRecord
  2
AI-Linetype-2
 70
     0
  3
Adobe Illustrator Linetype No. 2
 72
    65
 73
     4
 40
2.480873985465037
 49
0.6202184963662594
 74
     0
 49
-0.6202184963662594
 74
     0
 49
0.6202184963662594
 74
     0
 49
-0.6202184963662594
 74
     0
  0
LTYPE
  5
B7
330
5
100
AcDbSymbolTableRecord
100
AcDbLinetypeTableRecord
  2
AI-Linetype-3
 70
     0
  3
Adobe Illustrator Linetype No. 3
 72
    65
 73
     4
 40
2.480873985465037
 49
0.6202184963662594
 74
     0
 49
-0.6202184963662594
 74
     0
 49
0.6202184963662594
 74
     0
 49
-0.6202184963662594
 74
     0
  0
LTYPE
  5
C8
330
5
100
AcDbSymbolTableRecord
100
AcDbLinetypeTableRecord
  2
AI-Linetype-4
 70
     0
  3
Adobe Illustrator Linetype No. 4
 72
    65
 73
     4
 40
2.480873985465037
 49
0.6202184963662594
 74
     0
 49
-0.6202184963662594
 74
     0
 49
0.6202184963662594
 74
     0
 49
-0.6202184963662594
 74
     0
  0
LTYPE
  5
DF
330
5
100
AcDbSymbolTableRecord
100
AcDbLinetypeTableRecord
  2
AI-Linetype-5
 70
     0
  3
Adobe Illustrator Linetype No. 5
 72
    65
 73
     4
 40
2.480873985465037
 49
0.6202184963662594
 74
     0
 49
-0.6202184963662594
 74
     0
 49
0.6202184963662594
 74
     0
 49
-0.6202184963662594
 74
     0
  0
LTYPE
  5
F0
330
5
100
AcDbSymbolTableRecord
100
AcDbLinetypeTableRecord
  2
AI-Linetype-6
 70
     0
  3
Adobe Illustrator Linetype No. 6
 72
    65
 73
     4
 40
2.480873985465037
 49
0.6202184963662594
 74
     0
 49
-0.6202184963662594
 74
     0
 49
0.6202184963662594
 74
     0
 49
-0.6202184963662594
 74
     0
  0
LTYPE
  5
101
330
5
100
AcDbSymbolTableRecord
100
AcDbLinetypeTableRecord
  2
AI-Linetype-7
 70
     0
  3
Adobe Illustrator Linetype No. 7
 72
    65
 73
     4
 40
2.480873985465037
 49
0.6202184963662594
 74
     0
 49
-0.6202184963662594
 74
     0
 49
0.6202184963662594
 74
     0
 49
-0.6202184963662594
 74
     0
  0
LTYPE
  5
112
330
5
100
AcDbSymbolTableRecord
100
AcDbLinetypeTableRecord
  2
AI-Linetype-8
 70
     0
  3
Adobe Illustrator Linetype No. 8
 72
    65
 73
     4
 40
2.480873985465037
 49
0.6202184963662594
 74
     0
 49
-0.6202184963662594
 74
     0
 49
0.6202184963662594
 74
     0
 49
-0.6202184963662594
 74
     0
  0
ENDTAB
  0
TABLE
  2
LAYER
  5
2
330
0
100
AcDbSymbolTable
 70
     3
  0
LAYER
  5
10
330
2
100
AcDbSymbolTableRecord
100
AcDbLayerTableRecord
  2
0
 70
     0
 62
     7
  6
Continuous
370
    -3
390
F
347
3E
  0
LAYER
  5
40
330
2
100
AcDbSymbolTableRecord
100
AcDbLayerTableRecord
  2
Layer 1
 70
     0
 62
     7
  6
Continuous
370
    -3
390
F
347
3E
  0
LAYER
  5
115
330
2
100
AcDbSymbolTableRecord
100
AcDbLayerTableRecord
  2
callout
 70
     0
 62
     7
  6
Continuous
370
    -3
390
F
347
3E
  0
ENDTAB
  0
TABLE
  2
STYLE
  5
3
330
0
100
AcDbSymbolTable
 70
     1
  0
STYLE
  5
11
330
3
100
AcDbSymbolTableRecord
100
AcDbTextStyleTableRecord
  2
Standard
 70
     0
 40
0.0
 41
1.0
 50
0.0
 71
     0
 42
0.2
  3
txt
  4

  0
ENDTAB
  0
TABLE
  2
VIEW
  5
6
330
0
100
AcDbSymbolTable
 70
     0
  0
ENDTAB
  0
TABLE
  2
UCS
  5
7
330
0
100
AcDbSymbolTable
 70
     0
  0
ENDTAB
  0
TABLE
  2
APPID
  5
9
330
0
100
AcDbSymbolTable
 70
     1
  0
APPID
  5
12
330
9
100
AcDbSymbolTableRecord
100
AcDbRegAppTableRecord
  2
ACAD
 70
     0
  0
ENDTAB
  0
TABLE
  2
DIMSTYLE
  5
A
330
0
100
AcDbSymbolTable
 70
     1
100
AcDbDimStyleTable
  0
DIMSTYLE
105
27
330
A
100
AcDbSymbolTableRecord
100
AcDbDimStyleTableRecord
  2
Standard
 70
     0
178
     0
340
11
  0
ENDTAB
  0
TABLE
  2
BLOCK_RECORD
  5
1
330
0
100
AcDbSymbolTable
 70
     6
  0
BLOCK_RECORD
  5
1F
330
1
100
AcDbSymbolTableRecord
100
AcDbBlockTableRecord
  2
*Model_Space
340
22
 70
     0
280
     1
281
     0
  0
BLOCK_RECORD
  5
1B
330
1
100
AcDbSymbolTableRecord
100
AcDbBlockTableRecord
  2
*Paper_Space
340
1E
 70
     0
280
     1
281
     0
  0
BLOCK_RECORD
  5
23
330
1
100
AcDbSymbolTableRecord
100
AcDbBlockTableRecord
  2
*Paper_Space0
340
26
 70
     0
280
     1
281
     0
  0
BLOCK_RECORD
  5
41
330
1
100
AcDbSymbolTableRecord
100
AcDbBlockTableRecord
  2
block 2
340
0
102
{BLKREFS
331
42
102
}
 70
     0
280
     1
281
     0
  0
BLOCK_RECORD
  5
45
330
1
100
AcDbSymbolTableRecord
100
AcDbBlockTableRecord
  2
block 3
340
0
102
{BLKREFS
331
46
102
}
 70
     0
280
     1
281
     0
  0
BLOCK_RECORD
  5
7D
330
1
100
AcDbSymbolTableRecord
100
AcDbBlockTableRecord
  2
block 4
340
0
102
{BLKREFS
331
7E
102
}
 70
     0
280
     1
281
     0
  0
BLOCK_RECORD
  5
81
330
1
100
AcDbSymbolTableRecord
100
AcDbBlockTableRecord
  2
block 5
340
0
102
{BLKREFS
331
82
102
}
 70
     0
280
     1
281
     0
  0
BLOCK_RECORD
  5
CB
330
1
100
AcDbSymbolTableRecord
100
AcDbBlockTableRecord
  2
block 6
340
0
102
{BLKREFS
331
CC
102
}
 70
     0
280
     1
281
     0
  0
ENDTAB
  0
ENDSEC
  0
SECTION
  2
BLOCKS
  0
BLOCK
  5
20
330
1F
100
AcDbEntity
  8
0
100
AcDbBlockBegin
  2
*Model_Space
 70
     0
 10
0.0
 20
0.0
 30
0.0
  3
*Model_Space
  1

  0
ENDBLK
  5
21
330
1F
100
AcDbEntity
  8
0
100
AcDbBlockEnd
  0
BLOCK
  5
1C
330
1B
100
AcDbEntity
 67
     1
  8
0
100
AcDbBlockBegin
  2
*Paper_Space
 70
     0
 10
0.0
 20
0.0
 30
0.0
  3
*Paper_Space
  1

  0
ENDBLK
  5
1D
330
1B
100
AcDbEntity
 67
     1
  8
0
100
AcDbBlockEnd
  0
BLOCK
  5
24
330
23
100
AcDbEntity
  8
0
100
AcDbBlockBegin
  2
*Paper_Space0
 70
     0
 10
0.0
 20
0.0
 30
0.0
  3
*Paper_Space0
  1

  0
ENDBLK
  5
25
330
23
100
AcDbEntity
  8
0
100
AcDbBlockEnd
  0
BLOCK
  5
43
330
41
100
AcDbEntity
  8
0
100
AcDbBlockBegin
  2
block 2
 70
     0
 10
0.0
 20
0.0
 30
0.0
  3
block 2
  1

  0
INSERT
  5
46
330
41
100
AcDbEntity
  8
Layer 1
100
AcDbBlockReference
  2
block 3
 10
0.0
 20
0.0
 30
0.0
  0
INSERT
  5
7E
330
41
100
AcDbEntity
  8
Layer 1
100
AcDbBlockReference
  2
block 4
 10
0.0
 20
0.0
 30
0.0
  0
ENDBLK
  5
44
330
41
100
AcDbEntity
  8
0
100
AcDbBlockEnd
  0
BLOCK
  5
47
330
45
100
AcDbEntity
  8
0
100
AcDbBlockBegin
  2
block 3
 70
     0
 10
0.0
 20
0.0
 30
0.0
  3
block 3
  1

  0
POLYLINE
  5
49
330
45
100
AcDbEntity
  8
Layer 1
 62
   250
420
  2301728
370
    40
100
AcDb2dPolyline
 66
     1
 10
0.0
 20
0.0
 30
0.0
  0
VERTEX
  5
4A
330
49
100
AcDbEntity
  8
Layer 1
 62
   250
420
  2301728
370
    40
100
AcDbVertex
100
AcDb2dVertex
 10
53.82223284870011
 20
41.02818895395394
 30
0.0
  0
VERTEX
  5
4B
330
49
100
AcDbEntity
  8
Layer 1
 62
   250
420
  2301728
370
    40
100
AcDbVertex
100
AcDb2dVertex
 10
53.82223284870011
 20
31.53790784798533
 30
0.0
  0
VERTEX
  5
4C
330
49
100
AcDbEntity
  8
Layer 1
 62
   250
420
  2301728
370
    40
100
AcDbVertex
100
AcDb2dVertex
 10
54.95634554975961
 20
30.8025076996176
 30
0.0
  0
VERTEX
  5
4D
330
49
100
AcDbEntity
  8
Layer 1
 62
   250
420
  2301728
370
    40
100
AcDbVertex
100
AcDb2dVertex
 10
53.2197346312813
 20
29.12791835823356
 30
0.0
  0
VERTEX
  5
4E
330
49
100
AcDbEntity
  8
Layer 1
 62
   250
420
  2301728
370
    40
100
AcDbVertex
100
AcDb2dVertex
 10
54.0171597366655
 20
28.45453640703759
 30
0.0
  0
VERTEX
  5
4F
330
49
100
AcDbEntity
  8
Layer 1
 62
   250
420
  2301728
370
    40
100
AcDbVertex
100
AcDb2dVertex
 10
54.0171597366655
 20
17.46524116277618
 30
0.0
  0
VERTEX
  5
50
330
49
100
AcDbEntity
  8
Layer 1
 62
   250
420
  2301728
370
    40
100
AcDbVertex
100
AcDb2dVertex
 10
-15.71311899410579
 20
17.46524116277618
 30
0.0
  0
VERTEX
  5
51
330
49
100
AcDbEntity
  8
Layer 1
 62
   250
420
  2301728
370
    40
100
AcDbVertex
100
AcDb2dVertex
 10
-15.71311899410579
 20
28.99501304736213
 30
0.0
  0
VERTEX
  5
52
330
49
100
AcDbEntity
  8
Layer 1
 62
   250
420
  2301728
370
    40
100
AcDbVertex
100
AcDb2dVertex
 10
-14.83595296252199
 20
29.93420224037877
 30
0.0
  0
VERTEX
  5
53
330
49
100
AcDbEntity
  8
Layer 1
 62
   250
420
  2301728
370
    40
100
AcDbVertex
100
AcDb2dVertex
 10
-16.71432881361305
 20
30.87338805347256
 30
0.0
  0
VERTEX
  5
54
330
49
100
AcDbEntity
  8
Layer 1
 62
   250
420
  2301728
370
    40
100
AcDbVertex
100
AcDb2dVertex
 10
-15.71311899410579
 20
32.00750413445459
 30
0.0
  0
VERTEX
  5
55
330
49
100
AcDbEntity
  8
Layer 1
 62
   250
420
  2301728
370
    40
100
AcDbVertex
100
AcDb2dVertex
 10
-15.71311899410579
 20
41.01046802050909
 30
0.0
  0
VERTEX
  5
56
330
49
100
AcDbEntity
  8
Layer 1
 62
   250
420
  2301728
370
    40
100
AcDbVertex
100
AcDb2dVertex
 10
53.82223284870011
 20
41.02818895395394
 30
0.0
  0
SEQEND
  5
58
330
49
100
AcDbEntity
  8
Layer 1
 62
   250
420
  2301728
370
    40
  0
HATCH
  5
57
330
45
100
AcDbEntity
  8
Layer 1
 62
    43
420
 15510108
100
AcDbHatch
 10
0.0
 20
0.0
 30
0.0
210
0.0
220
0.0
230
1.0
  2
SOLID
 70
     1
 71
     0
 91
        1
 92
        1
 93
       12
 72
     1
 10
53.82223284870011
 20
41.02818895395394
 11
53.82223284870011
 21
31.53790784798533
 72
     1
 10
53.82223284870011
 20
31.53790784798533
 11
54.95634554975961
 21
30.80250769961761
 72
     1
 10
54.95634554975961
 20
30.8025076996176
 11
53.2197346312813
 21
29.12791835823356
 72
     1
 10
53.2197346312813
 20
29.12791835823356
 11
54.0171597366655
 21
28.45453640703759
 72
     1
 10
54.0171597366655
 20
28.45453640703759
 11
54.0171597366655
 21
17.46524116277618
 72
     1
 10
54.0171597366655
 20
17.46524116277618
 11
-15.71311899410579
 21
17.46524116277618
 72
     1
 10
-15.71311899410579
 20
17.46524116277618
 11
-15.71311899410579
 21
28.99501304736213
 72
     1
 10
-15.71311899410579
 20
28.99501304736213
 11
-14.83595296252199
 21
29.93420224037877
 72
     1
 10
-14.83595296252199
 20
29.93420224037877
 11
-16.71432881361305
 21
30.87338805347256
 72
     1
 10
-16.71432881361305
 20
30.87338805347256
 11
-15.71311899410579
 21
32.00750413445459
 72
     1
 10
-15.71311899410579
 20
32.00750413445459
 11
-15.71311899410579
 21
41.01046802050909
 72
     1
 10
-15.71311899410579
 20
41.01046802050909
 11
53.8222328487001
 21
41.02818895395394
 97
        0
 75
     2
 76
     1
 98
        0
  0
POLYLINE
  5
59
330
45
100
AcDbEntity
  8
Layer 1
 62
   250
420
  2301728
370
    40
100
AcDb2dPolyline
 66
     1
 10
0.0
 20
0.0
 30
0.0
  0
VERTEX
  5
5A
330
59
100
AcDbEntity
  8
Layer 1
 62
   250
420
  2301728
370
    40
100
AcDbVertex
100
AcDb2dVertex
 10
24.75170568798534
 20
70.35472532821714
 30
0.0
  0
VERTEX
  5
5B
330
59
100
AcDbEntity
  8
Layer 1
 62
   250
420
  2301728
370
    40
100
AcDbVertex
100
AcDb2dVertex
 10
27.63129146420669
 20
70.35472532821714
 30
0.0
  0
SEQEND
  5
5C
330
59
100
AcDbEntity
  8
Layer 1
 62
   250
420
  2301728
370
    40
  0
POLYLINE
  5
5D
330
45
100
AcDbEntity
  8
Layer 1
 62
   250
420
  2301728
370
    40
100
AcDb2dPolyline
 66
     1
 10
0.0
 20
0.0
 30
0.0
  0
VERTEX
  5
5E
330
5D
100
AcDbEntity
  8
Layer 1
 62
   250
420
  2301728
370
    40
100
AcDbVertex
100
AcDb2dVertex
 10
13.18906193945181
 20
70.35472532821714
 30
0.0
  0
VERTEX
  5
5F
330
5D
100
AcDbEntity
  8
Layer 1
 62
   250
420
  2301728
370
    40
100
AcDbVertex
100
AcDb2dVertex
 10
10.9562750242987
 20
70.35472532821714
 30
0.0
  0
SEQEND
  5
60
330
5D
100
AcDbEntity
  8
Layer 1
 62
   250
420
  2301728
370
    40
  0
POLYLINE
  5
61
330
45
100
AcDbEntity
  8
Layer 1
 62
   250
420
  2301728
370
    40
100
AcDb2dPolyline
 66
     1
 10
0.0
 20
0.0
 30
0.0
  0
VERTEX
  5
62
330
61
100
AcDbEntity
  8
Layer 1
 62
   250
420
  2301728
370
    40
100
AcDbVertex
100
AcDb2dVertex
 10
13.18906193945181
 20
70.35472532821714
 30
0.0
  0
VERTEX
  5
63
330
61
100
AcDbEntity
  8
Layer 1
 62
   250
420
  2301728
370
    40
100
AcDbVertex
100
AcDb2dVertex
 10
17.24706444030461
 20
70.35472532821714
 30
0.0
  0
VERTEX
  5
64
330
61
100
AcDbEntity
  8
Layer 1
 62
   250
420
  2301728
370
    40
100
AcDbVertex
100
AcDb2dVertex
 10
18.22169212028714
 20
71.55972176305413
 30
0.0
  0
VERTEX
  5
65
330
61
100
AcDbEntity
  8
Layer 1
 62
   250
420
  2301728
370
    40
100
AcDbVertex
100
AcDb2dVertex
 10
19.75451737403843
 20
69.14972973836079
 30
0.0
  0
VERTEX
  5
66
330
61
100
AcDbEntity
  8
Layer 1
 62
   250
420
  2301728
370
    40
100
AcDbVertex
100
AcDb2dVertex
 10
20.93293409867052
 20
70.35472532821714
 30
0.0
  0
VERTEX
  5
67
330
61
100
AcDbEntity
  8
Layer 1
 62
   250
420
  2301728
370
    40
100
AcDbVertex
100
AcDb2dVertex
 10
24.75170568798534
 20
70.35472532821714
 30
0.0
  0
VERTEX
  5
68
330
61
100
AcDbEntity
  8
Layer 1
 62
   250
420
  2301728
370
    40
100
AcDbVertex
100
AcDb2dVertex
 10
24.75170568798534
 20
-7.110559074563463
 30
0.0
  0
VERTEX
  5
69
330
61
100
AcDbEntity
  8
Layer 1
 62
   250
420
  2301728
370
    40
100
AcDbVertex
100
AcDb2dVertex
 10
13.19792071621282
 20
-7.110559074563463
 30
0.0
  0
VERTEX
  5
6A
330
61
100
AcDbEntity
  8
Layer 1
 62
   250
420
  2301728
370
    40
100
AcDbVertex
100
AcDb2dVertex
 10
13.18906193945181
 20
70.35472532821714
 30
0.0
  0
SEQEND
  5
6C
330
61
100
AcDbEntity
  8
Layer 1
 62
   250
420
  2301728
370
    40
  0
HATCH
  5
6B
330
45
100
AcDbEntity
  8
Layer 1
 62
    43
420
 15510108
100
AcDbHatch
 10
0.0
 20
0.0
 30
0.0
210
0.0
220
0.0
230
1.0
  2
SOLID
 70
     1
 71
     0
 91
        1
 92
        1
 93
        8
 72
     1
 10
13.18906193945181
 20
70.35472532821714
 11
17.24706444030461
 21
70.35472532821714
 72
     1
 10
17.24706444030461
 20
70.35472532821714
 11
18.22169212028714
 21
71.55972176305413
 72
     1
 10
18.22169212028714
 20
71.55972176305413
 11
19.75451737403843
 21
69.14972973836079
 72
     1
 10
19.75451737403843
 20
69.14972973836079
 11
20.93293409867052
 21
70.35472532821714
 72
     1
 10
20.93293409867052
 20
70.35472532821714
 11
24.75170568798534
 21
70.35472532821714
 72
     1
 10
24.75170568798534
 20
70.35472532821714
 11
24.75170568798534
 21
-7.110559074563469
 72
     1
 10
24.75170568798534
 20
-7.110559074563463
 11
13.19792071621282
 21
-7.110559074563463
 72
     1
 10
13.19792071621282
 20
-7.110559074563463
 11
13.18906193945181
 21
70.35472532821714
 97
        0
 75
     2
 76
     1
 98
        0
  0
POLYLINE
  5
6D
330
45
100
AcDbEntity
  8
Layer 1
 62
   250
420
  2301728
370
    40
100
AcDb2dPolyline
 66
     1
 10
0.0
 20
0.0
 30
0.0
  0
VERTEX
  5
6E
330
6D
100
AcDbEntity
  8
Layer 1
 62
   250
420
  2301728
370
    40
100
AcDbVertex
100
AcDb2dVertex
 10
54.0171597366655
 20
17.46524116277618
 30
0.0
  0
VERTEX
  5
6F
330
6D
100
AcDbEntity
  8
Layer 1
 62
   250
420
  2301728
370
    40
100
AcDbVertex
100
AcDb2dVertex
 10
54.0171597366655
 20
14.34643123486256
 30
0.0
  0
SEQEND
  5
70
330
6D
100
AcDbEntity
  8
Layer 1
 62
   250
420
  2301728
370
    40
  0
POLYLINE
  5
71
330
45
100
AcDbEntity
  8
Layer 1
 62
   250
420
  2301728
370
    40
100
AcDb2dPolyline
 66
     1
 10
0.0
 20
0.0
 30
0.0
  0
VERTEX
  5
72
330
71
100
AcDbEntity
  8
Layer 1
 62
   250
420
  2301728
370
    40
100
AcDbVertex
100
AcDb2dVertex
 10
53.82223284870011
 20
41.02818895395394
 30
0.0
  0
VERTEX
  5
73
330
71
100
AcDbEntity
  8
Layer 1
 62
   250
420
  2301728
370
    40
100
AcDbVertex
100
AcDb2dVertex
 10
53.82223284870011
 20
43.55336282113293
 30
0.0
  0
SEQEND
  5
74
330
71
100
AcDbEntity
  8
Layer 1
 62
   250
420
  2301728
370
    40
  0
POLYLINE
  5
75
330
45
100
AcDbEntity
  8
Layer 1
 62
   250
420
  2301728
370
    40
100
AcDb2dPolyline
 66
     1
 10
0.0
 20
0.0
 30
0.0
  0
VERTEX
  5
76
330
75
100
AcDbEntity
  8
Layer 1
 62
   250
420
  2301728
370
    40
100
AcDbVertex
100
AcDb2dVertex
 10
-15.7042587386286
 20
17.46524116277618
 30
0.0
  0
VERTEX
  5
77
330
75
100
AcDbEntity
  8
Layer 1
 62
   250
420
  2301728
370
    40
100
AcDbVertex
100
AcDb2dVertex
 10
-15.7042587386286
 20
14.34643123486256
 30
0.0
  0
SEQEND
  5
78
330
75
100
AcDbEntity
  8
Layer 1
 62
   250
420
  2301728
370
    40
  0
POLYLINE
  5
79
330
45
100
AcDbEntity
  8
Layer 1
 62
   250
420
  2301728
370
    40
100
AcDb2dPolyline
 66
     1
 10
0.0
 20
0.0
 30
0.0
  0
VERTEX
  5
7A
330
79
100
AcDbEntity
  8
Layer 1
 62
   250
420
  2301728
370
    40
100
AcDbVertex
100
AcDb2dVertex
 10
-15.71311899410579
 20
41.02818895395394
 30
0.0
  0
VERTEX
  5
7B
330
79
100
AcDbEntity
  8
Layer 1
 62
   250
420
  2301728
370
    40
100
AcDbVertex
100
AcDb2dVertex
 10
-15.71311899410579
 20
43.55336282113293
 30
0.0
  0
SEQEND
  5
7C
330
79
100
AcDbEntity
  8
Layer 1
 62
   250
420
  2301728
370
    40
  0
ENDBLK
  5
48
330
45
100
AcDbEntity
  8
0
100
AcDbBlockEnd
  0
BLOCK
  5
7F
330
7D
100
AcDbEntity
  8
0
100
AcDbBlockBegin
  2
block 4
 70
     0
 10
0.0
 20
0.0
 30
0.0
  3
block 4
  1

  0
INSERT
  5
82
330
7D
100
AcDbEntity
  8
Layer 1
100
AcDbBlockReference
  2
block 5
 10
0.0
 20
0.0
 30
0.0
  0
INSERT
  5
CC
330
7D
100
AcDbEntity
  8
Layer 1
100
AcDbBlockReference
  2
block 6
 10
0.0
 20
0.0
 30
0.0
  0
ENDBLK
  5
80
330
7D
100
AcDbEntity
  8
0
100
AcDbBlockEnd
  0
BLOCK
  5
83
330
81
100
AcDbEntity
  8
0
100
AcDbBlockBegin
  2
block 5
 70
     0
 10
0.0
 20
0.0
 30
0.0
  3
block 5
  1

  0
POLYLINE
  5
85
330
81
100
AcDbEntity
  8
Layer 1
 62
   250
420
  2301728
370
    30
100
AcDb2dPolyline
 66
     1
 10
0.0
 20
0.0
 30
0.0
  0
VERTEX
  5
86
330
85
100
AcDbEntity
  8
Layer 1
 62
   250
420
  2301728
370
    30
100
AcDbVertex
100
AcDb2dVertex
 10
38.59143699532203
 20
16.56149721657049
 30
0.0
  0
VERTEX
  5
87
330
85
100
AcDbEntity
  8
Layer 1
 62
   250
420
  2301728
370
    30
100
AcDbVertex
100
AcDb2dVertex
 10
40.49639509156021
 20
16.56149721657049
 30
0.0
  0
VERTEX
  5
88
330
85
100
AcDbEntity
  8
Layer 1
 62
   250
420
  2301728
370
    30
100
AcDbVertex
100
AcDb2dVertex
 10
40.49639509156021
 20
15.79065182139182
 30
0.0
  0
VERTEX
  5
89
330
85
100
AcDbEntity
  8
Layer 1
 62
   250
420
  2301728
370
    30
100
AcDbVertex
100
AcDb2dVertex
 10
38.59143699532203
 20
15.79065182139182
 30
0.0
  0
VERTEX
  5
8A
330
85
100
AcDbEntity
  8
Layer 1
 62
   250
420
  2301728
370
    30
100
AcDbVertex
100
AcDb2dVertex
 10
38.59143699532203
 20
16.56149721657049
 30
0.0
  0
SEQEND
  5
8C
330
85
100
AcDbEntity
  8
Layer 1
 62
   250
420
  2301728
370
    30
  0
HATCH
  5
8B
330
81
100
AcDbEntity
  8
Layer 1
 62
   254
420
 14213608
100
AcDbHatch
 10
0.0
 20
0.0
 30
0.0
210
0.0
220
0.0
230
1.0
  2
SOLID
 70
     1
 71
     0
 91
        1
 92
        1
 93
        4
 72
     1
 10
38.59143699532203
 20
16.56149721657049
 11
40.49639509156021
 21
16.56149721657049
 72
     1
 10
40.49639509156021
 20
16.56149721657049
 11
40.49639509156021
 21
15.79065182139182
 72
     1
 10
40.49639509156021
 20
15.79065182139182
 11
38.59143699532203
 21
15.79065182139182
 72
     1
 10
38.59143699532203
 20
15.79065182139182
 11
38.59143699532203
 21
16.56149721657049
 97
        0
 75
     2
 76
     1
 98
        0
  0
SPLINE
  5
8D
330
81
100
AcDbEntity
  8
Layer 1
 62
   250
420
  2301728
370
    40
100
AcDbSpline
210
0.0
220
0.0
230
1.0
 70
    11
 71
     3
 72
    29
 73
    25
 74
     0
 42
0.0000000001
 43
0.0000000001
 12
1.0
 22
0.0
 32
0.0
 13
1.0
 23
0.0
 33
0.0
 40
0.0
 40
0.0
 40
0.0
 40
0.0
 40
1.0
 40
1.0
 40
1.0
 40
2.0
 40
2.0
 40
2.0
 40
3.0
 40
3.0
 40
3.0
 40
4.0
 40
4.0
 40
4.0
 40
5.0
 40
5.0
 40
5.0
 40
6.0
 40
6.0
 40
6.0
 40
7.0
 40
7.0
 40
7.0
 40
8.0
 40
8.0
 40
8.0
 40
8.0
 10
41.87859410099617
 20
17.45637900609201
 30
0.0
 10
41.87859410099617
 20
17.45637900609201
 30
0.0
 10
41.86087654747416
 20
16.58807016693161
 30
0.0
 10
41.86087654747416
 20
16.58807016693161
 30
0.0
 10
41.86087654747416
 20
16.58807016693161
 30
0.0
 10
27.16169855765995
 20
16.55262830004255
 30
0.0
 10
26.82500758206148
 20
16.55262830004255
 30
0.0
 10
26.25795123153173
 20
16.55262830004255
 30
0.0
 10
25.66431179087456
 20
16.38428112228269
 30
0.0
 10
25.66431179087456
 20
15.6134424869478
 30
0.0
 10
25.66431179087456
 20
14.84259709176912
 30
0.0
 10
25.66431179087456
 20
4.830502910354584
 30
0.0
 10
25.66431179087456
 20
4.830502910354584
 30
0.0
 10
25.66431179087456
 20
4.830502910354584
 30
0.0
 10
24.73398475454145
 20
4.830502910354584
 30
0.0
 10
24.73398475454145
 20
4.830502910354584
 30
0.0
 10
24.73398475454145
 20
4.830502910354584
 30
0.0
 10
24.76056446474634
 20
15.108407713512
 30
0.0
 10
24.76056446474634
 20
15.85267339848578
 30
0.0
 10
24.76056446474634
 20
16.58807692677667
 30
0.0
 10
25.21243643784918
 20
17.4386614525713
 30
0.0
 10
26.38199438571964
 20
17.4386614525713
 30
0.0
 10
27.56041111035173
 20
17.44752360925418
 30
0.0
 10
41.87859410099617
 20
17.45637900609201
 30
0.0
 10
41.87859410099617
 20
17.45637900609201
 30
0.0
  0
HATCH
  5
8E
330
81
100
AcDbEntity
  8
Layer 1
 62
   254
420
 14213608
100
AcDbHatch
 10
0.0
 20
0.0
 30
0.0
210
0.0
220
0.0
230
1.0
  2
SOLID
 70
     1
 71
     0
 91
        1
 92
        1
 93
        1
 72
     4
 94
        3
 73
     0
 74
     1
 95
       29
 96
       25
 40
0.0
 40
0.0
 40
0.0
 40
0.0
 40
1.0
 40
1.0
 40
1.0
 40
2.0
 40
2.0
 40
2.0
 40
3.0
 40
3.0
 40
3.0
 40
4.0
 40
4.0
 40
4.0
 40
5.0
 40
5.0
 40
5.0
 40
6.0
 40
6.0
 40
6.0
 40
7.0
 40
7.0
 40
7.0
 40
8.0
 40
8.0
 40
8.0
 40
8.0
 10
41.87859410099617
 20
17.45637900609201
 10
41.87859410099617
 20
17.45637900609201
 10
41.86087654747416
 20
16.58807016693161
 10
41.86087654747416
 20
16.58807016693161
 10
41.86087654747416
 20
16.58807016693161
 10
27.16169855765995
 20
16.55262830004255
 10
26.82500758206148
 20
16.55262830004255
 10
26.25795123153173
 20
16.55262830004255
 10
25.66431179087456
 20
16.38428112228269
 10
25.66431179087456
 20
15.6134424869478
 10
25.66431179087456
 20
14.84259709176912
 10
25.66431179087456
 20
4.830502910354584
 10
25.66431179087456
 20
4.830502910354584
 10
25.66431179087456
 20
4.830502910354584
 10
24.73398475454145
 20
4.830502910354584
 10
24.73398475454145
 20
4.830502910354584
 10
24.73398475454145
 20
4.830502910354584
 10
24.76056446474634
 20
15.108407713512
 10
24.76056446474634
 20
15.85267339848578
 10
24.76056446474634
 20
16.58807692677667
 10
25.21243643784918
 20
17.4386614525713
 10
26.38199438571964
 20
17.4386614525713
 10
27.56041111035173
 20
17.44752360925418
 10
41.87859410099617
 20
17.45637900609201
 10
41.87859410099617
 20
17.45637900609201
 97
        0
 97
        0
 75
     2
 76
     1
 98
        0
  0
POLYLINE
  5
8F
330
81
100
AcDbEntity
  8
Layer 1
  6
AI-Linetype-1
 62
   250
420
  2301728
370
    30
100
AcDb2dPolyline
 66
     1
 10
0.0
 20
0.0
 30
0.0
  0
VERTEX
  5
90
330
8F
100
AcDbEntity
  8
Layer 1
  6
AI-Linetype-1
 62
   250
420
  2301728
370
    30
100
AcDbVertex
100
AcDb2dVertex
 10
39.17621765921885
 20
17.52726273987014
 30
0.0
  0
VERTEX
  5
91
330
8F
100
AcDbEntity
  8
Layer 1
  6
AI-Linetype-1
 62
   250
420
  2301728
370
    30
100
AcDbVertex
100
AcDb2dVertex
 10
39.17621765921885
 20
26.83940201972919
 30
0.0
  0
VERTEX
  5
92
330
8F
100
AcDbEntity
  8
Layer 1
  6
AI-Linetype-1
 62
   250
420
  2301728
370
    30
100
AcDbVertex
100
AcDb2dVertex
 10
39.47746338800572
 20
27.44190023714768
 30
0.0
  0
VERTEX
  5
93
330
8F
100
AcDbEntity
  8
Layer 1
  6
AI-Linetype-1
 62
   250
420
  2301728
370
    30
100
AcDbVertex
100
AcDb2dVertex
 10
39.91162118750846
 20
26.80396015284045
 30
0.0
  0
VERTEX
  5
94
330
8F
100
AcDbEntity
  8
Layer 1
  6
AI-Linetype-1
 62
   250
420
  2301728
370
    30
100
AcDbVertex
100
AcDb2dVertex
 10
39.91162118750846
 20
17.50068302966525
 30
0.0
  0
SEQEND
  5
97
330
8F
100
AcDbEntity
  8
Layer 1
  6
AI-Linetype-1
 62
   250
420
  2301728
370
    30
  0
HATCH
  5
96
330
81
100
AcDbEntity
  8
Layer 1
 62
     7
420
 16580093
100
AcDbHatch
 10
0.0
 20
0.0
 30
0.0
210
0.0
220
0.0
230
1.0
  2
SOLID
 70
     1
 71
     0
 91
        1
 92
        1
 93
        5
 72
     1
 10
39.17621765921885
 20
17.52726273987014
 11
39.17621765921885
 21
26.83940201972919
 72
     1
 10
39.17621765921885
 20
26.83940201972919
 11
39.47746338800573
 21
27.44190023714768
 72
     1
 10
39.47746338800572
 20
27.44190023714768
 11
39.91162118750845
 21
26.80396015284045
 72
     1
 10
39.91162118750846
 20
26.80396015284045
 11
39.91162118750846
 21
17.50068302966525
 72
     1
 10
39.91162118750846
 20
17.50068302966525
 11
39.17621765921885
 21
17.52726273987014
 97
        0
 75
     2
 76
     1
 98
        0
  0
POLYLINE
  5
98
330
81
100
AcDbEntity
  8
Layer 1
 62
   250
420
  2301728
370
    30
100
AcDb2dPolyline
 66
     1
 10
0.0
 20
0.0
 30
0.0
  0
VERTEX
  5
99
330
98
100
AcDbEntity
  8
Layer 1
 62
   250
420
  2301728
370
    30
100
AcDbVertex
100
AcDb2dVertex
 10
27.88823992926603
 20
16.56149721657049
 30
0.0
  0
VERTEX
  5
9A
330
98
100
AcDbEntity
  8
Layer 1
 62
   250
420
  2301728
370
    30
100
AcDbVertex
100
AcDb2dVertex
 10
29.79319802550484
 20
16.56149721657049
 30
0.0
  0
VERTEX
  5
9B
330
98
100
AcDbEntity
  8
Layer 1
 62
   250
420
  2301728
370
    30
100
AcDbVertex
100
AcDb2dVertex
 10
29.79319802550484
 20
15.79065182139182
 30
0.0
  0
VERTEX
  5
9C
330
98
100
AcDbEntity
  8
Layer 1
 62
   250
420
  2301728
370
    30
100
AcDbVertex
100
AcDb2dVertex
 10
27.88823992926603
 20
15.79065182139182
 30
0.0
  0
VERTEX
  5
9D
330
98
100
AcDbEntity
  8
Layer 1
 62
   250
420
  2301728
370
    30
100
AcDbVertex
100
AcDb2dVertex
 10
27.88823992926603
 20
16.56149721657049
 30
0.0
  0
SEQEND
  5
9F
330
98
100
AcDbEntity
  8
Layer 1
 62
   250
420
  2301728
370
    30
  0
HATCH
  5
9E
330
81
100
AcDbEntity
  8
Layer 1
 62
   254
420
 14213608
100
AcDbHatch
 10
0.0
 20
0.0
 30
0.0
210
0.0
220
0.0
230
1.0
  2
SOLID
 70
     1
 71
     0
 91
        1
 92
        1
 93
        4
 72
     1
 10
27.88823992926603
 20
16.56149721657049
 11
29.79319802550484
 21
16.56149721657049
 72
     1
 10
29.79319802550484
 20
16.56149721657049
 11
29.79319802550484
 21
15.79065182139182
 72
     1
 10
29.79319802550484
 20
15.79065182139182
 11
27.88823992926603
 21
15.79065182139182
 72
     1
 10
27.88823992926603
 20
15.79065182139182
 11
27.88823992926603
 21
16.56149721657049
 97
        0
 75
     2
 76
     1
 98
        0
  0
POLYLINE
  5
A0
330
81
100
AcDbEntity
  8
Layer 1
  6
AI-Linetype-2
 62
   250
420
  2301728
370
    30
100
AcDb2dPolyline
 66
     1
 10
0.0
 20
0.0
 30
0.0
  0
VERTEX
  5
A1
330
A0
100
AcDbEntity
  8
Layer 1
  6
AI-Linetype-2
 62
   250
420
  2301728
370
    30
100
AcDbVertex
100
AcDb2dVertex
 10
28.47301721324031
 20
17.52726273987014
 30
0.0
  0
VERTEX
  5
A2
330
A0
100
AcDbEntity
  8
Layer 1
  6
AI-Linetype-2
 62
   250
420
  2301728
370
    30
100
AcDbVertex
100
AcDb2dVertex
 10
28.47301721324031
 20
26.83940201972919
 30
0.0
  0
VERTEX
  5
A3
330
A0
100
AcDbEntity
  8
Layer 1
  6
AI-Linetype-2
 62
   250
420
  2301728
370
    30
100
AcDbVertex
100
AcDb2dVertex
 10
28.78312509871072
 20
27.44190023714768
 30
0.0
  0
VERTEX
  5
A4
330
A0
100
AcDbEntity
  8
Layer 1
  6
AI-Linetype-2
 62
   250
420
  2301728
370
    30
100
AcDbVertex
100
AcDb2dVertex
 10
29.21727951829156
 20
26.80396015284045
 30
0.0
  0
VERTEX
  5
A5
330
A0
100
AcDbEntity
  8
Layer 1
  6
AI-Linetype-2
 62
   250
420
  2301728
370
    30
100
AcDbVertex
100
AcDb2dVertex
 10
29.21727951829156
 20
17.50068302966525
 30
0.0
  0
SEQEND
  5
A8
330
A0
100
AcDbEntity
  8
Layer 1
  6
AI-Linetype-2
 62
   250
420
  2301728
370
    30
  0
HATCH
  5
A7
330
81
100
AcDbEntity
  8
Layer 1
 62
     7
420
 16580093
100
AcDbHatch
 10
0.0
 20
0.0
 30
0.0
210
0.0
220
0.0
230
1.0
  2
SOLID
 70
     1
 71
     0
 91
        1
 92
        1
 93
        5
 72
     1
 10
28.47301721324031
 20
17.52726273987014
 11
28.47301721324031
 21
26.83940201972919
 72
     1
 10
28.47301721324031
 20
26.83940201972919
 11
28.78312509871072
 21
27.44190023714768
 72
     1
 10
28.78312509871072
 20
27.44190023714768
 11
29.21727951829156
 21
26.80396015284045
 72
     1
 10
29.21727951829156
 20
26.80396015284045
 11
29.21727951829156
 21
17.50068302966525
 72
     1
 10
29.21727951829156
 20
17.50068302966525
 11
28.47301721324031
 21
17.52726273987014
 97
        0
 75
     2
 76
     1
 98
        0
  0
POLYLINE
  5
A9
330
81
100
AcDbEntity
  8
Layer 1
 62
   250
420
  2301728
370
    30
100
AcDb2dPolyline
 66
     1
 10
0.0
 20
0.0
 30
0.0
  0
VERTEX
  5
AA
330
A9
100
AcDbEntity
  8
Layer 1
 62
   250
420
  2301728
370
    30
100
AcDbVertex
100
AcDb2dVertex
 10
25.69089488100198
 20
15.07297260646927
 30
0.0
  0
VERTEX
  5
AB
330
A9
100
AcDbEntity
  8
Layer 1
 62
   250
420
  2301728
370
    30
100
AcDbVertex
100
AcDb2dVertex
 10
26.46173689625812
 20
15.07297260646927
 30
0.0
  0
VERTEX
  5
AC
330
A9
100
AcDbEntity
  8
Layer 1
 62
   250
420
  2301728
370
    30
100
AcDbVertex
100
AcDb2dVertex
 10
26.46173689625812
 20
13.1680145102311
 30
0.0
  0
VERTEX
  5
AD
330
A9
100
AcDbEntity
  8
Layer 1
 62
   250
420
  2301728
370
    30
100
AcDbVertex
100
AcDb2dVertex
 10
25.69089488100198
 20
13.1680145102311
 30
0.0
  0
VERTEX
  5
AE
330
A9
100
AcDbEntity
  8
Layer 1
 62
   250
420
  2301728
370
    30
100
AcDbVertex
100
AcDb2dVertex
 10
25.69089488100198
 20
15.07297260646927
 30
0.0
  0
SEQEND
  5
B0
330
A9
100
AcDbEntity
  8
Layer 1
 62
   250
420
  2301728
370
    30
  0
HATCH
  5
AF
330
81
100
AcDbEntity
  8
Layer 1
 62
   254
420
 14213608
100
AcDbHatch
 10
0.0
 20
0.0
 30
0.0
210
0.0
220
0.0
230
1.0
  2
SOLID
 70
     1
 71
     0
 91
        1
 92
        1
 93
        4
 72
     1
 10
25.69089488100198
 20
15.07297260646927
 11
26.46173689625812
 21
15.07297260646927
 72
     1
 10
26.46173689625812
 20
15.07297260646927
 11
26.46173689625812
 21
13.1680145102311
 72
     1
 10
26.46173689625812
 20
13.1680145102311
 11
25.69089488100198
 21
13.1680145102311
 72
     1
 10
25.69089488100198
 20
13.1680145102311
 11
25.69089488100198
 21
15.07297260646927
 97
        0
 75
     2
 76
     1
 98
        0
  0
POLYLINE
  5
B1
330
81
100
AcDbEntity
  8
Layer 1
  6
AI-Linetype-3
 62
   250
420
  2301728
370
    30
100
AcDb2dPolyline
 66
     1
 10
0.0
 20
0.0
 30
0.0
  0
VERTEX
  5
B2
330
B1
100
AcDbEntity
  8
Layer 1
  6
AI-Linetype-3
 62
   250
420
  2301728
370
    30
100
AcDbVertex
100
AcDb2dVertex
 10
24.72512597778045
 20
13.75278841428157
 30
0.0
  0
VERTEX
  5
B3
330
B1
100
AcDbEntity
  8
Layer 1
  6
AI-Linetype-3
 62
   250
420
  2301728
370
    30
100
AcDbVertex
100
AcDb2dVertex
 10
15.41298669792108
 20
13.75278841428157
 30
0.0
  0
VERTEX
  5
B4
330
B1
100
AcDbEntity
  8
Layer 1
  6
AI-Linetype-3
 62
   250
420
  2301728
370
    30
100
AcDbVertex
100
AcDb2dVertex
 10
14.81049186042511
 20
14.05404090291351
 30
0.0
  0
VERTEX
  5
B5
330
B1
100
AcDbEntity
  8
Layer 1
  6
AI-Linetype-3
 62
   250
420
  2301728
370
    30
100
AcDbVertex
100
AcDb2dVertex
 10
15.43956978804882
 20
14.48819194257247
 30
0.0
  0
VERTEX
  5
B6
330
B1
100
AcDbEntity
  8
Layer 1
  6
AI-Linetype-3
 62
   250
420
  2301728
370
    30
100
AcDbVertex
100
AcDb2dVertex
 10
24.75170568798534
 20
14.48819194257247
 30
0.0
  0
SEQEND
  5
B9
330
B1
100
AcDbEntity
  8
Layer 1
  6
AI-Linetype-3
 62
   250
420
  2301728
370
    30
  0
HATCH
  5
B8
330
81
100
AcDbEntity
  8
Layer 1
 62
     7
420
 16580093
100
AcDbHatch
 10
0.0
 20
0.0
 30
0.0
210
0.0
220
0.0
230
1.0
  2
SOLID
 70
     1
 71
     0
 91
        1
 92
        1
 93
        5
 72
     1
 10
24.72512597778045
 20
13.75278841428157
 11
15.41298669792107
 21
13.75278841428157
 72
     1
 10
15.41298669792108
 20
13.75278841428157
 11
14.81049186042511
 21
14.05404090291351
 72
     1
 10
14.81049186042511
 20
14.05404090291351
 11
15.43956978804882
 21
14.48819194257246
 72
     1
 10
15.43956978804882
 20
14.48819194257247
 11
24.75170568798534
 21
14.48819194257247
 72
     1
 10
24.75170568798534
 20
14.48819194257247
 11
24.72512597778045
 21
13.75278841428157
 97
        0
 75
     2
 76
     1
 98
        0
  0
POLYLINE
  5
BA
330
81
100
AcDbEntity
  8
Layer 1
 62
   250
420
  2301728
370
    30
100
AcDb2dPolyline
 66
     1
 10
0.0
 20
0.0
 30
0.0
  0
VERTEX
  5
BB
330
BA
100
AcDbEntity
  8
Layer 1
 62
   250
420
  2301728
370
    30
100
AcDbVertex
100
AcDb2dVertex
 10
25.69089488100198
 20
7.98476146500105
 30
0.0
  0
VERTEX
  5
BC
330
BA
100
AcDbEntity
  8
Layer 1
 62
   250
420
  2301728
370
    30
100
AcDbVertex
100
AcDb2dVertex
 10
26.46173689625812
 20
7.98476146500105
 30
0.0
  0
VERTEX
  5
BD
330
BA
100
AcDbEntity
  8
Layer 1
 62
   250
420
  2301728
370
    30
100
AcDbVertex
100
AcDb2dVertex
 10
26.46173689625812
 20
6.070941212079989
 30
0.0
  0
VERTEX
  5
BE
330
BA
100
AcDbEntity
  8
Layer 1
 62
   250
420
  2301728
370
    30
100
AcDbVertex
100
AcDb2dVertex
 10
25.69089488100198
 20
6.070941212079989
 30
0.0
  0
VERTEX
  5
BF
330
BA
100
AcDbEntity
  8
Layer 1
 62
   250
420
  2301728
370
    30
100
AcDbVertex
100
AcDb2dVertex
 10
25.69089488100198
 20
7.98476146500105
 30
0.0
  0
SEQEND
  5
C1
330
BA
100
AcDbEntity
  8
Layer 1
 62
   250
420
  2301728
370
    30
  0
HATCH
  5
C0
330
81
100
AcDbEntity
  8
Layer 1
 62
   254
420
 14213608
100
AcDbHatch
 10
0.0
 20
0.0
 30
0.0
210
0.0
220
0.0
230
1.0
  2
SOLID
 70
     1
 71
     0
 91
        1
 92
        1
 93
        4
 72
     1
 10
25.69089488100198
 20
7.98476146500105
 11
26.46173689625812
 21
7.98476146500105
 72
     1
 10
26.46173689625812
 20
7.98476146500105
 11
26.46173689625812
 21
6.070941212079989
 72
     1
 10
26.46173689625812
 20
6.070941212079989
 11
25.69089488100198
 21
6.070941212079989
 72
     1
 10
25.69089488100198
 20
6.070941212079989
 11
25.69089488100198
 21
7.98476146500105
 97
        0
 75
     2
 76
     1
 98
        0
  0
POLYLINE
  5
C2
330
81
100
AcDbEntity
  8
Layer 1
  6
AI-Linetype-4
 62
   250
420
  2301728
370
    30
100
AcDb2dPolyline
 66
     1
 10
0.0
 20
0.0
 30
0.0
  0
VERTEX
  5
C3
330
C2
100
AcDbEntity
  8
Layer 1
  6
AI-Linetype-4
 62
   250
420
  2301728
370
    30
100
AcDbVertex
100
AcDb2dVertex
 10
24.72512597778045
 20
6.664577272814631
 30
0.0
  0
VERTEX
  5
C4
330
C2
100
AcDbEntity
  8
Layer 1
  6
AI-Linetype-4
 62
   250
420
  2301728
370
    30
100
AcDbVertex
100
AcDb2dVertex
 10
15.41298669792108
 20
6.664577272814631
 30
0.0
  0
VERTEX
  5
C5
330
C2
100
AcDbEntity
  8
Layer 1
  6
AI-Linetype-4
 62
   250
420
  2301728
370
    30
100
AcDbVertex
100
AcDb2dVertex
 10
14.81049186042511
 20
6.965829761446567
 30
0.0
  0
VERTEX
  5
C6
330
C2
100
AcDbEntity
  8
Layer 1
  6
AI-Linetype-4
 62
   250
420
  2301728
370
    30
100
AcDbVertex
100
AcDb2dVertex
 10
15.43956978804882
 20
7.399980801105523
 30
0.0
  0
VERTEX
  5
C7
330
C2
100
AcDbEntity
  8
Layer 1
  6
AI-Linetype-4
 62
   250
420
  2301728
370
    30
100
AcDbVertex
100
AcDb2dVertex
 10
24.75170568798534
 20
7.399980801105523
 30
0.0
  0
SEQEND
  5
CA
330
C2
100
AcDbEntity
  8
Layer 1
  6
AI-Linetype-4
 62
   250
420
  2301728
370
    30
  0
HATCH
  5
C9
330
81
100
AcDbEntity
  8
Layer 1
 62
     7
420
 16580093
100
AcDbHatch
 10
0.0
 20
0.0
 30
0.0
210
0.0
220
0.0
230
1.0
  2
SOLID
 70
     1
 71
     0
 91
        1
 92
        1
 93
        5
 72
     1
 10
24.72512597778045
 20
6.664577272814631
 11
15.41298669792107
 21
6.664577272814631
 72
     1
 10
15.41298669792108
 20
6.664577272814631
 11
14.81049186042511
 21
6.965829761446567
 72
     1
 10
14.81049186042511
 20
6.965829761446567
 11
15.43956978804882
 21
7.399980801105523
 72
     1
 10
15.43956978804882
 20
7.399980801105523
 11
24.75170568798534
 21
7.399980801105523
 72
     1
 10
24.75170568798534
 20
7.399980801105523
 11
24.72512597778045
 21
6.664577272814631
 97
        0
 75
     2
 76
     1
 98
        0
  0
ENDBLK
  5
84
330
81
100
AcDbEntity
  8
0
100
AcDbBlockEnd
  0
BLOCK
  5
CD
330
CB
100
AcDbEntity
  8
0
100
AcDbBlockBegin
  2
block 6
 70
     0
 10
0.0
 20
0.0
 30
0.0
  3
block 6
  1

  0
POLYLINE
  5
CF
330
CB
100
AcDbEntity
  8
Layer 1
 62
   250
420
  2301728
370
    30
100
AcDb2dPolyline
 66
     1
 10
0.0
 20
0.0
 30
0.0
  0
VERTEX
  5
D0
330
CF
100
AcDbEntity
  8
Layer 1
 62
   250
420
  2301728
370
    30
100
AcDbVertex
100
AcDb2dVertex
 10
-2.661949684866752
 20
42.82682144952589
 30
0.0
  0
VERTEX
  5
D1
330
CF
100
AcDbEntity
  8
Layer 1
 62
   250
420
  2301728
370
    30
100
AcDbVertex
100
AcDb2dVertex
 10
-0.7569932785895237
 20
42.82682144952589
 30
0.0
  0
VERTEX
  5
D2
330
CF
100
AcDbEntity
  8
Layer 1
 62
   250
420
  2301728
370
    30
100
AcDbVertex
100
AcDb2dVertex
 10
-0.7569932785895237
 20
42.05597943426974
 30
0.0
  0
VERTEX
  5
D3
330
CF
100
AcDbEntity
  8
Layer 1
 62
   250
420
  2301728
370
    30
100
AcDbVertex
100
AcDb2dVertex
 10
-2.661949684866752
 20
42.05597943426974
 30
0.0
  0
VERTEX
  5
D4
330
CF
100
AcDbEntity
  8
Layer 1
 62
   250
420
  2301728
370
    30
100
AcDbVertex
100
AcDb2dVertex
 10
-2.661949684866752
 20
42.82682144952589
 30
0.0
  0
SEQEND
  5
D6
330
CF
100
AcDbEntity
  8
Layer 1
 62
   250
420
  2301728
370
    30
  0
HATCH
  5
D5
330
CB
100
AcDbEntity
  8
Layer 1
 62
   254
420
 14213608
100
AcDbHatch
 10
0.0
 20
0.0
 30
0.0
210
0.0
220
0.0
230
1.0
  2
SOLID
 70
     1
 71
     0
 91
        1
 92
        1
 93
        4
 72
     1
 10
-2.661949684866752
 20
42.82682144952589
 11
-0.7569932785895237
 21
42.82682144952589
 72
     1
 10
-0.7569932785895237
 20
42.82682144952589
 11
-0.7569932785895237
 21
42.05597943426974
 72
     1
 10
-0.7569932785895237
 20
42.05597943426974
 11
-2.661949684866752
 21
42.05597943426974
 72
     1
 10
-2.661949684866752
 20
42.05597943426974
 11
-2.661949684866752
 21
42.82682144952589
 97
        0
 75
     2
 76
     1
 98
        0
  0
SPLINE
  5
D7
330
CB
100
AcDbEntity
  8
Layer 1
 62
   250
420
  2301728
370
    40
100
AcDbSpline
210
0.0
220
0.0
230
1.0
 70
    11
 71
     3
 72
    29
 73
    25
 74
     0
 42
0.0000000001
 43
0.0000000001
 12
1.0
 22
0.0
 32
0.0
 13
1.0
 23
0.0
 33
0.0
 40
0.0
 40
0.0
 40
0.0
 40
0.0
 40
1.0
 40
1.0
 40
1.0
 40
2.0
 40
2.0
 40
2.0
 40
3.0
 40
3.0
 40
3.0
 40
4.0
 40
4.0
 40
4.0
 40
5.0
 40
5.0
 40
5.0
 40
6.0
 40
6.0
 40
6.0
 40
7.0
 40
7.0
 40
7.0
 40
8.0
 40
8.0
 40
8.0
 40
8.0
 10
-4.044151229244284
 20
41.16109088490285
 30
0.0
 10
-4.044151229244284
 20
41.16109088490285
 30
0.0
 10
-4.026430295800074
 20
42.02053756738101
 30
0.0
 10
-4.026430295800074
 20
42.02053756738101
 30
0.0
 10
-4.026430295800074
 20
42.02053756738101
 30
0.0
 10
10.67274684903383
 20
42.05597943426974
 30
0.0
 10
11.00943782463198
 20
42.05597943426974
 30
0.0
 10
11.57649417516173
 20
42.05597943426974
 30
0.0
 10
12.17013361581922
 20
42.22432323210739
 30
0.0
 10
12.17013361581922
 20
42.99516862728607
 30
0.0
 10
12.17013361581922
 20
43.76601064254221
 30
0.0
 10
12.17013361581922
 20
53.7781098938415
 30
0.0
 10
12.17013361581922
 20
53.7781098938415
 30
0.0
 10
12.17013361581922
 20
53.7781098938415
 30
0.0
 10
13.10046065215233
 20
53.7781098938415
 30
0.0
 10
13.10046065215233
 20
53.7781098938415
 30
0.0
 10
13.10046065215233
 20
53.7781098938415
 30
0.0
 10
13.07388094194712
 20
43.50020340072219
 30
0.0
 10
13.07388094194712
 20
42.75594109567093
 30
0.0
 10
13.07388094194712
 20
42.02053756738101
 30
0.0
 10
12.62200896884427
 20
41.16995304158638
 30
0.0
 10
11.4524510209735
 20
41.16995304158638
 30
0.0
 10
10.27403429634205
 20
41.16995304158638
 30
0.0
 10
-4.044151229244284
 20
41.16109088490285
 30
0.0
 10
-4.044151229244284
 20
41.16109088490285
 30
0.0
  0
HATCH
  5
D8
330
CB
100
AcDbEntity
  8
Layer 1
 62
   254
420
 14213608
100
AcDbHatch
 10
0.0
 20
0.0
 30
0.0
210
0.0
220
0.0
230
1.0
  2
SOLID
 70
     1
 71
     0
 91
        1
 92
        1
 93
        1
 72
     4
 94
        3
 73
     0
 74
     1
 95
       29
 96
       25
 40
0.0
 40
0.0
 40
0.0
 40
0.0
 40
1.0
 40
1.0
 40
1.0
 40
2.0
 40
2.0
 40
2.0
 40
3.0
 40
3.0
 40
3.0
 40
4.0
 40
4.0
 40
4.0
 40
5.0
 40
5.0
 40
5.0
 40
6.0
 40
6.0
 40
6.0
 40
7.0
 40
7.0
 40
7.0
 40
8.0
 40
8.0
 40
8.0
 40
8.0
 10
-4.044151229244284
 20
41.16109088490285
 10
-4.044151229244284
 20
41.16109088490285
 10
-4.026430295800074
 20
42.02053756738101
 10
-4.026430295800074
 20
42.02053756738101
 10
-4.026430295800074
 20
42.02053756738101
 10
10.67274684903383
 20
42.05597943426974
 10
11.00943782463198
 20
42.05597943426974
 10
11.57649417516173
 20
42.05597943426974
 10
12.17013361581922
 20
42.22432323210739
 10
12.17013361581922
 20
42.99516862728607
 10
12.17013361581922
 20
43.76601064254221
 10
12.17013361581922
 20
53.7781098938415
 10
12.17013361581922
 20
53.7781098938415
 10
12.17013361581922
 20
53.7781098938415
 10
13.10046065215233
 20
53.7781098938415
 10
13.10046065215233
 20
53.7781098938415
 10
13.10046065215233
 20
53.7781098938415
 10
13.07388094194712
 20
43.50020340072219
 10
13.07388094194712
 20
42.75594109567093
 10
13.07388094194712
 20
42.02053756738101
 10
12.62200896884427
 20
41.16995304158638
 10
11.4524510209735
 20
41.16995304158638
 10
10.27403429634205
 20
41.16995304158638
 10
-4.044151229244284
 20
41.16109088490285
 10
-4.044151229244284
 20
41.16109088490285
 97
        0
 97
        0
 75
     2
 76
     1
 98
        0
  0
POLYLINE
  5
D9
330
CB
100
AcDbEntity
  8
Layer 1
  6
AI-Linetype-5
 62
   250
420
  2301728
370
    30
100
AcDb2dPolyline
 66
     1
 10
0.0
 20
0.0
 30
0.0
  0
VERTEX
  5
DA
330
D9
100
AcDbEntity
  8
Layer 1
  6
AI-Linetype-5
 62
   250
420
  2301728
370
    30
100
AcDbVertex
100
AcDb2dVertex
 10
-1.341770562563806
 20
41.08134837436405
 30
0.0
  0
VERTEX
  5
DB
330
D9
100
AcDbEntity
  8
Layer 1
  6
AI-Linetype-5
 62
   250
420
  2301728
370
    30
100
AcDbVertex
100
AcDb2dVertex
 10
-1.341770562563806
 20
31.76921247442784
 30
0.0
  0
VERTEX
  5
DC
330
D9
100
AcDbEntity
  8
Layer 1
  6
AI-Linetype-5
 62
   250
420
  2301728
370
    30
100
AcDbVertex
100
AcDb2dVertex
 10
-1.643019671273212
 20
31.16671425700935
 30
0.0
  0
VERTEX
  5
DD
330
D9
100
AcDbEntity
  8
Layer 1
  6
AI-Linetype-5
 62
   250
420
  2301728
370
    30
100
AcDbVertex
100
AcDb2dVertex
 10
-2.07717240089247
 20
31.80465434131658
 30
0.0
  0
VERTEX
  5
DE
330
D9
100
AcDbEntity
  8
Layer 1
  6
AI-Linetype-5
 62
   250
420
  2301728
370
    30
100
AcDbVertex
100
AcDb2dVertex
 10
-2.07717240089247
 20
41.11679024125311
 30
0.0
  0
SEQEND
  5
E1
330
D9
100
AcDbEntity
  8
Layer 1
  6
AI-Linetype-5
 62
   250
420
  2301728
370
    30
  0
HATCH
  5
E0
330
CB
100
AcDbEntity
  8
Layer 1
 62
     7
420
 16054264
100
AcDbHatch
 10
0.0
 20
0.0
 30
0.0
210
0.0
220
0.0
230
1.0
  2
SOLID
 70
     1
 71
     0
 91
        1
 92
        1
 93
        5
 72
     1
 10
-1.341770562563806
 20
41.08134837436405
 11
-1.341770562563806
 21
31.76921247442785
 72
     1
 10
-1.341770562563806
 20
31.76921247442784
 11
-1.643019671273212
 21
31.16671425700935
 72
     1
 10
-1.643019671273212
 20
31.16671425700935
 11
-2.07717240089247
 21
31.80465434131658
 72
     1
 10
-2.07717240089247
 20
31.80465434131658
 11
-2.07717240089247
 21
41.11679024125311
 72
     1
 10
-2.07717240089247
 20
41.11679024125311
 11
-1.341770562563805
 21
41.08134837436404
 97
        0
 75
     2
 76
     1
 98
        0
  0
POLYLINE
  5
E2
330
CB
100
AcDbEntity
  8
Layer 1
 62
   250
420
  2301728
370
    30
100
AcDb2dPolyline
 66
     1
 10
0.0
 20
0.0
 30
0.0
  0
VERTEX
  5
E3
330
E2
100
AcDbEntity
  8
Layer 1
 62
   250
420
  2301728
370
    30
100
AcDbVertex
100
AcDb2dVertex
 10
8.032388604428256
 20
42.82682144952589
 30
0.0
  0
VERTEX
  5
E4
330
E2
100
AcDbEntity
  8
Layer 1
 62
   250
420
  2301728
370
    30
100
AcDbVertex
100
AcDb2dVertex
 10
9.937345010705164
 20
42.82682144952589
 30
0.0
  0
VERTEX
  5
E5
330
E2
100
AcDbEntity
  8
Layer 1
 62
   250
420
  2301728
370
    30
100
AcDbVertex
100
AcDb2dVertex
 10
9.937345010705164
 20
42.05597943426974
 30
0.0
  0
VERTEX
  5
E6
330
E2
100
AcDbEntity
  8
Layer 1
 62
   250
420
  2301728
370
    30
100
AcDbVertex
100
AcDb2dVertex
 10
8.032388604428256
 20
42.05597943426974
 30
0.0
  0
VERTEX
  5
E7
330
E2
100
AcDbEntity
  8
Layer 1
 62
   250
420
  2301728
370
    30
100
AcDbVertex
100
AcDb2dVertex
 10
8.032388604428256
 20
42.82682144952589
 30
0.0
  0
SEQEND
  5
E9
330
E2
100
AcDbEntity
  8
Layer 1
 62
   250
420
  2301728
370
    30
  0
HATCH
  5
E8
330
CB
100
AcDbEntity
  8
Layer 1
 62
   254
420
 14213608
100
AcDbHatch
 10
0.0
 20
0.0
 30
0.0
210
0.0
220
0.0
230
1.0
  2
SOLID
 70
     1
 71
     0
 91
        1
 92
        1
 93
        4
 72
     1
 10
8.032388604428256
 20
42.82682144952589
 11
9.937345010705164
 21
42.82682144952589
 72
     1
 10
9.937345010705164
 20
42.82682144952589
 11
9.937345010705164
 21
42.05597943426974
 72
     1
 10
9.937345010705164
 20
42.05597943426974
 11
8.032388604428256
 21
42.05597943426974
 72
     1
 10
8.032388604428256
 20
42.05597943426974
 11
8.032388604428256
 21
42.82682144952589
 97
        0
 75
     2
 76
     1
 98
        0
  0
POLYLINE
  5
EA
330
CB
100
AcDbEntity
  8
Layer 1
  6
AI-Linetype-6
 62
   250
420
  2301728
370
    30
100
AcDb2dPolyline
 66
     1
 10
0.0
 20
0.0
 30
0.0
  0
VERTEX
  5
EB
330
EA
100
AcDbEntity
  8
Layer 1
  6
AI-Linetype-6
 62
   250
420
  2301728
370
    30
100
AcDbVertex
100
AcDb2dVertex
 10
9.361428193453147
 20
41.08134837436405
 30
0.0
  0
VERTEX
  5
EC
330
EA
100
AcDbEntity
  8
Layer 1
  6
AI-Linetype-6
 62
   250
420
  2301728
370
    30
100
AcDbVertex
100
AcDb2dVertex
 10
9.361428193453147
 20
31.76921247442784
 30
0.0
  0
VERTEX
  5
ED
330
EA
100
AcDbEntity
  8
Layer 1
  6
AI-Linetype-6
 62
   250
420
  2301728
370
    30
100
AcDbVertex
100
AcDb2dVertex
 10
9.060179084744062
 20
31.16671425700935
 30
0.0
  0
VERTEX
  5
EE
330
EA
100
AcDbEntity
  8
Layer 1
  6
AI-Linetype-6
 62
   250
420
  2301728
370
    30
100
AcDbVertex
100
AcDb2dVertex
 10
8.617165888402218
 20
31.80465434131658
 30
0.0
  0
VERTEX
  5
EF
330
EA
100
AcDbEntity
  8
Layer 1
  6
AI-Linetype-6
 62
   250
420
  2301728
370
    30
100
AcDbVertex
100
AcDb2dVertex
 10
8.617165888402218
 20
41.11679024125311
 30
0.0
  0
SEQEND
  5
F2
330
EA
100
AcDbEntity
  8
Layer 1
  6
AI-Linetype-6
 62
   250
420
  2301728
370
    30
  0
HATCH
  5
F1
330
CB
100
AcDbEntity
  8
Layer 1
 62
     7
420
 16580093
100
AcDbHatch
 10
0.0
 20
0.0
 30
0.0
210
0.0
220
0.0
230
1.0
  2
SOLID
 70
     1
 71
     0
 91
        1
 92
        1
 93
        5
 72
     1
 10
9.361428193453147
 20
41.08134837436405
 11
9.361428193453147
 21
31.76921247442785
 72
     1
 10
9.361428193453147
 20
31.76921247442784
 11
9.06017908474406
 21
31.16671425700935
 72
     1
 10
9.060179084744062
 20
31.16671425700935
 11
8.617165888402218
 21
31.80465434131658
 72
     1
 10
8.617165888402218
 20
31.80465434131658
 11
8.617165888402218
 21
41.11679024125311
 72
     1
 10
8.617165888402218
 20
41.11679024125311
 11
9.361428193453147
 21
41.08134837436404
 97
        0
 75
     2
 76
     1
 98
        0
  0
POLYLINE
  5
F3
330
CB
100
AcDbEntity
  8
Layer 1
 62
   250
420
  2301728
370
    30
100
AcDb2dPolyline
 66
     1
 10
0.0
 20
0.0
 30
0.0
  0
VERTEX
  5
F4
330
F3
100
AcDbEntity
  8
Layer 1
 62
   250
420
  2301728
370
    30
100
AcDbVertex
100
AcDb2dVertex
 10
11.37270851043534
 20
45.44945876068725
 30
0.0
  0
VERTEX
  5
F5
330
F3
100
AcDbEntity
  8
Layer 1
 62
   250
420
  2301728
370
    30
100
AcDbVertex
100
AcDb2dVertex
 10
12.14355052569148
 20
45.44945876068725
 30
0.0
  0
VERTEX
  5
F6
330
F3
100
AcDbEntity
  8
Layer 1
 62
   250
420
  2301728
370
    30
100
AcDbVertex
100
AcDb2dVertex
 10
12.14355052569148
 20
43.54450066444908
 30
0.0
  0
VERTEX
  5
F7
330
F3
100
AcDbEntity
  8
Layer 1
 62
   250
420
  2301728
370
    30
100
AcDbVertex
100
AcDb2dVertex
 10
11.37270851043534
 20
43.54450066444908
 30
0.0
  0
VERTEX
  5
F8
330
F3
100
AcDbEntity
  8
Layer 1
 62
   250
420
  2301728
370
    30
100
AcDbVertex
100
AcDb2dVertex
 10
11.37270851043534
 20
45.44945876068725
 30
0.0
  0
SEQEND
  5
FA
330
F3
100
AcDbEntity
  8
Layer 1
 62
   250
420
  2301728
370
    30
  0
HATCH
  5
F9
330
CB
100
AcDbEntity
  8
Layer 1
 62
   254
420
 14213608
100
AcDbHatch
 10
0.0
 20
0.0
 30
0.0
210
0.0
220
0.0
230
1.0
  2
SOLID
 70
     1
 71
     0
 91
        1
 92
        1
 93
        4
 72
     1
 10
11.37270851043534
 20
45.44945876068725
 11
12.14355052569148
 21
45.44945876068725
 72
     1
 10
12.14355052569148
 20
45.44945876068725
 11
12.14355052569148
 21
43.54450066444908
 72
     1
 10
12.14355052569148
 20
43.54450066444908
 11
11.37270851043534
 21
43.54450066444908
 72
     1
 10
11.37270851043534
 20
43.54450066444908
 11
11.37270851043534
 21
45.44945876068725
 97
        0
 75
     2
 76
     1
 98
        0
  0
POLYLINE
  5
FB
330
CB
100
AcDbEntity
  8
Layer 1
  6
AI-Linetype-7
 62
   250
420
  2301728
370
    30
100
AcDb2dPolyline
 66
     1
 10
0.0
 20
0.0
 30
0.0
  0
VERTEX
  5
FC
330
FB
100
AcDbEntity
  8
Layer 1
  6
AI-Linetype-7
 62
   250
420
  2301728
370
    30
100
AcDbVertex
100
AcDb2dVertex
 10
13.11817820567433
 20
44.86468147671361
 30
0.0
  0
VERTEX
  5
FD
330
FB
100
AcDbEntity
  8
Layer 1
  6
AI-Linetype-7
 62
   250
420
  2301728
370
    30
100
AcDbVertex
100
AcDb2dVertex
 10
22.42145532884985
 20
44.86468147671361
 30
0.0
  0
VERTEX
  5
FE
330
FB
100
AcDbEntity
  8
Layer 1
  6
AI-Linetype-7
 62
   250
420
  2301728
370
    30
100
AcDbVertex
100
AcDb2dVertex
 10
23.02395354626867
 20
44.56343236800388
 30
0.0
  0
VERTEX
  5
FF
330
FB
100
AcDbEntity
  8
Layer 1
  6
AI-Linetype-7
 62
   250
420
  2301728
370
    30
100
AcDbVertex
100
AcDb2dVertex
 10
22.39487561864496
 20
44.12928132834557
 30
0.0
  0
VERTEX
  5
100
330
FB
100
AcDbEntity
  8
Layer 1
  6
AI-Linetype-7
 62
   250
420
  2301728
370
    30
100
AcDbVertex
100
AcDb2dVertex
 10
13.08273971870812
 20
44.12928132834557
 30
0.0
  0
SEQEND
  5
103
330
FB
100
AcDbEntity
  8
Layer 1
  6
AI-Linetype-7
 62
   250
420
  2301728
370
    30
  0
HATCH
  5
102
330
CB
100
AcDbEntity
  8
Layer 1
 62
     7
420
 16580093
100
AcDbHatch
 10
0.0
 20
0.0
 30
0.0
210
0.0
220
0.0
230
1.0
  2
SOLID
 70
     1
 71
     0
 91
        1
 92
        1
 93
        5
 72
     1
 10
13.11817820567433
 20
44.86468147671361
 11
22.42145532884985
 21
44.86468147671361
 72
     1
 10
22.42145532884985
 20
44.86468147671361
 11
23.02395354626866
 21
44.56343236800389
 72
     1
 10
23.02395354626867
 20
44.56343236800388
 11
22.39487561864496
 21
44.12928132834556
 72
     1
 10
22.39487561864496
 20
44.12928132834557
 11
13.08273971870812
 21
44.12928132834557
 72
     1
 10
13.08273971870812
 20
44.12928132834557
 11
13.11817820567433
 21
44.86468147671361
 97
        0
 75
     2
 76
     1
 98
        0
  0
POLYLINE
  5
104
330
CB
100
AcDbEntity
  8
Layer 1
 62
   250
420
  2301728
370
    30
100
AcDb2dPolyline
 66
     1
 10
0.0
 20
0.0
 30
0.0
  0
VERTEX
  5
105
330
104
100
AcDbEntity
  8
Layer 1
 62
   250
420
  2301728
370
    30
100
AcDbVertex
100
AcDb2dVertex
 10
11.37270851043534
 20
52.53767159211578
 30
0.0
  0
VERTEX
  5
106
330
104
100
AcDbEntity
  8
Layer 1
 62
   250
420
  2301728
370
    30
100
AcDbVertex
100
AcDb2dVertex
 10
12.14355052569148
 20
52.53767159211578
 30
0.0
  0
VERTEX
  5
107
330
104
100
AcDbEntity
  8
Layer 1
 62
   250
420
  2301728
370
    30
100
AcDbVertex
100
AcDb2dVertex
 10
12.14355052569148
 20
50.63271518583887
 30
0.0
  0
VERTEX
  5
108
330
104
100
AcDbEntity
  8
Layer 1
 62
   250
420
  2301728
370
    30
100
AcDbVertex
100
AcDb2dVertex
 10
11.37270851043534
 20
50.63271518583887
 30
0.0
  0
VERTEX
  5
109
330
104
100
AcDbEntity
  8
Layer 1
 62
   250
420
  2301728
370
    30
100
AcDbVertex
100
AcDb2dVertex
 10
11.37270851043534
 20
52.53767159211578
 30
0.0
  0
SEQEND
  5
10B
330
104
100
AcDbEntity
  8
Layer 1
 62
   250
420
  2301728
370
    30
  0
HATCH
  5
10A
330
CB
100
AcDbEntity
  8
Layer 1
 62
   254
420
 14213608
100
AcDbHatch
 10
0.0
 20
0.0
 30
0.0
210
0.0
220
0.0
230
1.0
  2
SOLID
 70
     1
 71
     0
 91
        1
 92
        1
 93
        4
 72
     1
 10
11.37270851043534
 20
52.53767159211578
 11
12.14355052569148
 21
52.53767159211578
 72
     1
 10
12.14355052569148
 20
52.53767159211578
 11
12.14355052569148
 21
50.63271518583887
 72
     1
 10
12.14355052569148
 20
50.63271518583887
 11
11.37270851043534
 21
50.63271518583887
 72
     1
 10
11.37270851043534
 20
50.63271518583887
 11
11.37270851043534
 21
52.53767159211578
 97
        0
 75
     2
 76
     1
 98
        0
  0
POLYLINE
  5
10C
330
CB
100
AcDbEntity
  8
Layer 1
  6
AI-Linetype-8
 62
   250
420
  2301728
370
    30
100
AcDb2dPolyline
 66
     1
 10
0.0
 20
0.0
 30
0.0
  0
VERTEX
  5
10D
330
10C
100
AcDbEntity
  8
Layer 1
  6
AI-Linetype-8
 62
   250
420
  2301728
370
    30
100
AcDbVertex
100
AcDb2dVertex
 10
13.11817820567433
 20
51.9528943081415
 30
0.0
  0
VERTEX
  5
10E
330
10C
100
AcDbEntity
  8
Layer 1
  6
AI-Linetype-8
 62
   250
420
  2301728
370
    30
100
AcDbVertex
100
AcDb2dVertex
 10
22.42145532884985
 20
51.9528943081415
 30
0.0
  0
VERTEX
  5
10F
330
10C
100
AcDbEntity
  8
Layer 1
  6
AI-Linetype-8
 62
   250
420
  2301728
370
    30
100
AcDbVertex
100
AcDb2dVertex
 10
23.02395354626867
 20
51.65164519943241
 30
0.0
  0
VERTEX
  5
110
330
10C
100
AcDbEntity
  8
Layer 1
  6
AI-Linetype-8
 62
   250
420
  2301728
370
    30
100
AcDbVertex
100
AcDb2dVertex
 10
22.39487561864496
 20
51.21749246981283
 30
0.0
  0
VERTEX
  5
111
330
10C
100
AcDbEntity
  8
Layer 1
  6
AI-Linetype-8
 62
   250
420
  2301728
370
    30
100
AcDbVertex
100
AcDb2dVertex
 10
13.08273971870812
 20
51.21749246981283
 30
0.0
  0
SEQEND
  5
114
330
10C
100
AcDbEntity
  8
Layer 1
  6
AI-Linetype-8
 62
   250
420
  2301728
370
    30
  0
HATCH
  5
113
330
CB
100
AcDbEntity
  8
Layer 1
 62
     7
420
 16580093
100
AcDbHatch
 10
0.0
 20
0.0
 30
0.0
210
0.0
220
0.0
230
1.0
  2
SOLID
 70
     1
 71
     0
 91
        1
 92
        1
 93
        5
 72
     1
 10
13.11817820567433
 20
51.9528943081415
 11
22.42145532884985
 21
51.9528943081415
 72
     1
 10
22.42145532884985
 20
51.9528943081415
 11
23.02395354626866
 21
51.65164519943241
 72
     1
 10
23.02395354626867
 20
51.65164519943241
 11
22.39487561864496
 21
51.21749246981283
 72
     1
 10
22.39487561864496
 20
51.21749246981283
 11
13.08273971870812
 21
51.21749246981283
 72
     1
 10
13.08273971870812
 20
51.21749246981283
 11
13.11817820567433
 21
51.9528943081415
 97
        0
 75
     2
 76
     1
 98
        0
  0
ENDBLK
  5
CE
330
CB
100
AcDbEntity
  8
0
100
AcDbBlockEnd
  0
ENDSEC
  0
SECTION
  2
ENTITIES
  0
INSERT
  5
42
330
1F
100
AcDbEntity
  8
Layer 1
100
AcDbBlockReference
  2
block 2
 10
0.0
 20
0.0
 30
0.0
  0
MTEXT
  5
116
330
1F
100
AcDbEntity
  8
callout
 62
   250
420
  2301728
100
AcDbMText
 10
1.848342174491799
 20
-21.04836697580998
 30
0.0
 40
2.9971999992507
 41
0.0
 46
0.0
 71
     7
 72
     1
  1
\fHelvetica Neue LT Std 55 Roman|b0|i0|c0|p34;\W1;SIMPSON Strong-Tie\H1.74737;®\H2.9972; ^C
 73
     1
 44
1.0
  0
MTEXT
  5
117
330
1F
100
AcDbEntity
  8
callout
 62
   250
420
  2301728
100
AcDbMText
 10
-7.083067871018405
 20
-26.12816026881087
 30
0.0
 40
2.9971999992507
 41
0.0
 46
0.0
 71
     7
 72
     1
  1
\fHelvetica Neue LT Std 55 Roman|b0|i0|c0|p34;\W1;H2.5A Truss/Rafter-to-Top Plate ^C
 73
     1
 44
1.0
  0
MTEXT
  5
118
330
1F
100
AcDbEntity
  8
callout
 62
   250
420
  2301728
100
AcDbMText
 10
-7.81962928576482
 20
-31.20829807136028
 30
0.0
 40
2.9971999992507
 41
0.0
 46
0.0
 71
     7
 72
     1
  1
\fHelvetica Neue LT Std 55 Roman|b0|i0|c0|p34;\W1;Two-Sided Tie Down - Plan View
 73
     1
 44
1.0
  0
MTEXT
  5
119
330
1F
100
AcDbEntity
  8
callout
 62
   250
420
  2301728
100
AcDbMText
 10
44.94687426820936
 20
2.459021366362759
 30
0.0
 40
2.9971999992507
 41
0.0
 46
0.0
 71
     7
 72
     1
  1
\fHelvetica Neue LT Std 57 Condensed|b0|i0|c0|p34;\W1;H2.5A
 73
     1
 44
1.0
  0
POLYLINE
  5
11A
330
1F
100
AcDbEntity
  8
callout
 62
   250
420
  2236191
370
    18
100
AcDb2dPolyline
 66
     1
 10
0.0
 20
0.0
 30
0.0
  0
VERTEX
  5
11B
330
11A
100
AcDbEntity
  8
callout
 62
   250
420
  2236191
370
    18
100
AcDbVertex
100
AcDb2dVertex
 10
43.2437275877552
 20
4.830502910354584
 30
0.0
  0
VERTEX
  5
11C
330
11A
100
AcDbEntity
  8
callout
 62
   250
420
  2236191
370
    18
100
AcDbVertex
100
AcDb2dVertex
 10
32.56032855143196
 20
16.59597911818311
 30
0.0
  0
SEQEND
  5
11D
330
11A
100
AcDbEntity
  8
callout
 62
   250
420
  2236191
370
    18
  0
MTEXT
  5
11E
330
1F
100
AcDbEntity
  8
callout
 62
   250
420
  2301728
100
AcDbMText
 10
-9.132528260385055
 20
56.21776490396542
 30
0.0
 40
2.9971999992507
 41
0.0
 46
0.0
 71
     7
 72
     1
  1
\fHelvetica Neue LT Std 57 Condensed|b0|i0|c0|p34;\W1;H2.5A
 73
     1
 44
1.0
  0
POLYLINE
  5
11F
330
1F
100
AcDbEntity
  8
callout
 62
   250
420
  2236191
370
    18
100
AcDb2dPolyline
 66
     1
 10
0.0
 20
0.0
 30
0.0
  0
VERTEX
  5
120
330
11F
100
AcDbEntity
  8
callout
 62
   250
420
  2236191
370
    18
100
AcDbVertex
100
AcDb2dVertex
 10
-3.277419354021187
 20
54.92280256547068
 30
0.0
  0
VERTEX
  5
121
330
11F
100
AcDbEntity
  8
callout
 62
   250
420
  2236191
370
    18
100
AcDbVertex
100
AcDb2dVertex
 10
6.031008992273719
 20
42.44140044189782
 30
0.0
  0
SEQEND
  5
122
330
11F
100
AcDbEntity
  8
callout
 62
   250
420
  2236191
370
    18
  0
POLYLINE
  5
123
330
1F
100
AcDbEntity
  8
callout
 62
   250
420
  2236191
370
    18
100
AcDb2dPolyline
 66
     1
 10
0.0
 20
0.0
 30
0.0
  0
VERTEX
  5
124
330
123
100
AcDbEntity
  8
callout
 62
   250
420
  2236191
370
    18
100
AcDbVertex
100
AcDb2dVertex
 10
44.94687426820936
 20
48.68210150368409
 30
0.0
  0
VERTEX
  5
125
330
123
100
AcDbEntity
  8
callout
 62
   250
420
  2236191
370
    18
100
AcDbVertex
100
AcDb2dVertex
 10
41.86875689772654
 20
41.22889932758575
 30
0.0
  0
SEQEND
  5
126
330
123
100
AcDbEntity
  8
callout
 62
   250
420
  2236191
370
    18
  0
POLYLINE
  5
127
330
1F
100
AcDbEntity
  8
callout
 62
   250
420
  2236191
370
    18
100
AcDb2dPolyline
 66
     1
 10
0.0
 20
0.0
 30
0.0
  0
VERTEX
  5
128
330
127
100
AcDbEntity
  8
callout
 62
   250
420
  2236191
370
    18
100
AcDbVertex
100
AcDb2dVertex
 10
39.17621765921885
 20
63.11635095051707
 30
0.0
  0
VERTEX
  5
129
330
127
100
AcDbEntity
  8
callout
 62
   250
420
  2236191
370
    18
100
AcDbVertex
100
AcDb2dVertex
 10
24.75170568798534
 20
48.68210150368409
 30
0.0
  0
SEQEND
  5
12A
330
127
100
AcDbEntity
  8
callout
 62
   250
420
  2236191
370
    18
  0
MTEXT
  5
12B
330
1F
100
AcDbEntity
  8
callout
 62
   250
420
  2301728
100
AcDbMText
 10
39.17622090525857
 20
50.63267568806975
 30
0.0
 40
2.9971999992507
 41
0.0
 46
0.0
 71
     7
 72
     1
  1
\fHelvetica Neue LT Std 57 Condensed|b0|i0|c0|p34;\W1;Top Plate
 73
     1
 44
1.0
  0
MTEXT
  5
12C
330
1F
100
AcDbEntity
  8
callout
 62
   250
420
  2301728
100
AcDbMText
 10
30.99875385781021
 20
64.43638200209658
 30
0.0
 40
2.9971999992507
 41
0.0
 46
0.0
 71
     7
 72
     1
  1
\fHelvetica Neue LT Std 57 Condensed|b0|i0|c0|p34;\W1;Truss /  Rafter
 73
     1
 44
1.0
  0
ENDSEC
  0
SECTION
  2
OBJECTS
  0
DICTIONARY
  5
C
330
0
100
AcDbDictionary
281
     1
  3
ACAD_GROUP
350
D
  3
ACAD_LAYOUT
350
1A
  3
ACAD_MATERIAL
350
3B
  3
ACAD_MLEADERSTYLE
350
12E
  3
ACAD_MLINESTYLE
350
17
  3
ACAD_PLOTSETTINGS
350
19
  3
ACAD_PLOTSTYLENAME
350
E
  3
ACAD_TABLESTYLE
350
12D
  3
ACAD_VISUALSTYLE
350
2A
  0
SUN
  5
3F
330
29
100
AcDbSun
 90
        1
290
     0
 63
     7
421
 16777215
 40
1.0
291
     1
 91
  2455826
 92
 54000000
292
     0
 70
     2
 71
   256
280
     1
  0
DICTIONARY
  5
D
102
{ACAD_REACTORS
330
C
102
}
330
C
100
AcDbDictionary
281
     1
  0
DICTIONARY
  5
1A
102
{ACAD_REACTORS
330
C
102
}
330
C
100
AcDbDictionary
281
     1
  3
Layout1
350
1E
  3
Layout2
350
26
  3
Model
350
22
  0
DICTIONARY
  5
3B
102
{ACAD_REACTORS
330
C
102
}
330
C
100
AcDbDictionary
281
     1
  3
ByBlock
350
3D
  3
ByLayer
350
3C
  3
Global
350
3E
  0
DICTIONARY
  5
12E
102
{ACAD_REACTORS
330
C
102
}
330
C
100
AcDbDictionary
281
     1
  0
DICTIONARY
  5
17
102
{ACAD_REACTORS
330
C
102
}
330
C
100
AcDbDictionary
281
     1
  3
Standard
350
18
  0
DICTIONARY
  5
19
102
{ACAD_REACTORS
330
C
102
}
330
C
100
AcDbDictionary
281
     1
  0
ACDBDICTIONARYWDFLT
  5
E
102
{ACAD_REACTORS
330
C
102
}
330
C
100
AcDbDictionary
281
     1
  3
Normal
350
F
100
AcDbDictionaryWithDefault
340
F
  0
DICTIONARY
  5
12D
102
{ACAD_REACTORS
330
C
102
}
330
C
100
AcDbDictionary
281
     1
  0
DICTIONARY
  5
2A
102
{ACAD_REACTORS
330
C
102
}
330
C
100
AcDbDictionary
281
     1
  3
2dWireframe
350
2F
  3
3D Hidden
350
31
  3
3dWireframe
350
30
  3
Basic
350
32
  3
Brighten
350
36
  3
ColorChange
350
3A
  3
Conceptual
350
34
  3
Dim
350
35
  3
Facepattern
350
39
  3
Flat
350
2B
  3
FlatWithEdges
350
2C
  3
Gouraud
350
2D
  3
GouraudWithEdges
350
2E
  3
Linepattern
350
38
  3
Realistic
350
33
  3
Thicken
350
37
  0
LAYOUT
  5
1E
102
{ACAD_REACTORS
330
1A
102
}
330
1A
100
AcDbPlotSettings
  1

  2
none_device
  4

  6

 40
0.0
 41
0.0
 42
0.0
 43
0.0
 44
0.0
 45
0.0
 46
0.0
 47
0.0
 48
0.0
 49
0.0
140
0.0
141
0.0
142
1.0
143
1.0
 70
   688
 72
     0
 73
     0
 74
     5
  7

 75
    16
 76
     0
 77
     2
 78
   300
147
1.0
148
0.0
149
0.0
100
AcDbLayout
  1
Layout1
 70
     1
 71
     1
 10
0.0
 20
0.0
 11
12.0
 21
9.0
 12
0.0
 22
0.0
 32
0.0
 14
1.000000000000000E+20
 24
1.000000000000000E+20
 34
1.000000000000000E+20
 15
-1.000000000000000E+20
 25
-1.000000000000000E+20
 35
-1.000000000000000E+20
146
0.0
 13
0.0
 23
0.0
 33
0.0
 16
1.0
 26
0.0
 36
0.0
 17
0.0
 27
1.0
 37
0.0
 76
     0
330
1B
  0
LAYOUT
  5
26
102
{ACAD_REACTORS
330
1A
102
}
330
1A
100
AcDbPlotSettings
  1

  2
none_device
  4

  6

 40
0.0
 41
0.0
 42
0.0
 43
0.0
 44
0.0
 45
0.0
 46
0.0
 47
0.0
 48
0.0
 49
0.0
140
0.0
141
0.0
142
1.0
143
1.0
 70
   688
 72
     0
 73
     0
 74
     5
  7

 75
    16
 76
     0
 77
     2
 78
   300
147
1.0
148
0.0
149
0.0
100
AcDbLayout
  1
Layout2
 70
     1
 71
     2
 10
0.0
 20
0.0
 11
0.0
 21
0.0
 12
0.0
 22
0.0
 32
0.0
 14
0.0
 24
0.0
 34
0.0
 15
0.0
 25
0.0
 35
0.0
146
0.0
 13
0.0
 23
0.0
 33
0.0
 16
1.0
 26
0.0
 36
0.0
 17
0.0
 27
1.0
 37
0.0
 76
     0
330
23
  0
LAYOUT
  5
22
102
{ACAD_REACTORS
330
1A
102
}
330
1A
100
AcDbPlotSettings
  1

  2
none_device
  4

  6

 40
0.0
 41
0.0
 42
0.0
 43
0.0
 44
0.0
 45
0.0
 46
0.0
 47
0.0
 48
0.0
 49
0.0
140
0.0
141
0.0
142
1.0
143
1.0
 70
  1712
 72
     0
 73
     0
 74
     0
  7

 75
     0
 76
     0
 77
     2
 78
   300
147
1.0
148
0.0
149
0.0
100
AcDbLayout
  1
Model
 70
     1
 71
     0
 10
0.0
 20
0.0
 11
12.0
 21
9.0
 12
0.0
 22
0.0
 32
0.0
 14
1.000000000000000E+20
 24
1.000000000000000E+20
 34
1.000000000000000E+20
 15
-1.000000000000000E+20
 25
-1.000000000000000E+20
 35
-1.000000000000000E+20
146
0.0
 13
0.0
 23
0.0
 33
0.0
 16
1.0
 26
0.0
 36
0.0
 17
0.0
 27
1.0
 37
0.0
 76
     0
330
1F
331
29
  0
MATERIAL
  5
3D
102
{ACAD_REACTORS
330
3B
102
}
330
3B
100
AcDbMaterial
  1
ByBlock
 72
     1
 94
      127
  0
MATERIAL
  5
3C
102
{ACAD_REACTORS
330
3B
102
}
330
3B
100
AcDbMaterial
  1
ByLayer
 72
     1
 94
      127
  0
MATERIAL
  5
3E
102
{ACAD_REACTORS
330
3B
102
}
330
3B
100
AcDbMaterial
  1
Global
 72
     1
 94
      127
  0
MLINESTYLE
  5
18
102
{ACAD_REACTORS
330
17
102
}
330
17
100
AcDbMlineStyle
  2
Standard
 70
     0
  3

 62
   256
 51
90.0
 52
90.0
 71
     2
 49
0.5
 62
   256
  6
BYLAYER
 49
-0.5
 62
   256
  6
BYLAYER
  0
ACDBPLACEHOLDER
  5
F
102
{ACAD_REACTORS
330
E
102
}
330
E
  0
VISUALSTYLE
  5
2F
102
{ACAD_REACTORS
330
2A
102
}
330
2A
100
AcDbVisualStyle
  2
2dWireframe
 70
     4
177
     2
291
     0
 71
     0
176
     1
 72
     2
176
     1
 73
     0
176
     1
 90
        0
176
     1
 40
-0.6
176
     1
 41
-30.0
176
     1
 62
     5
 63
     7
421
 16777215
176
     1
 74
     1
176
     1
 91
        4
176
     1
 64
     7
176
     1
 65
   257
176
     1
 75
     1
176
     1
175
     1
176
     1
 42
1.0
176
     1
 92
        0
176
     1
 66
   257
176
     1
 43
1.0
176
     1
 76
     1
176
     1
 77
     6
176
     1
 78
     2
176
     1
 67
     7
176
     1
 79
     5
176
     1
170
     0
176
     1
171
     0
176
     1
290
     0
176
     1
 93
        1
176
     1
 44
0.0
176
     1
173
     0
176
     1
  0
VISUALSTYLE
  5
31
102
{ACAD_REACTORS
330
2A
102
}
330
2A
100
AcDbVisualStyle
  2
3D Hidden
 70
     6
177
     2
291
     0
 71
     1
176
     1
 72
     2
176
     1
 73
     2
176
     1
 90
        0
176
     1
 40
-0.6
176
     1
 41
-30.0
176
     1
 62
     5
 63
     7
421
 16777215
176
     1
 74
     2
176
     1
 91
        2
176
     1
 64
     7
176
     1
 65
   257
176
     1
 75
     2
176
     1
175
     1
176
     1
 42
40.0
176
     1
 92
        0
176
     1
 66
   257
176
     1
 43
1.0
176
     1
 76
     1
176
     1
 77
     6
176
     1
 78
     2
176
     1
 67
     7
176
     1
 79
     3
176
     1
170
     0
176
     1
171
     0
176
     1
290
     0
176
     1
 93
        1
176
     1
 44
0.0
176
     1
173
     0
176
     1
  0
VISUALSTYLE
  5
30
102
{ACAD_REACTORS
330
2A
102
}
330
2A
100
AcDbVisualStyle
  2
3dWireframe
 70
     5
177
     2
291
     0
 71
     0
176
     1
 72
     2
176
     1
 73
     0
176
     1
 90
        0
176
     1
 40
-0.6
176
     1
 41
-30.0
176
     1
 62
     5
 63
     7
421
 16777215
176
     1
 74
     1
176
     1
 91
        4
176
     1
 64
     7
176
     1
 65
   257
176
     1
 75
     1
176
     1
175
     1
176
     1
 42
1.0
176
     1
 92
        0
176
     1
 66
   257
176
     1
 43
1.0
176
     1
 76
     1
176
     1
 77
     6
176
     1
 78
     2
176
     1
 67
     7
176
     1
 79
     5
176
     1
170
     0
176
     1
171
     0
176
     1
290
     0
176
     1
 93
        1
176
     1
 44
0.0
176
     1
173
     0
176
     1
  0
VISUALSTYLE
  5
32
102
{ACAD_REACTORS
330
2A
102
}
330
2A
100
AcDbVisualStyle
  2
Basic
 70
     7
177
     2
291
     1
 71
     1
176
     1
 72
     0
176
     1
 73
     1
176
     1
 90
        0
176
     1
 40
-0.6
176
     1
 41
-30.0
176
     1
 62
     5
 63
     7
421
 16777215
176
     1
 74
     0
176
     1
 91
        4
176
     1
 64
     7
176
     1
 65
   257
176
     1
 75
     1
176
     1
175
     1
176
     1
 42
1.0
176
     1
 92
        8
176
     1
 66
     7
176
     1
 43
1.0
176
     1
 76
     1
176
     1
 77
     6
176
     1
 78
     2
176
     1
 67
     7
176
     1
 79
     5
176
     1
170
     0
176
     1
171
     0
176
     1
290
     0
176
     1
 93
        1
176
     1
 44
0.0
176
     1
173
     0
176
     1
  0
VISUALSTYLE
  5
36
102
{ACAD_REACTORS
330
2A
102
}
330
2A
100
AcDbVisualStyle
  2
Brighten
 70
    12
177
     2
291
     1
 71
     2
176
     1
 72
     2
176
     1
 73
     0
176
     1
 90
        0
176
     1
 40
-0.6
176
     1
 41
-30.0
176
     1
 62
     5
 63
     7
421
 16777215
176
     1
 74
     1
176
     1
 91
        4
176
     1
 64
     7
176
     1
 65
   257
176
     1
 75
     1
176
     1
175
     1
176
     1
 42
1.0
176
     1
 92
        8
176
     1
 66
     7
176
     1
 43
1.0
176
     1
 76
     1
176
     1
 77
     6
176
     1
 78
     2
176
     1
 67
     7
176
     1
 79
     5
176
     1
170
     0
176
     1
171
     0
176
     1
290
     0
176
     1
 93
        1
176
     1
 44
50.0
176
     1
173
     0
176
     1
  0
VISUALSTYLE
  5
3A
102
{ACAD_REACTORS
330
2A
102
}
330
2A
100
AcDbVisualStyle
  2
ColorChange
 70
    16
177
     2
291
     1
 71
     2
176
     1
 72
     2
176
     1
 73
     3
176
     1
 90
        0
176
     1
 40
-0.6
176
     1
 41
-30.0
176
     1
 62
     5
 63
     8
421
  8421504
176
     1
 74
     1
176
     1
 91
        4
176
     1
 64
     7
176
     1
 65
   257
176
     1
 75
     1
176
     1
175
     1
176
     1
 42
1.0
176
     1
 92
        8
176
     1
 66
     8
424
  8421504
176
     1
 43
1.0
176
     1
 76
     1
176
     1
 77
     6
176
     1
 78
     2
176
     1
 67
     7
176
     1
 79
     5
176
     1
170
     0
176
     1
171
     0
176
     1
290
     0
176
     1
 93
        1
176
     1
 44
0.0
176
     1
173
     0
176
     1
  0
VISUALSTYLE
  5
34
102
{ACAD_REACTORS
330
2A
102
}
330
2A
100
AcDbVisualStyle
  2
Conceptual
 70
     9
177
     2
291
     0
 71
     3
176
     1
 72
     2
176
     1
 73
     0
176
     1
 90
        0
176
     1
 40
-0.6
176
     1
 41
-30.0
176
     1
 62
     5
 63
     7
421
 16777215
176
     1
 74
     2
176
     1
 91
        2
176
     1
 64
     7
176
     1
 65
   257
176
     1
 75
     1
176
     1
175
     1
176
     1
 42
40.0
176
     1
 92
        8
176
     1
 66
     7
176
     1
 43
1.0
176
     1
 76
     1
176
     1
 77
     6
176
     1
 78
     2
176
     1
 67
     7
176
     1
 79
     3
176
     1
170
     0
176
     1
171
     0
176
     1
290
     0
176
     1
 93
        1
176
     1
 44
0.0
176
     1
173
     0
176
     1
  0
VISUALSTYLE
  5
35
102
{ACAD_REACTORS
330
2A
102
}
330
2A
100
AcDbVisualStyle
  2
Dim
 70
    11
177
     2
291
     1
 71
     2
176
     1
 72
     2
176
     1
 73
     0
176
     1
 90
        0
176
     1
 40
-0.6
176
     1
 41
-30.0
176
     1
 62
     5
 63
     7
421
 16777215
176
     1
 74
     1
176
     1
 91
        4
176
     1
 64
     7
176
     1
 65
   257
176
     1
 75
     1
176
     1
175
     1
176
     1
 42
1.0
176
     1
 92
        8
176
     1
 66
     7
176
     1
 43
1.0
176
     1
 76
     1
176
     1
 77
     6
176
     1
 78
     2
176
     1
 67
     7
176
     1
 79
     5
176
     1
170
     0
176
     1
171
     0
176
     1
290
     0
176
     1
 93
        1
176
     1
 44
-50.0
176
     1
173
     0
176
     1
  0
VISUALSTYLE
  5
39
102
{ACAD_REACTORS
330
2A
102
}
330
2A
100
AcDbVisualStyle
  2
Facepattern
 70
    15
177
     2
291
     1
 71
     2
176
     1
 72
     2
176
     1
 73
     0
176
     1
 90
        0
176
     1
 40
-0.6
176
     1
 41
-30.0
176
     1
 62
     5
 63
     7
421
 16777215
176
     1
 74
     1
176
     1
 91
        4
176
     1
 64
     7
176
     1
 65
   257
176
     1
 75
     1
176
     1
175
     1
176
     1
 42
1.0
176
     1
 92
        8
176
     1
 66
     7
176
     1
 43
1.0
176
     1
 76
     1
176
     1
 77
     6
176
     1
 78
     2
176
     1
 67
     7
176
     1
 79
     5
176
     1
170
     0
176
     1
171
     0
176
     1
290
     0
176
     1
 93
        1
176
     1
 44
0.0
176
     1
173
     0
176
     1
  0
VISUALSTYLE
  5
2B
102
{ACAD_REACTORS
330
2A
102
}
330
2A
100
AcDbVisualStyle
  2
Flat
 70
     0
177
     2
291
     1
 71
     2
176
     1
 72
     1
176
     1
 73
     1
176
     1
 90
        2
176
     1
 40
-0.6
176
     1
 41
30.0
176
     1
 62
     5
 63
     7
421
 16777215
176
     1
 74
     0
176
     1
 91
        4
176
     1
 64
     7
176
     1
 65
   257
176
     1
 75
     1
176
     1
175
     1
176
     1
 42
1.0
176
     1
 92
        8
176
     1
 66
     7
176
     1
 43
1.0
176
     1
 76
     1
176
     1
 77
     6
176
     1
 78
     2
176
     1
 67
     7
176
     1
 79
     5
176
     1
170
     0
176
     1
171
     0
176
     1
290
     0
176
     1
 93
       13
176
     1
 44
0.0
176
     1
173
     0
176
     1
  0
VISUALSTYLE
  5
2C
102
{ACAD_REACTORS
330
2A
102
}
330
2A
100
AcDbVisualStyle
  2
FlatWithEdges
 70
     1
177
     2
291
     1
 71
     2
176
     1
 72
     1
176
     1
 73
     1
176
     1
 90
        2
176
     1
 40
-0.6
176
     1
 41
30.0
176
     1
 62
     5
 63
     7
421
 16777215
176
     1
 74
     1
176
     1
 91
        4
176
     1
 64
     7
176
     1
 65
   257
176
     1
 75
     1
176
     1
175
     1
176
     1
 42
1.0
176
     1
 92
        0
176
     1
 66
   257
176
     1
 43
1.0
176
     1
 76
     1
176
     1
 77
     6
176
     1
 78
     2
176
     1
 67
     7
176
     1
 79
     5
176
     1
170
     0
176
     1
171
     0
176
     1
290
     0
176
     1
 93
       13
176
     1
 44
0.0
176
     1
173
     0
176
     1
  0
VISUALSTYLE
  5
2D
102
{ACAD_REACTORS
330
2A
102
}
330
2A
100
AcDbVisualStyle
  2
Gouraud
 70
     2
177
     2
291
     1
 71
     2
176
     1
 72
     2
176
     1
 73
     1
176
     1
 90
        2
176
     1
 40
-0.6
176
     1
 41
30.0
176
     1
 62
     5
 63
     7
421
 16777215
176
     1
 74
     0
176
     1
 91
        4
176
     1
 64
     7
176
     1
 65
   257
176
     1
 75
     1
176
     1
175
     1
176
     1
 42
1.0
176
     1
 92
        0
176
     1
 66
     7
176
     1
 43
1.0
176
     1
 76
     1
176
     1
 77
     6
176
     1
 78
     2
176
     1
 67
     7
176
     1
 79
     5
176
     1
170
     0
176
     1
171
     0
176
     1
290
     0
176
     1
 93
       13
176
     1
 44
0.0
176
     1
173
     0
176
     1
  0
VISUALSTYLE
  5
2E
102
{ACAD_REACTORS
330
2A
102
}
330
2A
100
AcDbVisualStyle
  2
GouraudWithEdges
 70
     3
177
     2
291
     1
 71
     2
176
     1
 72
     2
176
     1
 73
     1
176
     1
 90
        2
176
     1
 40
-0.6
176
     1
 41
30.0
176
     1
 62
     5
 63
     7
421
 16777215
176
     1
 74
     1
176
     1
 91
        4
176
     1
 64
     7
176
     1
 65
   257
176
     1
 75
     1
176
     1
175
     1
176
     1
 42
1.0
176
     1
 92
        0
176
     1
 66
   257
176
     1
 43
1.0
176
     1
 76
     1
176
     1
 77
     6
176
     1
 78
     2
176
     1
 67
     7
176
     1
 79
     5
176
     1
170
     0
176
     1
171
     0
176
     1
290
     0
176
     1
 93
       13
176
     1
 44
0.0
176
     1
173
     0
176
     1
  0
VISUALSTYLE
  5
38
102
{ACAD_REACTORS
330
2A
102
}
330
2A
100
AcDbVisualStyle
  2
Linepattern
 70
    14
177
     2
291
     1
 71
     2
176
     1
 72
     2
176
     1
 73
     0
176
     1
 90
        0
176
     1
 40
-0.6
176
     1
 41
-30.0
176
     1
 62
     5
 63
     7
421
 16777215
176
     1
 74
     1
176
     1
 91
        4
176
     1
 64
     7
176
     1
 65
   257
176
     1
 75
     7
176
     1
175
     7
176
     1
 42
1.0
176
     1
 92
        8
176
     1
 66
     7
176
     1
 43
1.0
176
     1
 76
     1
176
     1
 77
     6
176
     1
 78
     2
176
     1
 67
     7
176
     1
 79
     5
176
     1
170
     0
176
     1
171
     0
176
     1
290
     0
176
     1
 93
        1
176
     1
 44
0.0
176
     1
173
     0
176
     1
  0
VISUALSTYLE
  5
33
102
{ACAD_REACTORS
330
2A
102
}
330
2A
100
AcDbVisualStyle
  2
Realistic
 70
     8
177
     2
291
     0
 71
     2
176
     1
 72
     2
176
     1
 73
     0
176
     1
 90
        0
176
     1
 40
-0.6
176
     1
 41
-30.0
176
     1
 62
     5
 63
     7
421
 16777215
176
     1
 74
     1
176
     1
 91
        0
176
     1
 64
     7
176
     1
 65
   257
176
     1
 75
     1
176
     1
175
     1
176
     1
 42
1.0
176
     1
 92
        8
176
     1
 66
     8
424
  7895160
176
     1
 43
1.0
176
     1
 76
     1
176
     1
 77
     6
176
     1
 78
     2
176
     1
 67
     7
176
     1
 79
     5
176
     1
170
     0
176
     1
171
     0
176
     1
290
     0
176
     1
 93
       13
176
     1
 44
0.0
176
     1
173
     0
176
     1
  0
VISUALSTYLE
  5
37
102
{ACAD_REACTORS
330
2A
102
}
330
2A
100
AcDbVisualStyle
  2
Thicken
 70
    13
177
     2
291
     1
 71
     2
176
     1
 72
     2
176
     1
 73
     0
176
     1
 90
        0
176
     1
 40
-0.6
176
     1
 41
-30.0
176
     1
 62
     5
 63
     7
421
 16777215
176
     1
 74
     1
176
     1
 91
        4
176
     1
 64
     7
176
     1
 65
   257
176
     1
 75
     1
176
     1
175
     1
176
     1
 42
1.0
176
     1
 92
       12
176
     1
 66
     7
176
     1
 43
1.0
176
     1
 76
     1
176
     1
 77
     6
176
     1
 78
     2
176
     1
 67
     7
176
     1
 79
     5
176
     1
170
     0
176
     1
171
     0
176
     1
290
     0
176
     1
 93
        1
176
     1
 44
0.0
176
     1
173
     0
176
     1
  0
ENDSEC
  0
EOF
