  0
SECTION
  2
HEADER
  9
$ACADVER
  1
AC1024
  9
$ACADMAINTVER
 70
     6
  9
$DWGCODEPAGE
  3
ANSI_1252
  9
$INSBASE
 10
0.0
 20
0.0
 30
0.0
  9
$EXTMIN
 10
1.000000000000000E+20
 20
1.000000000000000E+20
 30
1.000000000000000E+20
  9
$EXTMAX
 10
-1.000000000000000E+20
 20
-1.000000000000000E+20
 30
-1.000000000000000E+20
  9
$LIMMIN
 10
0.0
 20
0.0
  9
$LIMMAX
 10
12.0
 20
9.0
  9
$ORTHOMODE
 70
     0
  9
$REGENMODE
 70
     1
  9
$FILLMODE
 70
     1
  9
$QTEXTMODE
 70
     0
  9
$MIRRTEXT
 70
     1
  9
$LTSCALE
 40
1.0
  9
$ATTMODE
 70
     1
  9
$TEXTSIZE
 40
0.2
  9
$TRACEWID
 40
0.05
  9
$TEXTSTYLE
  7
Standard
  9
$CLAYER
  8
0
  9
$CELTYPE
  6
ByLayer
  9
$CECOLOR
 62
   256
  9
$CELTSCALE
 40
1.0
  9
$DISPSILH
 70
     0
  9
$DIMSCALE
 40
1.0
  9
$DIMASZ
 40
0.18
  9
$DIMEXO
 40
0.0625
  9
$DIMDLI
 40
0.38
  9
$DIMRND
 40
0.0
  9
$DIMDLE
 40
0.0
  9
$DIMEXE
 40
0.18
  9
$DIMTP
 40
0.0
  9
$DIMTM
 40
0.0
  9
$DIMTXT
 40
0.18
  9
$DIMCEN
 40
0.09
  9
$DIMTSZ
 40
0.0
  9
$DIMTOL
 70
     0
  9
$DIMLIM
 70
     0
  9
$DIMTIH
 70
     1
  9
$DIMTOH
 70
     1
  9
$DIMSE1
 70
     0
  9
$DIMSE2
 70
     0
  9
$DIMTAD
 70
     0
  9
$DIMZIN
 70
     0
  9
$DIMBLK
  1

  9
$DIMASO
 70
     1
  9
$DIMSHO
 70
     1
  9
$DIMPOST
  1

  9
$DIMAPOST
  1

  9
$DIMALT
 70
     0
  9
$DIMALTD
 70
     2
  9
$DIMALTF
 40
25.4
  9
$DIMLFAC
 40
1.0
  9
$DIMTOFL
 70
     0
  9
$DIMTVP
 40
0.0
  9
$DIMTIX
 70
     0
  9
$DIMSOXD
 70
     0
  9
$DIMSAH
 70
     0
  9
$DIMBLK1
  1

  9
$DIMBLK2
  1

  9
$DIMSTYLE
  2
Standard
  9
$DIMCLRD
 70
     0
  9
$DIMCLRE
 70
     0
  9
$DIMCLRT
 70
     0
  9
$DIMTFAC
 40
1.0
  9
$DIMGAP
 40
0.09
  9
$DIMJUST
 70
     0
  9
$DIMSD1
 70
     0
  9
$DIMSD2
 70
     0
  9
$DIMTOLJ
 70
     1
  9
$DIMTZIN
 70
     0
  9
$DIMALTZ
 70
     0
  9
$DIMALTTZ
 70
     0
  9
$DIMUPT
 70
     0
  9
$DIMDEC
 70
     4
  9
$DIMTDEC
 70
     4
  9
$DIMALTU
 70
     2
  9
$DIMALTTD
 70
     2
  9
$DIMTXSTY
  7
Standard
  9
$DIMAUNIT
 70
     0
  9
$DIMADEC
 70
     0
  9
$DIMALTRND
 40
0.0
  9
$DIMAZIN
 70
     0
  9
$DIMDSEP
 70
    46
  9
$DIMATFIT
 70
     3
  9
$DIMFRAC
 70
     0
  9
$DIMLDRBLK
  1

  9
$DIMLUNIT
 70
     2
  9
$DIMLWD
 70
    -2
  9
$DIMLWE
 70
    -2
  9
$DIMTMOVE
 70
     0
  9
$DIMFXL
 40
1.0
  9
$DIMFXLON
 70
     0
  9
$DIMJOGANG
 40
0.7853981633974483
  9
$DIMTFILL
 70
     0
  9
$DIMTFILLCLR
 70
     0
  9
$DIMARCSYM
 70
     0
  9
$DIMLTYPE
  6

  9
$DIMLTEX1
  6

  9
$DIMLTEX2
  6

  9
$DIMTXTDIRECTION
 70
     0
  9
$LUNITS
 70
     2
  9
$LUPREC
 70
     4
  9
$SKETCHINC
 40
0.1
  9
$FILLETRAD
 40
0.5
  9
$AUNITS
 70
     0
  9
$AUPREC
 70
     0
  9
$MENU
  1
.
  9
$ELEVATION
 40
0.0
  9
$PELEVATION
 40
0.0
  9
$THICKNESS
 40
0.0
  9
$LIMCHECK
 70
     0
  9
$CHAMFERA
 40
0.5
  9
$CHAMFERB
 40
0.5
  9
$CHAMFERC
 40
1.0
  9
$CHAMFERD
 40
0.0
  9
$SKPOLY
 70
     0
  9
$TDCREATE
 40
2458775.650898113
  9
$TDUCREATE
 40
2458775.109231447
  9
$TDUPDATE
 40
2458775.650898322
  9
$TDUUPDATE
 40
2458775.109231655
  9
$TDINDWG
 40
0.0000000116
  9
$TDUSRTIMER
 40
0.0000000116
  9
$USRTIMER
 70
     1
  9
$ANGBASE
 50
0.0
  9
$ANGDIR
 70
     0
  9
$PDMODE
 70
     0
  9
$PDSIZE
 40
0.0
  9
$PLINEWID
 40
0.0
  9
$SPLFRAME
 70
     0
  9
$SPLINETYPE
 70
     6
  9
$SPLINESEGS
 70
     8
  9
$HANDSEED
  5
1FC
  9
$SURFTAB1
 70
     6
  9
$SURFTAB2
 70
     6
  9
$SURFTYPE
 70
     6
  9
$SURFU
 70
     6
  9
$SURFV
 70
     6
  9
$UCSBASE
  2

  9
$UCSNAME
  2

  9
$UCSORG
 10
0.0
 20
0.0
 30
0.0
  9
$UCSXDIR
 10
1.0
 20
0.0
 30
0.0
  9
$UCSYDIR
 10
0.0
 20
1.0
 30
0.0
  9
$UCSORTHOREF
  2

  9
$UCSORTHOVIEW
 70
     0
  9
$UCSORGTOP
 10
0.0
 20
0.0
 30
0.0
  9
$UCSORGBOTTOM
 10
0.0
 20
0.0
 30
0.0
  9
$UCSORGLEFT
 10
0.0
 20
0.0
 30
0.0
  9
$UCSORGRIGHT
 10
0.0
 20
0.0
 30
0.0
  9
$UCSORGFRONT
 10
0.0
 20
0.0
 30
0.0
  9
$UCSORGBACK
 10
0.0
 20
0.0
 30
0.0
  9
$PUCSBASE
  2

  9
$PUCSNAME
  2

  9
$PUCSORG
 10
0.0
 20
0.0
 30
0.0
  9
$PUCSXDIR
 10
1.0
 20
0.0
 30
0.0
  9
$PUCSYDIR
 10
0.0
 20
1.0
 30
0.0
  9
$PUCSORTHOREF
  2

  9
$PUCSORTHOVIEW
 70
     0
  9
$PUCSORGTOP
 10
0.0
 20
0.0
 30
0.0
  9
$PUCSORGBOTTOM
 10
0.0
 20
0.0
 30
0.0
  9
$PUCSORGLEFT
 10
0.0
 20
0.0
 30
0.0
  9
$PUCSORGRIGHT
 10
0.0
 20
0.0
 30
0.0
  9
$PUCSORGFRONT
 10
0.0
 20
0.0
 30
0.0
  9
$PUCSORGBACK
 10
0.0
 20
0.0
 30
0.0
  9
$USERI1
 70
     0
  9
$USERI2
 70
     0
  9
$USERI3
 70
     0
  9
$USERI4
 70
     0
  9
$USERI5
 70
     0
  9
$USERR1
 40
0.0
  9
$USERR2
 40
0.0
  9
$USERR3
 40
0.0
  9
$USERR4
 40
0.0
  9
$USERR5
 40
0.0
  9
$WORLDVIEW
 70
     1
  9
$SHADEDGE
 70
     3
  9
$SHADEDIF
 70
    70
  9
$TILEMODE
 70
     1
  9
$MAXACTVP
 70
    64
  9
$PINSBASE
 10
0.0
 20
0.0
 30
0.0
  9
$PLIMCHECK
 70
     0
  9
$PEXTMIN
 10
1.000000000000000E+20
 20
1.000000000000000E+20
 30
1.000000000000000E+20
  9
$PEXTMAX
 10
-1.000000000000000E+20
 20
-1.000000000000000E+20
 30
-1.000000000000000E+20
  9
$PLIMMIN
 10
0.0
 20
0.0
  9
$PLIMMAX
 10
12.0
 20
9.0
  9
$UNITMODE
 70
     0
  9
$VISRETAIN
 70
     1
  9
$PLINEGEN
 70
     0
  9
$PSLTSCALE
 70
     1
  9
$TREEDEPTH
 70
  3020
  9
$CMLSTYLE
  2
Standard
  9
$CMLJUST
 70
     0
  9
$CMLSCALE
 40
1.0
  9
$PROXYGRAPHICS
 70
     1
  9
$MEASUREMENT
 70
     0
  9
$CELWEIGHT
370
    -1
  9
$ENDCAPS
280
     0
  9
$JOINSTYLE
280
     0
  9
$LWDISPLAY
290
     1
  9
$INSUNITS
 70
     1
  9
$HYPERLINKBASE
  1

  9
$STYLESHEET
  1

  9
$XEDIT
290
     1
  9
$CEPSNTYPE
380
     0
  9
$PSTYLEMODE
290
     1
  9
$FINGERPRINTGUID
  2
{65E911F7-3545-4522-986E-8066B6117AA2}
  9
$VERSIONGUID
  2
{FAEB1C32-E019-11D5-929B-00C0DF256EC4}
  9
$EXTNAMES
290
     1
  9
$PSVPSCALE
 40
0.0
  9
$OLESTARTUP
290
     0
  9
$SORTENTS
280
   127
  9
$INDEXCTL
280
     0
  9
$HIDETEXT
280
     1
  9
$XCLIPFRAME
280
     2
  9
$HALOGAP
280
     0
  9
$OBSCOLOR
 70
   257
  9
$OBSLTYPE
280
     0
  9
$INTERSECTIONDISPLAY
280
     0
  9
$INTERSECTIONCOLOR
 70
   257
  9
$DIMASSOC
280
     2
  9
$PROJECTNAME
  1

  9
$CAMERADISPLAY
290
     0
  9
$LENSLENGTH
 40
50.0
  9
$CAMERAHEIGHT
 40
0.0
  9
$STEPSPERSEC
 40
2.0
  9
$STEPSIZE
 40
6.0
  9
$3DDWFPREC
 40
2.0
  9
$PSOLWIDTH
 40
0.25
  9
$PSOLHEIGHT
 40
4.0
  9
$LOFTANG1
 40
1.570796326794897
  9
$LOFTANG2
 40
1.570796326794897
  9
$LOFTMAG1
 40
0.0
  9
$LOFTMAG2
 40
0.0
  9
$LOFTPARAM
 70
     7
  9
$LOFTNORMALS
280
     1
  9
$LATITUDE
 40
37.795
  9
$LONGITUDE
 40
-122.394
  9
$NORTHDIRECTION
 40
0.0
  9
$TIMEZONE
 70
 -8000
  9
$LIGHTGLYPHDISPLAY
280
     1
  9
$TILEMODELIGHTSYNCH
280
     1
  9
$CMATERIAL
347
3C
  9
$SOLIDHIST
280
     1
  9
$SHOWHIST
280
     1
  9
$DWFFRAME
280
     2
  9
$DGNFRAME
280
     2
  9
$REALWORLDSCALE
290
     1
  9
$INTERFERECOLOR
 62
   256
  9
$CSHADOW
280
     0
  9
$SHADOWPLANELOCATION
 40
0.0
  0
ENDSEC
  0
SECTION
  2
CLASSES
  0
CLASS
  1
ACDBDICTIONARYWDFLT
  2
AcDbDictionaryWithDefault
  3
ObjectDBX Classes
 90
        0
 91
        4
280
     0
281
     0
  0
CLASS
  1
VISUALSTYLE
  2
AcDbVisualStyle
  3
ObjectDBX Classes
 90
     4095
 91
        4
280
     0
281
     0
  0
CLASS
  1
MATERIAL
  2
AcDbMaterial
  3
ObjectDBX Classes
 90
     1153
 91
        4
280
     0
281
     0
  0
CLASS
  1
SUN
  2
AcDbSun
  3
SCENEOE
 90
     1024
 91
        4
280
     0
281
     0
  0
ENDSEC
  0
SECTION
  2
TABLES
  0
TABLE
  2
VPORT
  5
8
330
0
100
AcDbSymbolTable
 70
     1
  0
VPORT
  5
29
330
8
100
AcDbSymbolTableRecord
100
AcDbViewportTableRecord
  2
*Active
 70
     0
 10
0.0
 20
0.0
 11
1.0
 21
1.0
 12
0.0
 22
0.0
 13
0.0
 23
0.0
 14
0.5
 24
0.5
 15
0.5
 25
0.5
 16
0.0
 26
0.0
 36
1.0
 17
4.315066642012147
 27
6.078359568669939
 37
0.0
 40
11.69291338582677
 41
0.7070707070707066
 42
50.0
 43
0.0
 44
0.0
 50
0.0
 51
0.0
 71
     0
 72
   100
 73
     1
 74
     3
 75
     0
 76
     0
 77
     0
 78
     0
281
     0
 65
     1
110
0.0
120
0.0
130
0.0
111
1.0
121
0.0
131
0.0
112
0.0
122
1.0
132
0.0
 79
     0
146
0.0
 60
     3
 61
     5
292
     1
282
     1
141
0.0
142
0.0
 63
   250
361
3F
  0
ENDTAB
  0
TABLE
  2
LTYPE
  5
5
330
0
100
AcDbSymbolTable
 70
     1
  0
LTYPE
  5
14
330
5
100
AcDbSymbolTableRecord
100
AcDbLinetypeTableRecord
  2
ByBlock
 70
     0
  3

 72
    65
 73
     0
 40
0.0
  0
LTYPE
  5
15
330
5
100
AcDbSymbolTableRecord
100
AcDbLinetypeTableRecord
  2
ByLayer
 70
     0
  3

 72
    65
 73
     0
 40
0.0
  0
LTYPE
  5
16
330
5
100
AcDbSymbolTableRecord
100
AcDbLinetypeTableRecord
  2
Continuous
 70
     0
  3
Solid line
 72
    65
 73
     0
 40
0.0
  0
ENDTAB
  0
TABLE
  2
LAYER
  5
2
330
0
100
AcDbSymbolTable
 70
     4
  0
LAYER
  5
10
330
2
100
AcDbSymbolTableRecord
100
AcDbLayerTableRecord
  2
0
 70
     0
 62
     7
  6
Continuous
370
    -3
390
F
347
3E
  0
LAYER
  5
40
330
2
100
AcDbSymbolTableRecord
100
AcDbLayerTableRecord
  2
Wood
 70
     0
 62
     7
  6
Continuous
370
    -3
390
F
347
3E
  0
LAYER
  5
124
330
2
100
AcDbSymbolTableRecord
100
AcDbLayerTableRecord
  2
H2.5A
 70
     0
 62
     7
  6
Continuous
370
    -3
390
F
347
3E
  0
LAYER
  5
1BA
330
2
100
AcDbSymbolTableRecord
100
AcDbLayerTableRecord
  2
Callout
 70
     0
 62
     7
  6
Continuous
370
    -3
390
F
347
3E
  0
ENDTAB
  0
TABLE
  2
STYLE
  5
3
330
0
100
AcDbSymbolTable
 70
     1
  0
STYLE
  5
11
330
3
100
AcDbSymbolTableRecord
100
AcDbTextStyleTableRecord
  2
Standard
 70
     0
 40
0.0
 41
1.0
 50
0.0
 71
     0
 42
0.2
  3
txt
  4

  0
ENDTAB
  0
TABLE
  2
VIEW
  5
6
330
0
100
AcDbSymbolTable
 70
     0
  0
ENDTAB
  0
TABLE
  2
UCS
  5
7
330
0
100
AcDbSymbolTable
 70
     0
  0
ENDTAB
  0
TABLE
  2
APPID
  5
9
330
0
100
AcDbSymbolTable
 70
     1
  0
APPID
  5
12
330
9
100
AcDbSymbolTableRecord
100
AcDbRegAppTableRecord
  2
ACAD
 70
     0
  0
ENDTAB
  0
TABLE
  2
DIMSTYLE
  5
A
330
0
100
AcDbSymbolTable
 70
     1
100
AcDbDimStyleTable
  0
DIMSTYLE
105
27
330
A
100
AcDbSymbolTableRecord
100
AcDbDimStyleTableRecord
  2
Standard
 70
     0
178
     0
340
11
  0
ENDTAB
  0
TABLE
  2
BLOCK_RECORD
  5
1
330
0
100
AcDbSymbolTable
 70
    17
  0
BLOCK_RECORD
  5
1F
330
1
100
AcDbSymbolTableRecord
100
AcDbBlockTableRecord
  2
*Model_Space
340
22
 70
     0
280
     1
281
     0
  0
BLOCK_RECORD
  5
1B
330
1
100
AcDbSymbolTableRecord
100
AcDbBlockTableRecord
  2
*Paper_Space
340
1E
 70
     0
280
     1
281
     0
  0
BLOCK_RECORD
  5
23
330
1
100
AcDbSymbolTableRecord
100
AcDbBlockTableRecord
  2
*Paper_Space0
340
26
 70
     0
280
     1
281
     0
  0
BLOCK_RECORD
  5
144
330
1
100
AcDbSymbolTableRecord
100
AcDbBlockTableRecord
  2
block 2
340
0
102
{BLKREFS
331
145
102
}
 70
     0
280
     1
281
     0
  0
BLOCK_RECORD
  5
14A
330
1
100
AcDbSymbolTableRecord
100
AcDbBlockTableRecord
  2
block 3
340
0
102
{BLKREFS
331
14B
102
}
 70
     0
280
     1
281
     0
  0
BLOCK_RECORD
  5
150
330
1
100
AcDbSymbolTableRecord
100
AcDbBlockTableRecord
  2
block 4
340
0
102
{BLKREFS
331
151
102
}
 70
     0
280
     1
281
     0
  0
BLOCK_RECORD
  5
156
330
1
100
AcDbSymbolTableRecord
100
AcDbBlockTableRecord
  2
block 5
340
0
102
{BLKREFS
331
157
102
}
 70
     0
280
     1
281
     0
  0
BLOCK_RECORD
  5
15C
330
1
100
AcDbSymbolTableRecord
100
AcDbBlockTableRecord
  2
block 6
340
0
102
{BLKREFS
331
15D
102
}
 70
     0
280
     1
281
     0
  0
BLOCK_RECORD
  5
162
330
1
100
AcDbSymbolTableRecord
100
AcDbBlockTableRecord
  2
block 7
340
0
102
{BLKREFS
331
163
102
}
 70
     0
280
     1
281
     0
  0
BLOCK_RECORD
  5
168
330
1
100
AcDbSymbolTableRecord
100
AcDbBlockTableRecord
  2
block 8
340
0
102
{BLKREFS
331
169
102
}
 70
     0
280
     1
281
     0
  0
BLOCK_RECORD
  5
16E
330
1
100
AcDbSymbolTableRecord
100
AcDbBlockTableRecord
  2
block 9
340
0
102
{BLKREFS
331
16F
102
}
 70
     0
280
     1
281
     0
  0
BLOCK_RECORD
  5
174
330
1
100
AcDbSymbolTableRecord
100
AcDbBlockTableRecord
  2
block 10
340
0
102
{BLKREFS
331
175
102
}
 70
     0
280
     1
281
     0
  0
BLOCK_RECORD
  5
17A
330
1
100
AcDbSymbolTableRecord
100
AcDbBlockTableRecord
  2
block 11
340
0
102
{BLKREFS
331
17B
102
}
 70
     0
280
     1
281
     0
  0
BLOCK_RECORD
  5
180
330
1
100
AcDbSymbolTableRecord
100
AcDbBlockTableRecord
  2
block 12
340
0
102
{BLKREFS
331
181
102
}
 70
     0
280
     1
281
     0
  0
BLOCK_RECORD
  5
186
330
1
100
AcDbSymbolTableRecord
100
AcDbBlockTableRecord
  2
block 13
340
0
102
{BLKREFS
331
187
102
}
 70
     0
280
     1
281
     0
  0
BLOCK_RECORD
  5
198
330
1
100
AcDbSymbolTableRecord
100
AcDbBlockTableRecord
  2
block 14
340
0
102
{BLKREFS
331
199
102
}
 70
     0
280
     1
281
     0
  0
BLOCK_RECORD
  5
1A9
330
1
100
AcDbSymbolTableRecord
100
AcDbBlockTableRecord
  2
block 15
340
0
102
{BLKREFS
331
1AA
102
}
 70
     0
280
     1
281
     0
  0
BLOCK_RECORD
  5
1BB
330
1
100
AcDbSymbolTableRecord
100
AcDbBlockTableRecord
  2
block 16
340
0
102
{BLKREFS
331
1BC
102
}
 70
     0
280
     1
281
     0
  0
BLOCK_RECORD
  5
1D2
330
1
100
AcDbSymbolTableRecord
100
AcDbBlockTableRecord
  2
block 17
340
0
102
{BLKREFS
331
1D3
102
}
 70
     0
280
     1
281
     0
  0
ENDTAB
  0
ENDSEC
  0
SECTION
  2
BLOCKS
  0
BLOCK
  5
20
330
1F
100
AcDbEntity
  8
0
100
AcDbBlockBegin
  2
*Model_Space
 70
     0
 10
0.0
 20
0.0
 30
0.0
  3
*Model_Space
  1

  0
ENDBLK
  5
21
330
1F
100
AcDbEntity
  8
0
100
AcDbBlockEnd
  0
BLOCK
  5
1C
330
1B
100
AcDbEntity
 67
     1
  8
0
100
AcDbBlockBegin
  2
*Paper_Space
 70
     0
 10
0.0
 20
0.0
 30
0.0
  3
*Paper_Space
  1

  0
ENDBLK
  5
1D
330
1B
100
AcDbEntity
 67
     1
  8
0
100
AcDbBlockEnd
  0
BLOCK
  5
24
330
23
100
AcDbEntity
  8
0
100
AcDbBlockBegin
  2
*Paper_Space0
 70
     0
 10
0.0
 20
0.0
 30
0.0
  3
*Paper_Space0
  1

  0
ENDBLK
  5
25
330
23
100
AcDbEntity
  8
0
100
AcDbBlockEnd
  0
BLOCK
  5
146
330
144
100
AcDbEntity
  8
0
100
AcDbBlockBegin
  2
block 2
 70
     0
 10
0.0
 20
0.0
 30
0.0
  3
block 2
  1

  0
SPLINE
  5
148
330
144
100
AcDbEntity
  8
H2.5A
 62
   250
420
  2301728
370
    20
100
AcDbSpline
210
0.0
220
0.0
230
1.0
 70
    11
 71
     3
 72
    17
 73
    13
 74
     0
 42
0.0000000001
 43
0.0000000001
 12
1.0
 22
0.0
 32
0.0
 13
1.0
 23
0.0
 33
0.0
 40
0.0
 40
0.0
 40
0.0
 40
0.0
 40
1.0
 40
1.0
 40
1.0
 40
2.0
 40
2.0
 40
2.0
 40
3.0
 40
3.0
 40
3.0
 40
4.0
 40
4.0
 40
4.0
 40
4.0
 10
3.897318289134002
 20
6.939034938165314
 30
0.0
 10
3.891405288235294
 20
6.918004245327223
 30
0.0
 10
3.898902190686663
 20
6.897476047572367
 30
0.0
 10
3.914075458119113
 20
6.893208312833255
 30
0.0
 10
3.92923830514663
 20
6.888939420271349
 30
0.0
 10
3.94633355838131
 20
6.902531242332897
 30
0.0
 10
3.952259295330502
 20
6.92357221503975
 30
0.0
 10
3.958172296229211
 20
6.944592487472896
 30
0.0
 10
3.950686972005567
 20
6.965119527404984
 30
0.0
 10
3.935513704573117
 20
6.969388419966877
 30
0.0
 10
3.9203508575456
 20
6.973656297038954
 30
0.0
 10
3.903244026083207
 20
6.960071420117274
 30
0.0
 10
3.897318289134002
 20
6.939034938165314
 30
0.0
  0
SPLINE
  5
149
330
144
100
AcDbEntity
  8
H2.5A
 62
   250
420
  2301728
370
    20
100
AcDbSpline
210
0.0
220
0.0
230
1.0
 70
    11
 71
     3
 72
    29
 73
    25
 74
     0
 42
0.0000000001
 43
0.0000000001
 12
1.0
 22
0.0
 32
0.0
 13
1.0
 23
0.0
 33
0.0
 40
0.0
 40
0.0
 40
0.0
 40
0.0
 40
1.0
 40
1.0
 40
1.0
 40
2.0
 40
2.0
 40
2.0
 40
3.0
 40
3.0
 40
3.0
 40
4.0
 40
4.0
 40
4.0
 40
5.0
 40
5.0
 40
5.0
 40
6.0
 40
6.0
 40
6.0
 40
7.0
 40
7.0
 40
7.0
 40
8.0
 40
8.0
 40
8.0
 40
8.0
 10
3.935513704573117
 20
6.969388419966877
 30
0.0
 10
3.932958389714384
 20
6.970106270085782
 30
0.0
 10
3.930346341539828
 20
6.970151425173892
 30
0.0
 10
3.927745871592997
 20
6.969902493277813
 30
0.0
 10
3.925269379610831
 20
6.972135933405815
 30
0.0
 10
3.922476620155749
 20
6.973905086602056
 30
0.0
 10
3.91924282115239
 20
6.974815135301165
 30
0.0
 10
3.904079974124885
 20
6.979084027863059
 30
0.0
 10
3.886973142662491
 20
6.965498135451589
 30
0.0
 10
3.881048563536056
 20
6.944461653499616
 30
0.0
 10
3.875134404814578
 20
6.923430960661524
 30
0.0
 10
3.882631307265948
 20
6.902903920729411
 30
0.0
 10
3.89780457469841
 20
6.898635028167543
 30
0.0
 10
3.900359889557131
 20
6.897917178048639
 30
0.0
 10
3.9029719377317
 20
6.897872022960516
 30
0.0
 10
3.90557240767853
 20
6.898120954856583
 30
0.0
 10
3.908048990588718
 20
6.895887514728606
 30
0.0
 10
3.910841659115779
 20
6.894118361532352
 30
0.0
 10
3.914075458119113
 20
6.893208312833255
 30
0.0
 10
3.92923830514663
 20
6.888939420271349
 30
0.0
 10
3.94633355838131
 20
6.902531242332897
 30
0.0
 10
3.952259295330502
 20
6.92357221503975
 30
0.0
 10
3.958172296229211
 20
6.944592487472896
 30
0.0
 10
3.950686972005567
 20
6.965119527404984
 30
0.0
 10
3.935513704573117
 20
6.969388419966877
 30
0.0
  0
ENDBLK
  5
147
330
144
100
AcDbEntity
  8
0
100
AcDbBlockEnd
  0
BLOCK
  5
14C
330
14A
100
AcDbEntity
  8
0
100
AcDbBlockBegin
  2
block 3
 70
     0
 10
0.0
 20
0.0
 30
0.0
  3
block 3
  1

  0
SPLINE
  5
14E
330
14A
100
AcDbEntity
  8
H2.5A
 62
   250
420
  2301728
370
    20
100
AcDbSpline
210
0.0
220
0.0
230
1.0
 70
    11
 71
     3
 72
    17
 73
    13
 74
     0
 42
0.0000000001
 43
0.0000000001
 12
1.0
 22
0.0
 32
0.0
 13
1.0
 23
0.0
 33
0.0
 40
0.0
 40
0.0
 40
0.0
 40
0.0
 40
1.0
 40
1.0
 40
1.0
 40
2.0
 40
2.0
 40
2.0
 40
3.0
 40
3.0
 40
3.0
 40
4.0
 40
4.0
 40
4.0
 40
4.0
 10
3.781541801006635
 20
6.915878482717075
 30
0.0
 10
3.775628800107925
 20
6.894847789878971
 30
0.0
 10
3.783124544736514
 20
6.874319592124102
 30
0.0
 10
3.79829896999177
 20
6.87005185738499
 30
0.0
 10
3.813461817019263
 20
6.86578296482311
 30
0.0
 10
3.830557070253942
 20
6.879374786299662
 30
0.0
 10
3.836481649380365
 20
6.90041575959151
 30
0.0
 10
3.842395808101843
 20
6.921436032024644
 30
0.0
 10
3.834910483878199
 20
6.941963071956756
 30
0.0
 10
3.819737216445737
 20
6.946231964518624
 30
0.0
 10
3.804574369418232
 20
6.950499841005731
 30
0.0
 10
3.787466380133057
 20
6.936914964669035
 30
0.0
 10
3.781541801006635
 20
6.915878482717075
 30
0.0
  0
SPLINE
  5
14F
330
14A
100
AcDbEntity
  8
H2.5A
 62
   250
420
  2301728
370
    20
100
AcDbSpline
210
0.0
220
0.0
230
1.0
 70
    11
 71
     3
 72
    29
 73
    25
 74
     0
 42
0.0000000001
 43
0.0000000001
 12
1.0
 22
0.0
 32
0.0
 13
1.0
 23
0.0
 33
0.0
 40
0.0
 40
0.0
 40
0.0
 40
0.0
 40
1.0
 40
1.0
 40
1.0
 40
2.0
 40
2.0
 40
2.0
 40
3.0
 40
3.0
 40
3.0
 40
4.0
 40
4.0
 40
4.0
 40
5.0
 40
5.0
 40
5.0
 40
6.0
 40
6.0
 40
6.0
 40
7.0
 40
7.0
 40
7.0
 40
8.0
 40
8.0
 40
8.0
 40
8.0
 10
3.819737216445737
 20
6.946231964518624
 30
0.0
 10
3.817181901587016
 20
6.946949814637529
 30
0.0
 10
3.814569941544
 20
6.946994969725652
 30
0.0
 10
3.811969383465629
 20
6.946746037829585
 30
0.0
 10
3.809492800555442
 20
6.948979477957563
 30
0.0
 10
3.80670013202838
 20
6.950748631153815
 30
0.0
 10
3.803466420876058
 20
6.951658679852926
 30
0.0
 10
3.788303485997517
 20
6.955927572414806
 30
0.0
 10
3.771196654535136
 20
6.942341680003324
 30
0.0
 10
3.765272075408689
 20
6.921305198051363
 30
0.0
 10
3.759357916687211
 20
6.900274505213272
 30
0.0
 10
3.766854819138593
 20
6.879747465281171
 30
0.0
 10
3.782028086571042
 20
6.875478572719291
 30
0.0
 10
3.784583401429763
 20
6.874760722600386
 30
0.0
 10
3.787195449604332
 20
6.874715567512276
 30
0.0
 10
3.789795919551163
 20
6.87496449940833
 30
0.0
 10
3.79227250246135
 20
6.872731059280341
 30
0.0
 10
3.795065170988412
 20
6.8709619060841
 30
0.0
 10
3.79829896999177
 20
6.87005185738499
 30
0.0
 10
3.813461817019263
 20
6.86578296482311
 30
0.0
 10
3.830557070253942
 20
6.879374786299662
 30
0.0
 10
3.836481649380365
 20
6.90041575959151
 30
0.0
 10
3.842395808101843
 20
6.921436032024644
 30
0.0
 10
3.834910483878199
 20
6.941963071956756
 30
0.0
 10
3.819737216445737
 20
6.946231964518624
 30
0.0
  0
ENDBLK
  5
14D
330
14A
100
AcDbEntity
  8
0
100
AcDbBlockEnd
  0
BLOCK
  5
152
330
150
100
AcDbEntity
  8
0
100
AcDbBlockBegin
  2
block 4
 70
     0
 10
0.0
 20
0.0
 30
0.0
  3
block 4
  1

  0
SPLINE
  5
154
330
150
100
AcDbEntity
  8
H2.5A
 62
   250
420
  2301728
370
    20
100
AcDbSpline
210
0.0
220
0.0
230
1.0
 70
    11
 71
     3
 72
    17
 73
    13
 74
     0
 42
0.0000000001
 43
0.0000000001
 12
1.0
 22
0.0
 32
0.0
 13
1.0
 23
0.0
 33
0.0
 40
0.0
 40
0.0
 40
0.0
 40
0.0
 40
1.0
 40
1.0
 40
1.0
 40
2.0
 40
2.0
 40
2.0
 40
3.0
 40
3.0
 40
3.0
 40
4.0
 40
4.0
 40
4.0
 40
4.0
 10
3.897318289134002
 20
6.722909950352977
 30
0.0
 10
3.891405288235294
 20
6.701879257514886
 30
0.0
 10
3.898902190686663
 20
6.681351059760017
 30
0.0
 10
3.914075458119113
 20
6.677083325020893
 30
0.0
 10
3.92923830514663
 20
6.672814432459025
 30
0.0
 10
3.94633355838131
 20
6.686406113984364
 30
0.0
 10
3.952259295330502
 20
6.707447227227412
 30
0.0
 10
3.958172296229211
 20
6.728467499660559
 30
0.0
 10
3.950686972005567
 20
6.748994539592672
 30
0.0
 10
3.935513704573117
 20
6.75326343215454
 30
0.0
 10
3.9203508575456
 20
6.757531166893651
 30
0.0
 10
3.903244026083207
 20
6.743946432304938
 30
0.0
 10
3.897318289134002
 20
6.722909950352977
 30
0.0
  0
SPLINE
  5
155
330
150
100
AcDbEntity
  8
H2.5A
 62
   250
420
  2301728
370
    20
100
AcDbSpline
210
0.0
220
0.0
230
1.0
 70
    11
 71
     3
 72
    29
 73
    25
 74
     0
 42
0.0000000001
 43
0.0000000001
 12
1.0
 22
0.0
 32
0.0
 13
1.0
 23
0.0
 33
0.0
 40
0.0
 40
0.0
 40
0.0
 40
0.0
 40
1.0
 40
1.0
 40
1.0
 40
2.0
 40
2.0
 40
2.0
 40
3.0
 40
3.0
 40
3.0
 40
4.0
 40
4.0
 40
4.0
 40
5.0
 40
5.0
 40
5.0
 40
6.0
 40
6.0
 40
6.0
 40
7.0
 40
7.0
 40
7.0
 40
8.0
 40
8.0
 40
8.0
 40
8.0
 10
3.935513704573117
 20
6.75326343215454
 30
0.0
 10
3.932958389714384
 20
6.753981282273432
 30
0.0
 10
3.930346341539828
 20
6.754026437361567
 30
0.0
 10
3.927745871592997
 20
6.753777505465488
 30
0.0
 10
3.925269379610831
 20
6.756010945593466
 30
0.0
 10
3.922476620155749
 20
6.757780235669214
 30
0.0
 10
3.91924282115239
 20
6.758690147488841
 30
0.0
 10
3.904079974124885
 20
6.762959040050721
 30
0.0
 10
3.886973142662491
 20
6.749373147639239
 30
0.0
 10
3.881048563536056
 20
6.728336801822959
 30
0.0
 10
3.875134404814578
 20
6.707305972849174
 30
0.0
 10
3.882631307265948
 20
6.686778932917086
 30
0.0
 10
3.89780457469841
 20
6.682510175333189
 30
0.0
 10
3.900359889557131
 20
6.68179232519617
 30
0.0
 10
3.9029719377317
 20
6.681747035148178
 30
0.0
 10
3.90557240767853
 20
6.681995967044245
 30
0.0
 10
3.908048990588718
 20
6.679762526916268
 30
0.0
 10
3.910841659115779
 20
6.677993373720015
 30
0.0
 10
3.914075458119113
 20
6.677083325020893
 30
0.0
 10
3.92923830514663
 20
6.672814432459025
 30
0.0
 10
3.94633355838131
 20
6.686406113984364
 30
0.0
 10
3.952259295330502
 20
6.707447227227412
 30
0.0
 10
3.958172296229211
 20
6.728467499660559
 30
0.0
 10
3.950686972005567
 20
6.748994539592672
 30
0.0
 10
3.935513704573117
 20
6.75326343215454
 30
0.0
  0
ENDBLK
  5
153
330
150
100
AcDbEntity
  8
0
100
AcDbBlockEnd
  0
BLOCK
  5
158
330
156
100
AcDbEntity
  8
0
100
AcDbBlockBegin
  2
block 5
 70
     0
 10
0.0
 20
0.0
 30
0.0
  3
block 5
  1

  0
SPLINE
  5
15A
330
156
100
AcDbEntity
  8
H2.5A
 62
   250
420
  2301728
370
    20
100
AcDbSpline
210
0.0
220
0.0
230
1.0
 70
    11
 71
     3
 72
    17
 73
    13
 74
     0
 42
0.0000000001
 43
0.0000000001
 12
1.0
 22
0.0
 32
0.0
 13
1.0
 23
0.0
 33
0.0
 40
0.0
 40
0.0
 40
0.0
 40
0.0
 40
1.0
 40
1.0
 40
1.0
 40
2.0
 40
2.0
 40
2.0
 40
3.0
 40
3.0
 40
3.0
 40
4.0
 40
4.0
 40
4.0
 40
4.0
 10
3.789252900670906
 20
6.719048611406985
 30
0.0
 10
3.783339899772184
 20
6.698017918568868
 30
0.0
 10
3.790836802223566
 20
6.677489720814024
 30
0.0
 10
3.806010069656016
 20
6.6732219860749
 30
0.0
 10
3.821172916683533
 20
6.668953093513032
 30
0.0
 10
3.838268169918188
 20
6.682544910017238
 30
0.0
 10
3.844193906867404
 20
6.70358588828142
 30
0.0
 10
3.850106907766126
 20
6.724606160714567
 30
0.0
 10
3.84262158354247
 20
6.745133200646655
 30
0.0
 10
3.82744831611002
 20
6.749402093208547
 30
0.0
 10
3.81228546908249
 20
6.753669964723295
 30
0.0
 10
3.79517863762011
 20
6.740085093358945
 30
0.0
 10
3.789252900670906
 20
6.719048611406985
 30
0.0
  0
SPLINE
  5
15B
330
156
100
AcDbEntity
  8
H2.5A
 62
   250
420
  2301728
370
    20
100
AcDbSpline
210
0.0
220
0.0
230
1.0
 70
    11
 71
     3
 72
    29
 73
    25
 74
     0
 42
0.0000000001
 43
0.0000000001
 12
1.0
 22
0.0
 32
0.0
 13
1.0
 23
0.0
 33
0.0
 40
0.0
 40
0.0
 40
0.0
 40
0.0
 40
1.0
 40
1.0
 40
1.0
 40
2.0
 40
2.0
 40
2.0
 40
3.0
 40
3.0
 40
3.0
 40
4.0
 40
4.0
 40
4.0
 40
5.0
 40
5.0
 40
5.0
 40
6.0
 40
6.0
 40
6.0
 40
7.0
 40
7.0
 40
7.0
 40
8.0
 40
8.0
 40
8.0
 40
8.0
 10
3.82744831611002
 20
6.749402093208547
 30
0.0
 10
3.824893001251287
 20
6.75011994332744
 30
0.0
 10
3.822281041403054
 20
6.750165098415563
 30
0.0
 10
3.8196804831299
 20
6.749916166519496
 30
0.0
 10
3.8172039002197
 20
6.752149606647473
 30
0.0
 10
3.814411231692652
 20
6.753918759843726
 30
0.0
 10
3.811177520735125
 20
6.754828808542849
 30
0.0
 10
3.796014585661788
 20
6.759097701104716
 30
0.0
 10
3.778907754199395
 20
6.745511808693234
 30
0.0
 10
3.772983175072959
 20
6.724475326741273
 30
0.0
 10
3.767069016351481
 20
6.703444633903182
 30
0.0
 10
3.774565918802851
 20
6.682917593971082
 30
0.0
 10
3.789739186235313
 20
6.678648701409202
 30
0.0
 10
3.792294501094021
 20
6.677930851290309
 30
0.0
 10
3.79490654926859
 20
6.677885696202186
 30
0.0
 10
3.797507019215434
 20
6.678134628098253
 30
0.0
 10
3.799983602125621
 20
6.675901187970275
 30
0.0
 10
3.802776270652682
 20
6.674132034774023
 30
0.0
 10
3.806010069656016
 20
6.6732219860749
 30
0.0
 10
3.821172916683533
 20
6.668953093513032
 30
0.0
 10
3.838268169918188
 20
6.682544910017238
 30
0.0
 10
3.844193906867404
 20
6.70358588828142
 30
0.0
 10
3.850106907766126
 20
6.724606160714567
 30
0.0
 10
3.84262158354247
 20
6.745133200646655
 30
0.0
 10
3.82744831611002
 20
6.749402093208547
 30
0.0
  0
ENDBLK
  5
159
330
156
100
AcDbEntity
  8
0
100
AcDbBlockEnd
  0
BLOCK
  5
15E
330
15C
100
AcDbEntity
  8
0
100
AcDbBlockBegin
  2
block 6
 70
     0
 10
0.0
 20
0.0
 30
0.0
  3
block 6
  1

  0
SPLINE
  5
160
330
15C
100
AcDbEntity
  8
H2.5A
 62
   250
420
  2301728
370
    20
100
AcDbSpline
210
0.0
220
0.0
230
1.0
 70
    11
 71
     3
 72
    17
 73
    13
 74
     0
 42
0.0000000001
 43
0.0000000001
 12
1.0
 22
0.0
 32
0.0
 13
1.0
 23
0.0
 33
0.0
 40
0.0
 40
0.0
 40
0.0
 40
0.0
 40
1.0
 40
1.0
 40
1.0
 40
2.0
 40
2.0
 40
2.0
 40
3.0
 40
3.0
 40
3.0
 40
4.0
 40
4.0
 40
4.0
 40
4.0
 10
3.847139496954721
 20
6.572392989939392
 30
0.0
 10
3.841225249278939
 20
6.551362297101289
 30
0.0
 10
3.848722151730309
 20
6.53083409934642
 30
0.0
 10
3.863895419162771
 20
6.526566364607308
 30
0.0
 10
3.879058266190289
 20
6.522297472045428
 30
0.0
 10
3.896154677247725
 20
6.535889153570767
 30
0.0
 10
3.90207925637416
 20
6.556930266813815
 30
0.0
 10
3.907992257272869
 20
6.577950539246962
 30
0.0
 10
3.900506933049225
 20
6.598477579179075
 30
0.0
 10
3.885333665616763
 20
6.602746471740943
 30
0.0
 10
3.870170818589246
 20
6.607014206480054
 30
0.0
 10
3.853063987126865
 20
6.593429471891341
 30
0.0
 10
3.847139496954721
 20
6.572392989939392
 30
0.0
  0
SPLINE
  5
161
330
15C
100
AcDbEntity
  8
H2.5A
 62
   250
420
  2301728
370
    20
100
AcDbSpline
210
0.0
220
0.0
230
1.0
 70
    11
 71
     3
 72
    29
 73
    25
 74
     0
 42
0.0000000001
 43
0.0000000001
 12
1.0
 22
0.0
 32
0.0
 13
1.0
 23
0.0
 33
0.0
 40
0.0
 40
0.0
 40
0.0
 40
0.0
 40
1.0
 40
1.0
 40
1.0
 40
2.0
 40
2.0
 40
2.0
 40
3.0
 40
3.0
 40
3.0
 40
4.0
 40
4.0
 40
4.0
 40
5.0
 40
5.0
 40
5.0
 40
6.0
 40
6.0
 40
6.0
 40
7.0
 40
7.0
 40
7.0
 40
8.0
 40
8.0
 40
8.0
 40
8.0
 10
3.885333665616763
 20
6.602746471740943
 30
0.0
 10
3.882778350758043
 20
6.603464321859835
 30
0.0
 10
3.880166302583486
 20
6.60350947694797
 30
0.0
 10
3.877565832636643
 20
6.603260545051903
 30
0.0
 10
3.875089339386831
 20
6.605493985179868
 30
0.0
 10
3.872296581199407
 20
6.607263271453221
 30
0.0
 10
3.869062782196061
 20
6.608173187075244
 30
0.0
 10
3.853899935168543
 20
6.612442079637124
 30
0.0
 10
3.83679310370615
 20
6.598856187225642
 30
0.0
 10
3.830868524579728
 20
6.577819837606992
 30
0.0
 10
3.824954365858237
 20
6.556789012435577
 30
0.0
 10
3.832451268309594
 20
6.536261972503489
 30
0.0
 10
3.847624535742069
 20
6.531993211117221
 30
0.0
 10
3.850179850600777
 20
6.53127536098019
 30
0.0
 10
3.852791898775333
 20
6.531230074734594
 30
0.0
 10
3.855392368722176
 20
6.531479006630648
 30
0.0
 10
3.857868951632364
 20
6.529245566502671
 30
0.0
 10
3.860661620159425
 20
6.527476413306418
 30
0.0
 10
3.863895419162771
 20
6.526566364607308
 30
0.0
 10
3.879058266190289
 20
6.522297472045428
 30
0.0
 10
3.896154677247725
 20
6.535889153570767
 30
0.0
 10
3.90207925637416
 20
6.556930266813815
 30
0.0
 10
3.907992257272869
 20
6.577950539246962
 30
0.0
 10
3.900506933049225
 20
6.598477579179075
 30
0.0
 10
3.885333665616763
 20
6.602746471740943
 30
0.0
  0
ENDBLK
  5
15F
330
15C
100
AcDbEntity
  8
0
100
AcDbBlockEnd
  0
BLOCK
  5
164
330
162
100
AcDbEntity
  8
0
100
AcDbBlockBegin
  2
block 7
 70
     0
 10
0.0
 20
0.0
 30
0.0
  3
block 7
  1

  0
SPLINE
  5
166
330
162
100
AcDbEntity
  8
H2.5A
 62
   250
420
  2301728
370
    20
100
AcDbSpline
210
0.0
220
0.0
230
1.0
 70
    11
 71
     3
 72
    17
 73
    13
 74
     0
 42
0.0000000001
 43
0.0000000001
 12
1.0
 22
0.0
 32
0.0
 13
1.0
 23
0.0
 33
0.0
 40
0.0
 40
0.0
 40
0.0
 40
0.0
 40
1.0
 40
1.0
 40
1.0
 40
2.0
 40
2.0
 40
2.0
 40
3.0
 40
3.0
 40
3.0
 40
4.0
 40
4.0
 40
4.0
 40
4.0
 10
4.115371051862401
 20
5.947433834251645
 30
0.0
 10
4.119318069693551
 20
5.925940012304586
 30
0.0
 10
4.136583619142053
 20
5.91109440871671
 30
0.0
 10
4.153894131146103
 20
5.914260011746844
 30
0.0
 10
4.17122789587188
 20
5.917442750977847
 30
0.0
 10
4.182104482995921
 20
5.937449928485131
 30
0.0
 10
4.17815862298754
 20
5.958950697368828
 30
0.0
 10
4.174212860196032
 20
5.980432941088162
 30
0.0
 10
4.156947309796944
 20
5.9952844514071
 30
0.0
 10
4.139625123298893
 20
5.992101478988527
 30
0.0
 10
4.122314515028569
 20
5.98892441330103
 30
0.0
 10
4.111436770081746
 20
5.968917235793747
 30
0.0
 10
4.115371051862401
 20
5.947433834251645
 30
0.0
  0
SPLINE
  5
167
330
162
100
AcDbEntity
  8
H2.5A
 62
   250
420
  2301728
370
    20
100
AcDbSpline
210
0.0
220
0.0
230
1.0
 70
    11
 71
     3
 72
    23
 73
    19
 74
     0
 42
0.0000000001
 43
0.0000000001
 12
1.0
 22
0.0
 32
0.0
 13
1.0
 23
0.0
 33
0.0
 40
0.0
 40
0.0
 40
0.0
 40
0.0
 40
1.0
 40
1.0
 40
1.0
 40
2.0
 40
2.0
 40
2.0
 40
3.0
 40
3.0
 40
3.0
 40
4.0
 40
4.0
 40
4.0
 40
5.0
 40
5.0
 40
5.0
 40
6.0
 40
6.0
 40
6.0
 40
6.0
 10
4.189838739115632
 20
5.968199385674855
 30
0.0
 10
4.185892879107263
 20
5.989682787216958
 30
0.0
 10
4.168627425925049
 20
6.004534179918689
 30
0.0
 10
4.151305239426986
 20
6.001351442887818
 30
0.0
 10
4.144396510944034
 20
6.000084667004317
 30
0.0
 10
4.13858424062649
 20
5.996058917224647
 30
0.0
 10
4.134265561685386
 20
5.990406426449718
 30
0.0
 10
4.120165691814488
 20
5.984476058209427
 30
0.0
 10
4.111866322330305
 20
5.966582024153922
 30
0.0
 10
4.115371051862401
 20
5.947433834251645
 30
0.0
 10
4.119318069693551
 20
5.925940012304586
 30
0.0
 10
4.136583619142053
 20
5.91109440871671
 30
0.0
 10
4.153894131146103
 20
5.914260011746844
 30
0.0
 10
4.160814437856806
 20
5.915532343403381
 30
0.0
 10
4.166625550351543
 20
5.919556935360283
 30
0.0
 10
4.170955807520386
 20
5.925210583957955
 30
0.0
 10
4.18506735147053
 20
5.931146741312116
 30
0.0
 10
4.193355046875467
 20
5.949039734436976
 30
0.0
 10
4.189838739115632
 20
5.968199385674855
 30
0.0
  0
ENDBLK
  5
165
330
162
100
AcDbEntity
  8
0
100
AcDbBlockEnd
  0
BLOCK
  5
16A
330
168
100
AcDbEntity
  8
0
100
AcDbBlockBegin
  2
block 8
 70
     0
 10
0.0
 20
0.0
 30
0.0
  3
block 8
  1

  0
SPLINE
  5
16C
330
168
100
AcDbEntity
  8
H2.5A
 62
   250
420
  2301728
370
    20
100
AcDbSpline
210
0.0
220
0.0
230
1.0
 70
    11
 71
     3
 72
    17
 73
    13
 74
     0
 42
0.0000000001
 43
0.0000000001
 12
1.0
 22
0.0
 32
0.0
 13
1.0
 23
0.0
 33
0.0
 40
0.0
 40
0.0
 40
0.0
 40
0.0
 40
1.0
 40
1.0
 40
1.0
 40
2.0
 40
2.0
 40
2.0
 40
3.0
 40
3.0
 40
3.0
 40
4.0
 40
4.0
 40
4.0
 40
4.0
 10
4.115371051862401
 20
5.726633558084308
 30
0.0
 10
4.119318069693551
 20
5.705128157909522
 30
0.0
 10
4.136583619142053
 20
5.690294132549373
 30
0.0
 10
4.153894131146103
 20
5.693459620009144
 30
0.0
 10
4.17122789587188
 20
5.696636685696654
 30
0.0
 10
4.182104482995921
 20
5.71663807409008
 30
0.0
 10
4.17815862298754
 20
5.738144632087621
 30
0.0
 10
4.174212860196032
 20
5.759626875806967
 30
0.0
 10
4.156947309796944
 20
5.774484057622557
 30
0.0
 10
4.139625123298893
 20
5.771295413707334
 30
0.0
 10
4.122314515028569
 20
5.768118348019836
 30
0.0
 10
4.111436770081746
 20
5.74811695962641
 30
0.0
 10
4.115371051862401
 20
5.726633558084308
 30
0.0
  0
SPLINE
  5
16D
330
168
100
AcDbEntity
  8
H2.5A
 62
   250
420
  2301728
370
    20
100
AcDbSpline
210
0.0
220
0.0
230
1.0
 70
    11
 71
     3
 72
    23
 73
    19
 74
     0
 42
0.0000000001
 43
0.0000000001
 12
1.0
 22
0.0
 32
0.0
 13
1.0
 23
0.0
 33
0.0
 40
0.0
 40
0.0
 40
0.0
 40
0.0
 40
1.0
 40
1.0
 40
1.0
 40
2.0
 40
2.0
 40
2.0
 40
3.0
 40
3.0
 40
3.0
 40
4.0
 40
4.0
 40
4.0
 40
5.0
 40
5.0
 40
5.0
 40
6.0
 40
6.0
 40
6.0
 40
6.0
 10
4.189838739115632
 20
5.747393320393662
 30
0.0
 10
4.185892879107263
 20
5.768876721935763
 30
0.0
 10
4.168627425925049
 20
5.783733903751365
 30
0.0
 10
4.151305239426986
 20
5.780545259836142
 30
0.0
 10
4.144396510944034
 20
5.779278601723123
 30
0.0
 10
4.13858424062649
 20
5.775252851943441
 30
0.0
 10
4.134265561685386
 20
5.769600361168512
 30
0.0
 10
4.120165691814488
 20
5.763674624219308
 30
0.0
 10
4.111866322330305
 20
5.745775841980617
 30
0.0
 10
4.115371051862401
 20
5.726633558084308
 30
0.0
 10
4.119318069693551
 20
5.705128157909522
 30
0.0
 10
4.136583619142053
 20
5.690294132549373
 30
0.0
 10
4.153894131146103
 20
5.693459620009144
 30
0.0
 10
4.160814437856806
 20
5.694726278122162
 30
0.0
 10
4.166625550351543
 20
5.698750870079089
 30
0.0
 10
4.170955807520386
 20
5.704404628945755
 30
0.0
 10
4.18506735147053
 20
5.710340676030922
 30
0.0
 10
4.193355046875467
 20
5.728239458269639
 30
0.0
 10
4.189838739115632
 20
5.747393320393662
 30
0.0
  0
ENDBLK
  5
16B
330
168
100
AcDbEntity
  8
0
100
AcDbBlockEnd
  0
BLOCK
  5
170
330
16E
100
AcDbEntity
  8
0
100
AcDbBlockBegin
  2
block 9
 70
     0
 10
0.0
 20
0.0
 30
0.0
  3
block 9
  1

  0
SPLINE
  5
172
330
16E
100
AcDbEntity
  8
H2.5A
 62
   250
420
  2301728
370
    20
100
AcDbSpline
210
0.0
220
0.0
230
1.0
 70
    11
 71
     3
 72
    17
 73
    13
 74
     0
 42
0.0000000001
 43
0.0000000001
 12
1.0
 22
0.0
 32
0.0
 13
1.0
 23
0.0
 33
0.0
 40
0.0
 40
0.0
 40
0.0
 40
0.0
 40
1.0
 40
1.0
 40
1.0
 40
2.0
 40
2.0
 40
2.0
 40
3.0
 40
3.0
 40
3.0
 40
4.0
 40
4.0
 40
4.0
 40
4.0
 10
4.314960014839142
 20
5.661009430339491
 30
0.0
 10
4.318905975719645
 20
5.639525919624652
 30
0.0
 10
4.336172485852507
 20
5.624668737809063
 30
0.0
 10
4.353483094122844
 20
5.627834225268821
 30
0.0
 10
4.370815701025878
 20
5.631022869184031
 30
0.0
 10
4.381693445972663
 20
5.651035835805184
 30
0.0
 10
4.377747585964294
 20
5.672530815575024
 30
0.0
 10
4.3738017259559
 20
5.694013059294371
 30
0.0
 10
4.356535216773661
 20
5.708859820705002
 30
0.0
 10
4.339214187660799
 20
5.705682755017506
 30
0.0
 10
4.321902320182517
 20
5.702504531507227
 30
0.0
 10
4.311025733058488
 20
5.682491564886087
 30
0.0
 10
4.314960014839142
 20
5.661009430339491
 30
0.0
  0
SPLINE
  5
173
330
16E
100
AcDbEntity
  8
H2.5A
 62
   250
420
  2301728
370
    20
100
AcDbSpline
210
0.0
220
0.0
230
1.0
 70
    11
 71
     3
 72
    23
 73
    19
 74
     0
 42
0.0000000001
 43
0.0000000001
 12
1.0
 22
0.0
 32
0.0
 13
1.0
 23
0.0
 33
0.0
 40
0.0
 40
0.0
 40
0.0
 40
0.0
 40
1.0
 40
1.0
 40
1.0
 40
2.0
 40
2.0
 40
2.0
 40
3.0
 40
3.0
 40
3.0
 40
4.0
 40
4.0
 40
4.0
 40
5.0
 40
5.0
 40
5.0
 40
6.0
 40
6.0
 40
6.0
 40
6.0
 10
4.389427702092386
 20
5.681779503881052
 30
0.0
 10
4.385480786815176
 20
5.703262905423167
 30
0.0
 10
4.368215231079022
 20
5.718108509011042
 30
0.0
 10
4.350893044580945
 20
5.714931443323533
 30
0.0
 10
4.343985473920737
 20
5.713664785210526
 30
0.0
 10
4.338173203603244
 20
5.709639035430844
 30
0.0
 10
4.333854524662152
 20
5.703986544655915
 30
0.0
 10
4.319754558939697
 20
5.698050387301767
 30
0.0
 10
4.311455285307071
 20
5.680163183290763
 30
0.0
 10
4.314960014839142
 20
5.661009430339491
 30
0.0
 10
4.318905975719645
 20
5.639525919624652
 30
0.0
 10
4.336172485852507
 20
5.624668737809063
 30
0.0
 10
4.353483094122844
 20
5.627834225268821
 30
0.0
 10
4.360402344931193
 20
5.629112461609578
 30
0.0
 10
4.366214615395544
 20
5.633137053566466
 30
0.0
 10
4.370544872673741
 20
5.638790810775579
 30
0.0
 10
4.384656314447284
 20
5.644726859518313
 30
0.0
 10
4.392944009852195
 20
5.662614063529317
 30
0.0
 10
4.389427702092386
 20
5.681779503881052
 30
0.0
  0
ENDBLK
  5
171
330
16E
100
AcDbEntity
  8
0
100
AcDbBlockEnd
  0
BLOCK
  5
176
330
174
100
AcDbEntity
  8
0
100
AcDbBlockBegin
  2
block 10
 70
     0
 10
0.0
 20
0.0
 30
0.0
  3
block 10
  1

  0
SPLINE
  5
178
330
174
100
AcDbEntity
  8
H2.5A
 62
   250
420
  2301728
370
    20
100
AcDbSpline
210
0.0
220
0.0
230
1.0
 70
    11
 71
     3
 72
    17
 73
    13
 74
     0
 42
0.0000000001
 43
0.0000000001
 12
1.0
 22
0.0
 32
0.0
 13
1.0
 23
0.0
 33
0.0
 40
0.0
 40
0.0
 40
0.0
 40
0.0
 40
1.0
 40
1.0
 40
1.0
 40
2.0
 40
2.0
 40
2.0
 40
3.0
 40
3.0
 40
3.0
 40
4.0
 40
4.0
 40
4.0
 40
4.0
 10
4.260936004278392
 20
5.857839306621902
 30
0.0
 10
4.264881963794121
 20
5.836355790934741
 30
0.0
 10
4.282147317468975
 20
5.82149860911914
 30
0.0
 10
4.299459083562093
 20
5.82466409657891
 30
0.0
 10
4.316791690465101
 20
5.827852740494121
 30
0.0
 10
4.327669435411912
 20
5.847865707115274
 30
0.0
 10
4.323723575403543
 20
5.869360686885102
 30
0.0
 10
4.319776557572393
 20
5.890842930604448
 30
0.0
 10
4.302511204848138
 20
5.905689692015092
 30
0.0
 10
4.285188917892103
 20
5.902512626327582
 30
0.0
 10
4.267878309621791
 20
5.899334402817317
 30
0.0
 10
4.257001722497736
 20
5.879321436196165
 30
0.0
 10
4.260936004278392
 20
5.857839306621902
 30
0.0
  0
SPLINE
  5
179
330
174
100
AcDbEntity
  8
H2.5A
 62
   250
420
  2301728
370
    20
100
AcDbSpline
210
0.0
220
0.0
230
1.0
 70
    11
 71
     3
 72
    23
 73
    19
 74
     0
 42
0.0000000001
 43
0.0000000001
 12
1.0
 22
0.0
 32
0.0
 13
1.0
 23
0.0
 33
0.0
 40
0.0
 40
0.0
 40
0.0
 40
0.0
 40
1.0
 40
1.0
 40
1.0
 40
2.0
 40
2.0
 40
2.0
 40
3.0
 40
3.0
 40
3.0
 40
4.0
 40
4.0
 40
4.0
 40
5.0
 40
5.0
 40
5.0
 40
6.0
 40
6.0
 40
6.0
 40
6.0
 10
4.335403691531635
 20
5.878609375191141
 30
0.0
 10
4.331456774889678
 20
5.900092776733269
 30
0.0
 10
4.31419122051827
 20
5.914944169434989
 30
0.0
 10
4.296869034020195
 20
5.911761314633623
 30
0.0
 10
4.289960405678104
 20
5.910494656520616
 30
0.0
 10
4.284149193042493
 20
5.906468906740921
 30
0.0
 10
4.279829456163599
 20
5.900816415966005
 30
0.0
 10
4.265730548378946
 20
5.894880258611844
 30
0.0
 10
4.257431274746295
 20
5.87699305460084
 30
0.0
 10
4.260936004278392
 20
5.857839306621902
 30
0.0
 10
4.264881963794121
 20
5.836355790934741
 30
0.0
 10
4.282147317468975
 20
5.82149860911914
 30
0.0
 10
4.299459083562093
 20
5.82466409657891
 30
0.0
 10
4.30637833300567
 20
5.825942332919655
 30
0.0
 10
4.312190603470021
 20
5.829966924876556
 30
0.0
 10
4.316520860748217
 20
5.835620687058015
 30
0.0
 10
4.330631146063752
 20
5.841556730828402
 30
0.0
 10
4.338919999291445
 20
5.859443934839393
 30
0.0
 10
4.335403691531635
 20
5.878609375191141
 30
0.0
  0
ENDBLK
  5
177
330
174
100
AcDbEntity
  8
0
100
AcDbBlockEnd
  0
BLOCK
  5
17C
330
17A
100
AcDbEntity
  8
0
100
AcDbBlockBegin
  2
block 11
 70
     0
 10
0.0
 20
0.0
 30
0.0
  3
block 11
  1

  0
SPLINE
  5
17E
330
17A
100
AcDbEntity
  8
H2.5A
 62
   250
420
  2301728
370
    20
100
AcDbSpline
210
0.0
220
0.0
230
1.0
 70
    11
 71
     3
 72
    17
 73
    13
 74
     0
 42
0.0000000001
 43
0.0000000001
 12
1.0
 22
0.0
 32
0.0
 13
1.0
 23
0.0
 33
0.0
 40
0.0
 40
0.0
 40
0.0
 40
0.0
 40
1.0
 40
1.0
 40
1.0
 40
2.0
 40
2.0
 40
2.0
 40
3.0
 40
3.0
 40
3.0
 40
4.0
 40
4.0
 40
4.0
 40
4.0
 10
4.199177737597918
 20
6.058535034024013
 30
0.0
 10
4.203123695553497
 20
6.037041212076941
 30
0.0
 10
4.22039020861127
 20
6.022195608489079
 30
0.0
 10
4.237700816881644
 20
6.025361095948849
 30
0.0
 10
4.255033423784627
 20
6.028543950750215
 30
0.0
 10
4.265911168731463
 20
6.048551128257499
 30
0.0
 10
4.261965308723069
 20
6.070051897141196
 30
0.0
 10
4.258019448714675
 20
6.091534260909207
 30
0.0
 10
4.240752936607501
 20
6.106386691385031
 30
0.0
 10
4.223431907494677
 20
6.103202678760908
 30
0.0
 10
4.206120042941304
 20
6.100025613073399
 30
0.0
 10
4.195243455817263
 20
6.080018435566116
 30
0.0
 10
4.199177737597918
 20
6.058535034024013
 30
0.0
  0
SPLINE
  5
17F
330
17A
100
AcDbEntity
  8
H2.5A
 62
   250
420
  2301728
370
    20
100
AcDbSpline
210
0.0
220
0.0
230
1.0
 70
    11
 71
     3
 72
    23
 73
    19
 74
     0
 42
0.0000000001
 43
0.0000000001
 12
1.0
 22
0.0
 32
0.0
 13
1.0
 23
0.0
 33
0.0
 40
0.0
 40
0.0
 40
0.0
 40
0.0
 40
1.0
 40
1.0
 40
1.0
 40
2.0
 40
2.0
 40
2.0
 40
3.0
 40
3.0
 40
3.0
 40
4.0
 40
4.0
 40
4.0
 40
5.0
 40
5.0
 40
5.0
 40
6.0
 40
6.0
 40
6.0
 40
6.0
 10
4.273645424851162
 20
6.079300585447223
 30
0.0
 10
4.269698506649042
 20
6.100783986989326
 30
0.0
 10
4.252432953837797
 20
6.115635379691057
 30
0.0
 10
4.235110767339734
 20
6.112452524889704
 30
0.0
 10
4.228203196679525
 20
6.111185866776686
 30
0.0
 10
4.222390926362019
 20
6.107160116997003
 30
0.0
 10
4.218072247420928
 20
6.101507626222087
 30
0.0
 10
4.203972281698485
 20
6.095577257981782
 30
0.0
 10
4.195673008065834
 20
6.077683107034166
 30
0.0
 10
4.199177737597918
 20
6.058535034024013
 30
0.0
 10
4.203123695553497
 20
6.037041212076941
 30
0.0
 10
4.22039020861127
 20
6.022195608489079
 30
0.0
 10
4.237700816881644
 20
6.025361095948849
 30
0.0
 10
4.244620064765058
 20
6.026633543175724
 30
0.0
 10
4.250432335229397
 20
6.030658135132638
 30
0.0
 10
4.254762592507644
 20
6.036311783730323
 30
0.0
 10
4.268874037206034
 20
6.042247941084484
 30
0.0
 10
4.277161732610971
 20
6.060140934209332
 30
0.0
 10
4.273645424851162
 20
6.079300585447223
 30
0.0
  0
ENDBLK
  5
17D
330
17A
100
AcDbEntity
  8
0
100
AcDbBlockEnd
  0
BLOCK
  5
182
330
180
100
AcDbEntity
  8
0
100
AcDbBlockBegin
  2
block 12
 70
     0
 10
0.0
 20
0.0
 30
0.0
  3
block 12
  1

  0
SPLINE
  5
184
330
180
100
AcDbEntity
  8
H2.5A
 62
   250
420
  2301728
370
    20
100
AcDbSpline
210
0.0
220
0.0
230
1.0
 70
     8
 71
     3
 72
    17
 73
    13
 74
     0
 42
0.0000000001
 43
0.0000000001
 12
1.0
 22
0.0
 32
0.0
 13
1.0
 23
0.0
 33
0.0
 40
0.0
 40
0.0
 40
0.0
 40
0.0
 40
1.0
 40
1.0
 40
1.0
 40
2.0
 40
2.0
 40
2.0
 40
3.0
 40
3.0
 40
3.0
 40
4.0
 40
4.0
 40
4.0
 40
4.0
 10
4.081236120886148
 20
6.440514660516087
 30
0.0
 10
4.084526653205343
 20
6.434517138554989
 30
0.0
 10
4.086052663619386
 20
6.428134061610686
 30
0.0
 10
4.085611533143088
 20
6.42210759408028
 30
0.0
 10
4.084164254677565
 20
6.402778900717622
 30
0.0
 10
4.064751040252531
 20
6.417692944137216
 30
0.0
 10
4.032344832308468
 20
6.420078059108619
 30
0.0
 10
3.999984750009339
 20
6.422452625266462
 30
0.0
 10
3.978569660010812
 20
6.410552522811599
 30
0.0
 10
3.980005360248596
 20
6.429892794401982
 30
0.0
 10
3.980344602320908
 20
6.434579660984708
 30
0.0
 10
3.981893769190391
 20
6.439300104427818
 30
0.0
 10
3.98450581736496
 20
6.443732378946581
 30
0.0
  0
SPLINE
  5
185
330
180
100
AcDbEntity
  8
H2.5A
 62
   250
420
  2301728
370
    20
100
AcDbSpline
210
0.0
220
0.0
230
1.0
 70
     8
 71
     3
 72
    11
 73
     7
 74
     0
 42
0.0000000001
 43
0.0000000001
 12
1.0
 22
0.0
 32
0.0
 13
1.0
 23
0.0
 33
0.0
 40
0.0
 40
0.0
 40
0.0
 40
0.0
 40
1.0
 40
1.0
 40
1.0
 40
2.0
 40
2.0
 40
2.0
 40
2.0
 10
4.007764254229199
 20
6.462817800581067
 30
0.0
 10
4.015769347865633
 20
6.466000655382421
 30
0.0
 10
4.025233391207343
 20
6.467600766453907
 30
0.0
 10
4.035805470942225
 20
6.466826183019154
 30
0.0
 10
4.046954146417798
 20
6.46600644449629
 30
0.0
 10
4.056497015951132
 20
6.462744857746391
 30
0.0
 10
4.064151288056425
 20
6.458029045594369
 30
0.0
  0
ENDBLK
  5
183
330
180
100
AcDbEntity
  8
0
100
AcDbBlockEnd
  0
BLOCK
  5
188
330
186
100
AcDbEntity
  8
0
100
AcDbBlockBegin
  2
block 13
 70
     0
 10
0.0
 20
0.0
 30
0.0
  3
block 13
  1

  0
SPLINE
  5
18A
330
186
100
AcDbEntity
  8
H2.5A
 62
   250
420
  2301728
370
    20
100
AcDbSpline
210
0.0
220
0.0
230
1.0
 70
     8
 71
     3
 72
    17
 73
    13
 74
     0
 42
0.0000000001
 43
0.0000000001
 12
1.0
 22
0.0
 32
0.0
 13
1.0
 23
0.0
 33
0.0
 40
0.0
 40
0.0
 40
0.0
 40
0.0
 40
1.0
 40
1.0
 40
1.0
 40
2.0
 40
2.0
 40
2.0
 40
3.0
 40
3.0
 40
3.0
 40
4.0
 40
4.0
 40
4.0
 40
4.0
 10
4.081236120886148
 20
6.307319886600541
 30
0.0
 10
4.084526653205343
 20
6.301322364639455
 30
0.0
 10
4.086052663619386
 20
6.29493928769514
 30
0.0
 10
4.085611533143088
 20
6.288912820164732
 30
0.0
 10
4.084164254677565
 20
6.269584251348697
 30
0.0
 10
4.064751040252531
 20
6.284498041933526
 30
0.0
 10
4.032344832308468
 20
6.286883156844699
 30
0.0
 10
3.999984750009339
 20
6.289257851350915
 30
0.0
 10
3.978569660010812
 20
6.277357748896065
 30
0.0
 10
3.980005360248596
 20
6.296698020486436
 30
0.0
 10
3.980344602320908
 20
6.301383729246393
 30
0.0
 10
3.981893769190391
 20
6.306105330512296
 30
0.0
 10
3.98450581736496
 20
6.310537476085086
 30
0.0
  0
SPLINE
  5
18B
330
186
100
AcDbEntity
  8
H2.5A
 62
   250
420
  2301728
370
    20
100
AcDbSpline
210
0.0
220
0.0
230
1.0
 70
     8
 71
     3
 72
    11
 73
     7
 74
     0
 42
0.0000000001
 43
0.0000000001
 12
1.0
 22
0.0
 32
0.0
 13
1.0
 23
0.0
 33
0.0
 40
0.0
 40
0.0
 40
0.0
 40
0.0
 40
1.0
 40
1.0
 40
1.0
 40
2.0
 40
2.0
 40
2.0
 40
2.0
 10
4.007764254229199
 20
6.329623026665533
 30
0.0
 10
4.015769347865633
 20
6.332805881466887
 30
0.0
 10
4.025233391207343
 20
6.334405992538349
 30
0.0
 10
4.035805470942225
 20
6.333631409103607
 30
0.0
 10
4.046954146417798
 20
6.332811670580743
 30
0.0
 10
4.056497015951132
 20
6.32955008383087
 30
0.0
 10
4.064151288056425
 20
6.324834271678823
 30
0.0
  0
ENDBLK
  5
189
330
186
100
AcDbEntity
  8
0
100
AcDbBlockEnd
  0
BLOCK
  5
19A
330
198
100
AcDbEntity
  8
0
100
AcDbBlockBegin
  2
block 14
 70
     0
 10
0.0
 20
0.0
 30
0.0
  3
block 14
  1

  0
MTEXT
  5
19C
330
198
100
AcDbEntity
  8
H2.5A
 62
   250
420
  2301728
100
AcDbMText
 10
4.12668218550809
 20
6.170979878903179
 30
0.0
 40
0.0203087767915109
 41
0.0
 46
0.0
 71
     7
 72
     1
  1
\fHelvetica Neue LT Std 55 Roman|b0|i0|c0|p34;\W0.788544;LINE
 11
0.9677249660226399
 21
-0.2520087104377156
 31
0.0
 73
     1
 44
1.0
  0
MTEXT
  5
19D
330
198
100
AcDbEntity
  8
H2.5A
 62
   250
420
  2301728
100
AcDbMText
 10
4.12668218550809
 20
6.206800733937901
 30
0.0
 40
0.0203087767915109
 41
0.0
 46
0.0
 71
     7
 72
     1
  1
\fHelvetica Neue LT Std 55 Roman|b0|i0|c0|p34;\W0.788544;PLATE
 11
0.9677249660226399
 21
-0.2520087104377156
 31
0.0
 73
     1
 44
1.0
  0
ENDBLK
  5
19B
330
198
100
AcDbEntity
  8
0
100
AcDbBlockEnd
  0
BLOCK
  5
1AB
330
1A9
100
AcDbEntity
  8
0
100
AcDbBlockBegin
  2
block 15
 70
     0
 10
0.0
 20
0.0
 30
0.0
  3
block 15
  1

  0
MTEXT
  5
1AD
330
1A9
100
AcDbEntity
  8
H2.5A
 62
   250
420
  2301728
100
AcDbMText
 10
3.929856222290659
 20
6.513125780128272
 30
0.0
 40
0.0157897636245717
 41
0.0
 46
0.0
 71
     7
 72
     1
  1
\fHelvetica Neue LT Std 55 Roman|b0|i0|c0|p34;\W0.867331;LINE
 11
-0.8750792769768352
 21
-0.4839796059811812
 31
0.0
 73
     1
 44
1.0
  0
MTEXT
  5
1AE
330
1A9
100
AcDbEntity
  8
H2.5A
 62
   250
420
  2301728
100
AcDbMText
 10
3.93093295157218
 20
6.48425573977147
 30
0.0
 40
0.0157897636245717
 41
0.0
 46
0.0
 71
     7
 72
     1
  1
\fHelvetica Neue LT Std 55 Roman|b0|i0|c0|p34;\W0.867331;PLATE
 11
-0.8750792769768352
 21
-0.4839796059811812
 31
0.0
 73
     1
 44
1.0
  0
ENDBLK
  5
1AC
330
1A9
100
AcDbEntity
  8
0
100
AcDbBlockEnd
  0
BLOCK
  5
1BD
330
1BB
100
AcDbEntity
  8
0
100
AcDbBlockBegin
  2
block 16
 70
     0
 10
0.0
 20
0.0
 30
0.0
  3
block 16
  1

  0
POLYLINE
  5
1BF
330
1BB
100
AcDbEntity
  8
Callout
 62
   250
420
  2301728
370
    90
100
AcDb2dPolyline
 66
     1
 10
0.0
 20
0.0
 30
0.0
  0
VERTEX
  5
1C0
330
1BF
100
AcDbEntity
  8
Callout
 62
   250
420
  2301728
370
    90
100
AcDbVertex
100
AcDb2dVertex
 10
4.844865394380172
 20
6.357194260344992
 30
0.0
  0
VERTEX
  5
1C1
330
1BF
100
AcDbEntity
  8
Callout
 62
   250
420
  2301728
370
    90
100
AcDbVertex
100
AcDb2dVertex
 10
5.318978767986942
 20
6.244506843374412
 30
0.0
  0
SEQEND
  5
1C2
330
1BF
100
AcDbEntity
  8
Callout
 62
   250
420
  2301728
370
    90
  0
POLYLINE
  5
1C3
330
1BB
100
AcDbEntity
  8
Callout
370
     0
100
AcDb2dPolyline
 66
     1
 10
0.0
 20
0.0
 30
0.0
  0
VERTEX
  5
1C4
330
1C3
100
AcDbEntity
  8
Callout
370
     0
100
AcDbVertex
100
AcDb2dVertex
 10
4.824082475615342
 20
6.308345717576899
 30
0.0
  0
VERTEX
  5
1C5
330
1C3
100
AcDbEntity
  8
Callout
370
     0
100
AcDbVertex
100
AcDb2dVertex
 10
4.929714120610848
 20
6.396921603075421
 30
0.0
  0
VERTEX
  5
1C6
330
1C3
100
AcDbEntity
  8
Callout
370
     0
100
AcDbVertex
100
AcDb2dVertex
 10
4.726554432203986
 20
6.382019138408269
 30
0.0
  0
VERTEX
  5
1C7
330
1C3
100
AcDbEntity
  8
Callout
370
     0
100
AcDbVertex
100
AcDb2dVertex
 10
4.824082475615342
 20
6.308345717576899
 30
0.0
  0
SEQEND
  5
1C9
330
1C3
100
AcDbEntity
  8
Callout
370
     0
  0
HATCH
  5
1C8
330
1BB
100
AcDbEntity
  8
Callout
 62
   250
420
  2301728
100
AcDbHatch
 10
0.0
 20
0.0
 30
0.0
210
0.0
220
0.0
230
1.0
  2
SOLID
 70
     1
 71
     0
 91
        1
 92
        1
 93
        3
 72
     1
 10
4.824082475615342
 20
6.308345717576899
 11
4.929714120610848
 21
6.396921603075421
 72
     1
 10
4.929714120610848
 20
6.396921603075421
 11
4.726554432203986
 21
6.382019138408269
 72
     1
 10
4.726554432203986
 20
6.382019138408269
 11
4.824082475615342
 21
6.308345717576899
 97
        0
 75
     2
 76
     1
 98
        0
  0
POLYLINE
  5
1CA
330
1BB
100
AcDbEntity
  8
Callout
370
     0
100
AcDb2dPolyline
 66
     1
 10
0.0
 20
0.0
 30
0.0
  0
VERTEX
  5
1CB
330
1CA
100
AcDbEntity
  8
Callout
370
     0
100
AcDbVertex
100
AcDb2dVertex
 10
5.302149813989924
 20
6.304453117416061
 30
0.0
  0
VERTEX
  5
1CC
330
1CA
100
AcDbEntity
  8
Callout
370
     0
100
AcDbVertex
100
AcDb2dVertex
 10
5.196517011171687
 20
6.215876201858198
 30
0.0
  0
VERTEX
  5
1CD
330
1CA
100
AcDbEntity
  8
Callout
370
     0
100
AcDbVertex
100
AcDb2dVertex
 10
5.399677857401305
 20
6.230778538761935
 30
0.0
  0
VERTEX
  5
1CE
330
1CA
100
AcDbEntity
  8
Callout
370
     0
100
AcDbVertex
100
AcDb2dVertex
 10
5.302149813989924
 20
6.304453117416061
 30
0.0
  0
SEQEND
  5
1D0
330
1CA
100
AcDbEntity
  8
Callout
370
     0
  0
HATCH
  5
1CF
330
1BB
100
AcDbEntity
  8
Callout
 62
   250
420
  2301728
100
AcDbHatch
 10
0.0
 20
0.0
 30
0.0
210
0.0
220
0.0
230
1.0
  2
SOLID
 70
     1
 71
     0
 91
        1
 92
        1
 93
        3
 72
     1
 10
5.302149813989924
 20
6.304453117416061
 11
5.196517011171687
 21
6.215876201858198
 72
     1
 10
5.196517011171687
 20
6.215876201858198
 11
5.399677857401305
 21
6.230778538761935
 72
     1
 10
5.399677857401305
 20
6.230778538761935
 11
5.302149813989924
 21
6.304453117416061
 97
        0
 75
     2
 76
     1
 98
        0
  0
MTEXT
  5
1D1
330
1BB
100
AcDbEntity
  8
Callout
 62
   250
420
  2301728
100
AcDbMText
 10
4.704416760764111
 20
6.119298246989072
 30
0.0
 40
0.1772783597016883
 41
0.0
 46
0.0
 71
     7
 72
     1
  1
\fHelvetica Neue LT Std 67 Medium Condensed|b0|i0|c0|p34;\W1.10372;F\H0.13929;1
 11
0.9834332519634504
 21
-0.1812706234683178
 31
0.0
 73
     1
 44
1.0
  0
ENDBLK
  5
1BE
330
1BB
100
AcDbEntity
  8
0
100
AcDbBlockEnd
  0
BLOCK
  5
1D4
330
1D2
100
AcDbEntity
  8
0
100
AcDbBlockBegin
  2
block 17
 70
     0
 10
0.0
 20
0.0
 30
0.0
  3
block 17
  1

  0
POLYLINE
  5
1D6
330
1D2
100
AcDbEntity
  8
Callout
 62
   250
420
  2301728
370
    90
100
AcDb2dPolyline
 66
     1
 10
0.0
 20
0.0
 30
0.0
  0
VERTEX
  5
1D7
330
1D6
100
AcDbEntity
  8
Callout
 62
   250
420
  2301728
370
    90
100
AcDbVertex
100
AcDb2dVertex
 10
3.418064182417702
 20
5.806027781234168
 30
0.0
  0
VERTEX
  5
1D8
330
1D6
100
AcDbEntity
  8
Callout
 62
   250
420
  2301728
370
    90
100
AcDbVertex
100
AcDb2dVertex
 10
3.829878586109304
 20
6.019677343959074
 30
0.0
  0
SEQEND
  5
1D9
330
1D6
100
AcDbEntity
  8
Callout
 62
   250
420
  2301728
370
    90
  0
POLYLINE
  5
1DA
330
1D2
100
AcDbEntity
  8
Callout
370
     0
100
AcDb2dPolyline
 66
     1
 10
0.0
 20
0.0
 30
0.0
  0
VERTEX
  5
1DB
330
1DA
100
AcDbEntity
  8
Callout
370
     0
100
AcDbVertex
100
AcDb2dVertex
 10
3.444681370132685
 20
5.746344332961851
 30
0.0
  0
VERTEX
  5
1DC
330
1DA
100
AcDbEntity
  8
Callout
370
     0
100
AcDbVertex
100
AcDb2dVertex
 10
3.444681370132685
 20
5.896894870235845
 30
0.0
  0
VERTEX
  5
1DD
330
1DA
100
AcDbEntity
  8
Callout
370
     0
100
AcDbVertex
100
AcDb2dVertex
 10
3.312982503239103
 20
5.756058466022384
 30
0.0
  0
VERTEX
  5
1DE
330
1DA
100
AcDbEntity
  8
Callout
370
     0
100
AcDbVertex
100
AcDb2dVertex
 10
3.444681370132685
 20
5.746344332961851
 30
0.0
  0
SEQEND
  5
1E0
330
1DA
100
AcDbEntity
  8
Callout
370
     0
  0
HATCH
  5
1DF
330
1D2
100
AcDbEntity
  8
Callout
 62
   250
420
  2301728
100
AcDbHatch
 10
0.0
 20
0.0
 30
0.0
210
0.0
220
0.0
230
1.0
  2
SOLID
 70
     1
 71
     0
 91
        1
 92
        1
 93
        3
 72
     1
 10
3.444681370132685
 20
5.746344332961851
 11
3.444681370132685
 21
5.896894870235845
 72
     1
 10
3.444681370132685
 20
5.896894870235845
 11
3.312982503239103
 21
5.756058466022384
 72
     1
 10
3.312982503239103
 20
5.756058466022384
 11
3.444681370132685
 21
5.746344332961851
 97
        0
 75
     2
 76
     1
 98
        0
  0
POLYLINE
  5
1E1
330
1D2
100
AcDbEntity
  8
Callout
370
     0
100
AcDb2dPolyline
 66
     1
 10
0.0
 20
0.0
 30
0.0
  0
VERTEX
  5
1E2
330
1E1
100
AcDbEntity
  8
Callout
370
     0
100
AcDbVertex
100
AcDb2dVertex
 10
3.768784909700192
 20
6.069964022114264
 30
0.0
  0
VERTEX
  5
1E3
330
1E1
100
AcDbEntity
  8
Callout
370
     0
100
AcDbVertex
100
AcDb2dVertex
 10
3.768784909700192
 20
5.919407576222625
 30
0.0
  0
VERTEX
  5
1E4
330
1E1
100
AcDbEntity
  8
Callout
370
     0
100
AcDbVertex
100
AcDb2dVertex
 10
3.900483776593774
 20
6.060243980436085
 30
0.0
  0
VERTEX
  5
1E5
330
1E1
100
AcDbEntity
  8
Callout
370
     0
100
AcDbVertex
100
AcDb2dVertex
 10
3.768784909700192
 20
6.069964022114264
 30
0.0
  0
SEQEND
  5
1E7
330
1E1
100
AcDbEntity
  8
Callout
370
     0
  0
HATCH
  5
1E6
330
1D2
100
AcDbEntity
  8
Callout
 62
   250
420
  2301728
100
AcDbHatch
 10
0.0
 20
0.0
 30
0.0
210
0.0
220
0.0
230
1.0
  2
SOLID
 70
     1
 71
     0
 91
        1
 92
        1
 93
        3
 72
     1
 10
3.768784909700192
 20
6.069964022114264
 11
3.768784909700192
 21
5.919407576222625
 72
     1
 10
3.768784909700192
 20
5.919407576222625
 11
3.900483776593774
 21
6.060243980436085
 72
     1
 10
3.900483776593774
 20
6.060243980436085
 11
3.768784909700192
 21
6.069964022114264
 97
        0
 75
     2
 76
     1
 98
        0
  0
MTEXT
  5
1E8
330
1D2
100
AcDbEntity
  8
Callout
 62
   250
420
  2301728
100
AcDbMText
 10
3.500011024693473
 20
5.474801229723703
 30
0.0
 40
0.1946283761764938
 41
0.0
 46
0.0
 71
     7
 72
     1
  1
\fHelvetica Neue LT Std 67 Medium Condensed|b0|i0|c0|p34;\W1.20466;F\H0.152922;2
 11
0.8287976470748991
 21
0.5595484431245529
 31
0.0
 73
     1
 44
1.0
  0
ENDBLK
  5
1D5
330
1D2
100
AcDbEntity
  8
0
100
AcDbBlockEnd
  0
ENDSEC
  0
SECTION
  2
ENTITIES
  0
POLYLINE
  5
41
330
1F
100
AcDbEntity
  8
Wood
370
     0
100
AcDb2dPolyline
 66
     1
 10
0.0
 20
0.0
 30
0.0
  0
VERTEX
  5
42
330
41
100
AcDbEntity
  8
Wood
370
     0
100
AcDbVertex
100
AcDb2dVertex
 10
4.646477202765683
 20
6.568011788568583
 30
0.0
  0
VERTEX
  5
43
330
41
100
AcDbEntity
  8
Wood
370
     0
100
AcDbVertex
100
AcDb2dVertex
 10
4.984553238403375
 20
6.988971834339458
 30
0.0
  0
VERTEX
  5
44
330
41
100
AcDbEntity
  8
Wood
370
     0
100
AcDbVertex
100
AcDb2dVertex
 10
4.833877656269957
 20
7.405086391807799
 30
0.0
  0
VERTEX
  5
45
330
41
100
AcDbEntity
  8
Wood
370
     0
100
AcDbVertex
100
AcDb2dVertex
 10
4.881751312263658
 20
7.528693391699372
 30
0.0
  0
VERTEX
  5
46
330
41
100
AcDbEntity
  8
Wood
370
     0
100
AcDbVertex
100
AcDb2dVertex
 10
4.738255389141967
 20
7.567249891489104
 30
0.0
  0
VERTEX
  5
47
330
41
100
AcDbEntity
  8
Wood
370
     0
100
AcDbVertex
100
AcDb2dVertex
 10
4.759388082383667
 20
7.610792132491193
 30
0.0
  0
VERTEX
  5
48
330
41
100
AcDbEntity
  8
Wood
370
     0
100
AcDbVertex
100
AcDb2dVertex
 10
4.616175713841585
 20
8.006306875612683
 30
0.0
  0
VERTEX
  5
49
330
41
100
AcDbEntity
  8
Wood
370
     0
100
AcDbVertex
100
AcDb2dVertex
 10
4.25862972066515
 20
8.050923407727673
 30
0.0
  0
VERTEX
  5
4A
330
41
100
AcDbEntity
  8
Wood
370
     0
100
AcDbVertex
100
AcDb2dVertex
 10
3.119643467587846
 20
6.875592039350989
 30
0.0
  0
VERTEX
  5
4B
330
41
100
AcDbEntity
  8
Wood
370
     0
100
AcDbVertex
100
AcDb2dVertex
 10
2.826784996534659
 20
6.934591355710899
 30
0.0
  0
VERTEX
  5
4C
330
41
100
AcDbEntity
  8
Wood
370
     0
100
AcDbVertex
100
AcDb2dVertex
 10
2.641804220299441
 20
6.855804848170465
 30
0.0
  0
VERTEX
  5
4D
330
41
100
AcDbEntity
  8
Wood
370
     0
100
AcDbVertex
100
AcDb2dVertex
 10
2.638638791264674
 20
6.807185554311332
 30
0.0
  0
VERTEX
  5
4E
330
41
100
AcDbEntity
  8
Wood
370
     0
100
AcDbVertex
100
AcDb2dVertex
 10
2.337604862832727
 20
6.795652619511543
 30
0.0
  0
VERTEX
  5
4F
330
41
100
AcDbEntity
  8
Wood
370
     0
100
AcDbVertex
100
AcDb2dVertex
 10
2.337581706376694
 20
6.726234059532581
 30
0.0
  0
VERTEX
  5
50
330
41
100
AcDbEntity
  8
Wood
370
     0
100
AcDbVertex
100
AcDb2dVertex
 10
2.120004757988088
 20
6.633557427278951
 30
0.0
  0
VERTEX
  5
51
330
41
100
AcDbEntity
  8
Wood
370
     0
100
AcDbVertex
100
AcDb2dVertex
 10
2.120004757988088
 20
6.392320287614425
 30
0.0
  0
VERTEX
  5
52
330
41
100
AcDbEntity
  8
Wood
370
     0
100
AcDbVertex
100
AcDb2dVertex
 10
1.958841617182164
 20
6.32097293273283
 30
0.0
  0
VERTEX
  5
53
330
41
100
AcDbEntity
  8
Wood
370
     0
100
AcDbVertex
100
AcDb2dVertex
 10
1.958841617182164
 20
5.956123294158601
 30
0.0
  0
VERTEX
  5
54
330
41
100
AcDbEntity
  8
Wood
370
     0
100
AcDbVertex
100
AcDb2dVertex
 10
2.823382092228535
 20
5.732196896505747
 30
0.0
  0
VERTEX
  5
55
330
41
100
AcDbEntity
  8
Wood
370
     0
100
AcDbVertex
100
AcDb2dVertex
 10
2.823382092228535
 20
4.872626954621333
 30
0.0
  0
VERTEX
  5
56
330
41
100
AcDbEntity
  8
Wood
370
     0
100
AcDbVertex
100
AcDb2dVertex
 10
3.193426881582594
 20
4.762712609670516
 30
0.0
  0
VERTEX
  5
57
330
41
100
AcDbEntity
  8
Wood
370
     0
100
AcDbVertex
100
AcDb2dVertex
 10
3.759759681189229
 20
5.493192172887777
 30
0.0
  0
VERTEX
  5
58
330
41
100
AcDbEntity
  8
Wood
370
     0
100
AcDbVertex
100
AcDb2dVertex
 10
5.286638462307918
 20
5.093653101069372
 30
0.0
  0
VERTEX
  5
59
330
41
100
AcDbEntity
  8
Wood
370
     0
100
AcDbVertex
100
AcDb2dVertex
 10
5.887292742850099
 20
5.557743214659303
 30
0.0
  0
VERTEX
  5
5A
330
41
100
AcDbEntity
  8
Wood
370
     0
100
AcDbVertex
100
AcDb2dVertex
 10
5.887292742850099
 20
6.318050713826247
 30
0.0
  0
VERTEX
  5
5B
330
41
100
AcDbEntity
  8
Wood
370
     0
100
AcDbVertex
100
AcDb2dVertex
 10
4.646477202765683
 20
6.568011788568583
 30
0.0
  0
SEQEND
  5
5D
330
41
100
AcDbEntity
  8
Wood
370
     0
  0
HATCH
  5
5C
330
1F
100
AcDbEntity
  8
Wood
 62
    43
420
 15510365
100
AcDbHatch
 10
0.0
 20
0.0
 30
0.0
210
0.0
220
0.0
230
1.0
  2
SOLID
 70
     1
 71
     0
 91
        1
 92
        1
 93
       25
 72
     1
 10
4.646477202765683
 20
6.568011788568583
 11
4.984553238403375
 21
6.988971834339458
 72
     1
 10
4.984553238403375
 20
6.988971834339458
 11
4.833877656269957
 21
7.405086391807799
 72
     1
 10
4.833877656269957
 20
7.405086391807799
 11
4.881751312263658
 21
7.528693391699372
 72
     1
 10
4.881751312263658
 20
7.528693391699372
 11
4.738255389141967
 21
7.567249891489104
 72
     1
 10
4.738255389141967
 20
7.567249891489104
 11
4.759388082383667
 21
7.610792132491193
 72
     1
 10
4.759388082383667
 20
7.610792132491193
 11
4.616175713841585
 21
8.006306875612683
 72
     1
 10
4.616175713841585
 20
8.006306875612683
 11
4.25862972066515
 21
8.050923407727673
 72
     1
 10
4.25862972066515
 20
8.050923407727673
 11
3.119643467587846
 21
6.875592039350989
 72
     1
 10
3.119643467587846
 20
6.875592039350989
 11
2.826784996534659
 21
6.934591355710899
 72
     1
 10
2.826784996534659
 20
6.934591355710899
 11
2.641804220299441
 21
6.855804848170465
 72
     1
 10
2.641804220299441
 20
6.855804848170465
 11
2.638638791264674
 21
6.807185554311332
 72
     1
 10
2.638638791264674
 20
6.807185554311332
 11
2.337604862832727
 21
6.795652619511543
 72
     1
 10
2.337604862832727
 20
6.795652619511543
 11
2.337581706376694
 21
6.726234059532581
 72
     1
 10
2.337581706376694
 20
6.726234059532581
 11
2.120004757988088
 21
6.633557427278951
 72
     1
 10
2.120004757988088
 20
6.633557427278951
 11
2.120004757988088
 21
6.392320287614425
 72
     1
 10
2.120004757988088
 20
6.392320287614425
 11
1.958841617182164
 21
6.32097293273283
 72
     1
 10
1.958841617182164
 20
6.32097293273283
 11
1.958841617182164
 21
5.956123294158601
 72
     1
 10
1.958841617182164
 20
5.956123294158601
 11
2.823382092228535
 21
5.732196896505747
 72
     1
 10
2.823382092228535
 20
5.732196896505747
 11
2.823382092228535
 21
4.872626954621333
 72
     1
 10
2.823382092228535
 20
4.872626954621333
 11
3.193426881582594
 21
4.762712609670516
 72
     1
 10
3.193426881582594
 20
4.762712609670516
 11
3.759759681189229
 21
5.493192172887777
 72
     1
 10
3.759759681189229
 20
5.493192172887777
 11
5.286638462307918
 21
5.093653101069372
 72
     1
 10
5.286638462307918
 20
5.093653101069372
 11
5.887292742850099
 21
5.557743214659303
 72
     1
 10
5.887292742850099
 20
5.557743214659303
 11
5.887292742850099
 21
6.318050713826247
 72
     1
 10
5.887292742850099
 20
6.318050713826247
 11
4.646477202765683
 21
6.568011788568583
 97
        0
 75
     2
 76
     1
 98
        0
  0
POLYLINE
  5
5E
330
1F
100
AcDbEntity
  8
Wood
 62
   250
420
  2301728
370
    30
100
AcDb2dPolyline
 66
     1
 10
0.0
 20
0.0
 30
0.0
  0
VERTEX
  5
5F
330
5E
100
AcDbEntity
  8
Wood
 62
   250
420
  2301728
370
    30
100
AcDbVertex
100
AcDb2dVertex
 10
2.120004757988088
 20
6.281466861915355
 30
0.0
  0
VERTEX
  5
60
330
5E
100
AcDbEntity
  8
Wood
 62
   250
420
  2301728
370
    30
100
AcDbVertex
100
AcDb2dVertex
 10
2.120004757988088
 20
6.511036618407148
 30
0.0
  0
SEQEND
  5
61
330
5E
100
AcDbEntity
  8
Wood
 62
   250
420
  2301728
370
    30
  0
POLYLINE
  5
62
330
1F
100
AcDbEntity
  8
Wood
 62
   250
420
  2301728
370
    30
100
AcDb2dPolyline
 66
     1
 10
0.0
 20
0.0
 30
0.0
  0
VERTEX
  5
63
330
62
100
AcDbEntity
  8
Wood
 62
   250
420
  2301728
370
    30
100
AcDbVertex
100
AcDb2dVertex
 10
2.326026634816117
 20
6.720394137403546
 30
0.0
  0
VERTEX
  5
64
330
62
100
AcDbEntity
  8
Wood
 62
   250
420
  2301728
370
    30
100
AcDbVertex
100
AcDb2dVertex
 10
2.39836740346392
 20
6.752285071911855
 30
0.0
  0
SEQEND
  5
65
330
62
100
AcDbEntity
  8
Wood
 62
   250
420
  2301728
370
    30
  0
POLYLINE
  5
66
330
1F
100
AcDbEntity
  8
Wood
 62
   250
420
  2301728
370
    30
100
AcDb2dPolyline
 66
     1
 10
0.0
 20
0.0
 30
0.0
  0
VERTEX
  5
67
330
66
100
AcDbEntity
  8
Wood
 62
   250
420
  2301728
370
    30
100
AcDbVertex
100
AcDb2dVertex
 10
2.595220436202365
 20
6.807230847528153
 30
0.0
  0
VERTEX
  5
68
330
66
100
AcDbEntity
  8
Wood
 62
   250
420
  2301728
370
    30
100
AcDbVertex
100
AcDb2dVertex
 10
2.696529931347742
 20
6.810080111242364
 30
0.0
  0
SEQEND
  5
69
330
66
100
AcDbEntity
  8
Wood
 62
   250
420
  2301728
370
    30
  0
POLYLINE
  5
6A
330
1F
100
AcDbEntity
  8
Wood
 62
   250
420
  2301728
370
    20
100
AcDb2dPolyline
 66
     1
 10
0.0
 20
0.0
 30
0.0
  0
VERTEX
  5
6B
330
6A
100
AcDbEntity
  8
Wood
 62
   250
420
  2301728
370
    20
100
AcDbVertex
100
AcDb2dVertex
 10
2.343393976841033
 20
6.792758062507383
 30
0.0
  0
VERTEX
  5
6C
330
6A
100
AcDbEntity
  8
Wood
 62
   250
420
  2301728
370
    20
100
AcDbVertex
100
AcDb2dVertex
 10
2.39836740346392
 20
6.752285071911855
 30
0.0
  0
SEQEND
  5
6D
330
6A
100
AcDbEntity
  8
Wood
 62
   250
420
  2301728
370
    20
  0
POLYLINE
  5
6E
330
1F
100
AcDbEntity
  8
Wood
 62
   250
420
  2301728
370
    20
100
AcDb2dPolyline
 66
     1
 10
0.0
 20
0.0
 30
0.0
  0
VERTEX
  5
6F
330
6E
100
AcDbEntity
  8
Wood
 62
   250
420
  2301728
370
    20
100
AcDbVertex
100
AcDb2dVertex
 10
2.641533348268834
 20
6.856438316598769
 30
0.0
  0
VERTEX
  5
70
330
6E
100
AcDbEntity
  8
Wood
 62
   250
420
  2301728
370
    20
100
AcDbVertex
100
AcDb2dVertex
 10
2.696529931347742
 20
6.810080111242364
 30
0.0
  0
SEQEND
  5
71
330
6E
100
AcDbEntity
  8
Wood
 62
   250
420
  2301728
370
    20
  0
POLYLINE
  5
72
330
1F
100
AcDbEntity
  8
Wood
 62
   250
420
  2301728
370
    30
100
AcDb2dPolyline
 66
     1
 10
0.0
 20
0.0
 30
0.0
  0
VERTEX
  5
73
330
72
100
AcDbEntity
  8
Wood
 62
   250
420
  2301728
370
    30
100
AcDbVertex
100
AcDb2dVertex
 10
4.646477202765683
 20
6.568011788568583
 30
0.0
  0
VERTEX
  5
74
330
72
100
AcDbEntity
  8
Wood
 62
   250
420
  2301728
370
    30
100
AcDbVertex
100
AcDb2dVertex
 10
4.984553238403375
 20
6.988971834339458
 30
0.0
  0
VERTEX
  5
75
330
72
100
AcDbEntity
  8
Wood
 62
   250
420
  2301728
370
    30
100
AcDbVertex
100
AcDb2dVertex
 10
4.833877656269957
 20
7.405086391807799
 30
0.0
  0
VERTEX
  5
76
330
72
100
AcDbEntity
  8
Wood
 62
   250
420
  2301728
370
    30
100
AcDbVertex
100
AcDb2dVertex
 10
4.881751312263658
 20
7.528693391699372
 30
0.0
  0
VERTEX
  5
77
330
72
100
AcDbEntity
  8
Wood
 62
   250
420
  2301728
370
    30
100
AcDbVertex
100
AcDb2dVertex
 10
4.738255389141967
 20
7.567249891489104
 30
0.0
  0
VERTEX
  5
78
330
72
100
AcDbEntity
  8
Wood
 62
   250
420
  2301728
370
    30
100
AcDbVertex
100
AcDb2dVertex
 10
4.759388082383667
 20
7.610792132491193
 30
0.0
  0
VERTEX
  5
79
330
72
100
AcDbEntity
  8
Wood
 62
   250
420
  2301728
370
    30
100
AcDbVertex
100
AcDb2dVertex
 10
4.616175713841585
 20
8.006306875612683
 30
0.0
  0
VERTEX
  5
7A
330
72
100
AcDbEntity
  8
Wood
 62
   250
420
  2301728
370
    30
100
AcDbVertex
100
AcDb2dVertex
 10
4.25862972066515
 20
8.050923407727673
 30
0.0
  0
VERTEX
  5
7B
330
72
100
AcDbEntity
  8
Wood
 62
   250
420
  2301728
370
    30
100
AcDbVertex
100
AcDb2dVertex
 10
3.119643467587846
 20
6.875592039350989
 30
0.0
  0
VERTEX
  5
7C
330
72
100
AcDbEntity
  8
Wood
 62
   250
420
  2301728
370
    30
100
AcDbVertex
100
AcDb2dVertex
 10
2.826784996534659
 20
6.934591355710899
 30
0.0
  0
VERTEX
  5
7D
330
72
100
AcDbEntity
  8
Wood
 62
   250
420
  2301728
370
    30
100
AcDbVertex
100
AcDb2dVertex
 10
2.641804220299441
 20
6.855804848170465
 30
0.0
  0
VERTEX
  5
7E
330
72
100
AcDbEntity
  8
Wood
 62
   250
420
  2301728
370
    30
100
AcDbVertex
100
AcDb2dVertex
 10
2.638638791264674
 20
6.807185554311332
 30
0.0
  0
VERTEX
  5
7F
330
72
100
AcDbEntity
  8
Wood
 62
   250
420
  2301728
370
    30
100
AcDbVertex
100
AcDb2dVertex
 10
2.337604862832727
 20
6.795652619511543
 30
0.0
  0
VERTEX
  5
80
330
72
100
AcDbEntity
  8
Wood
 62
   250
420
  2301728
370
    30
100
AcDbVertex
100
AcDb2dVertex
 10
2.337581706376694
 20
6.726234059532581
 30
0.0
  0
VERTEX
  5
81
330
72
100
AcDbEntity
  8
Wood
 62
   250
420
  2301728
370
    30
100
AcDbVertex
100
AcDb2dVertex
 10
2.120004757988088
 20
6.633557427278951
 30
0.0
  0
VERTEX
  5
82
330
72
100
AcDbEntity
  8
Wood
 62
   250
420
  2301728
370
    30
100
AcDbVertex
100
AcDb2dVertex
 10
2.120004757988088
 20
6.392320287614425
 30
0.0
  0
VERTEX
  5
83
330
72
100
AcDbEntity
  8
Wood
 62
   250
420
  2301728
370
    30
100
AcDbVertex
100
AcDb2dVertex
 10
1.958841617182164
 20
6.32097293273283
 30
0.0
  0
VERTEX
  5
84
330
72
100
AcDbEntity
  8
Wood
 62
   250
420
  2301728
370
    30
100
AcDbVertex
100
AcDb2dVertex
 10
1.958841617182164
 20
5.956123294158601
 30
0.0
  0
VERTEX
  5
85
330
72
100
AcDbEntity
  8
Wood
 62
   250
420
  2301728
370
    30
100
AcDbVertex
100
AcDb2dVertex
 10
2.823382092228535
 20
5.732196896505747
 30
0.0
  0
VERTEX
  5
86
330
72
100
AcDbEntity
  8
Wood
 62
   250
420
  2301728
370
    30
100
AcDbVertex
100
AcDb2dVertex
 10
2.823382092228535
 20
4.872626954621333
 30
0.0
  0
VERTEX
  5
87
330
72
100
AcDbEntity
  8
Wood
 62
   250
420
  2301728
370
    30
100
AcDbVertex
100
AcDb2dVertex
 10
3.193426881582594
 20
4.762712609670516
 30
0.0
  0
VERTEX
  5
88
330
72
100
AcDbEntity
  8
Wood
 62
   250
420
  2301728
370
    30
100
AcDbVertex
100
AcDb2dVertex
 10
3.759759681189229
 20
5.493192172887777
 30
0.0
  0
VERTEX
  5
89
330
72
100
AcDbEntity
  8
Wood
 62
   250
420
  2301728
370
    30
100
AcDbVertex
100
AcDb2dVertex
 10
5.286638462307918
 20
5.093653101069372
 30
0.0
  0
VERTEX
  5
8A
330
72
100
AcDbEntity
  8
Wood
 62
   250
420
  2301728
370
    30
100
AcDbVertex
100
AcDb2dVertex
 10
5.887292742850099
 20
5.557743214659303
 30
0.0
  0
VERTEX
  5
8B
330
72
100
AcDbEntity
  8
Wood
 62
   250
420
  2301728
370
    30
100
AcDbVertex
100
AcDb2dVertex
 10
5.887292742850099
 20
6.318050713826247
 30
0.0
  0
VERTEX
  5
8C
330
72
100
AcDbEntity
  8
Wood
 62
   250
420
  2301728
370
    30
100
AcDbVertex
100
AcDb2dVertex
 10
4.646477202765683
 20
6.568011788568583
 30
0.0
  0
SEQEND
  5
8D
330
72
100
AcDbEntity
  8
Wood
 62
   250
420
  2301728
370
    30
  0
POLYLINE
  5
8E
330
1F
100
AcDbEntity
  8
Wood
 62
   250
420
  2301728
370
    30
100
AcDb2dPolyline
 66
     1
 10
0.0
 20
0.0
 30
0.0
  0
VERTEX
  5
8F
330
8E
100
AcDbEntity
  8
Wood
 62
   250
420
  2301728
370
    30
100
AcDbVertex
100
AcDb2dVertex
 10
4.712555197062733
 20
7.515842560393972
 30
0.0
  0
VERTEX
  5
90
330
8E
100
AcDbEntity
  8
Wood
 62
   250
420
  2301728
370
    30
100
AcDbVertex
100
AcDb2dVertex
 10
4.740110332736044
 20
7.567956163380257
 30
0.0
  0
SEQEND
  5
91
330
8E
100
AcDbEntity
  8
Wood
 62
   250
420
  2301728
370
    30
  0
POLYLINE
  5
92
330
1F
100
AcDbEntity
  8
Wood
 62
   250
420
  2301728
370
    30
100
AcDb2dPolyline
 66
     1
 10
0.0
 20
0.0
 30
0.0
  0
VERTEX
  5
93
330
92
100
AcDbEntity
  8
Wood
 62
   250
420
  2301728
370
    30
100
AcDbVertex
100
AcDb2dVertex
 10
3.759759681189229
 20
5.493192172887777
 30
0.0
  0
VERTEX
  5
94
330
92
100
AcDbEntity
  8
Wood
 62
   250
420
  2301728
370
    30
100
AcDbVertex
100
AcDb2dVertex
 10
4.021399840007878
 20
5.819101915980241
 30
0.0
  0
SEQEND
  5
95
330
92
100
AcDbEntity
  8
Wood
 62
   250
420
  2301728
370
    30
  0
POLYLINE
  5
96
330
1F
100
AcDbEntity
  8
Wood
 62
   250
420
  2301728
370
    30
100
AcDb2dPolyline
 66
     1
 10
0.0
 20
0.0
 30
0.0
  0
VERTEX
  5
97
330
96
100
AcDbEntity
  8
Wood
 62
   250
420
  2301728
370
    30
100
AcDbVertex
100
AcDb2dVertex
 10
3.147996231638684
 20
6.907404377845788
 30
0.0
  0
VERTEX
  5
98
330
96
100
AcDbEntity
  8
Wood
 62
   250
420
  2301728
370
    30
100
AcDbVertex
100
AcDb2dVertex
 10
2.823382092228535
 20
6.55847943368331
 30
0.0
  0
SEQEND
  5
99
330
96
100
AcDbEntity
  8
Wood
 62
   250
420
  2301728
370
    30
  0
POLYLINE
  5
9A
330
1F
100
AcDbEntity
  8
Wood
 62
   250
420
  2301728
370
    30
100
AcDb2dPolyline
 66
     1
 10
0.0
 20
0.0
 30
0.0
  0
VERTEX
  5
9B
330
9A
100
AcDbEntity
  8
Wood
 62
   250
420
  2301728
370
    30
100
AcDbVertex
100
AcDb2dVertex
 10
2.823382092228535
 20
6.55847943368331
 30
0.0
  0
VERTEX
  5
9C
330
9A
100
AcDbEntity
  8
Wood
 62
   250
420
  2301728
370
    30
100
AcDbVertex
100
AcDb2dVertex
 10
2.823382092228535
 20
5.698909491798897
 30
0.0
  0
SEQEND
  5
9D
330
9A
100
AcDbEntity
  8
Wood
 62
   250
420
  2301728
370
    30
  0
POLYLINE
  5
9E
330
1F
100
AcDbEntity
  8
Wood
 62
   250
420
  2301728
370
    20
100
AcDb2dPolyline
 66
     1
 10
0.0
 20
0.0
 30
0.0
  0
VERTEX
  5
9F
330
9E
100
AcDbEntity
  8
Wood
 62
   250
420
  2301728
370
    20
100
AcDbVertex
100
AcDb2dVertex
 10
4.343046581134305
 20
6.128378377124236
 30
0.0
  0
VERTEX
  5
A0
330
9E
100
AcDbEntity
  8
Wood
 62
   250
420
  2301728
370
    20
100
AcDbVertex
100
AcDb2dVertex
 10
5.285202762070134
 20
5.914277263518088
 30
0.0
  0
VERTEX
  5
A1
330
9E
100
AcDbEntity
  8
Wood
 62
   250
420
  2301728
370
    20
100
AcDbVertex
100
AcDb2dVertex
 10
5.285202762070134
 20
5.100030294059732
 30
0.0
  0
SEQEND
  5
A2
330
9E
100
AcDbEntity
  8
Wood
 62
   250
420
  2301728
370
    20
  0
POLYLINE
  5
A3
330
1F
100
AcDbEntity
  8
Wood
 62
   250
420
  2301728
370
    20
100
AcDb2dPolyline
 66
     1
 10
0.0
 20
0.0
 30
0.0
  0
VERTEX
  5
A4
330
A3
100
AcDbEntity
  8
Wood
 62
   250
420
  2301728
370
    20
100
AcDbVertex
100
AcDb2dVertex
 10
2.120004757988088
 20
6.633557427278951
 30
0.0
  0
VERTEX
  5
A5
330
A3
100
AcDbEntity
  8
Wood
 62
   250
420
  2301728
370
    20
100
AcDbVertex
100
AcDb2dVertex
 10
2.822160589203652
 20
6.474000052917012
 30
0.0
  0
SEQEND
  5
A6
330
A3
100
AcDbEntity
  8
Wood
 62
   250
420
  2301728
370
    20
  0
POLYLINE
  5
A7
330
1F
100
AcDbEntity
  8
Wood
 62
   250
420
  2301728
370
    20
100
AcDb2dPolyline
 66
     1
 10
0.0
 20
0.0
 30
0.0
  0
VERTEX
  5
A8
330
A7
100
AcDbEntity
  8
Wood
 62
   250
420
  2301728
370
    20
100
AcDbVertex
100
AcDb2dVertex
 10
5.285202762070134
 20
5.914277263518088
 30
0.0
  0
VERTEX
  5
A9
330
A7
100
AcDbEntity
  8
Wood
 62
   250
420
  2301728
370
    20
100
AcDbVertex
100
AcDb2dVertex
 10
5.887292742850099
 20
6.318050713826247
 30
0.0
  0
SEQEND
  5
AA
330
A7
100
AcDbEntity
  8
Wood
 62
   250
420
  2301728
370
    20
  0
POLYLINE
  5
AB
330
1F
100
AcDbEntity
  8
Wood
 62
   250
420
  2301728
370
    20
100
AcDb2dPolyline
 66
     1
 10
0.0
 20
0.0
 30
0.0
  0
VERTEX
  5
AC
330
AB
100
AcDbEntity
  8
Wood
 62
   250
420
  2301728
370
    20
100
AcDbVertex
100
AcDb2dVertex
 10
2.819520753282543
 20
6.110518960859773
 30
0.0
  0
VERTEX
  5
AD
330
AB
100
AcDbEntity
  8
Wood
 62
   250
420
  2301728
370
    20
100
AcDbVertex
100
AcDb2dVertex
 10
1.96022174192688
 20
6.317360525682918
 30
0.0
  0
SEQEND
  5
AE
330
AB
100
AcDbEntity
  8
Wood
 62
   250
420
  2301728
370
    20
  0
POLYLINE
  5
AF
330
1F
100
AcDbEntity
  8
Wood
 62
   250
420
  2301728
370
    20
100
AcDb2dPolyline
 66
     1
 10
0.0
 20
0.0
 30
0.0
  0
VERTEX
  5
B0
330
AF
100
AcDbEntity
  8
Wood
 62
   250
420
  2301728
370
    20
100
AcDbVertex
100
AcDb2dVertex
 10
4.091435381688332
 20
5.804357042973568
 30
0.0
  0
VERTEX
  5
B1
330
AF
100
AcDbEntity
  8
Wood
 62
   250
420
  2301728
370
    20
100
AcDbVertex
100
AcDb2dVertex
 10
4.017781643844097
 20
5.82208678308752
 30
0.0
  0
SEQEND
  5
B2
330
AF
100
AcDbEntity
  8
Wood
 62
   250
420
  2301728
370
    20
  0
POLYLINE
  5
B3
330
1F
100
AcDbEntity
  8
Wood
 62
   250
420
  2301728
370
    20
100
AcDb2dPolyline
 66
     1
 10
0.0
 20
0.0
 30
0.0
  0
VERTEX
  5
B4
330
B3
100
AcDbEntity
  8
Wood
 62
   250
420
  2301728
370
    20
100
AcDbVertex
100
AcDb2dVertex
 10
5.887292742850099
 20
5.944138670641349
 30
0.0
  0
VERTEX
  5
B5
330
B3
100
AcDbEntity
  8
Wood
 62
   250
420
  2301728
370
    20
100
AcDbVertex
100
AcDb2dVertex
 10
5.285202762070134
 20
5.517027112480642
 30
0.0
  0
VERTEX
  5
B6
330
B3
100
AcDbEntity
  8
Wood
 62
   250
420
  2301728
370
    20
100
AcDbVertex
100
AcDb2dVertex
 10
4.453424040191925
 20
5.717237826286186
 30
0.0
  0
SEQEND
  5
B7
330
B3
100
AcDbEntity
  8
Wood
 62
   250
420
  2301728
370
    20
  0
POLYLINE
  5
B8
330
1F
100
AcDbEntity
  8
Wood
 62
   250
420
  2301728
370
    20
100
AcDb2dPolyline
 66
     1
 10
0.0
 20
0.0
 30
0.0
  0
VERTEX
  5
B9
330
B8
100
AcDbEntity
  8
Wood
 62
   250
420
  2301728
370
    20
100
AcDbVertex
100
AcDb2dVertex
 10
4.617825611292296
 20
8.011756578982512
 30
0.0
  0
VERTEX
  5
BA
330
B8
100
AcDbEntity
  8
Wood
 62
   250
420
  2301728
370
    20
100
AcDbVertex
100
AcDb2dVertex
 10
3.191697094360607
 20
6.47042701184134
 30
0.0
  0
VERTEX
  5
BB
330
B8
100
AcDbEntity
  8
Wood
 62
   250
420
  2301728
370
    20
100
AcDbVertex
100
AcDb2dVertex
 10
3.191697094360607
 20
4.762249480549851
 30
0.0
  0
SEQEND
  5
BC
330
B8
100
AcDbEntity
  8
Wood
 62
   250
420
  2301728
370
    20
  0
POLYLINE
  5
BD
330
1F
100
AcDbEntity
  8
Wood
 62
   250
420
  2301728
370
    20
100
AcDb2dPolyline
 66
     1
 10
0.0
 20
0.0
 30
0.0
  0
VERTEX
  5
BE
330
BD
100
AcDbEntity
  8
Wood
 62
   250
420
  2301728
370
    20
100
AcDbVertex
100
AcDb2dVertex
 10
2.822256688493755
 20
6.557818316880255
 30
0.0
  0
VERTEX
  5
BF
330
BD
100
AcDbEntity
  8
Wood
 62
   250
420
  2301728
370
    20
100
AcDbVertex
100
AcDb2dVertex
 10
3.191697094360607
 20
6.47042701184134
 30
0.0
  0
SEQEND
  5
C0
330
BD
100
AcDbEntity
  8
Wood
 62
   250
420
  2301728
370
    20
  0
POLYLINE
  5
C1
330
1F
100
AcDbEntity
  8
Wood
 62
   250
420
  2301728
370
    20
100
AcDb2dPolyline
 66
     1
 10
0.0
 20
0.0
 30
0.0
  0
VERTEX
  5
C2
330
C1
100
AcDbEntity
  8
Wood
 62
   250
420
  2301728
370
    20
100
AcDbVertex
100
AcDb2dVertex
 10
4.021942858888135
 20
6.200550101819797
 30
0.0
  0
VERTEX
  5
C3
330
C1
100
AcDbEntity
  8
Wood
 62
   250
420
  2301728
370
    20
100
AcDbVertex
100
AcDb2dVertex
 10
4.021942858888135
 20
5.806279028775773
 30
0.0
  0
SEQEND
  5
C4
330
C1
100
AcDbEntity
  8
Wood
 62
   250
420
  2301728
370
    20
  0
POLYLINE
  5
C5
330
1F
100
AcDbEntity
  8
Wood
 62
   250
420
  2301728
370
    20
100
AcDb2dPolyline
 66
     1
 10
0.0
 20
0.0
 30
0.0
  0
VERTEX
  5
C6
330
C5
100
AcDbEntity
  8
Wood
 62
   250
420
  2301728
370
    20
100
AcDbVertex
100
AcDb2dVertex
 10
4.232307678407728
 20
6.334621347574031
 30
0.0
  0
VERTEX
  5
C7
330
C5
100
AcDbEntity
  8
Wood
 62
   250
420
  2301728
370
    20
100
AcDbVertex
100
AcDb2dVertex
 10
4.646477202765683
 20
6.568011788568583
 30
0.0
  0
SEQEND
  5
C8
330
C5
100
AcDbEntity
  8
Wood
 62
   250
420
  2301728
370
    20
  0
POLYLINE
  5
C9
330
1F
100
AcDbEntity
  8
Wood
 62
   250
420
  2301728
370
    20
100
AcDb2dPolyline
 66
     1
 10
0.0
 20
0.0
 30
0.0
  0
VERTEX
  5
CA
330
C9
100
AcDbEntity
  8
Wood
 62
   250
420
  2301728
370
    20
100
AcDbVertex
100
AcDb2dVertex
 10
4.712555197062733
 20
7.515842560393972
 30
0.0
  0
VERTEX
  5
CB
330
C9
100
AcDbEntity
  8
Wood
 62
   250
420
  2301728
370
    20
100
AcDbVertex
100
AcDb2dVertex
 10
4.875328869345114
 20
7.524413922378143
 30
0.0
  0
SEQEND
  5
CC
330
C9
100
AcDbEntity
  8
Wood
 62
   250
420
  2301728
370
    20
  0
POLYLINE
  5
CD
330
1F
100
AcDbEntity
  8
Wood
 62
   250
420
  2301728
370
    15
100
AcDb2dPolyline
 66
     1
 10
0.0
 20
0.0
 30
0.0
  0
VERTEX
  5
CE
330
CD
100
AcDbEntity
  8
Wood
 62
   250
420
  2301728
370
    15
100
AcDbVertex
100
AcDb2dVertex
 10
5.284263893060825
 20
5.869394378182467
 30
0.0
  0
VERTEX
  5
CF
330
CD
100
AcDbEntity
  8
Wood
 62
   250
420
  2301728
370
    15
100
AcDbVertex
100
AcDb2dVertex
 10
5.518723010397252
 20
6.06911881146905
 30
0.0
  0
SEQEND
  5
D0
330
CD
100
AcDbEntity
  8
Wood
 62
   250
420
  2301728
370
    15
  0
POLYLINE
  5
D1
330
1F
100
AcDbEntity
  8
Wood
 62
   250
420
  2301728
370
    15
100
AcDb2dPolyline
 66
     1
 10
0.0
 20
0.0
 30
0.0
  0
VERTEX
  5
D2
330
D1
100
AcDbEntity
  8
Wood
 62
   250
420
  2301728
370
    15
100
AcDbVertex
100
AcDb2dVertex
 10
5.284263893060825
 20
5.802819567086948
 30
0.0
  0
VERTEX
  5
D3
330
D1
100
AcDbEntity
  8
Wood
 62
   250
420
  2301728
370
    15
100
AcDbVertex
100
AcDb2dVertex
 10
5.544774023434607
 20
6.005438557377677
 30
0.0
  0
VERTEX
  5
D4
330
D1
100
AcDbEntity
  8
Wood
 62
   250
420
  2301728
370
    15
100
AcDbVertex
100
AcDb2dVertex
 10
5.611348834530165
 20
6.063329697460745
 30
0.0
  0
VERTEX
  5
D5
330
D1
100
AcDbEntity
  8
Wood
 62
   250
420
  2301728
370
    15
100
AcDbVertex
100
AcDb2dVertex
 10
5.883437192920559
 20
6.245686788722398
 30
0.0
  0
SEQEND
  5
D6
330
D1
100
AcDbEntity
  8
Wood
 62
   250
420
  2301728
370
    15
  0
POLYLINE
  5
D7
330
1F
100
AcDbEntity
  8
Wood
 62
   250
420
  2301728
370
    15
100
AcDb2dPolyline
 66
     1
 10
0.0
 20
0.0
 30
0.0
  0
VERTEX
  5
D8
330
D7
100
AcDbEntity
  8
Wood
 62
   250
420
  2301728
370
    15
100
AcDbVertex
100
AcDb2dVertex
 10
5.695290987650575
 20
6.187795648639344
 30
0.0
  0
VERTEX
  5
D9
330
D7
100
AcDbEntity
  8
Wood
 62
   250
420
  2301728
370
    15
100
AcDbVertex
100
AcDb2dVertex
 10
5.883437192920559
 20
6.286210586780548
 30
0.0
  0
SEQEND
  5
DA
330
D7
100
AcDbEntity
  8
Wood
 62
   250
420
  2301728
370
    15
  0
SPLINE
  5
DB
330
1F
100
AcDbEntity
  8
Wood
 62
   250
420
  2301728
370
    15
100
AcDbSpline
210
0.0
220
0.0
230
1.0
 70
     8
 71
     3
 72
    14
 73
    10
 74
     0
 42
0.0000000001
 43
0.0000000001
 12
1.0
 22
0.0
 32
0.0
 13
1.0
 23
0.0
 33
0.0
 40
0.0
 40
0.0
 40
0.0
 40
0.0
 40
1.0
 40
1.0
 40
1.0
 40
2.0
 40
2.0
 40
2.0
 40
3.0
 40
3.0
 40
3.0
 40
3.0
 10
5.284263893060825
 20
5.747822984008027
 30
0.0
 10
5.292947564073302
 20
5.750717541012187
 30
0.0
 10
5.579508707484465
 20
5.944652860290463
 30
0.0
 10
5.579508707484465
 20
5.944652860290463
 30
0.0
 10
5.579508707484465
 20
5.944652860290463
 30
0.0
 10
5.65187263258829
 20
6.031489570415058
 30
0.0
 10
5.65187263258829
 20
6.031489570415058
 30
0.0
 10
5.65187263258829
 20
6.031489570415058
 30
0.0
 10
5.883437192920559
 20
6.173322863618574
 30
0.0
 10
5.883437192920559
 20
6.173322863618574
 30
0.0
  0
SPLINE
  5
DC
330
1F
100
AcDbEntity
  8
Wood
 62
   250
420
  2301728
370
    15
100
AcDbSpline
210
0.0
220
0.0
230
1.0
 70
     8
 71
     3
 72
    14
 73
    10
 74
     0
 42
0.0000000001
 43
0.0000000001
 12
1.0
 22
0.0
 32
0.0
 13
1.0
 23
0.0
 33
0.0
 40
0.0
 40
0.0
 40
0.0
 40
0.0
 40
1.0
 40
1.0
 40
1.0
 40
2.0
 40
2.0
 40
2.0
 40
3.0
 40
3.0
 40
3.0
 40
3.0
 10
5.284263893060825
 20
5.698615514937424
 30
0.0
 10
5.284263893060825
 20
5.698615514937424
 30
0.0
 10
5.675029088621512
 20
5.956231088307074
 30
0.0
 10
5.683712759633989
 20
5.959125645311221
 30
0.0
 10
5.692396430646441
 20
5.96202020231538
 30
0.0
 10
5.782127697775195
 20
5.999649443369385
 30
0.0
 10
5.782127697775195
 20
5.999649443369385
 30
0.0
 10
5.782127697775195
 20
5.999649443369385
 30
0.0
 10
5.886331749924718
 20
6.089380710498138
 30
0.0
 10
5.886331749924718
 20
6.089380710498138
 30
0.0
  0
SPLINE
  5
DD
330
1F
100
AcDbEntity
  8
Wood
 62
   250
420
  2301728
370
    15
100
AcDbSpline
210
0.0
220
0.0
230
1.0
 70
     8
 71
     3
 72
    14
 73
    10
 74
     0
 42
0.0000000001
 43
0.0000000001
 12
1.0
 22
0.0
 32
0.0
 13
1.0
 23
0.0
 33
0.0
 40
0.0
 40
0.0
 40
0.0
 40
0.0
 40
1.0
 40
1.0
 40
1.0
 40
2.0
 40
2.0
 40
2.0
 40
3.0
 40
3.0
 40
3.0
 40
3.0
 10
5.284263893060825
 20
5.632040703841906
 30
0.0
 10
5.284263893060825
 20
5.632040703841906
 30
0.0
 10
5.599770606513529
 20
5.85492159316171
 30
0.0
 10
5.614243391534298
 20
5.857816150165856
 30
0.0
 10
5.628716176555068
 20
5.860710707170015
 30
0.0
 10
5.776338583766901
 20
5.933074632273852
 30
0.0
 10
5.776338583766901
 20
5.933074632273852
 30
0.0
 10
5.776338583766901
 20
5.933074632273852
 30
0.0
 10
5.883437192920559
 20
6.005438557377677
 30
0.0
 10
5.883437192920559
 20
6.005438557377677
 30
0.0
  0
SPLINE
  5
DE
330
1F
100
AcDbEntity
  8
Wood
 62
   250
420
  2301728
370
    15
100
AcDbSpline
210
0.0
220
0.0
230
1.0
 70
     8
 71
     3
 72
    11
 73
     7
 74
     0
 42
0.0000000001
 43
0.0000000001
 12
1.0
 22
0.0
 32
0.0
 13
1.0
 23
0.0
 33
0.0
 40
0.0
 40
0.0
 40
0.0
 40
0.0
 40
1.0
 40
1.0
 40
1.0
 40
2.0
 40
2.0
 40
2.0
 40
2.0
 10
5.284263893060825
 20
5.550993107725617
 30
0.0
 10
5.284263893060825
 20
5.550993107725617
 30
0.0
 10
5.507144782380641
 20
5.715982856962341
 30
0.0
 10
5.515828453393068
 20
5.715982856962341
 30
0.0
 10
5.524512124405545
 20
5.715982856962341
 30
0.0
 10
5.776338583766901
 20
5.866499821178321
 30
0.0
 10
5.776338583766901
 20
5.866499821178321
 30
0.0
  0
POLYLINE
  5
DF
330
1F
100
AcDbEntity
  8
Wood
 62
   250
420
  2301728
370
    15
100
AcDb2dPolyline
 66
     1
 10
0.0
 20
0.0
 30
0.0
  0
VERTEX
  5
E0
330
DF
100
AcDbEntity
  8
Wood
 62
   250
420
  2301728
370
    15
100
AcDbVertex
100
AcDb2dVertex
 10
5.287158450064958
 20
5.484418296630085
 30
0.0
  0
VERTEX
  5
E1
330
DF
100
AcDbEntity
  8
Wood
 62
   250
420
  2301728
370
    15
100
AcDbVertex
100
AcDb2dVertex
 10
5.559246808455378
 20
5.681248172912496
 30
0.0
  0
VERTEX
  5
E2
330
DF
100
AcDbEntity
  8
Wood
 62
   250
420
  2301728
370
    15
100
AcDbVertex
100
AcDb2dVertex
 10
5.677923645625671
 20
5.753612098016346
 30
0.0
  0
VERTEX
  5
E3
330
DF
100
AcDbEntity
  8
Wood
 62
   250
420
  2301728
370
    15
100
AcDbVertex
100
AcDb2dVertex
 10
5.883437192920559
 20
5.823081466116011
 30
0.0
  0
SEQEND
  5
E4
330
DF
100
AcDbEntity
  8
Wood
 62
   250
420
  2301728
370
    15
  0
POLYLINE
  5
E5
330
1F
100
AcDbEntity
  8
Wood
 62
   250
420
  2301728
370
    15
100
AcDb2dPolyline
 66
     1
 10
0.0
 20
0.0
 30
0.0
  0
VERTEX
  5
E6
330
E5
100
AcDbEntity
  8
Wood
 62
   250
420
  2301728
370
    15
100
AcDbVertex
100
AcDb2dVertex
 10
5.643188961575839
 20
5.770979440041262
 30
0.0
  0
VERTEX
  5
E7
330
E5
100
AcDbEntity
  8
Wood
 62
   250
420
  2301728
370
    15
100
AcDbVertex
100
AcDb2dVertex
 10
5.886331749924718
 20
5.886761720207409
 30
0.0
  0
SEQEND
  5
E8
330
E5
100
AcDbEntity
  8
Wood
 62
   250
420
  2301728
370
    15
  0
POLYLINE
  5
E9
330
1F
100
AcDbEntity
  8
Wood
 62
   250
420
  2301728
370
    15
100
AcDb2dPolyline
 66
     1
 10
0.0
 20
0.0
 30
0.0
  0
VERTEX
  5
EA
330
E9
100
AcDbEntity
  8
Wood
 62
   250
420
  2301728
370
    15
100
AcDbVertex
100
AcDb2dVertex
 10
5.287158450064958
 20
5.435210827559482
 30
0.0
  0
VERTEX
  5
EB
330
E9
100
AcDbEntity
  8
Wood
 62
   250
420
  2301728
370
    15
100
AcDbVertex
100
AcDb2dVertex
 10
5.457937313310039
 20
5.548098550721445
 30
0.0
  0
VERTEX
  5
EC
330
E9
100
AcDbEntity
  8
Wood
 62
   250
420
  2301728
370
    15
100
AcDbVertex
100
AcDb2dVertex
 10
5.602665163517687
 20
5.643618931858517
 30
0.0
  0
VERTEX
  5
ED
330
E9
100
AcDbEntity
  8
Wood
 62
   250
420
  2301728
370
    15
100
AcDbVertex
100
AcDb2dVertex
 10
5.646083518579998
 20
5.684142729916667
 30
0.0
  0
VERTEX
  5
EE
330
E9
100
AcDbEntity
  8
Wood
 62
   250
420
  2301728
370
    15
100
AcDbVertex
100
AcDb2dVertex
 10
5.883437192920559
 20
5.762295769028797
 30
0.0
  0
SEQEND
  5
EF
330
E9
100
AcDbEntity
  8
Wood
 62
   250
420
  2301728
370
    15
  0
SPLINE
  5
F0
330
1F
100
AcDbEntity
  8
Wood
 62
   250
420
  2301728
370
    15
100
AcDbSpline
210
0.0
220
0.0
230
1.0
 70
     8
 71
     3
 72
    17
 73
    13
 74
     0
 42
0.0000000001
 43
0.0000000001
 12
1.0
 22
0.0
 32
0.0
 13
1.0
 23
0.0
 33
0.0
 40
0.0
 40
0.0
 40
0.0
 40
0.0
 40
1.0
 40
1.0
 40
1.0
 40
2.0
 40
2.0
 40
2.0
 40
3.0
 40
3.0
 40
3.0
 40
4.0
 40
4.0
 40
4.0
 40
4.0
 10
5.287158450064958
 20
5.388897915493013
 30
0.0
 10
5.301631235085728
 20
5.394687029501331
 30
0.0
 10
5.489777440355712
 20
5.522047537684077
 30
0.0
 10
5.498461111368164
 20
5.527836651692395
 30
0.0
 10
5.507144782380641
 20
5.533625765700675
 30
0.0
 10
5.562141365459537
 20
5.588622348779595
 30
0.0
 10
5.570825036471988
 20
5.591516905783743
 30
0.0
 10
5.579508707484465
 20
5.594411462787901
 30
0.0
 10
5.828440609841638
 20
5.681248172912496
 30
0.0
 10
5.828440609841638
 20
5.681248172912496
 30
0.0
 10
5.828440609841638
 20
5.681248172912496
 30
0.0
 10
5.886331749924718
 20
5.710193742954035
 30
0.0
 10
5.886331749924718
 20
5.710193742954035
 30
0.0
  0
POLYLINE
  5
F1
330
1F
100
AcDbEntity
  8
Wood
 62
   250
420
  2301728
370
    15
100
AcDb2dPolyline
 66
     1
 10
0.0
 20
0.0
 30
0.0
  0
VERTEX
  5
F2
330
F1
100
AcDbEntity
  8
Wood
 62
   250
420
  2301728
370
    15
100
AcDbVertex
100
AcDb2dVertex
 10
5.284263893060825
 20
5.319428547393323
 30
0.0
  0
VERTEX
  5
F3
330
F1
100
AcDbEntity
  8
Wood
 62
   250
420
  2301728
370
    15
100
AcDbVertex
100
AcDb2dVertex
 10
5.472410098330808
 20
5.461261840596863
 30
0.0
  0
VERTEX
  5
F4
330
F1
100
AcDbEntity
  8
Wood
 62
   250
420
  2301728
370
    15
100
AcDbVertex
100
AcDb2dVertex
 10
5.518723010397252
 20
5.495996524646696
 30
0.0
  0
VERTEX
  5
F5
330
F1
100
AcDbEntity
  8
Wood
 62
   250
420
  2301728
370
    15
100
AcDbVertex
100
AcDb2dVertex
 10
5.802389596804257
 20
5.617567918821136
 30
0.0
  0
VERTEX
  5
F6
330
F1
100
AcDbEntity
  8
Wood
 62
   250
420
  2301728
370
    15
100
AcDbVertex
100
AcDb2dVertex
 10
5.886331749924718
 20
5.652302602870981
 30
0.0
  0
SEQEND
  5
F7
330
F1
100
AcDbEntity
  8
Wood
 62
   250
420
  2301728
370
    15
  0
SPLINE
  5
F8
330
1F
100
AcDbEntity
  8
Wood
 62
   250
420
  2301728
370
    15
100
AcDbSpline
210
0.0
220
0.0
230
1.0
 70
     8
 71
     3
 72
    17
 73
    13
 74
     0
 42
0.0000000001
 43
0.0000000001
 12
1.0
 22
0.0
 32
0.0
 13
1.0
 23
0.0
 33
0.0
 40
0.0
 40
0.0
 40
0.0
 40
0.0
 40
1.0
 40
1.0
 40
1.0
 40
2.0
 40
2.0
 40
2.0
 40
3.0
 40
3.0
 40
3.0
 40
4.0
 40
4.0
 40
4.0
 40
4.0
 10
5.284263893060825
 20
5.255748293301975
 30
0.0
 10
5.295842121077436
 20
5.261537407310268
 30
0.0
 10
5.431886300272658
 20
5.365741459459792
 30
0.0
 10
5.440569971285084
 20
5.371530573468109
 30
0.0
 10
5.449253642297561
 20
5.377319687476402
 30
0.0
 10
5.489777440355712
 20
5.423632599542846
 30
0.0
 10
5.489777440355712
 20
5.423632599542846
 30
0.0
 10
5.489777440355712
 20
5.423632599542846
 30
0.0
 10
5.744498456721203
 20
5.519152980679905
 30
0.0
 10
5.744498456721203
 20
5.519152980679905
 30
0.0
 10
5.744498456721203
 20
5.519152980679905
 30
0.0
 10
5.883437192920559
 20
5.588622348779595
 30
0.0
 10
5.883437192920559
 20
5.588622348779595
 30
0.0
  0
POLYLINE
  5
F9
330
1F
100
AcDbEntity
  8
Wood
 62
   250
420
  2301728
370
    15
100
AcDb2dPolyline
 66
     1
 10
0.0
 20
0.0
 30
0.0
  0
VERTEX
  5
FA
330
F9
100
AcDbEntity
  8
Wood
 62
   250
420
  2301728
370
    15
100
AcDbVertex
100
AcDb2dVertex
 10
5.284263893060825
 20
5.209435381235506
 30
0.0
  0
VERTEX
  5
FB
330
F9
100
AcDbEntity
  8
Wood
 62
   250
420
  2301728
370
    15
100
AcDbVertex
100
AcDb2dVertex
 10
5.402940730231117
 20
5.293377534355941
 30
0.0
  0
VERTEX
  5
FC
330
F9
100
AcDbEntity
  8
Wood
 62
   250
420
  2301728
370
    15
100
AcDbVertex
100
AcDb2dVertex
 10
5.449253642297561
 20
5.348374117434862
 30
0.0
  0
VERTEX
  5
FD
330
F9
100
AcDbEntity
  8
Wood
 62
   250
420
  2301728
370
    15
100
AcDbVertex
100
AcDb2dVertex
 10
5.750287570729496
 20
5.455472726588545
 30
0.0
  0
SEQEND
  5
FE
330
F9
100
AcDbEntity
  8
Wood
 62
   250
420
  2301728
370
    15
  0
SPLINE
  5
FF
330
1F
100
AcDbEntity
  8
Wood
 62
   250
420
  2301728
370
    15
100
AcDbSpline
210
0.0
220
0.0
230
1.0
 70
     8
 71
     3
 72
    11
 73
     7
 74
     0
 42
0.0000000001
 43
0.0000000001
 12
1.0
 22
0.0
 32
0.0
 13
1.0
 23
0.0
 33
0.0
 40
0.0
 40
0.0
 40
0.0
 40
0.0
 40
1.0
 40
1.0
 40
1.0
 40
2.0
 40
2.0
 40
2.0
 40
2.0
 10
5.284263893060825
 20
5.163122469169062
 30
0.0
 10
5.292947564073302
 20
5.166017026173222
 30
0.0
 10
5.463726427318331
 20
5.278904749335197
 30
0.0
 10
5.463726427318331
 20
5.278904749335197
 30
0.0
 10
5.463726427318331
 20
5.278904749335197
 30
0.0
 10
5.617137948538457
 20
5.351268674439021
 30
0.0
 10
5.617137948538457
 20
5.351268674439021
 30
0.0
  0
POLYLINE
  5
100
330
1F
100
AcDbEntity
  8
Wood
 62
   250
420
  2301728
370
    15
100
AcDb2dPolyline
 66
     1
 10
0.0
 20
0.0
 30
0.0
  0
VERTEX
  5
101
330
100
100
AcDbEntity
  8
Wood
 62
   250
420
  2301728
370
    15
100
AcDbVertex
100
AcDb2dVertex
 10
2.861796336171639
 20
6.546669641404706
 30
0.0
  0
VERTEX
  5
102
330
100
100
AcDbEntity
  8
Wood
 62
   250
420
  2301728
370
    15
100
AcDbVertex
100
AcDb2dVertex
 10
2.854667621361904
 20
6.411292371563162
 30
0.0
  0
VERTEX
  5
103
330
100
100
AcDbEntity
  8
Wood
 62
   250
420
  2301728
370
    15
100
AcDbVertex
100
AcDb2dVertex
 10
2.897419069410464
 20
6.136976369032165
 30
0.0
  0
VERTEX
  5
104
330
100
100
AcDbEntity
  8
Wood
 62
   250
420
  2301728
370
    15
100
AcDbVertex
100
AcDb2dVertex
 10
2.89385767143488
 20
6.069287734111387
 30
0.0
  0
VERTEX
  5
105
330
100
100
AcDbEntity
  8
Wood
 62
   250
420
  2301728
370
    15
100
AcDbVertex
100
AcDb2dVertex
 10
2.868920419690287
 20
5.908968761543254
 30
0.0
  0
VERTEX
  5
106
330
100
100
AcDbEntity
  8
Wood
 62
   250
420
  2301728
370
    15
100
AcDbVertex
100
AcDb2dVertex
 10
2.872481882538232
 20
5.862655849476798
 30
0.0
  0
VERTEX
  5
107
330
100
100
AcDbEntity
  8
Wood
 62
   250
420
  2301728
370
    15
100
AcDbVertex
100
AcDb2dVertex
 10
2.83685914929942
 20
5.691661521243595
 30
0.0
  0
VERTEX
  5
108
330
100
100
AcDbEntity
  8
Wood
 62
   250
420
  2301728
370
    15
100
AcDbVertex
100
AcDb2dVertex
 10
2.822607508793794
 20
5.581216806983181
 30
0.0
  0
SEQEND
  5
109
330
100
100
AcDbEntity
  8
Wood
 62
   250
420
  2301728
370
    15
  0
POLYLINE
  5
10A
330
1F
100
AcDbEntity
  8
Wood
 62
   250
420
  2301728
370
    15
100
AcDb2dPolyline
 66
     1
 10
0.0
 20
0.0
 30
0.0
  0
VERTEX
  5
10B
330
10A
100
AcDbEntity
  8
Wood
 62
   250
420
  2301728
370
    15
100
AcDbVertex
100
AcDb2dVertex
 10
2.908109247068144
 20
6.539540926594959
 30
0.0
  0
VERTEX
  5
10C
330
10A
100
AcDbEntity
  8
Wood
 62
   250
420
  2301728
370
    15
100
AcDbVertex
100
AcDb2dVertex
 10
2.908109247068144
 20
6.336475021832661
 30
0.0
  0
VERTEX
  5
10D
330
10A
100
AcDbEntity
  8
Wood
 62
   250
420
  2301728
370
    15
100
AcDbVertex
100
AcDb2dVertex
 10
2.947293443154877
 20
6.201097751991129
 30
0.0
  0
VERTEX
  5
10E
330
10A
100
AcDbEntity
  8
Wood
 62
   250
420
  2301728
370
    15
100
AcDbVertex
100
AcDb2dVertex
 10
2.954422157964624
 20
5.777152839112962
 30
0.0
  0
VERTEX
  5
10F
330
10A
100
AcDbEntity
  8
Wood
 62
   250
420
  2301728
370
    15
100
AcDbVertex
100
AcDb2dVertex
 10
2.897419069410464
 20
5.492152552945186
 30
0.0
  0
VERTEX
  5
110
330
10A
100
AcDbEntity
  8
Wood
 62
   250
420
  2301728
370
    15
100
AcDbVertex
100
AcDb2dVertex
 10
2.854667621361904
 20
5.317585192995996
 30
0.0
  0
VERTEX
  5
111
330
10A
100
AcDbEntity
  8
Wood
 62
   250
420
  2301728
370
    15
100
AcDbVertex
100
AcDb2dVertex
 10
2.822607508793794
 20
5.160837988244061
 30
0.0
  0
SEQEND
  5
112
330
10A
100
AcDbEntity
  8
Wood
 62
   250
420
  2301728
370
    15
  0
POLYLINE
  5
113
330
1F
100
AcDbEntity
  8
Wood
 62
   250
420
  2301728
370
    15
100
AcDb2dPolyline
 66
     1
 10
0.0
 20
0.0
 30
0.0
  0
VERTEX
  5
114
330
113
100
AcDbEntity
  8
Wood
 62
   250
420
  2301728
370
    15
100
AcDbVertex
100
AcDb2dVertex
 10
2.965107704331204
 20
6.525293917380433
 30
0.0
  0
VERTEX
  5
115
330
113
100
AcDbEntity
  8
Wood
 62
   250
420
  2301728
370
    15
100
AcDbVertex
100
AcDb2dVertex
 10
2.965107704331204
 20
6.372103544185329
 30
0.0
  0
VERTEX
  5
116
330
113
100
AcDbEntity
  8
Wood
 62
   250
420
  2301728
370
    15
100
AcDbVertex
100
AcDb2dVertex
 10
3.000735068861117
 20
6.154784841094637
 30
0.0
  0
VERTEX
  5
117
330
113
100
AcDbEntity
  8
Wood
 62
   250
420
  2301728
370
    15
100
AcDbVertex
100
AcDb2dVertex
 10
3.032796407634237
 20
5.456523925685461
 30
0.0
  0
VERTEX
  5
118
330
113
100
AcDbEntity
  8
Wood
 62
   250
420
  2301728
370
    15
100
AcDbVertex
100
AcDb2dVertex
 10
2.936609054611052
 20
5.228520834050969
 30
0.0
  0
VERTEX
  5
119
330
113
100
AcDbEntity
  8
Wood
 62
   250
420
  2301728
370
    15
100
AcDbVertex
100
AcDb2dVertex
 10
2.925917784812883
 20
5.057527777907252
 30
0.0
  0
VERTEX
  5
11A
330
113
100
AcDbEntity
  8
Wood
 62
   250
420
  2301728
370
    15
100
AcDbVertex
100
AcDb2dVertex
 10
2.904541995106329
 20
4.847333158335206
 30
0.0
  0
SEQEND
  5
11B
330
113
100
AcDbEntity
  8
Wood
 62
   250
420
  2301728
370
    15
  0
SPLINE
  5
11C
330
1F
100
AcDbEntity
  8
Wood
 62
   250
420
  2301728
370
    15
100
AcDbSpline
210
0.0
220
0.0
230
1.0
 70
     8
 71
     3
 72
    26
 73
    22
 74
     0
 42
0.0000000001
 43
0.0000000001
 12
1.0
 22
0.0
 32
0.0
 13
1.0
 23
0.0
 33
0.0
 40
0.0
 40
0.0
 40
0.0
 40
0.0
 40
1.0
 40
1.0
 40
1.0
 40
2.0
 40
2.0
 40
2.0
 40
3.0
 40
3.0
 40
3.0
 40
4.0
 40
4.0
 40
4.0
 40
5.0
 40
5.0
 40
5.0
 40
6.0
 40
6.0
 40
6.0
 40
7.0
 40
7.0
 40
7.0
 40
7.0
 10
3.029234876404037
 20
6.511042276874806
 30
0.0
 10
3.029234876404037
 20
6.511042276874806
 30
0.0
 10
3.036357802099916
 20
6.300852288593849
 30
0.0
 10
3.036357802099916
 20
6.300852288593849
 30
0.0
 10
3.036357802099916
 20
6.300852288593849
 30
0.0
 10
3.054172063276256
 20
6.222473476015402
 30
0.0
 10
3.054172063276256
 20
6.222473476015402
 30
0.0
 10
3.054172063276256
 20
6.222473476015402
 30
0.0
 10
3.075547787300529
 20
5.762905829898424
 30
0.0
 10
3.075547787300529
 20
5.762905829898424
 30
0.0
 10
3.075547787300529
 20
5.762905829898424
 30
0.0
 10
3.071985166629815
 20
5.595474236602664
 30
0.0
 10
3.071985166629815
 20
5.595474236602664
 30
0.0
 10
3.071985166629815
 20
5.595474236602664
 30
0.0
 10
3.111175151830429
 20
5.420906981560519
 30
0.0
 10
3.111175151830429
 20
5.420906981560519
 30
0.0
 10
3.111175151830429
 20
5.420906981560519
 30
0.0
 10
3.093360890654089
 20
5.118087698018295
 30
0.0
 10
3.093360890654089
 20
5.118087698018295
 30
0.0
 10
3.093360890654089
 20
5.118087698018295
 30
0.0
 10
3.007863783670852
 20
4.915038002774812
 30
0.0
 10
3.02211079288539
 20
4.818839139906155
 30
0.0
  0
SPLINE
  5
11D
330
1F
100
AcDbEntity
  8
Wood
 62
   250
420
  2301728
370
    15
100
AcDbSpline
210
0.0
220
0.0
230
1.0
 70
     8
 71
     3
 72
    17
 73
    13
 74
     0
 42
0.0000000001
 43
0.0000000001
 12
1.0
 22
0.0
 32
0.0
 13
1.0
 23
0.0
 33
0.0
 40
0.0
 40
0.0
 40
0.0
 40
0.0
 40
1.0
 40
1.0
 40
1.0
 40
2.0
 40
2.0
 40
2.0
 40
3.0
 40
3.0
 40
3.0
 40
4.0
 40
4.0
 40
4.0
 40
4.0
 10
3.082670712996408
 20
6.496789478546411
 30
0.0
 10
3.082670712996408
 20
6.496789478546411
 30
0.0
 10
3.100484974172748
 20
6.347165199490341
 30
0.0
 10
3.100484974172748
 20
6.347165199490341
 30
0.0
 10
3.100484974172748
 20
6.347165199490341
 30
0.0
 10
3.118298077526308
 20
6.030098906733567
 30
0.0
 10
3.118298077526308
 20
6.030098906733567
 30
0.0
 10
3.118298077526308
 20
6.030098906733567
 30
0.0
 10
3.118292288412438
 20
5.656034156713695
 30
0.0
 10
3.153920810765107
 20
5.566969797768656
 30
0.0
 10
3.153920810765107
 20
5.566969797768656
 30
0.0
 10
3.193110795965733
 20
5.306900904679347
 30
0.0
 10
3.193110795965733
 20
5.306900904679347
 30
0.0
  0
SPLINE
  5
11E
330
1F
100
AcDbEntity
  8
Wood
 62
   250
420
  2301728
370
    15
100
AcDbSpline
210
0.0
220
0.0
230
1.0
 70
     8
 71
     3
 72
     8
 73
     4
 74
     0
 42
0.0000000001
 43
0.0000000001
 12
1.0
 22
0.0
 32
0.0
 13
1.0
 23
0.0
 33
0.0
 40
0.0
 40
0.0
 40
0.0
 40
0.0
 40
1.0
 40
1.0
 40
1.0
 40
1.0
 10
3.189548175295019
 20
4.936397608147748
 30
0.0
 10
3.189548175295019
 20
4.936397608147748
 30
0.0
 10
3.132550875854703
 20
4.829524686272735
 30
0.0
 10
3.136112338702636
 20
4.779650312528323
 30
0.0
  0
POLYLINE
  5
11F
330
1F
100
AcDbEntity
  8
Wood
 62
   250
420
  2301728
370
    15
100
AcDb2dPolyline
 66
     1
 10
0.0
 20
0.0
 30
0.0
  0
VERTEX
  5
120
330
11F
100
AcDbEntity
  8
Wood
 62
   250
420
  2301728
370
    15
100
AcDbVertex
100
AcDb2dVertex
 10
3.143235264398527
 20
6.482542599258269
 30
0.0
  0
VERTEX
  5
121
330
11F
100
AcDbEntity
  8
Wood
 62
   250
420
  2301728
370
    15
100
AcDbVertex
100
AcDb2dVertex
 10
3.161049525574855
 20
6.243849200039676
 30
0.0
  0
VERTEX
  5
122
330
11F
100
AcDbEntity
  8
Wood
 62
   250
420
  2301728
370
    15
100
AcDbVertex
100
AcDb2dVertex
 10
3.189548175295019
 20
5.873351701981606
 30
0.0
  0
SEQEND
  5
123
330
11F
100
AcDbEntity
  8
Wood
 62
   250
420
  2301728
370
    15
  0
SPLINE
  5
125
330
1F
100
AcDbEntity
  8
H2.5A
370
     0
100
AcDbSpline
210
0.0
220
0.0
230
1.0
 70
    11
 71
     3
 72
    62
 73
    58
 74
     0
 42
0.0000000001
 43
0.0000000001
 12
1.0
 22
0.0
 32
0.0
 13
1.0
 23
0.0
 33
0.0
 40
0.0
 40
0.0
 40
0.0
 40
0.0
 40
1.0
 40
1.0
 40
1.0
 40
2.0
 40
2.0
 40
2.0
 40
3.0
 40
3.0
 40
3.0
 40
4.0
 40
4.0
 40
4.0
 40
5.0
 40
5.0
 40
5.0
 40
6.0
 40
6.0
 40
6.0
 40
7.0
 40
7.0
 40
7.0
 40
8.0
 40
8.0
 40
8.0
 40
9.0
 40
9.0
 40
9.0
 40
10.0
 40
10.0
 40
10.0
 40
11.0
 40
11.0
 40
11.0
 40
12.0
 40
12.0
 40
12.0
 40
13.0
 40
13.0
 40
13.0
 40
14.0
 40
14.0
 40
14.0
 40
15.0
 40
15.0
 40
15.0
 40
16.0
 40
16.0
 40
16.0
 40
17.0
 40
17.0
 40
17.0
 40
18.0
 40
18.0
 40
18.0
 40
19.0
 40
19.0
 40
19.0
 40
19.0
 10
3.918428871743395
 20
7.045958713374817
 30
0.0
 10
3.918428871743395
 20
7.045958713374817
 30
0.0
 10
3.889516879293486
 20
7.054997835759031
 30
0.0
 10
3.889516879293486
 20
7.054997835759031
 30
0.0
 10
3.889516879293486
 20
7.054997835759031
 30
0.0
 10
3.725041207535683
 20
6.975471620813133
 30
0.0
 10
3.725041207535683
 20
6.975471620813133
 30
0.0
 10
3.725041207535683
 20
6.975471620813133
 30
0.0
 10
3.696124668934026
 20
6.89233184099453
 30
0.0
 10
3.696124668934026
 20
6.89233184099453
 30
0.0
 10
3.696124668934026
 20
6.89233184099453
 30
0.0
 10
3.696124668934026
 20
6.608574951577262
 30
0.0
 10
3.696124668934026
 20
6.608574951577262
 30
0.0
 10
3.696124668934026
 20
6.608574951577262
 30
0.0
 10
3.887708360122992
 20
6.183855455264367
 30
0.0
 10
3.896741693393336
 20
6.182045778271092
 30
0.0
 10
3.905776184486474
 20
6.180237259100573
 30
0.0
 10
3.92927188200704
 20
6.165774894850377
 30
0.0
 10
3.92927188200704
 20
6.165774894850377
 30
0.0
 10
3.92927188200704
 20
6.165774894850377
 30
0.0
 10
4.005185689903012
 20
6.205541475791632
 30
0.0
 10
4.005185689903012
 20
6.205541475791632
 30
0.0
 10
4.005185689903012
 20
6.205541475791632
 30
0.0
 10
4.090123568487178
 20
6.200120549571213
 30
0.0
 10
4.091932087657698
 20
6.133245864059455
 30
0.0
 10
4.091932087657698
 20
6.133245864059455
 30
0.0
 10
4.091932087657698
 20
5.695856313148043
 30
0.0
 10
4.091932087657698
 20
5.695856313148043
 30
0.0
 10
4.091932087657698
 20
5.695856313148043
 30
0.0
 10
4.147969552019668
 20
5.61994250525207
 30
0.0
 10
4.147969552019668
 20
5.61994250525207
 30
0.0
 10
4.147969552019668
 20
5.61994250525207
 30
0.0
 10
4.350396338611593
 20
5.57115301144539
 30
0.0
 10
4.350396338611593
 20
5.57115301144539
 30
0.0
 10
4.350396338611593
 20
5.57115301144539
 30
0.0
 10
4.451604047018059
 20
5.634403711679485
 30
0.0
 10
4.451604047018059
 20
5.634403711679485
 30
0.0
 10
4.451604047018059
 20
5.634403711679485
 30
0.0
 10
4.451604047018059
 20
5.939852410737886
 30
0.0
 10
4.451604047018059
 20
5.939852410737886
 30
0.0
 10
4.451604047018059
 20
5.939852410737886
 30
0.0
 10
4.119045981342032
 20
6.534475451965654
 30
0.0
 10
4.119045981342032
 20
6.534475451965654
 30
0.0
 10
4.119045981342032
 20
6.534475451965654
 30
0.0
 10
4.032289163182415
 20
6.556167261606801
 30
0.0
 10
4.032289163182415
 20
6.556167261606801
 30
0.0
 10
4.032289163182415
 20
6.556167261606801
 30
0.0
 10
4.016029857989426
 20
6.561583556536144
 30
0.0
 10
3.99434267963938
 20
6.552549065442993
 30
0.0
 10
3.99434267963938
 20
6.552549065442993
 30
0.0
 10
3.97988147321194
 20
6.532665774972378
 30
0.0
 10
3.960004063660663
 20
6.554358742436281
 30
0.0
 10
3.960004063660663
 20
6.554358742436281
 30
0.0
 10
3.960004063660663
 20
7.000775837504193
 30
0.0
 10
3.960004063660663
 20
7.000775837504193
 30
0.0
 10
3.960004063660663
 20
7.000775837504193
 30
0.0
 10
3.918428871743395
 20
7.045958713374817
 30
0.0
 10
3.918428871743395
 20
7.045958713374817
 30
0.0
  0
HATCH
  5
126
330
1F
100
AcDbEntity
  8
H2.5A
 62
   254
420
 13358815
100
AcDbHatch
 10
0.0
 20
0.0
 30
0.0
210
0.0
220
0.0
230
1.0
  2
SOLID
 70
     1
 71
     0
 91
        1
 92
        1
 93
        1
 72
     4
 94
        3
 73
     0
 74
     1
 95
       62
 96
       58
 40
0.0
 40
0.0
 40
0.0
 40
0.0
 40
1.0
 40
1.0
 40
1.0
 40
2.0
 40
2.0
 40
2.0
 40
3.0
 40
3.0
 40
3.0
 40
4.0
 40
4.0
 40
4.0
 40
5.0
 40
5.0
 40
5.0
 40
6.0
 40
6.0
 40
6.0
 40
7.0
 40
7.0
 40
7.0
 40
8.0
 40
8.0
 40
8.0
 40
9.0
 40
9.0
 40
9.0
 40
10.0
 40
10.0
 40
10.0
 40
11.0
 40
11.0
 40
11.0
 40
12.0
 40
12.0
 40
12.0
 40
13.0
 40
13.0
 40
13.0
 40
14.0
 40
14.0
 40
14.0
 40
15.0
 40
15.0
 40
15.0
 40
16.0
 40
16.0
 40
16.0
 40
17.0
 40
17.0
 40
17.0
 40
18.0
 40
18.0
 40
18.0
 40
19.0
 40
19.0
 40
19.0
 40
19.0
 10
3.918428871743395
 20
7.045958713374817
 10
3.918428871743395
 20
7.045958713374817
 10
3.889516879293486
 20
7.054997835759031
 10
3.889516879293486
 20
7.054997835759031
 10
3.889516879293486
 20
7.054997835759031
 10
3.725041207535683
 20
6.975471620813133
 10
3.725041207535683
 20
6.975471620813133
 10
3.725041207535683
 20
6.975471620813133
 10
3.696124668934026
 20
6.89233184099453
 10
3.696124668934026
 20
6.89233184099453
 10
3.696124668934026
 20
6.89233184099453
 10
3.696124668934026
 20
6.608574951577262
 10
3.696124668934026
 20
6.608574951577262
 10
3.696124668934026
 20
6.608574951577262
 10
3.887708360122992
 20
6.183855455264367
 10
3.896741693393336
 20
6.182045778271092
 10
3.905776184486474
 20
6.180237259100573
 10
3.92927188200704
 20
6.165774894850377
 10
3.92927188200704
 20
6.165774894850377
 10
3.92927188200704
 20
6.165774894850377
 10
4.005185689903012
 20
6.205541475791632
 10
4.005185689903012
 20
6.205541475791632
 10
4.005185689903012
 20
6.205541475791632
 10
4.090123568487178
 20
6.200120549571213
 10
4.091932087657698
 20
6.133245864059455
 10
4.091932087657698
 20
6.133245864059455
 10
4.091932087657698
 20
5.695856313148043
 10
4.091932087657698
 20
5.695856313148043
 10
4.091932087657698
 20
5.695856313148043
 10
4.147969552019668
 20
5.61994250525207
 10
4.147969552019668
 20
5.61994250525207
 10
4.147969552019668
 20
5.61994250525207
 10
4.350396338611593
 20
5.57115301144539
 10
4.350396338611593
 20
5.57115301144539
 10
4.350396338611593
 20
5.57115301144539
 10
4.451604047018059
 20
5.634403711679485
 10
4.451604047018059
 20
5.634403711679485
 10
4.451604047018059
 20
5.634403711679485
 10
4.451604047018059
 20
5.939852410737886
 10
4.451604047018059
 20
5.939852410737886
 10
4.451604047018059
 20
5.939852410737886
 10
4.119045981342032
 20
6.534475451965654
 10
4.119045981342032
 20
6.534475451965654
 10
4.119045981342032
 20
6.534475451965654
 10
4.032289163182415
 20
6.556167261606801
 10
4.032289163182415
 20
6.556167261606801
 10
4.032289163182415
 20
6.556167261606801
 10
4.016029857989426
 20
6.561583556536144
 10
3.99434267963938
 20
6.552549065442993
 10
3.99434267963938
 20
6.552549065442993
 10
3.97988147321194
 20
6.532665774972378
 10
3.960004063660663
 20
6.554358742436281
 10
3.960004063660663
 20
6.554358742436281
 10
3.960004063660663
 20
7.000775837504193
 10
3.960004063660663
 20
7.000775837504193
 10
3.960004063660663
 20
7.000775837504193
 10
3.918428871743395
 20
7.045958713374817
 10
3.918428871743395
 20
7.045958713374817
 97
        0
 97
        0
 75
     2
 76
     1
 98
        0
  0
SPLINE
  5
127
330
1F
100
AcDbEntity
  8
H2.5A
 62
   250
420
  2301728
370
    30
100
AcDbSpline
210
0.0
220
0.0
230
1.0
 70
    11
 71
     3
 72
    62
 73
    58
 74
     0
 42
0.0000000001
 43
0.0000000001
 12
1.0
 22
0.0
 32
0.0
 13
1.0
 23
0.0
 33
0.0
 40
0.0
 40
0.0
 40
0.0
 40
0.0
 40
1.0
 40
1.0
 40
1.0
 40
2.0
 40
2.0
 40
2.0
 40
3.0
 40
3.0
 40
3.0
 40
4.0
 40
4.0
 40
4.0
 40
5.0
 40
5.0
 40
5.0
 40
6.0
 40
6.0
 40
6.0
 40
7.0
 40
7.0
 40
7.0
 40
8.0
 40
8.0
 40
8.0
 40
9.0
 40
9.0
 40
9.0
 40
10.0
 40
10.0
 40
10.0
 40
11.0
 40
11.0
 40
11.0
 40
12.0
 40
12.0
 40
12.0
 40
13.0
 40
13.0
 40
13.0
 40
14.0
 40
14.0
 40
14.0
 40
15.0
 40
15.0
 40
15.0
 40
16.0
 40
16.0
 40
16.0
 40
17.0
 40
17.0
 40
17.0
 40
18.0
 40
18.0
 40
18.0
 40
19.0
 40
19.0
 40
19.0
 40
19.0
 10
3.918428871743395
 20
7.045958713374817
 30
0.0
 10
3.918428871743395
 20
7.045958713374817
 30
0.0
 10
3.889516879293486
 20
7.054997835759031
 30
0.0
 10
3.889516879293486
 20
7.054997835759031
 30
0.0
 10
3.889516879293486
 20
7.054997835759031
 30
0.0
 10
3.725041207535683
 20
6.975471620813133
 30
0.0
 10
3.725041207535683
 20
6.975471620813133
 30
0.0
 10
3.725041207535683
 20
6.975471620813133
 30
0.0
 10
3.696124668934026
 20
6.89233184099453
 30
0.0
 10
3.696124668934026
 20
6.89233184099453
 30
0.0
 10
3.696124668934026
 20
6.89233184099453
 30
0.0
 10
3.696124668934026
 20
6.608574951577262
 30
0.0
 10
3.696124668934026
 20
6.608574951577262
 30
0.0
 10
3.696124668934026
 20
6.608574951577262
 30
0.0
 10
3.887708360122992
 20
6.183855455264367
 30
0.0
 10
3.896741693393336
 20
6.182045778271092
 30
0.0
 10
3.905776184486474
 20
6.180237259100573
 30
0.0
 10
3.92927188200704
 20
6.165774894850377
 30
0.0
 10
3.92927188200704
 20
6.165774894850377
 30
0.0
 10
3.92927188200704
 20
6.165774894850377
 30
0.0
 10
4.005185689903012
 20
6.205541475791632
 30
0.0
 10
4.005185689903012
 20
6.205541475791632
 30
0.0
 10
4.005185689903012
 20
6.205541475791632
 30
0.0
 10
4.090123568487178
 20
6.200120549571213
 30
0.0
 10
4.091932087657698
 20
6.133245864059455
 30
0.0
 10
4.091932087657698
 20
6.133245864059455
 30
0.0
 10
4.091932087657698
 20
5.695856313148043
 30
0.0
 10
4.091932087657698
 20
5.695856313148043
 30
0.0
 10
4.091932087657698
 20
5.695856313148043
 30
0.0
 10
4.147969552019668
 20
5.61994250525207
 30
0.0
 10
4.147969552019668
 20
5.61994250525207
 30
0.0
 10
4.147969552019668
 20
5.61994250525207
 30
0.0
 10
4.350396338611593
 20
5.57115301144539
 30
0.0
 10
4.350396338611593
 20
5.57115301144539
 30
0.0
 10
4.350396338611593
 20
5.57115301144539
 30
0.0
 10
4.451604047018059
 20
5.634403711679485
 30
0.0
 10
4.451604047018059
 20
5.634403711679485
 30
0.0
 10
4.451604047018059
 20
5.634403711679485
 30
0.0
 10
4.451604047018059
 20
5.939852410737886
 30
0.0
 10
4.451604047018059
 20
5.939852410737886
 30
0.0
 10
4.451604047018059
 20
5.939852410737886
 30
0.0
 10
4.119045981342032
 20
6.534475451965654
 30
0.0
 10
4.119045981342032
 20
6.534475451965654
 30
0.0
 10
4.119045981342032
 20
6.534475451965654
 30
0.0
 10
4.032289163182415
 20
6.556167261606801
 30
0.0
 10
4.032289163182415
 20
6.556167261606801
 30
0.0
 10
4.032289163182415
 20
6.556167261606801
 30
0.0
 10
4.016029857989426
 20
6.561583556536144
 30
0.0
 10
3.99434267963938
 20
6.552549065442993
 30
0.0
 10
3.99434267963938
 20
6.552549065442993
 30
0.0
 10
3.97988147321194
 20
6.532665774972378
 30
0.0
 10
3.960004063660663
 20
6.554358742436281
 30
0.0
 10
3.960004063660663
 20
6.554358742436281
 30
0.0
 10
3.960004063660663
 20
7.000775837504193
 30
0.0
 10
3.960004063660663
 20
7.000775837504193
 30
0.0
 10
3.960004063660663
 20
7.000775837504193
 30
0.0
 10
3.918428871743395
 20
7.045958713374817
 30
0.0
 10
3.918428871743395
 20
7.045958713374817
 30
0.0
  0
POLYLINE
  5
128
330
1F
100
AcDbEntity
  8
H2.5A
 62
   250
420
  2301728
370
    20
100
AcDb2dPolyline
 66
     1
 10
0.0
 20
0.0
 30
0.0
  0
VERTEX
  5
129
330
128
100
AcDbEntity
  8
H2.5A
 62
   250
420
  2301728
370
    20
100
AcDbVertex
100
AcDb2dVertex
 10
3.918428871743395
 20
7.045958713374817
 30
0.0
  0
VERTEX
  5
12A
330
128
100
AcDbEntity
  8
H2.5A
 62
   250
420
  2301728
370
    20
100
AcDbVertex
100
AcDb2dVertex
 10
3.748536905056249
 20
6.966437129720007
 30
0.0
  0
VERTEX
  5
12B
330
128
100
AcDbEntity
  8
H2.5A
 62
   250
420
  2301728
370
    20
100
AcDbVertex
100
AcDb2dVertex
 10
3.723232688365177
 20
6.888719433944591
 30
0.0
  0
VERTEX
  5
12C
330
128
100
AcDbEntity
  8
H2.5A
 62
   250
420
  2301728
370
    20
100
AcDbVertex
100
AcDb2dVertex
 10
3.723232688365177
 20
6.604962544527337
 30
0.0
  0
VERTEX
  5
12D
330
128
100
AcDbEntity
  8
H2.5A
 62
   250
420
  2301728
370
    20
100
AcDbVertex
100
AcDb2dVertex
 10
3.920237390913901
 20
6.171196978893577
 30
0.0
  0
SEQEND
  5
12E
330
128
100
AcDbEntity
  8
H2.5A
 62
   250
420
  2301728
370
    20
  0
SPLINE
  5
12F
330
1F
100
AcDbEntity
  8
H2.5A
 62
   250
420
  2301728
370
    20
100
AcDbSpline
210
0.0
220
0.0
230
1.0
 70
     8
 71
     3
 72
    17
 73
    13
 74
     0
 42
0.0000000001
 43
0.0000000001
 12
1.0
 22
0.0
 32
0.0
 13
1.0
 23
0.0
 33
0.0
 40
0.0
 40
0.0
 40
0.0
 40
0.0
 40
1.0
 40
1.0
 40
1.0
 40
2.0
 40
2.0
 40
2.0
 40
3.0
 40
3.0
 40
3.0
 40
4.0
 40
4.0
 40
4.0
 40
4.0
 10
3.960004063660663
 20
6.554358742436281
 30
0.0
 10
3.960004063660663
 20
6.554358742436281
 30
0.0
 10
3.960004063660663
 20
6.500136744181443
 30
0.0
 10
4.016040278394383
 20
6.538099437243318
 30
0.0
 10
4.016040278394383
 20
6.538099437243318
 30
0.0
 10
4.100989735206263
 20
6.516412258893246
 30
0.0
 10
4.100989735206263
 20
6.516412258893246
 30
0.0
 10
4.100989735206263
 20
6.516412258893246
 30
0.0
 10
4.429916764443659
 20
5.929009400474241
 30
0.0
 10
4.429916764443659
 20
5.929009400474241
 30
0.0
 10
4.429916764443659
 20
5.929009400474241
 30
0.0
 10
4.429916764443659
 20
5.619954083479797
 30
0.0
 10
4.429916764443659
 20
5.619954083479797
 30
0.0
  0
POLYLINE
  5
130
330
1F
100
AcDbEntity
  8
H2.5A
 62
   250
420
  2301728
370
    20
100
AcDb2dPolyline
 66
     1
 10
0.0
 20
0.0
 30
0.0
  0
VERTEX
  5
131
330
130
100
AcDbEntity
  8
H2.5A
 62
   250
420
  2301728
370
    20
100
AcDbVertex
100
AcDb2dVertex
 10
4.100978156978536
 20
6.520014245538227
 30
0.0
  0
VERTEX
  5
132
330
130
100
AcDbEntity
  8
H2.5A
 62
   250
420
  2301728
370
    20
100
AcDbVertex
100
AcDb2dVertex
 10
4.124473854499103
 20
6.530863044915728
 30
0.0
  0
SEQEND
  5
133
330
130
100
AcDbEntity
  8
H2.5A
 62
   250
420
  2301728
370
    20
  0
POLYLINE
  5
134
330
1F
100
AcDbEntity
  8
H2.5A
 62
   250
420
  2301728
370
    20
100
AcDb2dPolyline
 66
     1
 10
0.0
 20
0.0
 30
0.0
  0
VERTEX
  5
135
330
134
100
AcDbEntity
  8
H2.5A
 62
   250
420
  2301728
370
    20
100
AcDbVertex
100
AcDb2dVertex
 10
4.429916764443659
 20
5.916357871040089
 30
0.0
  0
VERTEX
  5
136
330
134
100
AcDbEntity
  8
H2.5A
 62
   250
420
  2301728
370
    20
100
AcDbVertex
100
AcDb2dVertex
 10
4.451604047018059
 20
5.939852410737886
 30
0.0
  0
SEQEND
  5
137
330
134
100
AcDbEntity
  8
H2.5A
 62
   250
420
  2301728
370
    20
  0
POLYLINE
  5
138
330
1F
100
AcDbEntity
  8
H2.5A
 62
   250
420
  2301728
370
    20
100
AcDb2dPolyline
 66
     1
 10
0.0
 20
0.0
 30
0.0
  0
VERTEX
  5
139
330
138
100
AcDbEntity
  8
H2.5A
 62
   250
420
  2301728
370
    20
100
AcDbVertex
100
AcDb2dVertex
 10
3.692506387630904
 20
6.612193147741057
 30
0.0
  0
VERTEX
  5
13A
330
138
100
AcDbEntity
  8
H2.5A
 62
   250
420
  2301728
370
    20
100
AcDbVertex
100
AcDb2dVertex
 10
3.726850884528959
 20
6.599546249598006
 30
0.0
  0
SEQEND
  5
13B
330
138
100
AcDbEntity
  8
H2.5A
 62
   250
420
  2301728
370
    20
  0
POLYLINE
  5
13C
330
1F
100
AcDbEntity
  8
H2.5A
 62
   250
420
  2301728
370
    20
100
AcDb2dPolyline
 66
     1
 10
0.0
 20
0.0
 30
0.0
  0
VERTEX
  5
13D
330
13C
100
AcDbEntity
  8
H2.5A
 62
   250
420
  2301728
370
    20
100
AcDbVertex
100
AcDb2dVertex
 10
3.723238477479046
 20
6.975477409927002
 30
0.0
  0
VERTEX
  5
13E
330
13C
100
AcDbEntity
  8
H2.5A
 62
   250
420
  2301728
370
    20
100
AcDbVertex
100
AcDb2dVertex
 10
3.744924498006323
 20
6.96282472267007
 30
0.0
  0
SEQEND
  5
13F
330
13C
100
AcDbEntity
  8
H2.5A
 62
   250
420
  2301728
370
    20
  0
POLYLINE
  5
140
330
1F
100
AcDbEntity
  8
H2.5A
 62
   250
420
  2301728
370
    20
100
AcDb2dPolyline
 66
     1
 10
0.0
 20
0.0
 30
0.0
  0
VERTEX
  5
141
330
140
100
AcDbEntity
  8
H2.5A
 62
   250
420
  2301728
370
    20
100
AcDbVertex
100
AcDb2dVertex
 10
3.696124668934026
 20
6.89233184099453
 30
0.0
  0
VERTEX
  5
142
330
140
100
AcDbEntity
  8
H2.5A
 62
   250
420
  2301728
370
    20
100
AcDbVertex
100
AcDb2dVertex
 10
3.721428800485758
 20
6.876072535801541
 30
0.0
  0
SEQEND
  5
143
330
140
100
AcDbEntity
  8
H2.5A
 62
   250
420
  2301728
370
    20
  0
INSERT
  5
145
330
1F
100
AcDbEntity
  8
H2.5A
100
AcDbBlockReference
  2
block 2
 10
0.0
 20
0.0
 30
0.0
  0
INSERT
  5
14B
330
1F
100
AcDbEntity
  8
H2.5A
100
AcDbBlockReference
  2
block 3
 10
0.0
 20
0.0
 30
0.0
  0
INSERT
  5
151
330
1F
100
AcDbEntity
  8
H2.5A
100
AcDbBlockReference
  2
block 4
 10
0.0
 20
0.0
 30
0.0
  0
INSERT
  5
157
330
1F
100
AcDbEntity
  8
H2.5A
100
AcDbBlockReference
  2
block 5
 10
0.0
 20
0.0
 30
0.0
  0
INSERT
  5
15D
330
1F
100
AcDbEntity
  8
H2.5A
100
AcDbBlockReference
  2
block 6
 10
0.0
 20
0.0
 30
0.0
  0
INSERT
  5
163
330
1F
100
AcDbEntity
  8
H2.5A
100
AcDbBlockReference
  2
block 7
 10
0.0
 20
0.0
 30
0.0
  0
INSERT
  5
169
330
1F
100
AcDbEntity
  8
H2.5A
100
AcDbBlockReference
  2
block 8
 10
0.0
 20
0.0
 30
0.0
  0
INSERT
  5
16F
330
1F
100
AcDbEntity
  8
H2.5A
100
AcDbBlockReference
  2
block 9
 10
0.0
 20
0.0
 30
0.0
  0
INSERT
  5
175
330
1F
100
AcDbEntity
  8
H2.5A
100
AcDbBlockReference
  2
block 10
 10
0.0
 20
0.0
 30
0.0
  0
INSERT
  5
17B
330
1F
100
AcDbEntity
  8
H2.5A
100
AcDbBlockReference
  2
block 11
 10
0.0
 20
0.0
 30
0.0
  0
INSERT
  5
181
330
1F
100
AcDbEntity
  8
H2.5A
100
AcDbBlockReference
  2
block 12
 10
0.0
 20
0.0
 30
0.0
  0
INSERT
  5
187
330
1F
100
AcDbEntity
  8
H2.5A
100
AcDbBlockReference
  2
block 13
 10
0.0
 20
0.0
 30
0.0
  0
POLYLINE
  5
18C
330
1F
100
AcDbEntity
  8
H2.5A
 62
   250
420
  2301728
370
    20
100
AcDb2dPolyline
 66
     1
 10
0.0
 20
0.0
 30
0.0
  0
VERTEX
  5
18D
330
18C
100
AcDbEntity
  8
H2.5A
 62
   250
420
  2301728
370
    20
100
AcDbVertex
100
AcDb2dVertex
 10
4.033634553243953
 20
6.267390052648365
 30
0.0
  0
VERTEX
  5
18E
330
18C
100
AcDbEntity
  8
H2.5A
 62
   250
420
  2301728
370
    20
100
AcDbVertex
100
AcDb2dVertex
 10
4.033634553243953
 20
6.227499584670441
 30
0.0
  0
SEQEND
  5
18F
330
18C
100
AcDbEntity
  8
H2.5A
 62
   250
420
  2301728
370
    20
  0
POLYLINE
  5
190
330
1F
100
AcDbEntity
  8
H2.5A
 62
   250
420
  2301728
370
    20
100
AcDb2dPolyline
 66
     1
 10
0.0
 20
0.0
 30
0.0
  0
VERTEX
  5
191
330
190
100
AcDbEntity
  8
H2.5A
 62
   250
420
  2301728
370
    20
100
AcDbVertex
100
AcDb2dVertex
 10
4.033634553243953
 20
6.403847571136553
 30
0.0
  0
VERTEX
  5
192
330
190
100
AcDbEntity
  8
H2.5A
 62
   250
420
  2301728
370
    20
100
AcDbVertex
100
AcDb2dVertex
 10
4.033634553243953
 20
6.35649377756767
 30
0.0
  0
SEQEND
  5
193
330
190
100
AcDbEntity
  8
H2.5A
 62
   250
420
  2301728
370
    20
  0
POLYLINE
  5
194
330
1F
100
AcDbEntity
  8
H2.5A
 62
   250
420
  2301728
370
    20
100
AcDb2dPolyline
 66
     1
 10
0.0
 20
0.0
 30
0.0
  0
VERTEX
  5
195
330
194
100
AcDbEntity
  8
H2.5A
 62
   250
420
  2301728
370
    20
100
AcDbVertex
100
AcDb2dVertex
 10
4.033634553243953
 20
6.514880590108671
 30
0.0
  0
VERTEX
  5
196
330
194
100
AcDbEntity
  8
H2.5A
 62
   250
420
  2301728
370
    20
100
AcDbVertex
100
AcDb2dVertex
 10
4.033634553243953
 20
6.483848493419158
 30
0.0
  0
SEQEND
  5
197
330
194
100
AcDbEntity
  8
H2.5A
 62
   250
420
  2301728
370
    20
  0
INSERT
  5
199
330
1F
100
AcDbEntity
  8
H2.5A
100
AcDbBlockReference
  2
block 14
 10
0.0
 20
0.0
 30
0.0
  0
POLYLINE
  5
19E
330
1F
100
AcDbEntity
  8
H2.5A
 62
     7
420
 16777215
370
     9
100
AcDb2dPolyline
 66
     1
 10
0.0
 20
0.0
 30
0.0
  0
VERTEX
  5
19F
330
19E
100
AcDbEntity
  8
H2.5A
 62
     7
420
 16777215
370
     9
100
AcDbVertex
100
AcDb2dVertex
 10
4.213899454149137
 20
6.170936468769797
 30
0.0
  0
VERTEX
  5
1A0
330
19E
100
AcDbEntity
  8
H2.5A
 62
     7
420
 16777215
370
     9
100
AcDbVertex
100
AcDb2dVertex
 10
4.213571790304538
 20
6.213665918185673
 30
0.0
  0
SEQEND
  5
1A1
330
19E
100
AcDbEntity
  8
H2.5A
 62
     7
420
 16777215
370
     9
  0
POLYLINE
  5
1A2
330
1F
100
AcDbEntity
  8
H2.5A
370
     0
100
AcDb2dPolyline
 66
     1
 10
0.0
 20
0.0
 30
0.0
  0
VERTEX
  5
1A3
330
1A2
100
AcDbEntity
  8
H2.5A
370
     0
100
AcDbVertex
100
AcDb2dVertex
 10
4.21343632504017
 20
6.150217230257491
 30
0.0
  0
VERTEX
  5
1A4
330
1A2
100
AcDbEntity
  8
H2.5A
370
     0
100
AcDbVertex
100
AcDb2dVertex
 10
4.206686218277014
 20
6.173587882918619
 30
0.0
  0
VERTEX
  5
1A5
330
1A2
100
AcDbEntity
  8
H2.5A
370
     0
100
AcDbVertex
100
AcDb2dVertex
 10
4.221260891336138
 20
6.169681388884479
 30
0.0
  0
VERTEX
  5
1A6
330
1A2
100
AcDbEntity
  8
H2.5A
370
     0
100
AcDbVertex
100
AcDb2dVertex
 10
4.21343632504017
 20
6.150217230257491
 30
0.0
  0
SEQEND
  5
1A8
330
1A2
100
AcDbEntity
  8
H2.5A
370
     0
  0
HATCH
  5
1A7
330
1F
100
AcDbEntity
  8
H2.5A
 62
     7
420
 16777215
100
AcDbHatch
 10
0.0
 20
0.0
 30
0.0
210
0.0
220
0.0
230
1.0
  2
SOLID
 70
     1
 71
     0
 91
        1
 92
        1
 93
        3
 72
     1
 10
4.21343632504017
 20
6.150217230257491
 11
4.206686218277014
 21
6.173587882918619
 72
     1
 10
4.206686218277014
 20
6.173587882918619
 11
4.221260891336138
 21
6.169681388884479
 72
     1
 10
4.221260891336138
 20
6.169681388884479
 11
4.21343632504017
 21
6.150217230257491
 97
        0
 75
     2
 76
     1
 98
        0
  0
INSERT
  5
1AA
330
1F
100
AcDbEntity
  8
H2.5A
100
AcDbBlockReference
  2
block 15
 10
0.0
 20
0.0
 30
0.0
  0
POLYLINE
  5
1AF
330
1F
100
AcDbEntity
  8
H2.5A
 62
     7
420
 16777215
370
     5
100
AcDb2dPolyline
 66
     1
 10
0.0
 20
0.0
 30
0.0
  0
VERTEX
  5
1B0
330
1AF
100
AcDbEntity
  8
H2.5A
 62
     7
420
 16777215
370
     5
100
AcDbVertex
100
AcDb2dVertex
 10
3.858439847498933
 20
6.457978101392377
 30
0.0
  0
VERTEX
  5
1B1
330
1AF
100
AcDbEntity
  8
H2.5A
 62
     7
420
 16777215
370
     5
100
AcDbVertex
100
AcDb2dVertex
 10
3.859078876429521
 20
6.421801928868351
 30
0.0
  0
SEQEND
  5
1B2
330
1AF
100
AcDbEntity
  8
H2.5A
 62
     7
420
 16777215
370
     5
  0
POLYLINE
  5
1B3
330
1F
100
AcDbEntity
  8
H2.5A
370
     0
100
AcDb2dPolyline
 66
     1
 10
0.0
 20
0.0
 30
0.0
  0
VERTEX
  5
1B4
330
1B3
100
AcDbEntity
  8
H2.5A
370
     0
100
AcDbVertex
100
AcDb2dVertex
 10
3.857721997361914
 20
6.475317784975901
 30
0.0
  0
VERTEX
  5
1B5
330
1B3
100
AcDbEntity
  8
H2.5A
370
     0
100
AcDbVertex
100
AcDb2dVertex
 10
3.85307440753181
 20
6.45335388642838
 30
0.0
  0
VERTEX
  5
1B6
330
1B3
100
AcDbEntity
  8
H2.5A
370
     0
100
AcDbVertex
100
AcDb2dVertex
 10
3.863940574250894
 20
6.461478199633373
 30
0.0
  0
VERTEX
  5
1B7
330
1B3
100
AcDbEntity
  8
H2.5A
370
     0
100
AcDbVertex
100
AcDb2dVertex
 10
3.857721997361914
 20
6.475317784975901
 30
0.0
  0
SEQEND
  5
1B9
330
1B3
100
AcDbEntity
  8
H2.5A
370
     0
  0
HATCH
  5
1B8
330
1F
100
AcDbEntity
  8
H2.5A
 62
     7
420
 16777215
100
AcDbHatch
 10
0.0
 20
0.0
 30
0.0
210
0.0
220
0.0
230
1.0
  2
SOLID
 70
     1
 71
     0
 91
        1
 92
        1
 93
        3
 72
     1
 10
3.857721997361914
 20
6.475317784975901
 11
3.85307440753181
 21
6.45335388642838
 72
     1
 10
3.85307440753181
 20
6.45335388642838
 11
3.863940574250894
 21
6.461478199633373
 72
     1
 10
3.863940574250894
 20
6.461478199633373
 11
3.857721997361914
 21
6.475317784975901
 97
        0
 75
     2
 76
     1
 98
        0
  0
INSERT
  5
1BC
330
1F
100
AcDbEntity
  8
Callout
100
AcDbBlockReference
  2
block 16
 10
0.0
 20
0.0
 30
0.0
  0
INSERT
  5
1D3
330
1F
100
AcDbEntity
  8
Callout
100
AcDbBlockReference
  2
block 17
 10
0.0
 20
0.0
 30
0.0
  0
MTEXT
  5
1E9
330
1F
100
AcDbEntity
  8
Callout
 62
   250
420
  2236191
100
AcDbMText
 10
3.071075611644321
 20
4.235703945159912
 30
0.0
 40
0.118
 41
0.0
 46
0.0
 71
     7
 72
     1
  1
\fHelvetica Neue LT Std 55 Roman|b0|i0|c0|p34;\W1;SIMPSON Strong-Tie\H0.068794;®\H0.118; ^C
 73
     1
 44
1.0
  0
MTEXT
  5
1EA
330
1F
100
AcDbEntity
  8
Callout
 62
   250
420
  2236191
100
AcDbMText
 10
2.346032208866543
 20
4.035712083180745
 30
0.0
 40
0.118
 41
0.0
 46
0.0
 71
     7
 72
     1
  1
\fHelvetica Neue LT Std 55 Roman|b0|i0|c0|p34;\W1;H2.5A Truss/Rafter-to-Top Plate Tie Down
 73
     1
 44
1.0
  0
MTEXT
  5
1EB
330
1F
100
AcDbEntity
  8
Callout
 62
   250
420
  2236191
100
AcDbMText
 10
2.954420248667399
 20
7.979776170518663
 30
0.0
 40
0.118
 41
0.0
 46
0.0
 71
     7
 72
     1
  1
\fHelvetica Neue LT Std 57 Condensed|b0|i0|c0|p34;\W1;Truss / Rafter
 73
     1
 44
1.0
  0
MTEXT
  5
1EC
330
1F
100
AcDbEntity
  8
Callout
 62
   250
420
  2236191
100
AcDbMText
 10
3.734081480238173
 20
4.818838225470649
 30
0.0
 40
0.118
 41
0.0
 46
0.0
 71
     7
 72
     1
  1
\fHelvetica Neue LT Std 57 Condensed|b0|i0|c0|p34;\W1;H2.5A
 73
     1
 44
1.0
  0
MTEXT
  5
1ED
330
1F
100
AcDbEntity
  8
Callout
 62
   250
420
  2236191
100
AcDbMText
 10
5.257123947143555
 20
6.892337905036078
 30
0.0
 40
0.118
 41
0.0
 46
0.0
 71
     7
 72
     1
  1
\fHelvetica Neue LT Std 57 Condensed|b0|i0|c0|p34;\W1;Top Plate
 73
     1
 44
1.0
  0
POLYLINE
  5
1EE
330
1F
100
AcDbEntity
  8
Callout
 62
   250
420
  2236191
370
    18
100
AcDb2dPolyline
 66
     1
 10
0.0
 20
0.0
 30
0.0
  0
VERTEX
  5
1EF
330
1EE
100
AcDbEntity
  8
Callout
 62
   250
420
  2236191
370
    18
100
AcDbVertex
100
AcDb2dVertex
 10
3.378831936685894
 20
7.905732860520073
 30
0.0
  0
VERTEX
  5
1F0
330
1EE
100
AcDbEntity
  8
Callout
 62
   250
420
  2236191
370
    18
100
AcDbVertex
100
AcDb2dVertex
 10
3.729235589421036
 20
7.515842560393972
 30
0.0
  0
SEQEND
  5
1F1
330
1EE
100
AcDbEntity
  8
Callout
 62
   250
420
  2236191
370
    18
  0
POLYLINE
  5
1F2
330
1F
100
AcDbEntity
  8
Callout
 62
   250
420
  2236191
370
    18
100
AcDb2dPolyline
 66
     1
 10
0.0
 20
0.0
 30
0.0
  0
VERTEX
  5
1F3
330
1F2
100
AcDbEntity
  8
Callout
 62
   250
420
  2236191
370
    18
100
AcDbVertex
100
AcDb2dVertex
 10
5.479018912529606
 20
6.810080111242364
 30
0.0
  0
VERTEX
  5
1F4
330
1F2
100
AcDbEntity
  8
Callout
 62
   250
420
  2236191
370
    18
100
AcDbVertex
100
AcDb2dVertex
 10
5.257123907551128
 20
6.438612277215902
 30
0.0
  0
SEQEND
  5
1F5
330
1F2
100
AcDbEntity
  8
Callout
 62
   250
420
  2236191
370
    18
  0
POLYLINE
  5
1F6
330
1F
100
AcDbEntity
  8
Callout
 62
   250
420
  2236191
370
    18
100
AcDb2dPolyline
 66
     1
 10
0.0
 20
0.0
 30
0.0
  0
VERTEX
  5
1F7
330
1F6
100
AcDbEntity
  8
Callout
 62
   250
420
  2236191
370
    18
100
AcDbVertex
100
AcDb2dVertex
 10
3.904761352826451
 20
5.018026004728148
 30
0.0
  0
VERTEX
  5
1F8
330
1F6
100
AcDbEntity
  8
Callout
 62
   250
420
  2236191
370
    18
100
AcDbVertex
100
AcDb2dVertex
 10
4.190630110980566
 20
5.59875329829414
 30
0.0
  0
SEQEND
  5
1F9
330
1F6
100
AcDbEntity
  8
Callout
 62
   250
420
  2236191
370
    18
  0
ENDSEC
  0
SECTION
  2
OBJECTS
  0
DICTIONARY
  5
C
330
0
100
AcDbDictionary
281
     1
  3
ACAD_GROUP
350
D
  3
ACAD_LAYOUT
350
1A
  3
ACAD_MATERIAL
350
3B
  3
ACAD_MLEADERSTYLE
350
1FB
  3
ACAD_MLINESTYLE
350
17
  3
ACAD_PLOTSETTINGS
350
19
  3
ACAD_PLOTSTYLENAME
350
E
  3
ACAD_TABLESTYLE
350
1FA
  3
ACAD_VISUALSTYLE
350
2A
  0
SUN
  5
3F
330
29
100
AcDbSun
 90
        1
290
     0
 63
     7
421
 16777215
 40
1.0
291
     1
 91
  2455826
 92
 54000000
292
     0
 70
     2
 71
   256
280
     1
  0
DICTIONARY
  5
D
102
{ACAD_REACTORS
330
C
102
}
330
C
100
AcDbDictionary
281
     1
  0
DICTIONARY
  5
1A
102
{ACAD_REACTORS
330
C
102
}
330
C
100
AcDbDictionary
281
     1
  3
Layout1
350
1E
  3
Layout2
350
26
  3
Model
350
22
  0
DICTIONARY
  5
3B
102
{ACAD_REACTORS
330
C
102
}
330
C
100
AcDbDictionary
281
     1
  3
ByBlock
350
3D
  3
ByLayer
350
3C
  3
Global
350
3E
  0
DICTIONARY
  5
1FB
102
{ACAD_REACTORS
330
C
102
}
330
C
100
AcDbDictionary
281
     1
  0
DICTIONARY
  5
17
102
{ACAD_REACTORS
330
C
102
}
330
C
100
AcDbDictionary
281
     1
  3
Standard
350
18
  0
DICTIONARY
  5
19
102
{ACAD_REACTORS
330
C
102
}
330
C
100
AcDbDictionary
281
     1
  0
ACDBDICTIONARYWDFLT
  5
E
102
{ACAD_REACTORS
330
C
102
}
330
C
100
AcDbDictionary
281
     1
  3
Normal
350
F
100
AcDbDictionaryWithDefault
340
F
  0
DICTIONARY
  5
1FA
102
{ACAD_REACTORS
330
C
102
}
330
C
100
AcDbDictionary
281
     1
  0
DICTIONARY
  5
2A
102
{ACAD_REACTORS
330
C
102
}
330
C
100
AcDbDictionary
281
     1
  3
2dWireframe
350
2F
  3
3D Hidden
350
31
  3
3dWireframe
350
30
  3
Basic
350
32
  3
Brighten
350
36
  3
ColorChange
350
3A
  3
Conceptual
350
34
  3
Dim
350
35
  3
Facepattern
350
39
  3
Flat
350
2B
  3
FlatWithEdges
350
2C
  3
Gouraud
350
2D
  3
GouraudWithEdges
350
2E
  3
Linepattern
350
38
  3
Realistic
350
33
  3
Thicken
350
37
  0
LAYOUT
  5
1E
102
{ACAD_REACTORS
330
1A
102
}
330
1A
100
AcDbPlotSettings
  1

  2
none_device
  4

  6

 40
0.0
 41
0.0
 42
0.0
 43
0.0
 44
0.0
 45
0.0
 46
0.0
 47
0.0
 48
0.0
 49
0.0
140
0.0
141
0.0
142
1.0
143
1.0
 70
   688
 72
     0
 73
     0
 74
     5
  7

 75
    16
 76
     0
 77
     2
 78
   300
147
1.0
148
0.0
149
0.0
100
AcDbLayout
  1
Layout1
 70
     1
 71
     1
 10
0.0
 20
0.0
 11
12.0
 21
9.0
 12
0.0
 22
0.0
 32
0.0
 14
1.000000000000000E+20
 24
1.000000000000000E+20
 34
1.000000000000000E+20
 15
-1.000000000000000E+20
 25
-1.000000000000000E+20
 35
-1.000000000000000E+20
146
0.0
 13
0.0
 23
0.0
 33
0.0
 16
1.0
 26
0.0
 36
0.0
 17
0.0
 27
1.0
 37
0.0
 76
     0
330
1B
  0
LAYOUT
  5
26
102
{ACAD_REACTORS
330
1A
102
}
330
1A
100
AcDbPlotSettings
  1

  2
none_device
  4

  6

 40
0.0
 41
0.0
 42
0.0
 43
0.0
 44
0.0
 45
0.0
 46
0.0
 47
0.0
 48
0.0
 49
0.0
140
0.0
141
0.0
142
1.0
143
1.0
 70
   688
 72
     0
 73
     0
 74
     5
  7

 75
    16
 76
     0
 77
     2
 78
   300
147
1.0
148
0.0
149
0.0
100
AcDbLayout
  1
Layout2
 70
     1
 71
     2
 10
0.0
 20
0.0
 11
0.0
 21
0.0
 12
0.0
 22
0.0
 32
0.0
 14
0.0
 24
0.0
 34
0.0
 15
0.0
 25
0.0
 35
0.0
146
0.0
 13
0.0
 23
0.0
 33
0.0
 16
1.0
 26
0.0
 36
0.0
 17
0.0
 27
1.0
 37
0.0
 76
     0
330
23
  0
LAYOUT
  5
22
102
{ACAD_REACTORS
330
1A
102
}
330
1A
100
AcDbPlotSettings
  1

  2
none_device
  4

  6

 40
0.0
 41
0.0
 42
0.0
 43
0.0
 44
0.0
 45
0.0
 46
0.0
 47
0.0
 48
0.0
 49
0.0
140
0.0
141
0.0
142
1.0
143
1.0
 70
  1712
 72
     0
 73
     0
 74
     0
  7

 75
     0
 76
     0
 77
     2
 78
   300
147
1.0
148
0.0
149
0.0
100
AcDbLayout
  1
Model
 70
     1
 71
     0
 10
0.0
 20
0.0
 11
12.0
 21
9.0
 12
0.0
 22
0.0
 32
0.0
 14
1.000000000000000E+20
 24
1.000000000000000E+20
 34
1.000000000000000E+20
 15
-1.000000000000000E+20
 25
-1.000000000000000E+20
 35
-1.000000000000000E+20
146
0.0
 13
0.0
 23
0.0
 33
0.0
 16
1.0
 26
0.0
 36
0.0
 17
0.0
 27
1.0
 37
0.0
 76
     0
330
1F
331
29
  0
MATERIAL
  5
3D
102
{ACAD_REACTORS
330
3B
102
}
330
3B
100
AcDbMaterial
  1
ByBlock
 72
     1
 94
      127
  0
MATERIAL
  5
3C
102
{ACAD_REACTORS
330
3B
102
}
330
3B
100
AcDbMaterial
  1
ByLayer
 72
     1
 94
      127
  0
MATERIAL
  5
3E
102
{ACAD_REACTORS
330
3B
102
}
330
3B
100
AcDbMaterial
  1
Global
 72
     1
 94
      127
  0
MLINESTYLE
  5
18
102
{ACAD_REACTORS
330
17
102
}
330
17
100
AcDbMlineStyle
  2
Standard
 70
     0
  3

 62
   256
 51
90.0
 52
90.0
 71
     2
 49
0.5
 62
   256
  6
BYLAYER
 49
-0.5
 62
   256
  6
BYLAYER
  0
ACDBPLACEHOLDER
  5
F
102
{ACAD_REACTORS
330
E
102
}
330
E
  0
VISUALSTYLE
  5
2F
102
{ACAD_REACTORS
330
2A
102
}
330
2A
100
AcDbVisualStyle
  2
2dWireframe
 70
     4
177
     2
291
     0
 71
     0
176
     1
 72
     2
176
     1
 73
     0
176
     1
 90
        0
176
     1
 40
-0.6
176
     1
 41
-30.0
176
     1
 62
     5
 63
     7
421
 16777215
176
     1
 74
     1
176
     1
 91
        4
176
     1
 64
     7
176
     1
 65
   257
176
     1
 75
     1
176
     1
175
     1
176
     1
 42
1.0
176
     1
 92
        0
176
     1
 66
   257
176
     1
 43
1.0
176
     1
 76
     1
176
     1
 77
     6
176
     1
 78
     2
176
     1
 67
     7
176
     1
 79
     5
176
     1
170
     0
176
     1
171
     0
176
     1
290
     0
176
     1
 93
        1
176
     1
 44
0.0
176
     1
173
     0
176
     1
  0
VISUALSTYLE
  5
31
102
{ACAD_REACTORS
330
2A
102
}
330
2A
100
AcDbVisualStyle
  2
3D Hidden
 70
     6
177
     2
291
     0
 71
     1
176
     1
 72
     2
176
     1
 73
     2
176
     1
 90
        0
176
     1
 40
-0.6
176
     1
 41
-30.0
176
     1
 62
     5
 63
     7
421
 16777215
176
     1
 74
     2
176
     1
 91
        2
176
     1
 64
     7
176
     1
 65
   257
176
     1
 75
     2
176
     1
175
     1
176
     1
 42
40.0
176
     1
 92
        0
176
     1
 66
   257
176
     1
 43
1.0
176
     1
 76
     1
176
     1
 77
     6
176
     1
 78
     2
176
     1
 67
     7
176
     1
 79
     3
176
     1
170
     0
176
     1
171
     0
176
     1
290
     0
176
     1
 93
        1
176
     1
 44
0.0
176
     1
173
     0
176
     1
  0
VISUALSTYLE
  5
30
102
{ACAD_REACTORS
330
2A
102
}
330
2A
100
AcDbVisualStyle
  2
3dWireframe
 70
     5
177
     2
291
     0
 71
     0
176
     1
 72
     2
176
     1
 73
     0
176
     1
 90
        0
176
     1
 40
-0.6
176
     1
 41
-30.0
176
     1
 62
     5
 63
     7
421
 16777215
176
     1
 74
     1
176
     1
 91
        4
176
     1
 64
     7
176
     1
 65
   257
176
     1
 75
     1
176
     1
175
     1
176
     1
 42
1.0
176
     1
 92
        0
176
     1
 66
   257
176
     1
 43
1.0
176
     1
 76
     1
176
     1
 77
     6
176
     1
 78
     2
176
     1
 67
     7
176
     1
 79
     5
176
     1
170
     0
176
     1
171
     0
176
     1
290
     0
176
     1
 93
        1
176
     1
 44
0.0
176
     1
173
     0
176
     1
  0
VISUALSTYLE
  5
32
102
{ACAD_REACTORS
330
2A
102
}
330
2A
100
AcDbVisualStyle
  2
Basic
 70
     7
177
     2
291
     1
 71
     1
176
     1
 72
     0
176
     1
 73
     1
176
     1
 90
        0
176
     1
 40
-0.6
176
     1
 41
-30.0
176
     1
 62
     5
 63
     7
421
 16777215
176
     1
 74
     0
176
     1
 91
        4
176
     1
 64
     7
176
     1
 65
   257
176
     1
 75
     1
176
     1
175
     1
176
     1
 42
1.0
176
     1
 92
        8
176
     1
 66
     7
176
     1
 43
1.0
176
     1
 76
     1
176
     1
 77
     6
176
     1
 78
     2
176
     1
 67
     7
176
     1
 79
     5
176
     1
170
     0
176
     1
171
     0
176
     1
290
     0
176
     1
 93
        1
176
     1
 44
0.0
176
     1
173
     0
176
     1
  0
VISUALSTYLE
  5
36
102
{ACAD_REACTORS
330
2A
102
}
330
2A
100
AcDbVisualStyle
  2
Brighten
 70
    12
177
     2
291
     1
 71
     2
176
     1
 72
     2
176
     1
 73
     0
176
     1
 90
        0
176
     1
 40
-0.6
176
     1
 41
-30.0
176
     1
 62
     5
 63
     7
421
 16777215
176
     1
 74
     1
176
     1
 91
        4
176
     1
 64
     7
176
     1
 65
   257
176
     1
 75
     1
176
     1
175
     1
176
     1
 42
1.0
176
     1
 92
        8
176
     1
 66
     7
176
     1
 43
1.0
176
     1
 76
     1
176
     1
 77
     6
176
     1
 78
     2
176
     1
 67
     7
176
     1
 79
     5
176
     1
170
     0
176
     1
171
     0
176
     1
290
     0
176
     1
 93
        1
176
     1
 44
50.0
176
     1
173
     0
176
     1
  0
VISUALSTYLE
  5
3A
102
{ACAD_REACTORS
330
2A
102
}
330
2A
100
AcDbVisualStyle
  2
ColorChange
 70
    16
177
     2
291
     1
 71
     2
176
     1
 72
     2
176
     1
 73
     3
176
     1
 90
        0
176
     1
 40
-0.6
176
     1
 41
-30.0
176
     1
 62
     5
 63
     8
421
  8421504
176
     1
 74
     1
176
     1
 91
        4
176
     1
 64
     7
176
     1
 65
   257
176
     1
 75
     1
176
     1
175
     1
176
     1
 42
1.0
176
     1
 92
        8
176
     1
 66
     8
424
  8421504
176
     1
 43
1.0
176
     1
 76
     1
176
     1
 77
     6
176
     1
 78
     2
176
     1
 67
     7
176
     1
 79
     5
176
     1
170
     0
176
     1
171
     0
176
     1
290
     0
176
     1
 93
        1
176
     1
 44
0.0
176
     1
173
     0
176
     1
  0
VISUALSTYLE
  5
34
102
{ACAD_REACTORS
330
2A
102
}
330
2A
100
AcDbVisualStyle
  2
Conceptual
 70
     9
177
     2
291
     0
 71
     3
176
     1
 72
     2
176
     1
 73
     0
176
     1
 90
        0
176
     1
 40
-0.6
176
     1
 41
-30.0
176
     1
 62
     5
 63
     7
421
 16777215
176
     1
 74
     2
176
     1
 91
        2
176
     1
 64
     7
176
     1
 65
   257
176
     1
 75
     1
176
     1
175
     1
176
     1
 42
40.0
176
     1
 92
        8
176
     1
 66
     7
176
     1
 43
1.0
176
     1
 76
     1
176
     1
 77
     6
176
     1
 78
     2
176
     1
 67
     7
176
     1
 79
     3
176
     1
170
     0
176
     1
171
     0
176
     1
290
     0
176
     1
 93
        1
176
     1
 44
0.0
176
     1
173
     0
176
     1
  0
VISUALSTYLE
  5
35
102
{ACAD_REACTORS
330
2A
102
}
330
2A
100
AcDbVisualStyle
  2
Dim
 70
    11
177
     2
291
     1
 71
     2
176
     1
 72
     2
176
     1
 73
     0
176
     1
 90
        0
176
     1
 40
-0.6
176
     1
 41
-30.0
176
     1
 62
     5
 63
     7
421
 16777215
176
     1
 74
     1
176
     1
 91
        4
176
     1
 64
     7
176
     1
 65
   257
176
     1
 75
     1
176
     1
175
     1
176
     1
 42
1.0
176
     1
 92
        8
176
     1
 66
     7
176
     1
 43
1.0
176
     1
 76
     1
176
     1
 77
     6
176
     1
 78
     2
176
     1
 67
     7
176
     1
 79
     5
176
     1
170
     0
176
     1
171
     0
176
     1
290
     0
176
     1
 93
        1
176
     1
 44
-50.0
176
     1
173
     0
176
     1
  0
VISUALSTYLE
  5
39
102
{ACAD_REACTORS
330
2A
102
}
330
2A
100
AcDbVisualStyle
  2
Facepattern
 70
    15
177
     2
291
     1
 71
     2
176
     1
 72
     2
176
     1
 73
     0
176
     1
 90
        0
176
     1
 40
-0.6
176
     1
 41
-30.0
176
     1
 62
     5
 63
     7
421
 16777215
176
     1
 74
     1
176
     1
 91
        4
176
     1
 64
     7
176
     1
 65
   257
176
     1
 75
     1
176
     1
175
     1
176
     1
 42
1.0
176
     1
 92
        8
176
     1
 66
     7
176
     1
 43
1.0
176
     1
 76
     1
176
     1
 77
     6
176
     1
 78
     2
176
     1
 67
     7
176
     1
 79
     5
176
     1
170
     0
176
     1
171
     0
176
     1
290
     0
176
     1
 93
        1
176
     1
 44
0.0
176
     1
173
     0
176
     1
  0
VISUALSTYLE
  5
2B
102
{ACAD_REACTORS
330
2A
102
}
330
2A
100
AcDbVisualStyle
  2
Flat
 70
     0
177
     2
291
     1
 71
     2
176
     1
 72
     1
176
     1
 73
     1
176
     1
 90
        2
176
     1
 40
-0.6
176
     1
 41
30.0
176
     1
 62
     5
 63
     7
421
 16777215
176
     1
 74
     0
176
     1
 91
        4
176
     1
 64
     7
176
     1
 65
   257
176
     1
 75
     1
176
     1
175
     1
176
     1
 42
1.0
176
     1
 92
        8
176
     1
 66
     7
176
     1
 43
1.0
176
     1
 76
     1
176
     1
 77
     6
176
     1
 78
     2
176
     1
 67
     7
176
     1
 79
     5
176
     1
170
     0
176
     1
171
     0
176
     1
290
     0
176
     1
 93
       13
176
     1
 44
0.0
176
     1
173
     0
176
     1
  0
VISUALSTYLE
  5
2C
102
{ACAD_REACTORS
330
2A
102
}
330
2A
100
AcDbVisualStyle
  2
FlatWithEdges
 70
     1
177
     2
291
     1
 71
     2
176
     1
 72
     1
176
     1
 73
     1
176
     1
 90
        2
176
     1
 40
-0.6
176
     1
 41
30.0
176
     1
 62
     5
 63
     7
421
 16777215
176
     1
 74
     1
176
     1
 91
        4
176
     1
 64
     7
176
     1
 65
   257
176
     1
 75
     1
176
     1
175
     1
176
     1
 42
1.0
176
     1
 92
        0
176
     1
 66
   257
176
     1
 43
1.0
176
     1
 76
     1
176
     1
 77
     6
176
     1
 78
     2
176
     1
 67
     7
176
     1
 79
     5
176
     1
170
     0
176
     1
171
     0
176
     1
290
     0
176
     1
 93
       13
176
     1
 44
0.0
176
     1
173
     0
176
     1
  0
VISUALSTYLE
  5
2D
102
{ACAD_REACTORS
330
2A
102
}
330
2A
100
AcDbVisualStyle
  2
Gouraud
 70
     2
177
     2
291
     1
 71
     2
176
     1
 72
     2
176
     1
 73
     1
176
     1
 90
        2
176
     1
 40
-0.6
176
     1
 41
30.0
176
     1
 62
     5
 63
     7
421
 16777215
176
     1
 74
     0
176
     1
 91
        4
176
     1
 64
     7
176
     1
 65
   257
176
     1
 75
     1
176
     1
175
     1
176
     1
 42
1.0
176
     1
 92
        0
176
     1
 66
     7
176
     1
 43
1.0
176
     1
 76
     1
176
     1
 77
     6
176
     1
 78
     2
176
     1
 67
     7
176
     1
 79
     5
176
     1
170
     0
176
     1
171
     0
176
     1
290
     0
176
     1
 93
       13
176
     1
 44
0.0
176
     1
173
     0
176
     1
  0
VISUALSTYLE
  5
2E
102
{ACAD_REACTORS
330
2A
102
}
330
2A
100
AcDbVisualStyle
  2
GouraudWithEdges
 70
     3
177
     2
291
     1
 71
     2
176
     1
 72
     2
176
     1
 73
     1
176
     1
 90
        2
176
     1
 40
-0.6
176
     1
 41
30.0
176
     1
 62
     5
 63
     7
421
 16777215
176
     1
 74
     1
176
     1
 91
        4
176
     1
 64
     7
176
     1
 65
   257
176
     1
 75
     1
176
     1
175
     1
176
     1
 42
1.0
176
     1
 92
        0
176
     1
 66
   257
176
     1
 43
1.0
176
     1
 76
     1
176
     1
 77
     6
176
     1
 78
     2
176
     1
 67
     7
176
     1
 79
     5
176
     1
170
     0
176
     1
171
     0
176
     1
290
     0
176
     1
 93
       13
176
     1
 44
0.0
176
     1
173
     0
176
     1
  0
VISUALSTYLE
  5
38
102
{ACAD_REACTORS
330
2A
102
}
330
2A
100
AcDbVisualStyle
  2
Linepattern
 70
    14
177
     2
291
     1
 71
     2
176
     1
 72
     2
176
     1
 73
     0
176
     1
 90
        0
176
     1
 40
-0.6
176
     1
 41
-30.0
176
     1
 62
     5
 63
     7
421
 16777215
176
     1
 74
     1
176
     1
 91
        4
176
     1
 64
     7
176
     1
 65
   257
176
     1
 75
     7
176
     1
175
     7
176
     1
 42
1.0
176
     1
 92
        8
176
     1
 66
     7
176
     1
 43
1.0
176
     1
 76
     1
176
     1
 77
     6
176
     1
 78
     2
176
     1
 67
     7
176
     1
 79
     5
176
     1
170
     0
176
     1
171
     0
176
     1
290
     0
176
     1
 93
        1
176
     1
 44
0.0
176
     1
173
     0
176
     1
  0
VISUALSTYLE
  5
33
102
{ACAD_REACTORS
330
2A
102
}
330
2A
100
AcDbVisualStyle
  2
Realistic
 70
     8
177
     2
291
     0
 71
     2
176
     1
 72
     2
176
     1
 73
     0
176
     1
 90
        0
176
     1
 40
-0.6
176
     1
 41
-30.0
176
     1
 62
     5
 63
     7
421
 16777215
176
     1
 74
     1
176
     1
 91
        0
176
     1
 64
     7
176
     1
 65
   257
176
     1
 75
     1
176
     1
175
     1
176
     1
 42
1.0
176
     1
 92
        8
176
     1
 66
     8
424
  7895160
176
     1
 43
1.0
176
     1
 76
     1
176
     1
 77
     6
176
     1
 78
     2
176
     1
 67
     7
176
     1
 79
     5
176
     1
170
     0
176
     1
171
     0
176
     1
290
     0
176
     1
 93
       13
176
     1
 44
0.0
176
     1
173
     0
176
     1
  0
VISUALSTYLE
  5
37
102
{ACAD_REACTORS
330
2A
102
}
330
2A
100
AcDbVisualStyle
  2
Thicken
 70
    13
177
     2
291
     1
 71
     2
176
     1
 72
     2
176
     1
 73
     0
176
     1
 90
        0
176
     1
 40
-0.6
176
     1
 41
-30.0
176
     1
 62
     5
 63
     7
421
 16777215
176
     1
 74
     1
176
     1
 91
        4
176
     1
 64
     7
176
     1
 65
   257
176
     1
 75
     1
176
     1
175
     1
176
     1
 42
1.0
176
     1
 92
       12
176
     1
 66
     7
176
     1
 43
1.0
176
     1
 76
     1
176
     1
 77
     6
176
     1
 78
     2
176
     1
 67
     7
176
     1
 79
     5
176
     1
170
     0
176
     1
171
     0
176
     1
290
     0
176
     1
 93
        1
176
     1
 44
0.0
176
     1
173
     0
176
     1
  0
ENDSEC
  0
EOF
