  0
SECTION
  2
HEADER
  9
$ACADVER
  1
AC1024
  9
$ACADMAINTVER
 70
     6
  9
$DWGCODEPAGE
  3
ANSI_1252
  9
$INSBASE
 10
0.0
 20
0.0
 30
0.0
  9
$EXTMIN
 10
1.000000000000000E+20
 20
1.000000000000000E+20
 30
1.000000000000000E+20
  9
$EXTMAX
 10
-1.000000000000000E+20
 20
-1.000000000000000E+20
 30
-1.000000000000000E+20
  9
$LIMMIN
 10
0.0
 20
0.0
  9
$LIMMAX
 10
12.0
 20
9.0
  9
$ORTHOMODE
 70
     0
  9
$REGENMODE
 70
     1
  9
$FILLMODE
 70
     1
  9
$QTEXTMODE
 70
     0
  9
$MIRRTEXT
 70
     1
  9
$LTSCALE
 40
1.0
  9
$ATTMODE
 70
     1
  9
$TEXTSIZE
 40
0.2
  9
$TRACEWID
 40
0.05
  9
$TEXTSTYLE
  7
Standard
  9
$CLAYER
  8
0
  9
$CELTYPE
  6
ByLayer
  9
$CECOLOR
 62
   256
  9
$CELTSCALE
 40
1.0
  9
$DISPSILH
 70
     0
  9
$DIMSCALE
 40
1.0
  9
$DIMASZ
 40
0.18
  9
$DIMEXO
 40
0.0625
  9
$DIMDLI
 40
0.38
  9
$DIMRND
 40
0.0
  9
$DIMDLE
 40
0.0
  9
$DIMEXE
 40
0.18
  9
$DIMTP
 40
0.0
  9
$DIMTM
 40
0.0
  9
$DIMTXT
 40
0.18
  9
$DIMCEN
 40
0.09
  9
$DIMTSZ
 40
0.0
  9
$DIMTOL
 70
     0
  9
$DIMLIM
 70
     0
  9
$DIMTIH
 70
     1
  9
$DIMTOH
 70
     1
  9
$DIMSE1
 70
     0
  9
$DIMSE2
 70
     0
  9
$DIMTAD
 70
     0
  9
$DIMZIN
 70
     0
  9
$DIMBLK
  1

  9
$DIMASO
 70
     1
  9
$DIMSHO
 70
     1
  9
$DIMPOST
  1

  9
$DIMAPOST
  1

  9
$DIMALT
 70
     0
  9
$DIMALTD
 70
     2
  9
$DIMALTF
 40
25.4
  9
$DIMLFAC
 40
1.0
  9
$DIMTOFL
 70
     0
  9
$DIMTVP
 40
0.0
  9
$DIMTIX
 70
     0
  9
$DIMSOXD
 70
     0
  9
$DIMSAH
 70
     0
  9
$DIMBLK1
  1

  9
$DIMBLK2
  1

  9
$DIMSTYLE
  2
Standard
  9
$DIMCLRD
 70
     0
  9
$DIMCLRE
 70
     0
  9
$DIMCLRT
 70
     0
  9
$DIMTFAC
 40
1.0
  9
$DIMGAP
 40
0.09
  9
$DIMJUST
 70
     0
  9
$DIMSD1
 70
     0
  9
$DIMSD2
 70
     0
  9
$DIMTOLJ
 70
     1
  9
$DIMTZIN
 70
     0
  9
$DIMALTZ
 70
     0
  9
$DIMALTTZ
 70
     0
  9
$DIMUPT
 70
     0
  9
$DIMDEC
 70
     4
  9
$DIMTDEC
 70
     4
  9
$DIMALTU
 70
     2
  9
$DIMALTTD
 70
     2
  9
$DIMTXSTY
  7
Standard
  9
$DIMAUNIT
 70
     0
  9
$DIMADEC
 70
     0
  9
$DIMALTRND
 40
0.0
  9
$DIMAZIN
 70
     0
  9
$DIMDSEP
 70
    46
  9
$DIMATFIT
 70
     3
  9
$DIMFRAC
 70
     0
  9
$DIMLDRBLK
  1

  9
$DIMLUNIT
 70
     2
  9
$DIMLWD
 70
    -2
  9
$DIMLWE
 70
    -2
  9
$DIMTMOVE
 70
     0
  9
$DIMFXL
 40
1.0
  9
$DIMFXLON
 70
     0
  9
$DIMJOGANG
 40
0.7853981633974483
  9
$DIMTFILL
 70
     0
  9
$DIMTFILLCLR
 70
     0
  9
$DIMARCSYM
 70
     0
  9
$DIMLTYPE
  6

  9
$DIMLTEX1
  6

  9
$DIMLTEX2
  6

  9
$DIMTXTDIRECTION
 70
     0
  9
$LUNITS
 70
     2
  9
$LUPREC
 70
     4
  9
$SKETCHINC
 40
0.1
  9
$FILLETRAD
 40
0.5
  9
$AUNITS
 70
     0
  9
$AUPREC
 70
     0
  9
$MENU
  1
.
  9
$ELEVATION
 40
0.0
  9
$PELEVATION
 40
0.0
  9
$THICKNESS
 40
0.0
  9
$LIMCHECK
 70
     0
  9
$CHAMFERA
 40
0.5
  9
$CHAMFERB
 40
0.5
  9
$CHAMFERC
 40
1.0
  9
$CHAMFERD
 40
0.0
  9
$SKPOLY
 70
     0
  9
$TDCREATE
 40
2458775.661800995
  9
$TDUCREATE
 40
2458775.120134328
  9
$TDUPDATE
 40
2458775.66180118
  9
$TDUUPDATE
 40
2458775.120134514
  9
$TDINDWG
 40
0.0000000116
  9
$TDUSRTIMER
 40
0.0000000116
  9
$USRTIMER
 70
     1
  9
$ANGBASE
 50
0.0
  9
$ANGDIR
 70
     0
  9
$PDMODE
 70
     0
  9
$PDSIZE
 40
0.0
  9
$PLINEWID
 40
0.0
  9
$SPLFRAME
 70
     0
  9
$SPLINETYPE
 70
     6
  9
$SPLINESEGS
 70
     8
  9
$HANDSEED
  5
1CD
  9
$SURFTAB1
 70
     6
  9
$SURFTAB2
 70
     6
  9
$SURFTYPE
 70
     6
  9
$SURFU
 70
     6
  9
$SURFV
 70
     6
  9
$UCSBASE
  2

  9
$UCSNAME
  2

  9
$UCSORG
 10
0.0
 20
0.0
 30
0.0
  9
$UCSXDIR
 10
1.0
 20
0.0
 30
0.0
  9
$UCSYDIR
 10
0.0
 20
1.0
 30
0.0
  9
$UCSORTHOREF
  2

  9
$UCSORTHOVIEW
 70
     0
  9
$UCSORGTOP
 10
0.0
 20
0.0
 30
0.0
  9
$UCSORGBOTTOM
 10
0.0
 20
0.0
 30
0.0
  9
$UCSORGLEFT
 10
0.0
 20
0.0
 30
0.0
  9
$UCSORGRIGHT
 10
0.0
 20
0.0
 30
0.0
  9
$UCSORGFRONT
 10
0.0
 20
0.0
 30
0.0
  9
$UCSORGBACK
 10
0.0
 20
0.0
 30
0.0
  9
$PUCSBASE
  2

  9
$PUCSNAME
  2

  9
$PUCSORG
 10
0.0
 20
0.0
 30
0.0
  9
$PUCSXDIR
 10
1.0
 20
0.0
 30
0.0
  9
$PUCSYDIR
 10
0.0
 20
1.0
 30
0.0
  9
$PUCSORTHOREF
  2

  9
$PUCSORTHOVIEW
 70
     0
  9
$PUCSORGTOP
 10
0.0
 20
0.0
 30
0.0
  9
$PUCSORGBOTTOM
 10
0.0
 20
0.0
 30
0.0
  9
$PUCSORGLEFT
 10
0.0
 20
0.0
 30
0.0
  9
$PUCSORGRIGHT
 10
0.0
 20
0.0
 30
0.0
  9
$PUCSORGFRONT
 10
0.0
 20
0.0
 30
0.0
  9
$PUCSORGBACK
 10
0.0
 20
0.0
 30
0.0
  9
$USERI1
 70
     0
  9
$USERI2
 70
     0
  9
$USERI3
 70
     0
  9
$USERI4
 70
     0
  9
$USERI5
 70
     0
  9
$USERR1
 40
0.0
  9
$USERR2
 40
0.0
  9
$USERR3
 40
0.0
  9
$USERR4
 40
0.0
  9
$USERR5
 40
0.0
  9
$WORLDVIEW
 70
     1
  9
$SHADEDGE
 70
     3
  9
$SHADEDIF
 70
    70
  9
$TILEMODE
 70
     1
  9
$MAXACTVP
 70
    64
  9
$PINSBASE
 10
0.0
 20
0.0
 30
0.0
  9
$PLIMCHECK
 70
     0
  9
$PEXTMIN
 10
1.000000000000000E+20
 20
1.000000000000000E+20
 30
1.000000000000000E+20
  9
$PEXTMAX
 10
-1.000000000000000E+20
 20
-1.000000000000000E+20
 30
-1.000000000000000E+20
  9
$PLIMMIN
 10
0.0
 20
0.0
  9
$PLIMMAX
 10
12.0
 20
9.0
  9
$UNITMODE
 70
     0
  9
$VISRETAIN
 70
     1
  9
$PLINEGEN
 70
     0
  9
$PSLTSCALE
 70
     1
  9
$TREEDEPTH
 70
  3020
  9
$CMLSTYLE
  2
Standard
  9
$CMLJUST
 70
     0
  9
$CMLSCALE
 40
1.0
  9
$PROXYGRAPHICS
 70
     1
  9
$MEASUREMENT
 70
     0
  9
$CELWEIGHT
370
    -1
  9
$ENDCAPS
280
     0
  9
$JOINSTYLE
280
     0
  9
$LWDISPLAY
290
     1
  9
$INSUNITS
 70
     1
  9
$HYPERLINKBASE
  1

  9
$STYLESHEET
  1

  9
$XEDIT
290
     1
  9
$CEPSNTYPE
380
     0
  9
$PSTYLEMODE
290
     1
  9
$FINGERPRINTGUID
  2
{B459979D-7418-4EAA-B9FB-4DB9244BC3A7}
  9
$VERSIONGUID
  2
{FAEB1C32-E019-11D5-929B-00C0DF256EC4}
  9
$EXTNAMES
290
     1
  9
$PSVPSCALE
 40
0.0
  9
$OLESTARTUP
290
     0
  9
$SORTENTS
280
   127
  9
$INDEXCTL
280
     0
  9
$HIDETEXT
280
     1
  9
$XCLIPFRAME
280
     2
  9
$HALOGAP
280
     0
  9
$OBSCOLOR
 70
   257
  9
$OBSLTYPE
280
     0
  9
$INTERSECTIONDISPLAY
280
     0
  9
$INTERSECTIONCOLOR
 70
   257
  9
$DIMASSOC
280
     2
  9
$PROJECTNAME
  1

  9
$CAMERADISPLAY
290
     0
  9
$LENSLENGTH
 40
50.0
  9
$CAMERAHEIGHT
 40
0.0
  9
$STEPSPERSEC
 40
2.0
  9
$STEPSIZE
 40
6.0
  9
$3DDWFPREC
 40
2.0
  9
$PSOLWIDTH
 40
0.25
  9
$PSOLHEIGHT
 40
4.0
  9
$LOFTANG1
 40
1.570796326794897
  9
$LOFTANG2
 40
1.570796326794897
  9
$LOFTMAG1
 40
0.0
  9
$LOFTMAG2
 40
0.0
  9
$LOFTPARAM
 70
     7
  9
$LOFTNORMALS
280
     1
  9
$LATITUDE
 40
37.795
  9
$LONGITUDE
 40
-122.394
  9
$NORTHDIRECTION
 40
0.0
  9
$TIMEZONE
 70
 -8000
  9
$LIGHTGLYPHDISPLAY
280
     1
  9
$TILEMODELIGHTSYNCH
280
     1
  9
$CMATERIAL
347
3C
  9
$SOLIDHIST
280
     1
  9
$SHOWHIST
280
     1
  9
$DWFFRAME
280
     2
  9
$DGNFRAME
280
     2
  9
$REALWORLDSCALE
290
     1
  9
$INTERFERECOLOR
 62
   256
  9
$CSHADOW
280
     0
  9
$SHADOWPLANELOCATION
 40
0.0
  0
ENDSEC
  0
SECTION
  2
CLASSES
  0
CLASS
  1
ACDBDICTIONARYWDFLT
  2
AcDbDictionaryWithDefault
  3
ObjectDBX Classes
 90
        0
 91
        4
280
     0
281
     0
  0
CLASS
  1
VISUALSTYLE
  2
AcDbVisualStyle
  3
ObjectDBX Classes
 90
     4095
 91
        4
280
     0
281
     0
  0
CLASS
  1
MATERIAL
  2
AcDbMaterial
  3
ObjectDBX Classes
 90
     1153
 91
        4
280
     0
281
     0
  0
CLASS
  1
SUN
  2
AcDbSun
  3
SCENEOE
 90
     1024
 91
        4
280
     0
281
     0
  0
ENDSEC
  0
SECTION
  2
TABLES
  0
TABLE
  2
VPORT
  5
8
330
0
100
AcDbSymbolTable
 70
     1
  0
VPORT
  5
29
330
8
100
AcDbSymbolTableRecord
100
AcDbViewportTableRecord
  2
*Active
 70
     0
 10
0.0
 20
0.0
 11
1.0
 21
1.0
 12
0.0
 22
0.0
 13
0.0
 23
0.0
 14
0.5
 24
0.5
 15
0.5
 25
0.5
 16
0.0
 26
0.0
 36
1.0
 17
3.793208931953258
 27
6.03594295286224
 37
0.0
 40
11.69291338582677
 41
0.7070707070707065
 42
50.0
 43
0.0
 44
0.0
 50
0.0
 51
0.0
 71
     0
 72
   100
 73
     1
 74
     3
 75
     0
 76
     0
 77
     0
 78
     0
281
     0
 65
     1
110
0.0
120
0.0
130
0.0
111
1.0
121
0.0
131
0.0
112
0.0
122
1.0
132
0.0
 79
     0
146
0.0
 60
     3
 61
     5
292
     1
282
     1
141
0.0
142
0.0
 63
   250
361
3F
  0
ENDTAB
  0
TABLE
  2
LTYPE
  5
5
330
0
100
AcDbSymbolTable
 70
     1
  0
LTYPE
  5
14
330
5
100
AcDbSymbolTableRecord
100
AcDbLinetypeTableRecord
  2
ByBlock
 70
     0
  3

 72
    65
 73
     0
 40
0.0
  0
LTYPE
  5
15
330
5
100
AcDbSymbolTableRecord
100
AcDbLinetypeTableRecord
  2
ByLayer
 70
     0
  3

 72
    65
 73
     0
 40
0.0
  0
LTYPE
  5
16
330
5
100
AcDbSymbolTableRecord
100
AcDbLinetypeTableRecord
  2
Continuous
 70
     0
  3
Solid line
 72
    65
 73
     0
 40
0.0
  0
ENDTAB
  0
TABLE
  2
LAYER
  5
2
330
0
100
AcDbSymbolTable
 70
     4
  0
LAYER
  5
10
330
2
100
AcDbSymbolTableRecord
100
AcDbLayerTableRecord
  2
0
 70
     0
 62
     7
  6
Continuous
370
    -3
390
F
347
3E
  0
LAYER
  5
40
330
2
100
AcDbSymbolTableRecord
100
AcDbLayerTableRecord
  2
Wood
 70
     0
 62
     7
  6
Continuous
370
    -3
390
F
347
3E
  0
LAYER
  5
111
330
2
100
AcDbSymbolTableRecord
100
AcDbLayerTableRecord
  2
H2.5A
 70
     0
 62
     7
  6
Continuous
370
    -3
390
F
347
3E
  0
LAYER
  5
1B6
330
2
100
AcDbSymbolTableRecord
100
AcDbLayerTableRecord
  2
Callout
 70
     0
 62
     7
  6
Continuous
370
    -3
390
F
347
3E
  0
ENDTAB
  0
TABLE
  2
STYLE
  5
3
330
0
100
AcDbSymbolTable
 70
     1
  0
STYLE
  5
11
330
3
100
AcDbSymbolTableRecord
100
AcDbTextStyleTableRecord
  2
Standard
 70
     0
 40
0.0
 41
1.0
 50
0.0
 71
     0
 42
0.2
  3
txt
  4

  0
ENDTAB
  0
TABLE
  2
VIEW
  5
6
330
0
100
AcDbSymbolTable
 70
     0
  0
ENDTAB
  0
TABLE
  2
UCS
  5
7
330
0
100
AcDbSymbolTable
 70
     0
  0
ENDTAB
  0
TABLE
  2
APPID
  5
9
330
0
100
AcDbSymbolTable
 70
     1
  0
APPID
  5
12
330
9
100
AcDbSymbolTableRecord
100
AcDbRegAppTableRecord
  2
ACAD
 70
     0
  0
ENDTAB
  0
TABLE
  2
DIMSTYLE
  5
A
330
0
100
AcDbSymbolTable
 70
     1
100
AcDbDimStyleTable
  0
DIMSTYLE
105
27
330
A
100
AcDbSymbolTableRecord
100
AcDbDimStyleTableRecord
  2
Standard
 70
     0
178
     0
340
11
  0
ENDTAB
  0
TABLE
  2
BLOCK_RECORD
  5
1
330
0
100
AcDbSymbolTable
 70
    23
  0
BLOCK_RECORD
  5
1F
330
1
100
AcDbSymbolTableRecord
100
AcDbBlockTableRecord
  2
*Model_Space
340
22
 70
     0
280
     1
281
     0
  0
BLOCK_RECORD
  5
1B
330
1
100
AcDbSymbolTableRecord
100
AcDbBlockTableRecord
  2
*Paper_Space
340
1E
 70
     0
280
     1
281
     0
  0
BLOCK_RECORD
  5
23
330
1
100
AcDbSymbolTableRecord
100
AcDbBlockTableRecord
  2
*Paper_Space0
340
26
 70
     0
280
     1
281
     0
  0
BLOCK_RECORD
  5
41
330
1
100
AcDbSymbolTableRecord
100
AcDbBlockTableRecord
  2
block 2
340
0
102
{BLKREFS
331
42
102
}
 70
     0
280
     1
281
     0
  0
BLOCK_RECORD
  5
45
330
1
100
AcDbSymbolTableRecord
100
AcDbBlockTableRecord
  2
block 3
340
0
102
{BLKREFS
331
46
102
}
 70
     0
280
     1
281
     0
  0
BLOCK_RECORD
  5
90
330
1
100
AcDbSymbolTableRecord
100
AcDbBlockTableRecord
  2
block 4
340
0
102
{BLKREFS
331
91
102
}
 70
     0
280
     1
281
     0
  0
BLOCK_RECORD
  5
D7
330
1
100
AcDbSymbolTableRecord
100
AcDbBlockTableRecord
  2
block 5
340
0
102
{BLKREFS
331
D8
102
}
 70
     0
280
     1
281
     0
  0
BLOCK_RECORD
  5
130
330
1
100
AcDbSymbolTableRecord
100
AcDbBlockTableRecord
  2
block 6
340
0
102
{BLKREFS
331
131
102
}
 70
     0
280
     1
281
     0
  0
BLOCK_RECORD
  5
136
330
1
100
AcDbSymbolTableRecord
100
AcDbBlockTableRecord
  2
block 7
340
0
102
{BLKREFS
331
137
102
}
 70
     0
280
     1
281
     0
  0
BLOCK_RECORD
  5
13C
330
1
100
AcDbSymbolTableRecord
100
AcDbBlockTableRecord
  2
block 8
340
0
102
{BLKREFS
331
13D
102
}
 70
     0
280
     1
281
     0
  0
BLOCK_RECORD
  5
142
330
1
100
AcDbSymbolTableRecord
100
AcDbBlockTableRecord
  2
block 9
340
0
102
{BLKREFS
331
143
102
}
 70
     0
280
     1
281
     0
  0
BLOCK_RECORD
  5
148
330
1
100
AcDbSymbolTableRecord
100
AcDbBlockTableRecord
  2
block 10
340
0
102
{BLKREFS
331
149
102
}
 70
     0
280
     1
281
     0
  0
BLOCK_RECORD
  5
14E
330
1
100
AcDbSymbolTableRecord
100
AcDbBlockTableRecord
  2
block 11
340
0
102
{BLKREFS
331
14F
102
}
 70
     0
280
     1
281
     0
  0
BLOCK_RECORD
  5
154
330
1
100
AcDbSymbolTableRecord
100
AcDbBlockTableRecord
  2
block 12
340
0
102
{BLKREFS
331
155
102
}
 70
     0
280
     1
281
     0
  0
BLOCK_RECORD
  5
15A
330
1
100
AcDbSymbolTableRecord
100
AcDbBlockTableRecord
  2
block 13
340
0
102
{BLKREFS
331
15B
102
}
 70
     0
280
     1
281
     0
  0
BLOCK_RECORD
  5
160
330
1
100
AcDbSymbolTableRecord
100
AcDbBlockTableRecord
  2
block 14
340
0
102
{BLKREFS
331
161
102
}
 70
     0
280
     1
281
     0
  0
BLOCK_RECORD
  5
166
330
1
100
AcDbSymbolTableRecord
100
AcDbBlockTableRecord
  2
block 15
340
0
102
{BLKREFS
331
167
102
}
 70
     0
280
     1
281
     0
  0
BLOCK_RECORD
  5
16C
330
1
100
AcDbSymbolTableRecord
100
AcDbBlockTableRecord
  2
block 16
340
0
102
{BLKREFS
331
16D
102
}
 70
     0
280
     1
281
     0
  0
BLOCK_RECORD
  5
172
330
1
100
AcDbSymbolTableRecord
100
AcDbBlockTableRecord
  2
block 17
340
0
102
{BLKREFS
331
173
102
}
 70
     0
280
     1
281
     0
  0
BLOCK_RECORD
  5
184
330
1
100
AcDbSymbolTableRecord
100
AcDbBlockTableRecord
  2
block 18
340
0
102
{BLKREFS
331
185
102
}
 70
     0
280
     1
281
     0
  0
BLOCK_RECORD
  5
188
330
1
100
AcDbSymbolTableRecord
100
AcDbBlockTableRecord
  2
block 19
340
0
102
{BLKREFS
331
189
102
}
 70
     0
280
     1
281
     0
  0
BLOCK_RECORD
  5
18E
330
1
100
AcDbSymbolTableRecord
100
AcDbBlockTableRecord
  2
block 20
340
0
102
{BLKREFS
331
18F
102
}
 70
     0
280
     1
281
     0
  0
BLOCK_RECORD
  5
19D
330
1
100
AcDbSymbolTableRecord
100
AcDbBlockTableRecord
  2
block 21
340
0
102
{BLKREFS
331
19E
102
}
 70
     0
280
     1
281
     0
  0
BLOCK_RECORD
  5
1A1
330
1
100
AcDbSymbolTableRecord
100
AcDbBlockTableRecord
  2
block 22
340
0
102
{BLKREFS
331
1A2
102
}
 70
     0
280
     1
281
     0
  0
BLOCK_RECORD
  5
1A7
330
1
100
AcDbSymbolTableRecord
100
AcDbBlockTableRecord
  2
block 23
340
0
102
{BLKREFS
331
1A8
102
}
 70
     0
280
     1
281
     0
  0
ENDTAB
  0
ENDSEC
  0
SECTION
  2
BLOCKS
  0
BLOCK
  5
20
330
1F
100
AcDbEntity
  8
0
100
AcDbBlockBegin
  2
*Model_Space
 70
     0
 10
0.0
 20
0.0
 30
0.0
  3
*Model_Space
  1

  0
ENDBLK
  5
21
330
1F
100
AcDbEntity
  8
0
100
AcDbBlockEnd
  0
BLOCK
  5
1C
330
1B
100
AcDbEntity
 67
     1
  8
0
100
AcDbBlockBegin
  2
*Paper_Space
 70
     0
 10
0.0
 20
0.0
 30
0.0
  3
*Paper_Space
  1

  0
ENDBLK
  5
1D
330
1B
100
AcDbEntity
 67
     1
  8
0
100
AcDbBlockEnd
  0
BLOCK
  5
24
330
23
100
AcDbEntity
  8
0
100
AcDbBlockBegin
  2
*Paper_Space0
 70
     0
 10
0.0
 20
0.0
 30
0.0
  3
*Paper_Space0
  1

  0
ENDBLK
  5
25
330
23
100
AcDbEntity
  8
0
100
AcDbBlockEnd
  0
BLOCK
  5
43
330
41
100
AcDbEntity
  8
0
100
AcDbBlockBegin
  2
block 2
 70
     0
 10
0.0
 20
0.0
 30
0.0
  3
block 2
  1

  0
INSERT
  5
46
330
41
100
AcDbEntity
  8
Wood
100
AcDbBlockReference
  2
block 3
 10
0.0
 20
0.0
 30
0.0
  0
INSERT
  5
91
330
41
100
AcDbEntity
  8
Wood
100
AcDbBlockReference
  2
block 4
 10
0.0
 20
0.0
 30
0.0
  0
ENDBLK
  5
44
330
41
100
AcDbEntity
  8
0
100
AcDbBlockEnd
  0
BLOCK
  5
47
330
45
100
AcDbEntity
  8
0
100
AcDbBlockBegin
  2
block 3
 70
     0
 10
0.0
 20
0.0
 30
0.0
  3
block 3
  1

  0
POLYLINE
  5
49
330
45
100
AcDbEntity
  8
Wood
 62
   250
420
  2301728
370
    25
100
AcDb2dPolyline
 66
     1
 10
0.0
 20
0.0
 30
0.0
  0
VERTEX
  5
4A
330
49
100
AcDbEntity
  8
Wood
 62
   250
420
  2301728
370
    25
100
AcDbVertex
100
AcDb2dVertex
 10
4.660879246988088
 20
5.9735862667943
 30
0.0
  0
VERTEX
  5
4B
330
49
100
AcDbEntity
  8
Wood
 62
   250
420
  2301728
370
    25
100
AcDbVertex
100
AcDb2dVertex
 10
4.9673977127935
 20
6.085359399877815
 30
0.0
  0
VERTEX
  5
4C
330
49
100
AcDbEntity
  8
Wood
 62
   250
420
  2301728
370
    25
100
AcDbVertex
100
AcDb2dVertex
 10
4.9673977127935
 20
7.249723795103742
 30
0.0
  0
VERTEX
  5
4D
330
49
100
AcDbEntity
  8
Wood
 62
   250
420
  2301728
370
    25
100
AcDbVertex
100
AcDb2dVertex
 10
2.416060837540107
 20
8.097280590741484
 30
0.0
  0
VERTEX
  5
4E
330
49
100
AcDbEntity
  8
Wood
 62
   250
420
  2301728
370
    25
100
AcDbVertex
100
AcDb2dVertex
 10
2.136871129594144
 20
8.039736268173744
 30
0.0
  0
VERTEX
  5
4F
330
49
100
AcDbEntity
  8
Wood
 62
   250
420
  2301728
370
    25
100
AcDbVertex
100
AcDb2dVertex
 10
2.171384296126196
 20
7.082386718767035
 30
0.0
  0
VERTEX
  5
50
330
49
100
AcDbEntity
  8
Wood
 62
   250
420
  2301728
370
    25
100
AcDbVertex
100
AcDb2dVertex
 10
4.660879246988088
 20
5.9735862667943
 30
0.0
  0
SEQEND
  5
52
330
49
100
AcDbEntity
  8
Wood
 62
   250
420
  2301728
370
    25
  0
HATCH
  5
51
330
45
100
AcDbEntity
  8
Wood
 62
    43
420
 11708797
100
AcDbHatch
 10
0.0
 20
0.0
 30
0.0
210
0.0
220
0.0
230
1.0
  2
SOLID
 70
     1
 71
     0
 91
        1
 92
        1
 93
        6
 72
     1
 10
4.660879246988088
 20
5.9735862667943
 11
4.9673977127935
 21
6.085359399877815
 72
     1
 10
4.9673977127935
 20
6.085359399877815
 11
4.9673977127935
 21
7.249723795103742
 72
     1
 10
4.9673977127935
 20
7.249723795103742
 11
2.416060837540107
 21
8.097280590741484
 72
     1
 10
2.416060837540107
 20
8.097280590741484
 11
2.136871129594144
 21
8.039736268173744
 72
     1
 10
2.136871129594144
 20
8.039736268173744
 11
2.171384296126196
 21
7.082386718767035
 72
     1
 10
2.171384296126196
 20
7.082386718767035
 11
4.660879246988088
 21
5.9735862667943
 97
        0
 75
     2
 76
     1
 98
        0
  0
POLYLINE
  5
53
330
45
100
AcDbEntity
  8
Wood
 62
   250
420
  2301728
370
    25
100
AcDb2dPolyline
 66
     1
 10
0.0
 20
0.0
 30
0.0
  0
VERTEX
  5
54
330
53
100
AcDbEntity
  8
Wood
 62
   250
420
  2301728
370
    25
100
AcDbVertex
100
AcDb2dVertex
 10
3.793583760109199
 20
5.384347806183844
 30
0.0
  0
VERTEX
  5
1C8
330
53
100
AcDbEntity
  8
0
100
AcDbVertex
100
AcDb2dVertex
 10
3.793583760109199
 20
5.384347806183844
 30
0.0
  0
SEQEND
  5
55
330
53
100
AcDbEntity
  8
Wood
 62
   250
420
  2301728
370
    25
  0
POLYLINE
  5
56
330
45
100
AcDbEntity
  8
Wood
 62
   250
420
  2301728
370
    18
100
AcDb2dPolyline
 66
     1
 10
0.0
 20
0.0
 30
0.0
  0
VERTEX
  5
57
330
56
100
AcDbEntity
  8
Wood
 62
   250
420
  2301728
370
    18
100
AcDbVertex
100
AcDb2dVertex
 10
4.662302509899594
 20
5.973193047256751
 30
0.0
  0
VERTEX
  5
58
330
56
100
AcDbEntity
  8
Wood
 62
   250
420
  2301728
370
    18
100
AcDbVertex
100
AcDb2dVertex
 10
4.662302509899594
 20
7.177325260283371
 30
0.0
  0
VERTEX
  5
59
330
56
100
AcDbEntity
  8
Wood
 62
   250
420
  2301728
370
    18
100
AcDbVertex
100
AcDb2dVertex
 10
4.968334726179314
 20
7.249723795103742
 30
0.0
  0
SEQEND
  5
5B
330
56
100
AcDbEntity
  8
Wood
 62
   250
420
  2301728
370
    18
  0
HATCH
  5
5A
330
45
100
AcDbEntity
  8
Wood
 62
    43
420
 11708797
100
AcDbHatch
 10
0.0
 20
0.0
 30
0.0
210
0.0
220
0.0
230
1.0
  2
SOLID
 70
     1
 71
     0
 91
        1
 92
        1
 93
        3
 72
     1
 10
4.662302509899594
 20
5.973193047256751
 11
4.662302509899594
 21
7.177325260283371
 72
     1
 10
4.662302509899594
 20
7.177325260283371
 11
4.968334726179314
 21
7.249723795103742
 72
     1
 10
4.968334726179314
 20
7.249723795103742
 11
4.662302509899594
 21
5.97319304725675
 97
        0
 75
     2
 76
     1
 98
        0
  0
POLYLINE
  5
5C
330
45
100
AcDbEntity
  8
Wood
 62
   250
420
  2301728
370
    13
100
AcDb2dPolyline
 66
     1
 10
0.0
 20
0.0
 30
0.0
  0
VERTEX
  5
5D
330
5C
100
AcDbEntity
  8
Wood
 62
   250
420
  2301728
370
    13
100
AcDbVertex
100
AcDb2dVertex
 10
4.935582415917856
 20
7.24048878594984
 30
0.0
  0
VERTEX
  5
5E
330
5C
100
AcDbEntity
  8
Wood
 62
   250
420
  2301728
370
    13
100
AcDbVertex
100
AcDb2dVertex
 10
4.94148262712512
 20
7.128341614769624
 30
0.0
  0
VERTEX
  5
5F
330
5C
100
AcDbEntity
  8
Wood
 62
   250
420
  2301728
370
    13
100
AcDbVertex
100
AcDb2dVertex
 10
4.906069851016936
 20
6.901123061750708
 30
0.0
  0
VERTEX
  5
60
330
5C
100
AcDbEntity
  8
Wood
 62
   250
420
  2301728
370
    13
100
AcDbVertex
100
AcDb2dVertex
 10
4.909019956620593
 20
6.845058587345015
 30
0.0
  0
VERTEX
  5
61
330
5C
100
AcDbEntity
  8
Wood
 62
   250
420
  2301728
370
    13
100
AcDbVertex
100
AcDb2dVertex
 10
4.926834719815512
 20
6.689303369450928
 30
0.0
  0
VERTEX
  5
62
330
5C
100
AcDbEntity
  8
Wood
 62
   250
420
  2301728
370
    13
100
AcDbVertex
100
AcDb2dVertex
 10
4.906069851016936
 20
6.565186107265516
 30
0.0
  0
VERTEX
  5
63
330
5C
100
AcDbEntity
  8
Wood
 62
   250
420
  2301728
370
    13
100
AcDbVertex
100
AcDb2dVertex
 10
4.937202288598124
 20
6.526823224584568
 30
0.0
  0
VERTEX
  5
64
330
5C
100
AcDbEntity
  8
Wood
 62
   250
420
  2301728
370
    13
100
AcDbVertex
100
AcDb2dVertex
 10
4.968334726179314
 20
6.315827369839338
 30
0.0
  0
SEQEND
  5
66
330
5C
100
AcDbEntity
  8
Wood
 62
   250
420
  2301728
370
    13
  0
HATCH
  5
65
330
45
100
AcDbEntity
  8
Wood
 62
    43
420
 11708797
100
AcDbHatch
 10
0.0
 20
0.0
 30
0.0
210
0.0
220
0.0
230
1.0
  2
SOLID
 70
     1
 71
     0
 91
        1
 92
        1
 93
        8
 72
     1
 10
4.935582415917856
 20
7.24048878594984
 11
4.941482627125121
 21
7.128341614769624
 72
     1
 10
4.94148262712512
 20
7.128341614769624
 11
4.906069851016936
 21
6.901123061750708
 72
     1
 10
4.906069851016936
 20
6.901123061750708
 11
4.909019956620593
 21
6.845058587345016
 72
     1
 10
4.909019956620593
 20
6.845058587345015
 11
4.926834719815512
 21
6.689303369450928
 72
     1
 10
4.926834719815512
 20
6.689303369450928
 11
4.906069851016936
 21
6.565186107265516
 72
     1
 10
4.906069851016936
 20
6.565186107265516
 11
4.937202288598124
 21
6.526823224584569
 72
     1
 10
4.937202288598124
 20
6.526823224584568
 11
4.968334726179313
 21
6.315827369839337
 72
     1
 10
4.968334726179314
 20
6.315827369839338
 11
4.935582415917856
 21
7.24048878594984
 97
        0
 75
     2
 76
     1
 98
        0
  0
POLYLINE
  5
67
330
45
100
AcDbEntity
  8
Wood
 62
   250
420
  2301728
370
    13
100
AcDb2dPolyline
 66
     1
 10
0.0
 20
0.0
 30
0.0
  0
VERTEX
  5
68
330
67
100
AcDbEntity
  8
Wood
 62
   250
420
  2301728
370
    13
100
AcDbVertex
100
AcDb2dVertex
 10
4.897219534206038
 20
7.234588574742575
 30
0.0
  0
VERTEX
  5
69
330
67
100
AcDbEntity
  8
Wood
 62
   250
420
  2301728
370
    13
100
AcDbVertex
100
AcDb2dVertex
 10
4.897219534206038
 20
7.0663759700846
 30
0.0
  0
VERTEX
  5
6A
330
67
100
AcDbEntity
  8
Wood
 62
   250
420
  2301728
370
    13
100
AcDbVertex
100
AcDb2dVertex
 10
4.864756863701485
 20
6.954228798904384
 30
0.0
  0
VERTEX
  5
6B
330
67
100
AcDbEntity
  8
Wood
 62
   250
420
  2301728
370
    13
100
AcDbVertex
100
AcDb2dVertex
 10
4.858847061773783
 20
6.469278900563141
 30
0.0
  0
VERTEX
  5
6C
330
67
100
AcDbEntity
  8
Wood
 62
   250
420
  2301728
370
    13
100
AcDbVertex
100
AcDb2dVertex
 10
4.906069851016936
 20
6.366984273894395
 30
0.0
  0
VERTEX
  5
6D
330
67
100
AcDbEntity
  8
Wood
 62
   250
420
  2301728
370
    13
100
AcDbVertex
100
AcDb2dVertex
 10
4.94148262712512
 20
6.222392572424496
 30
0.0
  0
VERTEX
  5
6E
330
67
100
AcDbEntity
  8
Wood
 62
   250
420
  2301728
370
    13
100
AcDbVertex
100
AcDb2dVertex
 10
4.968044231945188
 20
6.092543808550405
 30
0.0
  0
SEQEND
  5
70
330
67
100
AcDbEntity
  8
Wood
 62
   250
420
  2301728
370
    13
  0
HATCH
  5
6F
330
45
100
AcDbEntity
  8
Wood
 62
    43
420
 11708797
100
AcDbHatch
 10
0.0
 20
0.0
 30
0.0
210
0.0
220
0.0
230
1.0
  2
SOLID
 70
     1
 71
     0
 91
        1
 92
        1
 93
        7
 72
     1
 10
4.897219534206038
 20
7.234588574742575
 11
4.897219534206038
 21
7.0663759700846
 72
     1
 10
4.897219534206038
 20
7.0663759700846
 11
4.864756863701485
 21
6.954228798904384
 72
     1
 10
4.864756863701485
 20
6.954228798904384
 11
4.858847061773783
 21
6.469278900563141
 72
     1
 10
4.858847061773783
 20
6.469278900563141
 11
4.906069851016936
 21
6.366984273894394
 72
     1
 10
4.906069851016936
 20
6.366984273894395
 11
4.94148262712512
 21
6.222392572424496
 72
     1
 10
4.94148262712512
 20
6.222392572424496
 11
4.968044231945188
 21
6.092543808550406
 72
     1
 10
4.968044231945188
 20
6.092543808550405
 11
4.897219534206037
 21
7.234588574742575
 97
        0
 75
     2
 76
     1
 98
        0
  0
POLYLINE
  5
71
330
45
100
AcDbEntity
  8
Wood
 62
   250
420
  2301728
370
    13
100
AcDb2dPolyline
 66
     1
 10
0.0
 20
0.0
 30
0.0
  0
VERTEX
  5
72
330
71
100
AcDbEntity
  8
Wood
 62
   250
420
  2301728
370
    13
100
AcDbVertex
100
AcDb2dVertex
 10
4.84999578589082
 20
7.222787193255979
 30
0.0
  0
VERTEX
  5
73
330
71
100
AcDbEntity
  8
Wood
 62
   250
420
  2301728
370
    13
100
AcDbVertex
100
AcDb2dVertex
 10
4.84999578589082
 20
7.095879044832448
 30
0.0
  0
VERTEX
  5
74
330
71
100
AcDbEntity
  8
Wood
 62
   250
420
  2301728
370
    13
100
AcDbVertex
100
AcDb2dVertex
 10
4.820493770782377
 20
6.915865917192566
 30
0.0
  0
VERTEX
  5
75
330
71
100
AcDbEntity
  8
Wood
 62
   250
420
  2301728
370
    13
100
AcDbVertex
100
AcDb2dVertex
 10
4.793931311485115
 20
6.337481217559962
 30
0.0
  0
VERTEX
  5
76
330
71
100
AcDbEntity
  8
Wood
 62
   250
420
  2301728
370
    13
100
AcDbVertex
100
AcDb2dVertex
 10
4.873608139584449
 20
6.148608282956098
 30
0.0
  0
VERTEX
  5
77
330
71
100
AcDbEntity
  8
Wood
 62
   250
420
  2301728
370
    13
100
AcDbVertex
100
AcDb2dVertex
 10
4.882458456395372
 20
6.055360585451226
 30
0.0
  0
SEQEND
  5
79
330
71
100
AcDbEntity
  8
Wood
 62
   250
420
  2301728
370
    13
  0
HATCH
  5
78
330
45
100
AcDbEntity
  8
Wood
 62
    43
420
 11708797
100
AcDbHatch
 10
0.0
 20
0.0
 30
0.0
210
0.0
220
0.0
230
1.0
  2
SOLID
 70
     1
 71
     0
 91
        1
 92
        1
 93
        6
 72
     1
 10
4.84999578589082
 20
7.222787193255979
 11
4.84999578589082
 21
7.095879044832448
 72
     1
 10
4.84999578589082
 20
7.095879044832448
 11
4.820493770782377
 21
6.915865917192566
 72
     1
 10
4.820493770782377
 20
6.915865917192566
 11
4.793931311485115
 21
6.337481217559962
 72
     1
 10
4.793931311485115
 20
6.337481217559962
 11
4.873608139584449
 21
6.148608282956097
 72
     1
 10
4.873608139584449
 20
6.148608282956098
 11
4.882458456395372
 21
6.055360585451227
 72
     1
 10
4.882458456395372
 20
6.055360585451226
 11
4.849995785890819
 21
7.222787193255979
 97
        0
 75
     2
 76
     1
 98
        0
  0
POLYLINE
  5
7A
330
45
100
AcDbEntity
  8
Wood
 62
   250
420
  2301728
370
    13
100
AcDb2dPolyline
 66
     1
 10
0.0
 20
0.0
 30
0.0
  0
VERTEX
  5
7B
330
7A
100
AcDbEntity
  8
Wood
 62
   250
420
  2301728
370
    13
100
AcDbVertex
100
AcDb2dVertex
 10
4.796891007809184
 20
7.210967692875303
 30
0.0
  0
VERTEX
  5
7C
330
7A
100
AcDbEntity
  8
Wood
 62
   250
420
  2301728
370
    13
100
AcDbVertex
100
AcDb2dVertex
 10
4.790990796601894
 20
7.03687299590413
 30
0.0
  0
VERTEX
  5
7D
330
7A
100
AcDbEntity
  8
Wood
 62
   250
420
  2301728
370
    13
100
AcDbVertex
100
AcDb2dVertex
 10
4.776229818540438
 20
6.971948613967078
 30
0.0
  0
VERTEX
  5
7E
330
7A
100
AcDbEntity
  8
Wood
 62
   250
420
  2301728
370
    13
100
AcDbVertex
100
AcDb2dVertex
 10
4.758528126097366
 20
6.591261270804099
 30
0.0
  0
VERTEX
  5
7F
330
7A
100
AcDbEntity
  8
Wood
 62
   250
420
  2301728
370
    13
100
AcDbVertex
100
AcDb2dVertex
 10
4.761469699428921
 20
6.452569862695428
 30
0.0
  0
VERTEX
  5
80
330
7A
100
AcDbEntity
  8
Wood
 62
   250
420
  2301728
370
    13
100
AcDbVertex
100
AcDb2dVertex
 10
4.731086296345615
 20
6.294248248331301
 30
0.0
  0
VERTEX
  5
81
330
7A
100
AcDbEntity
  8
Wood
 62
   250
420
  2301728
370
    13
100
AcDbVertex
100
AcDb2dVertex
 10
4.8187799090419
 20
6.033182044461581
 30
0.0
  0
SEQEND
  5
83
330
7A
100
AcDbEntity
  8
Wood
 62
   250
420
  2301728
370
    13
  0
HATCH
  5
82
330
45
100
AcDbEntity
  8
Wood
 62
    43
420
 11708797
100
AcDbHatch
 10
0.0
 20
0.0
 30
0.0
210
0.0
220
0.0
230
1.0
  2
SOLID
 70
     1
 71
     0
 91
        1
 92
        1
 93
        7
 72
     1
 10
4.796891007809184
 20
7.210967692875303
 11
4.790990796601894
 21
7.03687299590413
 72
     1
 10
4.790990796601894
 20
7.03687299590413
 11
4.776229818540438
 21
6.971948613967078
 72
     1
 10
4.776229818540438
 20
6.971948613967078
 11
4.758528126097366
 21
6.591261270804099
 72
     1
 10
4.758528126097366
 20
6.591261270804099
 11
4.761469699428921
 21
6.452569862695428
 72
     1
 10
4.761469699428921
 20
6.452569862695428
 11
4.731086296345615
 21
6.294248248331301
 72
     1
 10
4.731086296345615
 20
6.294248248331301
 11
4.8187799090419
 21
6.03318204446158
 72
     1
 10
4.8187799090419
 20
6.033182044461581
 11
4.796891007809184
 21
7.210967692875303
 97
        0
 75
     2
 76
     1
 98
        0
  0
SPLINE
  5
84
330
45
100
AcDbEntity
  8
Wood
 62
   250
420
  2301728
370
    13
100
AcDbSpline
210
0.0
220
0.0
230
1.0
 70
     8
 71
     3
 72
    17
 73
    13
 74
     0
 42
0.0000000001
 43
0.0000000001
 12
1.0
 22
0.0
 32
0.0
 13
1.0
 23
0.0
 33
0.0
 40
0.0
 40
0.0
 40
0.0
 40
0.0
 40
1.0
 40
1.0
 40
1.0
 40
2.0
 40
2.0
 40
2.0
 40
3.0
 40
3.0
 40
3.0
 40
4.0
 40
4.0
 40
4.0
 40
4.0
 10
4.752627914890076
 20
7.199166207913954
 30
0.0
 10
4.752627914890076
 20
7.199166207913954
 30
0.0
 10
4.737866935859478
 20
7.075235877615947
 30
0.0
 10
4.737866935859478
 20
7.075235877615947
 30
0.0
 10
4.737866935859478
 20
7.075235877615947
 30
0.0
 10
4.72310681674796
 20
6.812596875912504
 30
0.0
 10
4.72310681674796
 20
6.812596875912504
 30
0.0
 10
4.72310681674796
 20
6.812596875912504
 30
0.0
 10
4.72310681674796
 20
6.502734125893867
 30
0.0
 10
4.693603744160302
 20
6.428968058794275
 30
0.0
 10
4.693603744160302
 20
6.428968058794275
 30
0.0
 10
4.683254397746496
 20
6.222317843304507
 30
0.0
 10
4.683254397746496
 20
6.222317843304507
 30
0.0
  0
HATCH
  5
85
330
45
100
AcDbEntity
  8
Wood
 62
    43
420
 11708797
100
AcDbHatch
 10
0.0
 20
0.0
 30
0.0
210
0.0
220
0.0
230
1.0
  2
SOLID
 70
     1
 71
     0
 91
        1
 92
        1
 93
        2
 72
     4
 94
        3
 73
     0
 74
     0
 95
       17
 96
       13
 40
0.0
 40
0.0
 40
0.0
 40
0.0
 40
0.0138888888888889
 40
0.0138888888888889
 40
0.0138888888888889
 40
0.0277777777777778
 40
0.0277777777777778
 40
0.0277777777777778
 40
0.0416666666666667
 40
0.0416666666666667
 40
0.0416666666666667
 40
0.0555555555555556
 40
0.0555555555555556
 40
0.0555555555555556
 40
0.0555555555555556
 10
4.752627914890076
 20
7.199166207913954
 10
4.752627914890076
 20
7.199166207913954
 10
4.737866935859478
 20
7.075235877615947
 10
4.737866935859478
 20
7.075235877615947
 10
4.737866935859478
 20
7.075235877615947
 10
4.72310681674796
 20
6.812596875912504
 10
4.72310681674796
 20
6.812596875912504
 10
4.72310681674796
 20
6.812596875912504
 10
4.72310681674796
 20
6.502734125893867
 10
4.693603744160302
 20
6.428968058794275
 10
4.693603744160302
 20
6.428968058794275
 10
4.683254397746496
 20
6.222317843304507
 10
4.683254397746496
 20
6.222317843304507
 97
        0
 72
     1
 10
4.683254397746496
 20
6.222317843304507
 11
4.752627914890076
 21
7.199166207913954
 97
        0
 75
     2
 76
     1
 98
        0
  0
POLYLINE
  5
86
330
45
100
AcDbEntity
  8
Wood
 62
   250
420
  2301728
370
    13
100
AcDb2dPolyline
 66
     1
 10
0.0
 20
0.0
 30
0.0
  0
VERTEX
  5
87
330
86
100
AcDbEntity
  8
Wood
 62
   250
420
  2301728
370
    13
100
AcDbVertex
100
AcDb2dVertex
 10
4.702445429322855
 20
7.187364929305848
 30
0.0
  0
VERTEX
  5
88
330
86
100
AcDbEntity
  8
Wood
 62
   250
420
  2301728
370
    13
100
AcDbVertex
100
AcDb2dVertex
 10
4.687703532953037
 20
6.989650206660952
 30
0.0
  0
VERTEX
  5
89
330
86
100
AcDbEntity
  8
Wood
 62
   250
420
  2301728
370
    13
100
AcDbVertex
100
AcDb2dVertex
 10
4.664082547611011
 20
6.682747152966372
 30
0.0
  0
SEQEND
  5
8B
330
86
100
AcDbEntity
  8
Wood
 62
   250
420
  2301728
370
    13
  0
HATCH
  5
8A
330
45
100
AcDbEntity
  8
Wood
 62
    43
420
 11708797
100
AcDbHatch
 10
0.0
 20
0.0
 30
0.0
210
0.0
220
0.0
230
1.0
  2
SOLID
 70
     1
 71
     0
 91
        1
 92
        1
 93
        3
 72
     1
 10
4.702445429322855
 20
7.187364929305848
 11
4.687703532953037
 21
6.989650206660952
 72
     1
 10
4.687703532953037
 20
6.989650206660952
 11
4.664082547611012
 21
6.682747152966373
 72
     1
 10
4.664082547611011
 20
6.682747152966372
 11
4.702445429322855
 21
7.187364929305847
 97
        0
 75
     2
 76
     1
 98
        0
  0
POLYLINE
  5
8C
330
45
100
AcDbEntity
  8
Wood
 62
   250
420
  2301728
370
    18
100
AcDb2dPolyline
 66
     1
 10
0.0
 20
0.0
 30
0.0
  0
VERTEX
  5
8D
330
8C
100
AcDbEntity
  8
Wood
 62
   250
420
  2301728
370
    18
100
AcDbVertex
100
AcDb2dVertex
 10
2.136871129594144
 20
8.039736268173744
 30
0.0
  0
VERTEX
  5
8E
330
8C
100
AcDbEntity
  8
Wood
 62
   250
420
  2301728
370
    18
100
AcDbVertex
100
AcDb2dVertex
 10
4.662302509899594
 20
7.177325260283371
 30
0.0
  0
SEQEND
  5
8F
330
8C
100
AcDbEntity
  8
Wood
 62
   250
420
  2301728
370
    18
  0
ENDBLK
  5
48
330
45
100
AcDbEntity
  8
0
100
AcDbBlockEnd
  0
BLOCK
  5
92
330
90
100
AcDbEntity
  8
0
100
AcDbBlockBegin
  2
block 4
 70
     0
 10
0.0
 20
0.0
 30
0.0
  3
block 4
  1

  0
POLYLINE
  5
94
330
90
100
AcDbEntity
  8
Wood
 62
   250
420
  2301728
370
    25
100
AcDb2dPolyline
 66
     1
 10
0.0
 20
0.0
 30
0.0
  0
VERTEX
  5
95
330
94
100
AcDbEntity
  8
Wood
 62
   250
420
  2301728
370
    25
100
AcDbVertex
100
AcDb2dVertex
 10
4.356364282680058
 20
5.861775729901106
 30
0.0
  0
VERTEX
  5
96
330
94
100
AcDbEntity
  8
Wood
 62
   250
420
  2301728
370
    25
100
AcDbVertex
100
AcDb2dVertex
 10
4.662883707557537
 20
5.973548862984621
 30
0.0
  0
VERTEX
  5
97
330
94
100
AcDbEntity
  8
Wood
 62
   250
420
  2301728
370
    25
100
AcDbVertex
100
AcDb2dVertex
 10
4.662883707557537
 20
7.175929810461096
 30
0.0
  0
VERTEX
  5
98
330
94
100
AcDbEntity
  8
Wood
 62
   250
420
  2301728
370
    25
100
AcDbVertex
100
AcDb2dVertex
 10
2.1598744725406
 20
8.0442218481179
 30
0.0
  0
VERTEX
  5
99
330
94
100
AcDbEntity
  8
Wood
 62
   250
420
  2301728
370
    25
100
AcDbVertex
100
AcDb2dVertex
 10
1.880684764594637
 20
7.986677525550185
 30
0.0
  0
VERTEX
  5
9A
330
94
100
AcDbEntity
  8
Wood
 62
   250
420
  2301728
370
    25
100
AcDbVertex
100
AcDb2dVertex
 10
1.880684764594637
 20
7.540803014710415
 30
0.0
  0
VERTEX
  5
9B
330
94
100
AcDbEntity
  8
Wood
 62
   250
420
  2301728
370
    25
100
AcDbVertex
100
AcDb2dVertex
 10
1.944111076000834
 20
7.499236832375673
 30
0.0
  0
VERTEX
  5
9C
330
94
100
AcDbEntity
  8
Wood
 62
   250
420
  2301728
370
    25
100
AcDbVertex
100
AcDb2dVertex
 10
1.829513475751279
 20
7.449129154427762
 30
0.0
  0
VERTEX
  5
9D
330
94
100
AcDbEntity
  8
Wood
 62
   250
420
  2301728
370
    25
100
AcDbVertex
100
AcDb2dVertex
 10
1.880684764594637
 20
7.400135918193591
 30
0.0
  0
VERTEX
  5
9E
330
94
100
AcDbEntity
  8
Wood
 62
   250
420
  2301728
370
    25
100
AcDbVertex
100
AcDb2dVertex
 10
1.880684764594637
 20
7.008592838578212
 30
0.0
  0
VERTEX
  5
9F
330
94
100
AcDbEntity
  8
Wood
 62
   250
420
  2301728
370
    25
100
AcDbVertex
100
AcDb2dVertex
 10
4.356364282680058
 20
5.861775729901106
 30
0.0
  0
SEQEND
  5
A1
330
94
100
AcDbEntity
  8
Wood
 62
   250
420
  2301728
370
    25
  0
HATCH
  5
A0
330
90
100
AcDbEntity
  8
Wood
 62
    43
420
 11708797
100
AcDbHatch
 10
0.0
 20
0.0
 30
0.0
210
0.0
220
0.0
230
1.0
  2
SOLID
 70
     1
 71
     0
 91
        1
 92
        1
 93
       10
 72
     1
 10
4.356364282680058
 20
5.861775729901106
 11
4.662883707557537
 21
5.973548862984621
 72
     1
 10
4.662883707557537
 20
5.973548862984621
 11
4.662883707557537
 21
7.175929810461096
 72
     1
 10
4.662883707557537
 20
7.175929810461096
 11
2.1598744725406
 21
8.0442218481179
 72
     1
 10
2.1598744725406
 20
8.0442218481179
 11
1.880684764594637
 21
7.986677525550185
 72
     1
 10
1.880684764594637
 20
7.986677525550185
 11
1.880684764594637
 21
7.540803014710415
 72
     1
 10
1.880684764594637
 20
7.540803014710415
 11
1.944111076000834
 21
7.499236832375673
 72
     1
 10
1.944111076000834
 20
7.499236832375673
 11
1.829513475751279
 21
7.449129154427762
 72
     1
 10
1.829513475751279
 20
7.449129154427762
 11
1.880684764594637
 21
7.400135918193591
 72
     1
 10
1.880684764594637
 20
7.400135918193591
 11
1.880684764594637
 21
7.008592838578212
 72
     1
 10
1.880684764594637
 20
7.008592838578212
 11
4.356364282680058
 21
5.861775729901106
 97
        0
 75
     2
 76
     1
 98
        0
  0
POLYLINE
  5
A2
330
90
100
AcDbEntity
  8
Wood
 62
   250
420
  2301728
370
    25
100
AcDb2dPolyline
 66
     1
 10
0.0
 20
0.0
 30
0.0
  0
VERTEX
  5
A3
330
A2
100
AcDbEntity
  8
Wood
 62
   250
420
  2301728
370
    25
100
AcDbVertex
100
AcDb2dVertex
 10
3.502893744372614
 20
5.310552909592515
 30
0.0
  0
VERTEX
  5
1C9
330
A2
100
AcDbEntity
  8
0
100
AcDbVertex
100
AcDb2dVertex
 10
3.502893744372614
 20
5.310552909592515
 30
0.0
  0
SEQEND
  5
A4
330
A2
100
AcDbEntity
  8
Wood
 62
   250
420
  2301728
370
    25
  0
POLYLINE
  5
A5
330
90
100
AcDbEntity
  8
Wood
 62
   250
420
  2301728
370
    18
100
AcDb2dPolyline
 66
     1
 10
0.0
 20
0.0
 30
0.0
  0
VERTEX
  5
A6
330
A5
100
AcDbEntity
  8
Wood
 62
   250
420
  2301728
370
    18
100
AcDbVertex
100
AcDb2dVertex
 10
4.357787545591565
 20
5.861382510363556
 30
0.0
  0
VERTEX
  5
A7
330
A5
100
AcDbEntity
  8
Wood
 62
   250
420
  2301728
370
    18
100
AcDbVertex
100
AcDb2dVertex
 10
4.357787545591565
 20
7.103530421022519
 30
0.0
  0
VERTEX
  5
A8
330
A5
100
AcDbEntity
  8
Wood
 62
   250
420
  2301728
370
    18
100
AcDbVertex
100
AcDb2dVertex
 10
4.663819761871284
 20
7.175929810461096
 30
0.0
  0
SEQEND
  5
AA
330
A5
100
AcDbEntity
  8
Wood
 62
   250
420
  2301728
370
    18
  0
HATCH
  5
A9
330
90
100
AcDbEntity
  8
Wood
 62
    43
420
 11708797
100
AcDbHatch
 10
0.0
 20
0.0
 30
0.0
210
0.0
220
0.0
230
1.0
  2
SOLID
 70
     1
 71
     0
 91
        1
 92
        1
 93
        3
 72
     1
 10
4.357787545591565
 20
5.861382510363556
 11
4.357787545591565
 21
7.103530421022519
 72
     1
 10
4.357787545591565
 20
7.103530421022519
 11
4.663819761871284
 21
7.175929810461096
 72
     1
 10
4.663819761871284
 20
7.175929810461096
 11
4.357787545591564
 21
5.861382510363557
 97
        0
 75
     2
 76
     1
 98
        0
  0
POLYLINE
  5
AB
330
90
100
AcDbEntity
  8
Wood
 62
   250
420
  2301728
370
    13
100
AcDb2dPolyline
 66
     1
 10
0.0
 20
0.0
 30
0.0
  0
VERTEX
  5
AC
330
AB
100
AcDbEntity
  8
Wood
 62
   250
420
  2301728
370
    13
100
AcDbVertex
100
AcDb2dVertex
 10
4.631067451609826
 20
7.166694905761018
 30
0.0
  0
VERTEX
  5
AD
330
AB
100
AcDbEntity
  8
Wood
 62
   250
420
  2301728
370
    13
100
AcDbVertex
100
AcDb2dVertex
 10
4.636967662817091
 20
7.054546775508761
 30
0.0
  0
VERTEX
  5
AE
330
AB
100
AcDbEntity
  8
Wood
 62
   250
420
  2301728
370
    13
100
AcDbVertex
100
AcDb2dVertex
 10
4.601554886708906
 20
6.827329275345138
 30
0.0
  0
VERTEX
  5
AF
330
AB
100
AcDbEntity
  8
Wood
 62
   250
420
  2301728
370
    13
100
AcDbVertex
100
AcDb2dVertex
 10
4.604505951384605
 20
6.771264707156193
 30
0.0
  0
VERTEX
  5
B0
330
AB
100
AcDbEntity
  8
Wood
 62
   250
420
  2301728
370
    13
100
AcDbVertex
100
AcDb2dVertex
 10
4.625167240402561
 20
6.638455287885992
 30
0.0
  0
VERTEX
  5
B1
330
AB
100
AcDbEntity
  8
Wood
 62
   250
420
  2301728
370
    13
100
AcDbVertex
100
AcDb2dVertex
 10
4.622207544078492
 20
6.600092406174162
 30
0.0
  0
VERTEX
  5
B2
330
AB
100
AcDbEntity
  8
Wood
 62
   250
420
  2301728
370
    13
100
AcDbVertex
100
AcDb2dVertex
 10
4.651719149907345
 20
6.458461442254323
 30
0.0
  0
VERTEX
  5
B3
330
AB
100
AcDbEntity
  8
Wood
 62
   250
420
  2301728
370
    13
100
AcDbVertex
100
AcDb2dVertex
 10
4.663530122114379
 20
6.366974683173718
 30
0.0
  0
SEQEND
  5
B5
330
AB
100
AcDbEntity
  8
Wood
 62
   250
420
  2301728
370
    13
  0
HATCH
  5
B4
330
90
100
AcDbEntity
  8
Wood
 62
    43
420
 11708797
100
AcDbHatch
 10
0.0
 20
0.0
 30
0.0
210
0.0
220
0.0
230
1.0
  2
SOLID
 70
     1
 71
     0
 91
        1
 92
        1
 93
        8
 72
     1
 10
4.631067451609826
 20
7.166694905761018
 11
4.636967662817091
 21
7.054546775508761
 72
     1
 10
4.636967662817091
 20
7.054546775508761
 11
4.601554886708906
 21
6.827329275345138
 72
     1
 10
4.601554886708906
 20
6.827329275345138
 11
4.604505951384605
 21
6.771264707156193
 72
     1
 10
4.604505951384605
 20
6.771264707156193
 11
4.62516724040256
 21
6.638455287885992
 72
     1
 10
4.625167240402561
 20
6.638455287885992
 11
4.622207544078492
 21
6.600092406174162
 72
     1
 10
4.622207544078492
 20
6.600092406174162
 11
4.651719149907346
 21
6.458461442254323
 72
     1
 10
4.651719149907345
 20
6.458461442254323
 11
4.663530122114379
 21
6.366974683173718
 72
     1
 10
4.663530122114379
 20
6.366974683173718
 11
4.631067451609826
 21
7.166694905761018
 97
        0
 75
     2
 76
     1
 98
        0
  0
POLYLINE
  5
B6
330
90
100
AcDbEntity
  8
Wood
 62
   250
420
  2301728
370
    13
100
AcDb2dPolyline
 66
     1
 10
0.0
 20
0.0
 30
0.0
  0
VERTEX
  5
B7
330
B6
100
AcDbEntity
  8
Wood
 62
   250
420
  2301728
370
    13
100
AcDbVertex
100
AcDb2dVertex
 10
4.592704569898008
 20
7.160793735481699
 30
0.0
  0
VERTEX
  5
B8
330
B6
100
AcDbEntity
  8
Wood
 62
   250
420
  2301728
370
    13
100
AcDbVertex
100
AcDb2dVertex
 10
4.592704569898008
 20
6.992582089895778
 30
0.0
  0
VERTEX
  5
B9
330
B6
100
AcDbEntity
  8
Wood
 62
   250
420
  2301728
370
    13
100
AcDbVertex
100
AcDb2dVertex
 10
4.560241899393455
 20
6.880433959643533
 30
0.0
  0
VERTEX
  5
BA
330
B6
100
AcDbEntity
  8
Wood
 62
   250
420
  2301728
370
    13
100
AcDbVertex
100
AcDb2dVertex
 10
4.554341688186191
 20
6.529267813029845
 30
0.0
  0
VERTEX
  5
BB
330
B6
100
AcDbEntity
  8
Wood
 62
   250
420
  2301728
370
    13
100
AcDbVertex
100
AcDb2dVertex
 10
4.601554886708906
 20
6.293189352479581
 30
0.0
  0
VERTEX
  5
BC
330
B6
100
AcDbEntity
  8
Wood
 62
   250
420
  2301728
370
    13
100
AcDbVertex
100
AcDb2dVertex
 10
4.636967662817091
 20
6.148598692235686
 30
0.0
  0
VERTEX
  5
BD
330
B6
100
AcDbEntity
  8
Wood
 62
   250
420
  2301728
370
    13
100
AcDbVertex
100
AcDb2dVertex
 10
4.663530122114379
 20
6.018748969289542
 30
0.0
  0
SEQEND
  5
BF
330
B6
100
AcDbEntity
  8
Wood
 62
   250
420
  2301728
370
    13
  0
HATCH
  5
BE
330
90
100
AcDbEntity
  8
Wood
 62
    43
420
 11708797
100
AcDbHatch
 10
0.0
 20
0.0
 30
0.0
210
0.0
220
0.0
230
1.0
  2
SOLID
 70
     1
 71
     0
 91
        1
 92
        1
 93
        7
 72
     1
 10
4.592704569898008
 20
7.160793735481699
 11
4.592704569898008
 21
6.992582089895778
 72
     1
 10
4.592704569898008
 20
6.992582089895778
 11
4.560241899393455
 21
6.880433959643533
 72
     1
 10
4.560241899393455
 20
6.880433959643533
 11
4.55434168818619
 21
6.529267813029844
 72
     1
 10
4.554341688186191
 20
6.529267813029845
 11
4.601554886708906
 21
6.293189352479581
 72
     1
 10
4.601554886708906
 20
6.293189352479581
 11
4.63696766281709
 21
6.148598692235685
 72
     1
 10
4.636967662817091
 20
6.148598692235686
 11
4.663530122114379
 21
6.018748969289542
 72
     1
 10
4.663530122114379
 20
6.018748969289542
 11
4.592704569898008
 21
7.160793735481699
 97
        0
 75
     2
 76
     1
 98
        0
  0
POLYLINE
  5
C0
330
90
100
AcDbEntity
  8
Wood
 62
   250
420
  2301728
370
    13
100
AcDb2dPolyline
 66
     1
 10
0.0
 20
0.0
 30
0.0
  0
VERTEX
  5
C1
330
C0
100
AcDbEntity
  8
Wood
 62
   250
420
  2301728
370
    13
100
AcDbVertex
100
AcDb2dVertex
 10
4.545481780654831
 20
7.148993313067144
 30
0.0
  0
VERTEX
  5
C2
330
C0
100
AcDbEntity
  8
Wood
 62
   250
420
  2301728
370
    13
100
AcDbVertex
100
AcDb2dVertex
 10
4.545481780654831
 20
7.02208410500422
 30
0.0
  0
VERTEX
  5
C3
330
C0
100
AcDbEntity
  8
Wood
 62
   250
420
  2301728
370
    13
100
AcDbVertex
100
AcDb2dVertex
 10
4.515978806474347
 20
6.842071077931703
 30
0.0
  0
VERTEX
  5
C4
330
C0
100
AcDbEntity
  8
Wood
 62
   250
420
  2301728
370
    13
100
AcDbVertex
100
AcDb2dVertex
 10
4.489417306249126
 20
6.263687337371139
 30
0.0
  0
VERTEX
  5
C5
330
C0
100
AcDbEntity
  8
Wood
 62
   250
420
  2301728
370
    13
100
AcDbVertex
100
AcDb2dVertex
 10
4.56909317527642
 20
6.074813443695247
 30
0.0
  0
VERTEX
  5
C6
330
C0
100
AcDbEntity
  8
Wood
 62
   250
420
  2301728
370
    13
100
AcDbVertex
100
AcDb2dVertex
 10
4.577943492087343
 20
5.940093552915792
 30
0.0
  0
SEQEND
  5
C8
330
C0
100
AcDbEntity
  8
Wood
 62
   250
420
  2301728
370
    13
  0
HATCH
  5
C7
330
90
100
AcDbEntity
  8
Wood
 62
    43
420
 11708797
100
AcDbHatch
 10
0.0
 20
0.0
 30
0.0
210
0.0
220
0.0
230
1.0
  2
SOLID
 70
     1
 71
     0
 91
        1
 92
        1
 93
        6
 72
     1
 10
4.545481780654831
 20
7.148993313067144
 11
4.545481780654831
 21
7.022084105004221
 72
     1
 10
4.545481780654831
 20
7.02208410500422
 11
4.515978806474347
 21
6.842071077931703
 72
     1
 10
4.515978806474347
 20
6.842071077931703
 11
4.489417306249126
 21
6.263687337371139
 72
     1
 10
4.489417306249126
 20
6.263687337371139
 11
4.56909317527642
 21
6.074813443695246
 72
     1
 10
4.56909317527642
 20
6.074813443695247
 11
4.577943492087343
 21
5.940093552915792
 72
     1
 10
4.577943492087343
 20
5.940093552915792
 11
4.545481780654831
 21
7.148993313067143
 97
        0
 75
     2
 76
     1
 98
        0
  0
SPLINE
  5
C9
330
90
100
AcDbEntity
  8
Wood
 62
   250
420
  2301728
370
    13
100
AcDbSpline
210
0.0
220
0.0
230
1.0
 70
     8
 71
     3
 72
    26
 73
    22
 74
     0
 42
0.0000000001
 43
0.0000000001
 12
1.0
 22
0.0
 32
0.0
 13
1.0
 23
0.0
 33
0.0
 40
0.0
 40
0.0
 40
0.0
 40
0.0
 40
1.0
 40
1.0
 40
1.0
 40
2.0
 40
2.0
 40
2.0
 40
3.0
 40
3.0
 40
3.0
 40
4.0
 40
4.0
 40
4.0
 40
5.0
 40
5.0
 40
5.0
 40
6.0
 40
6.0
 40
6.0
 40
7.0
 40
7.0
 40
7.0
 40
7.0
 10
4.492377002573195
 20
7.137172750139674
 30
0.0
 10
4.492377002573195
 20
7.137172750139674
 30
0.0
 10
4.486475832293889
 20
6.963079115715307
 30
0.0
 10
4.486475832293889
 20
6.963079115715307
 30
0.0
 10
4.486475832293889
 20
6.963079115715307
 30
0.0
 10
4.471715713555239
 20
6.898154733778256
 30
0.0
 10
4.471715713555239
 20
6.898154733778256
 30
0.0
 10
4.471715713555239
 20
6.898154733778256
 30
0.0
 10
4.454014120861378
 20
6.517466431543236
 30
0.0
 10
4.454014120861378
 20
6.517466431543236
 30
0.0
 10
4.454014120861378
 20
6.517466431543236
 30
0.0
 10
4.456954727428208
 20
6.378775982506631
 30
0.0
 10
4.456954727428208
 20
6.378775982506631
 30
0.0
 10
4.456954727428208
 20
6.378775982506631
 30
0.0
 10
4.419106775719759
 20
6.20556181714547
 30
0.0
 10
4.419106775719759
 20
6.20556181714547
 30
0.0
 10
4.419106775719759
 20
6.20556181714547
 30
0.0
 10
4.463379459359278
 20
6.059135493011657
 30
0.0
 10
4.463379459359278
 20
6.059135493011657
 30
0.0
 10
4.463379459359278
 20
6.059135493011657
 30
0.0
 10
4.439243452330276
 20
5.961935459618417
 30
0.0
 10
4.448103359861634
 20
5.890988105252618
 30
0.0
  0
HATCH
  5
CA
330
90
100
AcDbEntity
  8
Wood
 62
    43
420
 11708797
100
AcDbHatch
 10
0.0
 20
0.0
 30
0.0
210
0.0
220
0.0
230
1.0
  2
SOLID
 70
     1
 71
     0
 91
        1
 92
        1
 93
        2
 72
     4
 94
        3
 73
     0
 74
     0
 95
       26
 96
       22
 40
0.0
 40
0.0
 40
0.0
 40
0.0
 40
0.0138888888888889
 40
0.0138888888888889
 40
0.0138888888888889
 40
0.0277777777777778
 40
0.0277777777777778
 40
0.0277777777777778
 40
0.0416666666666667
 40
0.0416666666666667
 40
0.0416666666666667
 40
0.0555555555555556
 40
0.0555555555555556
 40
0.0555555555555556
 40
0.0694444444444444
 40
0.0694444444444444
 40
0.0694444444444444
 40
0.0833333333333333
 40
0.0833333333333333
 40
0.0833333333333333
 40
0.0972222222222222
 40
0.0972222222222222
 40
0.0972222222222222
 40
0.0972222222222222
 10
4.492377002573195
 20
7.137172750139674
 10
4.492377002573195
 20
7.137172750139674
 10
4.486475832293889
 20
6.963079115715307
 10
4.486475832293889
 20
6.963079115715307
 10
4.486475832293889
 20
6.963079115715307
 10
4.471715713555239
 20
6.898154733778256
 10
4.471715713555239
 20
6.898154733778256
 10
4.471715713555239
 20
6.898154733778256
 10
4.454014120861378
 20
6.517466431543236
 10
4.454014120861378
 20
6.517466431543236
 10
4.454014120861378
 20
6.517466431543236
 10
4.456954727428208
 20
6.378775982506631
 10
4.456954727428208
 20
6.378775982506631
 10
4.456954727428208
 20
6.378775982506631
 10
4.419106775719759
 20
6.20556181714547
 10
4.419106775719759
 20
6.20556181714547
 10
4.419106775719759
 20
6.20556181714547
 10
4.463379459359278
 20
6.059135493011657
 10
4.463379459359278
 20
6.059135493011657
 10
4.463379459359278
 20
6.059135493011657
 10
4.439243452330276
 20
5.961935459618417
 10
4.448103359861634
 20
5.890988105252618
 97
        0
 72
     1
 10
4.448103359861634
 20
5.890988105252618
 11
4.492377002573195
 21
7.137172750139674
 97
        0
 75
     2
 76
     1
 98
        0
  0
SPLINE
  5
CB
330
90
100
AcDbEntity
  8
Wood
 62
   250
420
  2301728
370
    13
100
AcDbSpline
210
0.0
220
0.0
230
1.0
 70
     8
 71
     3
 72
    17
 73
    13
 74
     0
 42
0.0000000001
 43
0.0000000001
 12
1.0
 22
0.0
 32
0.0
 13
1.0
 23
0.0
 33
0.0
 40
0.0
 40
0.0
 40
0.0
 40
0.0
 40
1.0
 40
1.0
 40
1.0
 40
2.0
 40
2.0
 40
2.0
 40
3.0
 40
3.0
 40
3.0
 40
4.0
 40
4.0
 40
4.0
 40
4.0
 10
4.448112950582046
 20
7.125372327725118
 30
0.0
 10
4.448112950582046
 20
7.125372327725118
 30
0.0
 10
4.433352831843447
 20
7.001441997427125
 30
0.0
 10
4.433352831843447
 20
7.001441997427125
 30
0.0
 10
4.433352831843447
 20
7.001441997427125
 30
0.0
 10
4.418591844747248
 20
6.738802036651641
 30
0.0
 10
4.418591844747248
 20
6.738802036651641
 30
0.0
 10
4.418591844747248
 20
6.738802036651641
 30
0.0
 10
4.418591844747248
 20
6.428939286632991
 30
0.0
 10
4.389088779852298
 20
6.355173219533413
 30
0.0
 10
4.389088779852298
 20
6.355173219533413
 30
0.0
 10
4.356627068419786
 20
6.139737825632285
 30
0.0
 10
4.356627068419786
 20
6.139737825632285
 30
0.0
  0
HATCH
  5
CC
330
90
100
AcDbEntity
  8
Wood
 62
    43
420
 11708797
100
AcDbHatch
 10
0.0
 20
0.0
 30
0.0
210
0.0
220
0.0
230
1.0
  2
SOLID
 70
     1
 71
     0
 91
        1
 92
        1
 93
        2
 72
     4
 94
        3
 73
     0
 74
     0
 95
       17
 96
       13
 40
0.0
 40
0.0
 40
0.0
 40
0.0
 40
0.0138888888888889
 40
0.0138888888888889
 40
0.0138888888888889
 40
0.0277777777777778
 40
0.0277777777777778
 40
0.0277777777777778
 40
0.0416666666666667
 40
0.0416666666666667
 40
0.0416666666666667
 40
0.0555555555555556
 40
0.0555555555555556
 40
0.0555555555555556
 40
0.0555555555555556
 10
4.448112950582046
 20
7.125372327725118
 10
4.448112950582046
 20
7.125372327725118
 10
4.433352831843447
 20
7.001441997427125
 10
4.433352831843447
 20
7.001441997427125
 10
4.433352831843447
 20
7.001441997427125
 10
4.418591844747248
 20
6.738802036651641
 10
4.418591844747248
 20
6.738802036651641
 10
4.418591844747248
 20
6.738802036651641
 10
4.418591844747248
 20
6.428939286632991
 10
4.389088779852298
 20
6.355173219533413
 10
4.389088779852298
 20
6.355173219533413
 10
4.356627068419786
 20
6.139737825632285
 10
4.356627068419786
 20
6.139737825632285
 97
        0
 72
     1
 10
4.356627068419786
 20
6.139737825632285
 11
4.448112950582046
 21
7.125372327725118
 97
        0
 75
     2
 76
     1
 98
        0
  0
POLYLINE
  5
CD
330
90
100
AcDbEntity
  8
Wood
 62
   250
420
  2301728
370
    13
100
AcDb2dPolyline
 66
     1
 10
0.0
 20
0.0
 30
0.0
  0
VERTEX
  5
CE
330
CD
100
AcDbEntity
  8
Wood
 62
   250
420
  2301728
370
    13
100
AcDbVertex
100
AcDb2dVertex
 10
4.397930465014825
 20
7.113570946238546
 30
0.0
  0
VERTEX
  5
CF
330
CD
100
AcDbEntity
  8
Wood
 62
   250
420
  2301728
370
    13
100
AcDbVertex
100
AcDb2dVertex
 10
4.383188568645007
 20
6.915856326472142
 30
0.0
  0
VERTEX
  5
D0
330
CD
100
AcDbEntity
  8
Wood
 62
   250
420
  2301728
370
    13
100
AcDbVertex
100
AcDb2dVertex
 10
4.359567583302982
 20
6.60895327277755
 30
0.0
  0
SEQEND
  5
D2
330
CD
100
AcDbEntity
  8
Wood
 62
   250
420
  2301728
370
    13
  0
HATCH
  5
D1
330
90
100
AcDbEntity
  8
Wood
 62
    43
420
 11708797
100
AcDbHatch
 10
0.0
 20
0.0
 30
0.0
210
0.0
220
0.0
230
1.0
  2
SOLID
 70
     1
 71
     0
 91
        1
 92
        1
 93
        3
 72
     1
 10
4.397930465014825
 20
7.113570946238546
 11
4.383188568645008
 21
6.915856326472142
 72
     1
 10
4.383188568645007
 20
6.915856326472142
 11
4.359567583302982
 21
6.60895327277755
 72
     1
 10
4.359567583302982
 20
6.60895327277755
 11
4.397930465014825
 21
7.113570946238546
 97
        0
 75
     2
 76
     1
 98
        0
  0
POLYLINE
  5
D3
330
90
100
AcDbEntity
  8
Wood
 62
   250
420
  2301728
370
    18
100
AcDb2dPolyline
 66
     1
 10
0.0
 20
0.0
 30
0.0
  0
VERTEX
  5
D4
330
D3
100
AcDbEntity
  8
Wood
 62
   250
420
  2301728
370
    18
100
AcDbVertex
100
AcDb2dVertex
 10
1.880684764594637
 20
7.986677525550185
 30
0.0
  0
VERTEX
  5
D5
330
D3
100
AcDbEntity
  8
Wood
 62
   250
420
  2301728
370
    18
100
AcDbVertex
100
AcDb2dVertex
 10
4.357787545591565
 20
7.103530421022519
 30
0.0
  0
SEQEND
  5
D6
330
D3
100
AcDbEntity
  8
Wood
 62
   250
420
  2301728
370
    18
  0
ENDBLK
  5
93
330
90
100
AcDbEntity
  8
0
100
AcDbBlockEnd
  0
BLOCK
  5
D9
330
D7
100
AcDbEntity
  8
0
100
AcDbBlockBegin
  2
block 5
 70
     0
 10
0.0
 20
0.0
 30
0.0
  3
block 5
  1

  0
POLYLINE
  5
DB
330
D7
100
AcDbEntity
  8
Wood
 62
   250
420
  2301728
370
    25
100
AcDb2dPolyline
 66
     1
 10
0.0
 20
0.0
 30
0.0
  0
VERTEX
  5
DC
330
DB
100
AcDbEntity
  8
Wood
 62
   250
420
  2301728
370
    25
100
AcDbVertex
100
AcDb2dVertex
 10
2.565419044908758
 20
7.010985723324993
 30
0.0
  0
VERTEX
  5
DD
330
DB
100
AcDbEntity
  8
Wood
 62
   250
420
  2301728
370
    25
100
AcDbVertex
100
AcDb2dVertex
 10
2.313311613307254
 20
7.131108537613095
 30
0.0
  0
VERTEX
  5
DE
330
DB
100
AcDbEntity
  8
Wood
 62
   250
420
  2301728
370
    25
100
AcDbVertex
100
AcDb2dVertex
 10
2.313311613307254
 20
8.3159001038247
 30
0.0
  0
VERTEX
  5
DF
330
DB
100
AcDbEntity
  8
Wood
 62
   250
420
  2301728
370
    25
100
AcDbVertex
100
AcDb2dVertex
 10
4.723621740027763
 20
8.724222148828781
 30
0.0
  0
VERTEX
  5
E0
330
DB
100
AcDbEntity
  8
Wood
 62
   250
420
  2301728
370
    25
100
AcDbVertex
100
AcDb2dVertex
 10
4.977785422089028
 20
8.671833797563117
 30
0.0
  0
VERTEX
  5
E1
330
DB
100
AcDbEntity
  8
Wood
 62
   250
420
  2301728
370
    25
100
AcDbVertex
100
AcDb2dVertex
 10
4.977785422089028
 20
8.2745775257888
 30
0.0
  0
VERTEX
  5
E2
330
DB
100
AcDbEntity
  8
Wood
 62
   250
420
  2301728
370
    25
100
AcDbVertex
100
AcDb2dVertex
 10
4.882458456395372
 20
8.233971503886892
 30
0.0
  0
VERTEX
  5
E3
330
DB
100
AcDbEntity
  8
Wood
 62
   250
420
  2301728
370
    25
100
AcDbVertex
100
AcDb2dVertex
 10
5.061966159468814
 20
8.17163181953035
 30
0.0
  0
VERTEX
  5
E4
330
DB
100
AcDbEntity
  8
Wood
 62
   250
420
  2301728
370
    25
100
AcDbVertex
100
AcDb2dVertex
 10
4.977785422089028
 20
8.118882855844037
 30
0.0
  0
VERTEX
  5
E5
330
DB
100
AcDbEntity
  8
Wood
 62
   250
420
  2301728
370
    25
100
AcDbVertex
100
AcDb2dVertex
 10
4.977785422089028
 20
7.693749110591157
 30
0.0
  0
VERTEX
  5
E6
330
DB
100
AcDbEntity
  8
Wood
 62
   250
420
  2301728
370
    25
100
AcDbVertex
100
AcDb2dVertex
 10
2.565419044908758
 20
7.010985723324993
 30
0.0
  0
SEQEND
  5
E8
330
DB
100
AcDbEntity
  8
Wood
 62
   250
420
  2301728
370
    25
  0
HATCH
  5
E7
330
D7
100
AcDbEntity
  8
Wood
 62
    43
420
 11708797
100
AcDbHatch
 10
0.0
 20
0.0
 30
0.0
210
0.0
220
0.0
230
1.0
  2
SOLID
 70
     1
 71
     0
 91
        1
 92
        1
 93
       10
 72
     1
 10
2.565419044908758
 20
7.010985723324993
 11
2.313311613307254
 21
7.131108537613095
 72
     1
 10
2.313311613307254
 20
7.131108537613095
 11
2.313311613307254
 21
8.3159001038247
 72
     1
 10
2.313311613307254
 20
8.3159001038247
 11
4.723621740027763
 21
8.724222148828781
 72
     1
 10
4.723621740027763
 20
8.724222148828781
 11
4.977785422089028
 21
8.671833797563117
 72
     1
 10
4.977785422089028
 20
8.671833797563117
 11
4.977785422089028
 21
8.2745775257888
 72
     1
 10
4.977785422089028
 20
8.2745775257888
 11
4.882458456395372
 21
8.233971503886892
 72
     1
 10
4.882458456395372
 20
8.233971503886892
 11
5.061966159468814
 21
8.17163181953035
 72
     1
 10
5.061966159468814
 20
8.17163181953035
 11
4.977785422089028
 21
8.118882855844037
 72
     1
 10
4.977785422089028
 20
8.118882855844037
 11
4.977785422089028
 21
7.693749110591157
 72
     1
 10
4.977785422089028
 20
7.693749110591157
 11
2.565419044908758
 21
7.010985723324993
 97
        0
 75
     2
 76
     1
 98
        0
  0
POLYLINE
  5
E9
330
D7
100
AcDbEntity
  8
Wood
 62
   250
420
  2301728
370
    25
100
AcDb2dPolyline
 66
     1
 10
0.0
 20
0.0
 30
0.0
  0
VERTEX
  5
EA
330
E9
100
AcDbEntity
  8
Wood
 62
   250
420
  2301728
370
    25
100
AcDbVertex
100
AcDb2dVertex
 10
3.418890542288232
 20
6.459762903016402
 30
0.0
  0
VERTEX
  5
1CA
330
E9
100
AcDbEntity
  8
0
100
AcDbVertex
100
AcDb2dVertex
 10
3.418890542288232
 20
6.459762903016402
 30
0.0
  0
SEQEND
  5
EB
330
E9
100
AcDbEntity
  8
Wood
 62
   250
420
  2301728
370
    25
  0
POLYLINE
  5
EC
330
D7
100
AcDbEntity
  8
Wood
 62
   250
420
  2301728
370
    18
100
AcDb2dPolyline
 66
     1
 10
0.0
 20
0.0
 30
0.0
  0
VERTEX
  5
ED
330
EC
100
AcDbEntity
  8
Wood
 62
   250
420
  2301728
370
    18
100
AcDbVertex
100
AcDb2dVertex
 10
2.563995825860704
 20
7.010592503787443
 30
0.0
  0
VERTEX
  5
EE
330
EC
100
AcDbEntity
  8
Wood
 62
   250
420
  2301728
370
    18
100
AcDbVertex
100
AcDb2dVertex
 10
2.563995825860704
 20
8.252735619086176
 30
0.0
  0
VERTEX
  5
EF
330
EC
100
AcDbEntity
  8
Wood
 62
   250
420
  2301728
370
    18
100
AcDbVertex
100
AcDb2dVertex
 10
2.312384190641865
 20
8.3159001038247
 30
0.0
  0
SEQEND
  5
F0
330
EC
100
AcDbEntity
  8
Wood
 62
   250
420
  2301728
370
    18
  0
POLYLINE
  5
F1
330
D7
100
AcDbEntity
  8
Wood
 62
   250
420
  2301728
370
    13
100
AcDb2dPolyline
 66
     1
 10
0.0
 20
0.0
 30
0.0
  0
VERTEX
  5
F2
330
F1
100
AcDbEntity
  8
Wood
 62
   250
420
  2301728
370
    13
100
AcDbVertex
100
AcDb2dVertex
 10
2.329078757690809
 20
8.30999893354538
 30
0.0
  0
VERTEX
  5
F3
330
F1
100
AcDbEntity
  8
Wood
 62
   250
420
  2301728
370
    13
100
AcDbVertex
100
AcDb2dVertex
 10
2.329078757690809
 20
8.14178728795946
 30
0.0
  0
VERTEX
  5
F4
330
F1
100
AcDbEntity
  8
Wood
 62
   250
420
  2301728
370
    13
100
AcDbVertex
100
AcDb2dVertex
 10
2.361541428195361
 20
8.029639157707201
 30
0.0
  0
VERTEX
  5
F5
330
F1
100
AcDbEntity
  8
Wood
 62
   250
420
  2301728
370
    13
100
AcDbVertex
100
AcDb2dVertex
 10
2.367441639402639
 20
7.678473011093514
 30
0.0
  0
VERTEX
  5
F6
330
F1
100
AcDbEntity
  8
Wood
 62
   250
420
  2301728
370
    13
100
AcDbVertex
100
AcDb2dVertex
 10
2.320228478585275
 20
7.442395509615292
 30
0.0
  0
VERTEX
  5
F7
330
F1
100
AcDbEntity
  8
Wood
 62
   250
420
  2301728
370
    13
100
AcDbVertex
100
AcDb2dVertex
 10
2.313311613307254
 20
7.414151797027014
 30
0.0
  0
SEQEND
  5
F8
330
F1
100
AcDbEntity
  8
Wood
 62
   250
420
  2301728
370
    13
  0
POLYLINE
  5
F9
330
D7
100
AcDbEntity
  8
Wood
 62
   250
420
  2301728
370
    13
100
AcDb2dPolyline
 66
     1
 10
0.0
 20
0.0
 30
0.0
  0
VERTEX
  5
FA
330
F9
100
AcDbEntity
  8
Wood
 62
   250
420
  2301728
370
    13
100
AcDbVertex
100
AcDb2dVertex
 10
2.376302506006027
 20
8.298198511130824
 30
0.0
  0
VERTEX
  5
FB
330
F9
100
AcDbEntity
  8
Wood
 62
   250
420
  2301728
370
    13
100
AcDbVertex
100
AcDb2dVertex
 10
2.376302506006027
 20
8.17129026213993
 30
0.0
  0
VERTEX
  5
FC
330
F9
100
AcDbEntity
  8
Wood
 62
   250
420
  2301728
370
    13
100
AcDbVertex
100
AcDb2dVertex
 10
2.405804521114457
 20
7.991276275995371
 30
0.0
  0
VERTEX
  5
FD
330
F9
100
AcDbEntity
  8
Wood
 62
   250
420
  2301728
370
    13
100
AcDbVertex
100
AcDb2dVertex
 10
2.432366980411719
 20
7.412892535434821
 30
0.0
  0
VERTEX
  5
FE
330
F9
100
AcDbEntity
  8
Wood
 62
   250
420
  2301728
370
    13
100
AcDbVertex
100
AcDb2dVertex
 10
2.352690152312397
 20
7.224018641758915
 30
0.0
  0
VERTEX
  5
FF
330
F9
100
AcDbEntity
  8
Wood
 62
   250
420
  2301728
370
    13
100
AcDbVertex
100
AcDb2dVertex
 10
2.343839835501474
 20
7.106551497957311
 30
0.0
  0
SEQEND
  5
100
330
F9
100
AcDbEntity
  8
Wood
 62
   250
420
  2301728
370
    13
  0
SPLINE
  5
101
330
D7
100
AcDbEntity
  8
Wood
 62
   250
420
  2301728
370
    13
100
AcDbSpline
210
0.0
220
0.0
230
1.0
 70
     8
 71
     3
 72
    26
 73
    22
 74
     0
 42
0.0000000001
 43
0.0000000001
 12
1.0
 22
0.0
 32
0.0
 13
1.0
 23
0.0
 33
0.0
 40
0.0
 40
0.0
 40
0.0
 40
0.0
 40
1.0
 40
1.0
 40
1.0
 40
2.0
 40
2.0
 40
2.0
 40
3.0
 40
3.0
 40
3.0
 40
4.0
 40
4.0
 40
4.0
 40
5.0
 40
5.0
 40
5.0
 40
6.0
 40
6.0
 40
6.0
 40
7.0
 40
7.0
 40
7.0
 40
7.0
 10
2.42940728408765
 20
8.286378907275395
 30
0.0
 10
2.42940728408765
 20
8.286378907275395
 30
0.0
 10
2.435307535907453
 20
8.112284440022917
 30
0.0
 10
2.435307535907453
 20
8.112284440022917
 30
0.0
 10
2.435307535907453
 20
8.112284440022917
 30
0.0
 10
2.450068573105606
 20
8.04735993184195
 30
0.0
 10
2.450068573105606
 20
8.04735993184195
 30
0.0
 10
2.450068573105606
 20
8.04735993184195
 30
0.0
 10
2.46777016579948
 20
7.666671629606917
 30
0.0
 10
2.46777016579948
 20
7.666671629606917
 30
0.0
 10
2.46777016579948
 20
7.666671629606917
 30
0.0
 10
2.464828691844231
 20
7.527981180570286
 30
0.0
 10
2.464828691844231
 20
7.527981180570286
 30
0.0
 10
2.464828691844231
 20
7.527981180570286
 30
0.0
 10
2.502676551869071
 20
7.354767015209151
 30
0.0
 10
2.502676551869071
 20
7.354767015209151
 30
0.0
 10
2.502676551869071
 20
7.354767015209151
 30
0.0
 10
2.458403868229539
 20
7.208340691075338
 30
0.0
 10
2.458403868229539
 20
7.208340691075338
 30
0.0
 10
2.458403868229539
 20
7.208340691075338
 30
0.0
 10
2.482539875258529
 20
7.12149000409589
 30
0.0
 10
2.473680009309078
 20
7.050542649730093
 30
0.0
  0
SPLINE
  5
102
330
D7
100
AcDbEntity
  8
Wood
 62
   250
420
  2301728
370
    13
100
AcDbSpline
210
0.0
220
0.0
230
1.0
 70
     8
 71
     3
 72
    17
 73
    13
 74
     0
 42
0.0000000001
 43
0.0000000001
 12
1.0
 22
0.0
 32
0.0
 13
1.0
 23
0.0
 33
0.0
 40
0.0
 40
0.0
 40
0.0
 40
0.0
 40
1.0
 40
1.0
 40
1.0
 40
2.0
 40
2.0
 40
2.0
 40
3.0
 40
3.0
 40
3.0
 40
4.0
 40
4.0
 40
4.0
 40
4.0
 10
2.473670418588401
 20
8.2745775257888
 30
0.0
 10
2.473670418588401
 20
8.2745775257888
 30
0.0
 10
2.488431454817436
 20
8.150647322703865
 30
0.0
 10
2.488431454817436
 20
8.150647322703865
 30
0.0
 10
2.488431454817436
 20
8.150647322703865
 30
0.0
 10
2.503191573556061
 20
7.888007234715322
 30
0.0
 10
2.503191573556061
 20
7.888007234715322
 30
0.0
 10
2.503191573556061
 20
7.888007234715322
 30
0.0
 10
2.503191573556061
 20
7.578145443768713
 30
0.0
 10
2.532694547736532
 20
7.504378417597081
 30
0.0
 10
2.532694547736532
 20
7.504378417597081
 30
0.0
 10
2.565157218241072
 20
7.288943982768008
 30
0.0
 10
2.565157218241072
 20
7.288943982768008
 30
0.0
  0
POLYLINE
  5
103
330
D7
100
AcDbEntity
  8
Wood
 62
   250
420
  2301728
370
    13
100
AcDb2dPolyline
 66
     1
 10
0.0
 20
0.0
 30
0.0
  0
VERTEX
  5
104
330
103
100
AcDbEntity
  8
Wood
 62
   250
420
  2301728
370
    13
100
AcDbVertex
100
AcDb2dVertex
 10
2.523852862573992
 20
8.262776144302203
 30
0.0
  0
VERTEX
  5
105
330
103
100
AcDbEntity
  8
Wood
 62
   250
420
  2301728
370
    13
100
AcDbVertex
100
AcDb2dVertex
 10
2.538594758943809
 20
8.065061524535798
 30
0.0
  0
VERTEX
  5
106
330
103
100
AcDbEntity
  8
Wood
 62
   250
420
  2301728
370
    13
100
AcDbVertex
100
AcDb2dVertex
 10
2.562215744285822
 20
7.758158470841231
 30
0.0
  0
SEQEND
  5
107
330
103
100
AcDbEntity
  8
Wood
 62
   250
420
  2301728
370
    13
  0
POLYLINE
  5
108
330
D7
100
AcDbEntity
  8
Wood
 62
   250
420
  2301728
370
    18
100
AcDb2dPolyline
 66
     1
 10
0.0
 20
0.0
 30
0.0
  0
VERTEX
  5
109
330
108
100
AcDbEntity
  8
Wood
 62
   250
420
  2301728
370
    18
100
AcDbVertex
100
AcDb2dVertex
 10
4.977785422089028
 20
8.671833797563117
 30
0.0
  0
VERTEX
  5
10A
330
108
100
AcDbEntity
  8
Wood
 62
   250
420
  2301728
370
    18
100
AcDbVertex
100
AcDb2dVertex
 10
2.563995825860704
 20
8.252735619086176
 30
0.0
  0
SEQEND
  5
10B
330
108
100
AcDbEntity
  8
Wood
 62
   250
420
  2301728
370
    18
  0
ENDBLK
  5
DA
330
D7
100
AcDbEntity
  8
0
100
AcDbBlockEnd
  0
BLOCK
  5
132
330
130
100
AcDbEntity
  8
0
100
AcDbBlockBegin
  2
block 6
 70
     0
 10
0.0
 20
0.0
 30
0.0
  3
block 6
  1

  0
SPLINE
  5
134
330
130
100
AcDbEntity
  8
H2.5A
 62
   250
420
  2301728
370
    18
100
AcDbSpline
210
0.0
220
0.0
230
1.0
 70
    11
 71
     3
 72
    17
 73
    13
 74
     0
 42
0.0000000001
 43
0.0000000001
 12
1.0
 22
0.0
 32
0.0
 13
1.0
 23
0.0
 33
0.0
 40
0.0
 40
0.0
 40
0.0
 40
0.0
 40
1.0
 40
1.0
 40
1.0
 40
2.0
 40
2.0
 40
2.0
 40
3.0
 40
3.0
 40
3.0
 40
4.0
 40
4.0
 40
4.0
 40
4.0
 10
3.757426743182413
 20
7.08164247886182
 30
0.0
 10
3.760695186692196
 20
7.063224459351974
 30
0.0
 10
3.774992073634154
 20
7.048234163323084
 30
0.0
 10
3.789340750466421
 20
7.048149764983324
 30
0.0
 10
3.803689427298675
 20
7.048074957363976
 30
0.0
 10
3.812699909140747
 20
7.062953041963864
 30
0.0
 10
3.809440023267282
 20
7.081375856833928
 30
0.0
 10
3.80616191502501
 20
7.09978428562335
 30
0.0
 10
3.791869823443272
 20
7.114788967732895
 30
0.0
 10
3.777521146611004
 20
7.114854184631794
 30
0.0
 10
3.763177265138956
 20
7.114928992251129
 30
0.0
 10
3.754167742368925
 20
7.100051008323994
 30
0.0
 10
3.757426743182413
 20
7.08164247886182
 30
0.0
  0
SPLINE
  5
135
330
130
100
AcDbEntity
  8
H2.5A
 62
   250
420
  2301728
370
    18
100
AcDbSpline
210
0.0
220
0.0
230
1.0
 70
    11
 71
     3
 72
    23
 73
    19
 74
     0
 42
0.0000000001
 43
0.0000000001
 12
1.0
 22
0.0
 32
0.0
 13
1.0
 23
0.0
 33
0.0
 40
0.0
 40
0.0
 40
0.0
 40
0.0
 40
1.0
 40
1.0
 40
1.0
 40
2.0
 40
2.0
 40
2.0
 40
3.0
 40
3.0
 40
3.0
 40
4.0
 40
4.0
 40
4.0
 40
5.0
 40
5.0
 40
5.0
 40
6.0
 40
6.0
 40
6.0
 40
6.0
 10
3.819106510386619
 20
7.087215646502512
 30
0.0
 10
3.815846624513155
 20
7.105624075291921
 30
0.0
 10
3.801535351490555
 20
7.120623962041249
 30
0.0
 10
3.787186749422163
 20
7.120693974300378
 30
0.0
 10
3.781473482499361
 20
7.120726582749827
 30
0.0
 10
3.776659899916568
 20
7.118296294193391
 30
0.0
 10
3.773081602124901
 20
7.114292168414711
 30
0.0
 10
3.761398186499567
 20
7.111576076389534
 30
0.0
 10
3.754523558096808
 20
7.098051242442011
 30
0.0
 10
3.757426743182413
 20
7.08164247886182
 30
0.0
 10
3.760695186692196
 20
7.063224459351974
 30
0.0
 10
3.774992073634154
 20
7.048234163323084
 30
0.0
 10
3.789340750466421
 20
7.048149764983324
 30
0.0
 10
3.795073124066208
 20
7.048121951894081
 30
0.0
 10
3.799887665721043
 20
7.050547445090311
 30
0.0
 10
3.803465004440669
 20
7.054551570868991
 30
0.0
 10
3.815153290896559
 20
7.057262867533963
 30
0.0
 10
3.822027843828992
 20
7.070792496841679
 30
0.0
 10
3.819106510386619
 20
7.087215646502512
 30
0.0
  0
ENDBLK
  5
133
330
130
100
AcDbEntity
  8
0
100
AcDbBlockEnd
  0
BLOCK
  5
138
330
136
100
AcDbEntity
  8
0
100
AcDbBlockBegin
  2
block 7
 70
     0
 10
0.0
 20
0.0
 30
0.0
  3
block 7
  1

  0
SPLINE
  5
13A
330
136
100
AcDbEntity
  8
H2.5A
 62
   250
420
  2301728
370
    18
100
AcDbSpline
210
0.0
220
0.0
230
1.0
 70
    11
 71
     3
 72
    17
 73
    13
 74
     0
 42
0.0000000001
 43
0.0000000001
 12
1.0
 22
0.0
 32
0.0
 13
1.0
 23
0.0
 33
0.0
 40
0.0
 40
0.0
 40
0.0
 40
0.0
 40
1.0
 40
1.0
 40
1.0
 40
2.0
 40
2.0
 40
2.0
 40
3.0
 40
3.0
 40
3.0
 40
4.0
 40
4.0
 40
4.0
 40
4.0
 10
3.757426743182413
 20
6.898754153805005
 30
0.0
 10
3.760695186692196
 20
6.880312157494093
 30
0.0
 10
3.774992073634154
 20
6.865336247545833
 30
0.0
 10
3.789340750466421
 20
6.865251849206073
 30
0.0
 10
3.803689427298675
 20
6.865167450866301
 30
0.0
 10
3.812699909140747
 20
6.880040740105983
 30
0.0
 10
3.809440023267282
 20
6.898473241276949
 30
0.0
 10
3.80616191502501
 20
6.916886369846098
 30
0.0
 10
3.791869823443272
 20
6.931891051955618
 30
0.0
 10
3.777521146611004
 20
6.931956268854542
 30
0.0
 10
3.763177265138956
 20
6.932021582181441
 30
0.0
 10
3.754167742368925
 20
6.917157787234209
 30
0.0
 10
3.757426743182413
 20
6.898754153805005
 30
0.0
  0
SPLINE
  5
13B
330
136
100
AcDbEntity
  8
H2.5A
 62
   250
420
  2301728
370
    18
100
AcDbSpline
210
0.0
220
0.0
230
1.0
 70
    11
 71
     3
 72
    23
 73
    19
 74
     0
 42
0.0000000001
 43
0.0000000001
 12
1.0
 22
0.0
 32
0.0
 13
1.0
 23
0.0
 33
0.0
 40
0.0
 40
0.0
 40
0.0
 40
0.0
 40
1.0
 40
1.0
 40
1.0
 40
2.0
 40
2.0
 40
2.0
 40
3.0
 40
3.0
 40
3.0
 40
4.0
 40
4.0
 40
4.0
 40
5.0
 40
5.0
 40
5.0
 40
6.0
 40
6.0
 40
6.0
 40
6.0
 10
3.819106510386619
 20
6.904308140004837
 30
0.0
 10
3.815846624513155
 20
6.922721364154464
 30
0.0
 10
3.801535351490555
 20
6.93772604626401
 30
0.0
 10
3.787186749422163
 20
6.937781672442484
 30
0.0
 10
3.781473482499361
 20
6.937819076252152
 30
0.0
 10
3.776659899916568
 20
6.935393583055921
 30
0.0
 10
3.773081602124901
 20
6.931384661917036
 30
0.0
 10
3.761398186499567
 20
6.928678160612283
 30
0.0
 10
3.754523558096808
 20
6.915153326664772
 30
0.0
 10
3.757426743182413
 20
6.898754153805005
 30
0.0
 10
3.760695186692196
 20
6.880312157494093
 30
0.0
 10
3.774992073634154
 20
6.865336247545833
 30
0.0
 10
3.789340750466421
 20
6.865251849206073
 30
0.0
 10
3.795073124066208
 20
6.865214445396405
 30
0.0
 10
3.799887665721043
 20
6.86764952931306
 30
0.0
 10
3.803465004440669
 20
6.871648859731522
 30
0.0
 10
3.815153290896559
 20
6.874364951756711
 30
0.0
 10
3.822027843828992
 20
6.887898417352605
 30
0.0
 10
3.819106510386619
 20
6.904308140004837
 30
0.0
  0
ENDBLK
  5
139
330
136
100
AcDbEntity
  8
0
100
AcDbBlockEnd
  0
BLOCK
  5
13E
330
13C
100
AcDbEntity
  8
0
100
AcDbBlockBegin
  2
block 8
 70
     0
 10
0.0
 20
0.0
 30
0.0
  3
block 8
  1

  0
SPLINE
  5
140
330
13C
100
AcDbEntity
  8
H2.5A
 62
   250
420
  2301728
370
    18
100
AcDbSpline
210
0.0
220
0.0
230
1.0
 70
    11
 71
     3
 72
    17
 73
    13
 74
     0
 42
0.0000000001
 43
0.0000000001
 12
1.0
 22
0.0
 32
0.0
 13
1.0
 23
0.0
 33
0.0
 40
0.0
 40
0.0
 40
0.0
 40
0.0
 40
1.0
 40
1.0
 40
1.0
 40
2.0
 40
2.0
 40
2.0
 40
3.0
 40
3.0
 40
3.0
 40
4.0
 40
4.0
 40
4.0
 40
4.0
 10
3.922749589763372
 20
6.813205886659678
 30
0.0
 10
3.926027698005643
 20
6.794801294158433
 30
0.0
 10
3.940319789587395
 20
6.779788072982758
 30
0.0
 10
3.954668466419649
 20
6.779713172781182
 30
0.0
 10
3.969017222609182
 20
6.779646996810217
 30
0.0
 10
3.978027625093975
 20
6.794520286049899
 30
0.0
 10
3.974767739220511
 20
6.812943194339772
 30
0.0
 10
3.971489630978239
 20
6.83135632506959
 30
0.0
 10
3.9571975393965
 20
6.846351416458699
 30
0.0
 10
3.942848862564233
 20
6.84641663335761
 30
0.0
 10
3.928500185731966
 20
6.846492400048987
 30
0.0
 10
3.919490741068103
 20
6.831619110809318
 30
0.0
 10
3.922749589763372
 20
6.813205886659678
 30
0.0
  0
SPLINE
  5
141
330
13C
100
AcDbEntity
  8
H2.5A
 62
   250
420
  2301728
370
    18
100
AcDbSpline
210
0.0
220
0.0
230
1.0
 70
    11
 71
     3
 72
    23
 73
    19
 74
     0
 42
0.0000000001
 43
0.0000000001
 12
1.0
 22
0.0
 32
0.0
 13
1.0
 23
0.0
 33
0.0
 40
0.0
 40
0.0
 40
0.0
 40
0.0
 40
1.0
 40
1.0
 40
1.0
 40
2.0
 40
2.0
 40
2.0
 40
3.0
 40
3.0
 40
3.0
 40
4.0
 40
4.0
 40
4.0
 40
5.0
 40
5.0
 40
5.0
 40
6.0
 40
6.0
 40
6.0
 40
6.0
 10
3.984433267267807
 20
6.818778095228329
 30
0.0
 10
3.981174340466383
 20
6.837191319377957
 30
0.0
 10
3.966863067443796
 20
6.852186410767065
 30
0.0
 10
3.952514390611529
 20
6.852261218386401
 30
0.0
 10
3.946801198452603
 20
6.852289031475644
 30
0.0
 10
3.941987615869796
 20
6.849863538279414
 30
0.0
 10
3.938409318078129
 20
6.845854617140528
 30
0.0
 10
3.92672110709259
 20
6.843148115835763
 30
0.0
 10
3.919846478689818
 20
6.829614650239868
 30
0.0
 10
3.922749589763372
 20
6.813205886659678
 30
0.0
 10
3.926027698005643
 20
6.794801294158433
 30
0.0
 10
3.940319789587395
 20
6.779788072982758
 30
0.0
 10
3.954668466419649
 20
6.779713172781182
 30
0.0
 10
3.960400840019436
 20
6.779693991340322
 30
0.0
 10
3.96521442260223
 20
6.782110852888169
 30
0.0
 10
3.968792720393897
 20
6.78612840567545
 30
0.0
 10
3.98048093137945
 20
6.788834906980203
 30
0.0
 10
3.987355559782208
 20
6.802350150207277
 30
0.0
 10
3.984433267267807
 20
6.818778095228329
 30
0.0
  0
ENDBLK
  5
13F
330
13C
100
AcDbEntity
  8
0
100
AcDbBlockEnd
  0
BLOCK
  5
144
330
142
100
AcDbEntity
  8
0
100
AcDbBlockBegin
  2
block 9
 70
     0
 10
0.0
 20
0.0
 30
0.0
  3
block 9
  1

  0
SPLINE
  5
146
330
142
100
AcDbEntity
  8
H2.5A
 62
   250
420
  2301728
370
    18
100
AcDbSpline
210
0.0
220
0.0
230
1.0
 70
    11
 71
     3
 72
    17
 73
    13
 74
     0
 42
0.0000000001
 43
0.0000000001
 12
1.0
 22
0.0
 32
0.0
 13
1.0
 23
0.0
 33
0.0
 40
0.0
 40
0.0
 40
0.0
 40
0.0
 40
1.0
 40
1.0
 40
1.0
 40
2.0
 40
2.0
 40
2.0
 40
3.0
 40
3.0
 40
3.0
 40
4.0
 40
4.0
 40
4.0
 40
4.0
 10
3.877999288246529
 20
6.984686049767447
 30
0.0
 10
3.881277396488801
 20
6.966282416338244
 30
0.0
 10
3.89556948807054
 20
6.951277734228711
 30
0.0
 10
3.909918164902807
 20
6.951193432801245
 30
0.0
 10
3.924266919961862
 20
6.951128118990027
 30
0.0
 10
3.933277323577133
 20
6.966001505516096
 30
0.0
 10
3.930017437703668
 20
6.98442422309976
 30
0.0
 10
3.926739329461396
 20
7.0028374472494
 30
0.0
 10
3.912447237879658
 20
7.017832538638508
 30
0.0
 10
3.898098561047391
 20
7.017907346257844
 30
0.0
 10
3.883749884215124
 20
7.017972563156755
 30
0.0
 10
3.874739402373065
 20
7.003100232989127
 30
0.0
 10
3.877999288246529
 20
6.984686049767447
 30
0.0
  0
SPLINE
  5
147
330
142
100
AcDbEntity
  8
H2.5A
 62
   250
420
  2301728
370
    18
100
AcDbSpline
210
0.0
220
0.0
230
1.0
 70
    11
 71
     3
 72
    23
 73
    19
 74
     0
 42
0.0000000001
 43
0.0000000001
 12
1.0
 22
0.0
 32
0.0
 13
1.0
 23
0.0
 33
0.0
 40
0.0
 40
0.0
 40
0.0
 40
0.0
 40
1.0
 40
1.0
 40
1.0
 40
2.0
 40
2.0
 40
2.0
 40
3.0
 40
3.0
 40
3.0
 40
4.0
 40
4.0
 40
4.0
 40
5.0
 40
5.0
 40
5.0
 40
6.0
 40
6.0
 40
6.0
 40
6.0
 10
3.939682965750964
 20
6.990268808128576
 30
0.0
 10
3.936424038949541
 20
7.008672441557766
 30
0.0
 10
3.922112765926954
 20
7.023677123667312
 30
0.0
 10
3.907764089094674
 20
7.02374234056621
 30
0.0
 10
3.902050896935748
 20
7.023770153655454
 30
0.0
 10
3.897236355280913
 20
7.021344660459223
 30
0.0
 10
3.893659016561287
 20
7.017335739320337
 30
0.0
 10
3.881969846503694
 20
7.014629238015573
 30
0.0
 10
3.875095295085556
 20
7.001095772419679
 30
0.0
 10
3.877999288246529
 20
6.984686049767447
 30
0.0
 10
3.881277396488801
 20
6.966282416338244
 30
0.0
 10
3.89556948807054
 20
6.951277734228711
 30
0.0
 10
3.909918164902807
 20
6.951193432801245
 30
0.0
 10
3.915650538502594
 20
6.951175113520144
 30
0.0
 10
3.920464121085388
 20
6.953600703689491
 30
0.0
 10
3.924042418877055
 20
6.95760003420897
 30
0.0
 10
3.935730629862607
 20
6.960316029160013
 30
0.0
 10
3.942605258265366
 20
6.973831272387088
 30
0.0
 10
3.939682965750964
 20
6.990268808128576
 30
0.0
  0
ENDBLK
  5
145
330
142
100
AcDbEntity
  8
0
100
AcDbBlockEnd
  0
BLOCK
  5
14A
330
148
100
AcDbEntity
  8
0
100
AcDbBlockBegin
  2
block 10
 70
     0
 10
0.0
 20
0.0
 30
0.0
  3
block 10
  1

  0
SPLINE
  5
14C
330
148
100
AcDbEntity
  8
H2.5A
 62
   250
420
  2301728
370
    18
100
AcDbSpline
210
0.0
220
0.0
230
1.0
 70
    11
 71
     3
 72
    17
 73
    13
 74
     0
 42
0.0000000001
 43
0.0000000001
 12
1.0
 22
0.0
 32
0.0
 13
1.0
 23
0.0
 33
0.0
 40
0.0
 40
0.0
 40
0.0
 40
0.0
 40
1.0
 40
1.0
 40
1.0
 40
2.0
 40
2.0
 40
2.0
 40
3.0
 40
3.0
 40
3.0
 40
4.0
 40
4.0
 40
4.0
 40
4.0
 10
3.826842385483815
 20
7.160578903344104
 30
0.0
 10
3.830120493726086
 20
7.142160883834271
 30
0.0
 10
3.844412585307825
 20
7.127170587805367
 30
0.0
 10
3.858761262140092
 20
7.127086189465608
 30
0.0
 10
3.873110015906807
 20
7.127016177206491
 30
0.0
 10
3.882120420814418
 20
7.141888507374106
 30
0.0
 10
3.878860534940953
 20
7.16031132224417
 30
0.0
 10
3.875582426698681
 20
7.178730300826057
 30
0.0
 10
3.861290335116943
 20
7.193724433143124
 30
0.0
 10
3.846941658284676
 20
7.193795404474296
 30
0.0
 10
3.832592981452409
 20
7.193865416733413
 30
0.0
 10
3.823583534365702
 20
7.178996922853962
 30
0.0
 10
3.826842385483815
 20
7.160578903344104
 30
0.0
  0
SPLINE
  5
14D
330
148
100
AcDbEntity
  8
H2.5A
 62
   250
420
  2301728
370
    18
100
AcDbSpline
210
0.0
220
0.0
230
1.0
 70
    11
 71
     3
 72
    23
 73
    19
 74
     0
 42
0.0000000001
 43
0.0000000001
 12
1.0
 22
0.0
 32
0.0
 13
1.0
 23
0.0
 33
0.0
 40
0.0
 40
0.0
 40
0.0
 40
0.0
 40
1.0
 40
1.0
 40
1.0
 40
2.0
 40
2.0
 40
2.0
 40
3.0
 40
3.0
 40
3.0
 40
4.0
 40
4.0
 40
4.0
 40
5.0
 40
5.0
 40
5.0
 40
6.0
 40
6.0
 40
6.0
 40
6.0
 10
3.888526062988249
 20
7.166151111912755
 30
0.0
 10
3.885267136186813
 20
7.184565295134436
 30
0.0
 10
3.870955863164239
 20
7.199559427451491
 30
0.0
 10
3.856607186331972
 20
7.199630398782662
 30
0.0
 10
3.850893994173033
 20
7.199663007232124
 30
0.0
 10
3.846080411590239
 20
7.197236554963852
 30
0.0
 10
3.842502113798572
 20
7.193228592897007
 30
0.0
 10
3.830813902813007
 20
7.190517296232024
 30
0.0
 10
3.823939274410261
 20
7.176987769540662
 30
0.0
 10
3.826842385483815
 20
7.160578903344104
 30
0.0
 10
3.830120493726086
 20
7.142160883834271
 30
0.0
 10
3.844412585307825
 20
7.127170587805367
 30
0.0
 10
3.858761262140092
 20
7.127086189465608
 30
0.0
 10
3.864493635739879
 20
7.127058477731402
 30
0.0
 10
3.869307218322673
 20
7.129488664932814
 30
0.0
 10
3.872885516114353
 20
7.133492790711481
 30
0.0
 10
3.884573727099892
 20
7.136204087376477
 30
0.0
 10
3.891448355502651
 20
7.149727962251922
 30
0.0
 10
3.888526062988249
 20
7.166151111912755
 30
0.0
  0
ENDBLK
  5
14B
330
148
100
AcDbEntity
  8
0
100
AcDbBlockEnd
  0
BLOCK
  5
150
330
14E
100
AcDbEntity
  8
0
100
AcDbBlockBegin
  2
block 11
 70
     0
 10
0.0
 20
0.0
 30
0.0
  3
block 11
  1

  0
SPLINE
  5
152
330
14E
100
AcDbEntity
  8
H2.5A
 62
   250
420
  2301728
370
    18
100
AcDbSpline
210
0.0
220
0.0
230
1.0
 70
    11
 71
     3
 72
    17
 73
    13
 74
     0
 42
0.0000000001
 43
0.0000000001
 12
1.0
 22
0.0
 32
0.0
 13
1.0
 23
0.0
 33
0.0
 40
0.0
 40
0.0
 40
0.0
 40
0.0
 40
1.0
 40
1.0
 40
1.0
 40
2.0
 40
2.0
 40
2.0
 40
3.0
 40
3.0
 40
3.0
 40
4.0
 40
4.0
 40
4.0
 40
4.0
 10
3.489757334602448
 20
7.929981022668269
 30
0.0
 10
3.492473493946413
 20
7.911469014098227
 30
0.0
 10
3.483632700537151
 20
7.892732582670178
 30
0.0
 10
3.470051281339124
 20
7.888120525797452
 30
0.0
 10
3.456452598844332
 20
7.883521654771167
 30
0.0
 10
3.443208773005381
 20
7.894788833129925
 30
0.0
 10
3.440492680980166
 20
7.913300841699967
 30
0.0
 10
3.437776588954964
 20
7.931807095837749
 30
0.0
 10
3.446608683397067
 20
7.950548322626016
 30
0.0
 10
3.460198734243489
 20
7.955147073071227
 30
0.0
 10
3.473779194369475
 20
7.959745823516426
 30
0.0
 10
3.487031651856821
 20
7.948483440517874
 30
0.0
 10
3.489757334602448
 20
7.929981022668269
 30
0.0
  0
SPLINE
  5
153
330
14E
100
AcDbEntity
  8
H2.5A
 62
   250
420
  2301728
370
    18
100
AcDbSpline
210
0.0
220
0.0
230
1.0
 70
    11
 71
     3
 72
    23
 73
    19
 74
     0
 42
0.0000000001
 43
0.0000000001
 12
1.0
 22
0.0
 32
0.0
 13
1.0
 23
0.0
 33
0.0
 40
0.0
 40
0.0
 40
0.0
 40
0.0
 40
1.0
 40
1.0
 40
1.0
 40
2.0
 40
2.0
 40
2.0
 40
3.0
 40
3.0
 40
3.0
 40
4.0
 40
4.0
 40
4.0
 40
5.0
 40
5.0
 40
5.0
 40
6.0
 40
6.0
 40
6.0
 40
6.0
 10
3.429469106920275
 20
7.915781961074686
 30
0.0
 10
3.426753014895073
 20
7.93428437892429
 30
0.0
 10
3.435585109337176
 20
7.953030523293616
 30
0.0
 10
3.449175160183598
 20
7.957629151517974
 30
0.0
 10
3.454597753513566
 20
7.959469610768097
 30
0.0
 10
3.459927316855378
 20
7.958687967053227
 30
0.0
 10
3.464591284199489
 20
7.956014074197911
 30
0.0
 10
3.476532690204345
 20
7.957128515911639
 30
0.0
 10
3.487322250685793
 20
7.946465552939836
 30
0.0
 10
3.489757334602448
 20
7.929981022668269
 30
0.0
 10
3.492473493946413
 20
7.911469014098227
 30
0.0
 10
3.483632700537151
 20
7.892732582670178
 30
0.0
 10
3.470051281339124
 20
7.888120525797452
 30
0.0
 10
3.464628688009157
 20
7.886284741326461
 30
0.0
 10
3.459290493018961
 20
7.887071180401549
 30
0.0
 10
3.454625566602797
 20
7.889735482536429
 30
0.0
 10
3.442674569877529
 20
7.888616245462496
 30
0.0
 10
3.431894600116506
 20
7.899279208434311
 30
0.0
 10
3.429469106920275
 20
7.915781961074686
 30
0.0
  0
ENDBLK
  5
151
330
14E
100
AcDbEntity
  8
0
100
AcDbBlockEnd
  0
BLOCK
  5
156
330
154
100
AcDbEntity
  8
0
100
AcDbBlockBegin
  2
block 12
 70
     0
 10
0.0
 20
0.0
 30
0.0
  3
block 12
  1

  0
SPLINE
  5
158
330
154
100
AcDbEntity
  8
H2.5A
 62
   250
420
  2301728
370
    18
100
AcDbSpline
210
0.0
220
0.0
230
1.0
 70
    11
 71
     3
 72
    17
 73
    13
 74
     0
 42
0.0000000001
 43
0.0000000001
 12
1.0
 22
0.0
 32
0.0
 13
1.0
 23
0.0
 33
0.0
 40
0.0
 40
0.0
 40
0.0
 40
0.0
 40
1.0
 40
1.0
 40
1.0
 40
2.0
 40
2.0
 40
2.0
 40
3.0
 40
3.0
 40
3.0
 40
4.0
 40
4.0
 40
4.0
 40
4.0
 10
3.47014527039932
 20
7.78065542374908
 30
0.0
 10
3.472861362424522
 20
7.762143415179038
 30
0.0
 10
3.464019677261982
 20
7.743406983750989
 30
0.0
 10
3.450439217135997
 20
7.738793847225136
 30
0.0
 10
3.436839575569163
 20
7.734195096779949
 30
0.0
 10
3.423596708802241
 20
7.745463234210736
 30
0.0
 10
3.420880616777039
 20
7.763974283708737
 30
0.0
 10
3.418164590193416
 20
7.78248149691856
 30
0.0
 10
3.426996619193952
 20
7.801222723706839
 30
0.0
 10
3.440586670040362
 20
7.805821474152038
 30
0.0
 10
3.454167130166347
 20
7.810420224597237
 30
0.0
 10
3.467419587653694
 20
7.799157841598698
 30
0.0
 10
3.47014527039932
 20
7.78065542374908
 30
0.0
  0
SPLINE
  5
159
330
154
100
AcDbEntity
  8
H2.5A
 62
   250
420
  2301728
370
    18
100
AcDbSpline
210
0.0
220
0.0
230
1.0
 70
    11
 71
     3
 72
    23
 73
    19
 74
     0
 42
0.0000000001
 43
0.0000000001
 12
1.0
 22
0.0
 32
0.0
 13
1.0
 23
0.0
 33
0.0
 40
0.0
 40
0.0
 40
0.0
 40
0.0
 40
1.0
 40
1.0
 40
1.0
 40
2.0
 40
2.0
 40
2.0
 40
3.0
 40
3.0
 40
3.0
 40
4.0
 40
4.0
 40
4.0
 40
5.0
 40
5.0
 40
5.0
 40
6.0
 40
6.0
 40
6.0
 40
6.0
 10
3.409857042717148
 20
7.766456362155496
 30
0.0
 10
3.407140950691946
 20
7.784958780005101
 30
0.0
 10
3.415973045134062
 20
7.803704802153586
 30
0.0
 10
3.429563095980471
 20
7.808303552598797
 30
0.0
 10
3.434985689310439
 20
7.81014401184892
 30
0.0
 10
3.440315252652251
 20
7.809362368134038
 30
0.0
 10
3.444979219996362
 20
7.80668751620668
 30
0.0
 10
3.456920692421843
 20
7.80780291699245
 30
0.0
 10
3.467710253175861
 20
7.797138994948606
 30
0.0
 10
3.47014527039932
 20
7.78065542374908
 30
0.0
 10
3.472861362424522
 20
7.762143415179038
 30
0.0
 10
3.464019677261982
 20
7.743406983750989
 30
0.0
 10
3.450439217135997
 20
7.738793847225136
 30
0.0
 10
3.445016623806029
 20
7.736958183335231
 30
0.0
 10
3.439677469743792
 20
7.73774558148236
 30
0.0
 10
3.43501350239967
 20
7.740409883617253
 30
0.0
 10
3.423062505674402
 20
7.739290646543306
 30
0.0
 10
3.412282535913378
 20
7.749953609515109
 30
0.0
 10
3.409857042717148
 20
7.766456362155496
 30
0.0
  0
ENDBLK
  5
157
330
154
100
AcDbEntity
  8
0
100
AcDbBlockEnd
  0
BLOCK
  5
15C
330
15A
100
AcDbEntity
  8
0
100
AcDbBlockBegin
  2
block 13
 70
     0
 10
0.0
 20
0.0
 30
0.0
  3
block 13
  1

  0
SPLINE
  5
15E
330
15A
100
AcDbEntity
  8
H2.5A
 62
   250
420
  2301728
370
    18
100
AcDbSpline
210
0.0
220
0.0
230
1.0
 70
    11
 71
     3
 72
    17
 73
    13
 74
     0
 42
0.0000000001
 43
0.0000000001
 12
1.0
 22
0.0
 32
0.0
 13
1.0
 23
0.0
 33
0.0
 40
0.0
 40
0.0
 40
0.0
 40
0.0
 40
1.0
 40
1.0
 40
1.0
 40
2.0
 40
2.0
 40
2.0
 40
3.0
 40
3.0
 40
3.0
 40
4.0
 40
4.0
 40
4.0
 40
4.0
 10
3.60699142389765
 20
7.932271286706459
 30
0.0
 10
3.609702720562634
 20
7.913759278136417
 30
0.0
 10
3.600865830760313
 20
7.895022846708368
 30
0.0
 10
3.58728537063434
 20
7.890409710182515
 30
0.0
 10
3.573685729067493
 20
7.885810959737316
 30
0.0
 10
3.560441903228517
 20
7.897078258903447
 30
0.0
 10
3.557725811203328
 20
7.915590146666116
 30
0.0
 10
3.555009719178126
 20
7.934097359875952
 30
0.0
 10
3.563841813620241
 20
7.952838708880209
 30
0.0
 10
3.577431864466651
 20
7.957437337109417
 30
0.0
 10
3.591012324592636
 20
7.96203621000297
 30
0.0
 10
3.604265741152024
 20
7.950773704556089
 30
0.0
 10
3.60699142389765
 20
7.932271286706459
 30
0.0
  0
SPLINE
  5
15F
330
15A
100
AcDbEntity
  8
H2.5A
 62
   250
420
  2301728
370
    18
100
AcDbSpline
210
0.0
220
0.0
230
1.0
 70
    11
 71
     3
 72
    23
 73
    19
 74
     0
 42
0.0000000001
 43
0.0000000001
 12
1.0
 22
0.0
 32
0.0
 13
1.0
 23
0.0
 33
0.0
 40
0.0
 40
0.0
 40
0.0
 40
0.0
 40
1.0
 40
1.0
 40
1.0
 40
2.0
 40
2.0
 40
2.0
 40
3.0
 40
3.0
 40
3.0
 40
4.0
 40
4.0
 40
4.0
 40
5.0
 40
5.0
 40
5.0
 40
6.0
 40
6.0
 40
6.0
 40
6.0
 10
3.546702237143437
 20
7.918072346450597
 30
0.0
 10
3.543986145118235
 20
7.936574642962492
 30
0.0
 10
3.552818308403554
 20
7.955320665110977
 30
0.0
 10
3.566408359593298
 20
7.959919415556176
 30
0.0
 10
3.571830883736728
 20
7.961759874806299
 30
0.0
 10
3.577160447078541
 20
7.960977272019376
 30
0.0
 10
3.581824414422651
 20
7.958303379164059
 30
0.0
 10
3.593766779499548
 20
7.959417943259988
 30
0.0
 10
3.604556339980995
 20
7.948754857905985
 30
0.0
 10
3.60699142389765
 20
7.932271286706459
 30
0.0
 10
3.609702720562634
 20
7.913759278136417
 30
0.0
 10
3.600865830760313
 20
7.895022846708368
 30
0.0
 10
3.58728537063434
 20
7.890409710182515
 30
0.0
 10
3.581861818232318
 20
7.88857404629261
 30
0.0
 10
3.576523623242123
 20
7.889361444439752
 30
0.0
 10
3.571859655898
 20
7.892025746574644
 30
0.0
 10
3.559908659172732
 20
7.890906509500685
 30
0.0
 10
3.549128689411709
 20
7.901569472472488
 30
0.0
 10
3.546702237143437
 20
7.918072346450597
 30
0.0
  0
ENDBLK
  5
15D
330
15A
100
AcDbEntity
  8
0
100
AcDbBlockEnd
  0
BLOCK
  5
162
330
160
100
AcDbEntity
  8
0
100
AcDbBlockBegin
  2
block 14
 70
     0
 10
0.0
 20
0.0
 30
0.0
  3
block 14
  1

  0
SPLINE
  5
164
330
160
100
AcDbEntity
  8
H2.5A
 62
   250
420
  2301728
370
    18
100
AcDbSpline
210
0.0
220
0.0
230
1.0
 70
    11
 71
     3
 72
    17
 73
    13
 74
     0
 42
0.0000000001
 43
0.0000000001
 12
1.0
 22
0.0
 32
0.0
 13
1.0
 23
0.0
 33
0.0
 40
0.0
 40
0.0
 40
0.0
 40
0.0
 40
1.0
 40
1.0
 40
1.0
 40
2.0
 40
2.0
 40
2.0
 40
3.0
 40
3.0
 40
3.0
 40
4.0
 40
4.0
 40
4.0
 40
4.0
 10
3.610390375217321
 20
7.759347720174294
 30
0.0
 10
3.613102630954346
 20
7.740835828464608
 30
0.0
 10
3.604265741152024
 20
7.722099280176192
 30
0.0
 10
3.590685281026039
 20
7.717487102722392
 30
0.0
 10
3.577085639459192
 20
7.712888468431528
 30
0.0
 10
3.563841813620241
 20
7.724155530635951
 30
0.0
 10
3.561125721595039
 20
7.742666580133951
 30
0.0
 10
3.558409698554303
 20
7.761173793343775
 30
0.0
 10
3.56724172401194
 20
7.779915020132042
 30
0.0
 10
3.580831774858363
 20
7.784513770577253
 30
0.0
 10
3.594412234984348
 20
7.789112521022465
 30
0.0
 10
3.607665651543736
 20
7.7778501380239
 30
0.0
 10
3.610390375217321
 20
7.759347720174294
 30
0.0
  0
SPLINE
  5
165
330
160
100
AcDbEntity
  8
H2.5A
 62
   250
420
  2301728
370
    18
100
AcDbSpline
210
0.0
220
0.0
230
1.0
 70
    11
 71
     3
 72
    23
 73
    19
 74
     0
 42
0.0000000001
 43
0.0000000001
 12
1.0
 22
0.0
 32
0.0
 13
1.0
 23
0.0
 33
0.0
 40
0.0
 40
0.0
 40
0.0
 40
0.0
 40
1.0
 40
1.0
 40
1.0
 40
2.0
 40
2.0
 40
2.0
 40
3.0
 40
3.0
 40
3.0
 40
4.0
 40
4.0
 40
4.0
 40
5.0
 40
5.0
 40
5.0
 40
6.0
 40
6.0
 40
6.0
 40
6.0
 10
3.550102147535148
 20
7.745148658580698
 30
0.0
 10
3.547386055509946
 20
7.763651076430316
 30
0.0
 10
3.556218149952049
 20
7.782397098578801
 30
0.0
 10
3.569808200798459
 20
7.786995967050466
 30
0.0
 10
3.575230794128426
 20
7.788836308274123
 30
0.0
 10
3.580560357470252
 20
7.788054664559253
 30
0.0
 10
3.585224324814362
 20
7.785380771703936
 30
0.0
 10
3.597165800782729
 20
7.786495213417664
 30
0.0
 10
3.607955361536748
 20
7.775832368190296
 30
0.0
 10
3.610390375217321
 20
7.759347720174294
 30
0.0
 10
3.613102630954346
 20
7.740835828464608
 30
0.0
 10
3.604265741152024
 20
7.722099280176192
 30
0.0
 10
3.590685281026039
 20
7.717487102722392
 30
0.0
 10
3.58526172862403
 20
7.715651438832487
 30
0.0
 10
3.579923533633834
 20
7.716437877907563
 30
0.0
 10
3.575259566289712
 20
7.719102180042455
 30
0.0
 10
3.563308569564444
 20
7.717982942968521
 30
0.0
 10
3.552527640731379
 20
7.728646022492726
 30
0.0
 10
3.550102147535148
 20
7.745148658580698
 30
0.0
  0
ENDBLK
  5
163
330
160
100
AcDbEntity
  8
0
100
AcDbBlockEnd
  0
BLOCK
  5
168
330
166
100
AcDbEntity
  8
0
100
AcDbBlockBegin
  2
block 15
 70
     0
 10
0.0
 20
0.0
 30
0.0
  3
block 15
  1

  0
SPLINE
  5
16A
330
166
100
AcDbEntity
  8
H2.5A
 62
   250
420
  2301728
370
    18
100
AcDbSpline
210
0.0
220
0.0
230
1.0
 70
    11
 71
     3
 72
    17
 73
    13
 74
     0
 42
0.0000000001
 43
0.0000000001
 12
1.0
 22
0.0
 32
0.0
 13
1.0
 23
0.0
 33
0.0
 40
0.0
 40
0.0
 40
0.0
 40
0.0
 40
1.0
 40
1.0
 40
1.0
 40
2.0
 40
2.0
 40
2.0
 40
3.0
 40
3.0
 40
3.0
 40
4.0
 40
4.0
 40
4.0
 40
4.0
 10
3.566000684788567
 20
7.636499223140567
 30
0.0
 10
3.568711981453551
 20
7.617987214570525
 30
0.0
 10
3.559876050723283
 20
7.599250783142452
 30
0.0
 10
3.546294631525244
 20
7.594638605688664
 30
0.0
 10
3.532695949030464
 20
7.590039855243453
 30
0.0
 10
3.519452191191804
 20
7.601307033602223
 30
0.0
 10
3.516736031166285
 20
7.619819042172265
 30
0.0
 10
3.514019939141083
 20
7.638326255382076
 30
0.0
 10
3.522852033583199
 20
7.657067482170355
 30
0.0
 10
3.536442084429609
 20
7.661665273543512
 30
0.0
 10
3.550022544555595
 20
7.666264023988724
 30
0.0
 10
3.563275961114982
 20
7.655001640990172
 30
0.0
 10
3.566000684788567
 20
7.636499223140567
 30
0.0
  0
SPLINE
  5
16B
330
166
100
AcDbEntity
  8
H2.5A
 62
   250
420
  2301728
370
    18
100
AcDbSpline
210
0.0
220
0.0
230
1.0
 70
    11
 71
     3
 72
    23
 73
    19
 74
     0
 42
0.0000000001
 43
0.0000000001
 12
1.0
 22
0.0
 32
0.0
 13
1.0
 23
0.0
 33
0.0
 40
0.0
 40
0.0
 40
0.0
 40
0.0
 40
1.0
 40
1.0
 40
1.0
 40
2.0
 40
2.0
 40
2.0
 40
3.0
 40
3.0
 40
3.0
 40
4.0
 40
4.0
 40
4.0
 40
5.0
 40
5.0
 40
5.0
 40
6.0
 40
6.0
 40
6.0
 40
6.0
 10
3.505712457106394
 20
7.622301120619012
 30
0.0
 10
3.502996365081192
 20
7.64080353846863
 30
0.0
 10
3.511828459523296
 20
7.659548601545073
 30
0.0
 10
3.525418510369718
 20
7.664147351990272
 30
0.0
 10
3.530841103699686
 20
7.665987811240408
 30
0.0
 10
3.536170667041498
 20
7.665206167525525
 30
0.0
 10
3.540834634385608
 20
7.662532274670209
 30
0.0
 10
3.552776040390452
 20
7.663646716383937
 30
0.0
 10
3.563565600871912
 20
7.652983753412134
 30
0.0
 10
3.566000684788567
 20
7.636499223140567
 30
0.0
 10
3.568711981453551
 20
7.617987214570525
 30
0.0
 10
3.559876050723283
 20
7.599250783142452
 30
0.0
 10
3.546294631525244
 20
7.594638605688664
 30
0.0
 10
3.540872038195276
 20
7.592803054919487
 30
0.0
 10
3.53553384320508
 20
7.593589494014445
 30
0.0
 10
3.530868916788917
 20
7.596253683008727
 30
0.0
 10
3.51891887913569
 20
7.595134445934794
 30
0.0
 10
3.508137950302626
 20
7.605798481427655
 30
0.0
 10
3.505712457106394
 20
7.622301120619012
 30
0.0
  0
ENDBLK
  5
169
330
166
100
AcDbEntity
  8
0
100
AcDbBlockEnd
  0
BLOCK
  5
16E
330
16C
100
AcDbEntity
  8
0
100
AcDbBlockBegin
  2
block 16
 70
     0
 10
0.0
 20
0.0
 30
0.0
  3
block 16
  1

  0
SPLINE
  5
170
330
16C
100
AcDbEntity
  8
H2.5A
 62
   250
420
  2301728
370
    18
100
AcDbSpline
210
0.0
220
0.0
230
1.0
 70
     8
 71
     3
 72
    17
 73
    13
 74
     0
 42
0.0000000001
 43
0.0000000001
 12
1.0
 22
0.0
 32
0.0
 13
1.0
 23
0.0
 33
0.0
 40
0.0
 40
0.0
 40
0.0
 40
0.0
 40
1.0
 40
1.0
 40
1.0
 40
2.0
 40
2.0
 40
2.0
 40
3.0
 40
3.0
 40
3.0
 40
4.0
 40
4.0
 40
4.0
 40
4.0
 10
3.711870819998782
 20
7.495415889357168
 30
0.0
 10
3.714596429883184
 20
7.489931915416453
 30
0.0
 10
3.715860559797597
 20
7.484405742305865
 30
0.0
 10
3.715495080387288
 20
7.479483784582245
 30
0.0
 10
3.714296240333788
 20
7.46369745875783
 30
0.0
 10
3.698215479392236
 20
7.479085879932477
 30
0.0
 10
3.671372011986427
 20
7.486124399406561
 30
0.0
 10
3.644566907462338
 20
7.493148643047991
 30
0.0
 10
3.626827910958796
 20
7.486634625733321
 30
0.0
 10
3.62801716029186
 20
7.502430542278185
 30
0.0
 10
3.628298168400395
 20
7.506256391591251
 30
0.0
 10
3.629581406793654
 20
7.509928567508748
 30
0.0
 10
3.631745073322198
 20
7.513192289670378
 30
0.0
  0
SPLINE
  5
171
330
16C
100
AcDbEntity
  8
H2.5A
 62
   250
420
  2301728
370
    18
100
AcDbSpline
210
0.0
220
0.0
230
1.0
 70
     8
 71
     3
 72
    11
 73
     7
 74
     0
 42
0.0000000001
 43
0.0000000001
 12
1.0
 22
0.0
 32
0.0
 13
1.0
 23
0.0
 33
0.0
 40
0.0
 40
0.0
 40
0.0
 40
0.0
 40
1.0
 40
1.0
 40
1.0
 40
2.0
 40
2.0
 40
2.0
 40
2.0
 10
3.651010912517879
 20
7.525367709253664
 30
0.0
 10
3.657641936621758
 20
7.526754527427556
 30
0.0
 10
3.665481391499586
 20
7.526599157756613
 30
0.0
 10
3.674238678322354
 20
7.524309852790465
 30
0.0
 10
3.683473583022431
 20
7.521883400522192
 30
0.0
 10
3.691378254799158
 20
7.517692255695187
 30
0.0
 10
3.697718680074066
 20
7.512592869643627
 30
0.0
  0
ENDBLK
  5
16F
330
16C
100
AcDbEntity
  8
0
100
AcDbBlockEnd
  0
BLOCK
  5
174
330
172
100
AcDbEntity
  8
0
100
AcDbBlockBegin
  2
block 17
 70
     0
 10
0.0
 20
0.0
 30
0.0
  3
block 17
  1

  0
SPLINE
  5
176
330
172
100
AcDbEntity
  8
H2.5A
 62
   250
420
  2301728
370
    18
100
AcDbSpline
210
0.0
220
0.0
230
1.0
 70
     8
 71
     3
 72
    17
 73
    13
 74
     0
 42
0.0000000001
 43
0.0000000001
 12
1.0
 22
0.0
 32
0.0
 13
1.0
 23
0.0
 33
0.0
 40
0.0
 40
0.0
 40
0.0
 40
0.0
 40
1.0
 40
1.0
 40
1.0
 40
2.0
 40
2.0
 40
2.0
 40
3.0
 40
3.0
 40
3.0
 40
4.0
 40
4.0
 40
4.0
 40
4.0
 10
3.711870819998782
 20
7.385085200626008
 30
0.0
 10
3.714596429883184
 20
7.379601334420108
 30
0.0
 10
3.715860559797597
 20
7.374075053574706
 30
0.0
 10
3.715495080387288
 20
7.369153095851086
 30
0.0
 10
3.714296240333788
 20
7.35336677002667
 30
0.0
 10
3.698215479392236
 20
7.368755080953317
 30
0.0
 10
3.671372011986427
 20
7.375793818314023
 30
0.0
 10
3.644566907462338
 20
7.382817954316831
 30
0.0
 10
3.626827910958796
 20
7.376303937002161
 30
0.0
 10
3.62801716029186
 20
7.392099853547013
 30
0.0
 10
3.628298168400395
 20
7.395925591925725
 30
0.0
 10
3.629581406793654
 20
7.39959798701755
 30
0.0
 10
3.631745073322198
 20
7.402861600939218
 30
0.0
  0
SPLINE
  5
177
330
172
100
AcDbEntity
  8
H2.5A
 62
   250
420
  2301728
370
    18
100
AcDbSpline
210
0.0
220
0.0
230
1.0
 70
     8
 71
     3
 72
    11
 73
     7
 74
     0
 42
0.0000000001
 43
0.0000000001
 12
1.0
 22
0.0
 32
0.0
 13
1.0
 23
0.0
 33
0.0
 40
0.0
 40
0.0
 40
0.0
 40
0.0
 40
1.0
 40
1.0
 40
1.0
 40
2.0
 40
2.0
 40
2.0
 40
2.0
 10
3.651010912517879
 20
7.415037020522504
 30
0.0
 10
3.657641936621758
 20
7.416422879624342
 30
0.0
 10
3.665481391499586
 20
7.416268469025454
 30
0.0
 10
3.674238678322354
 20
7.413979164059305
 30
0.0
 10
3.683473583022431
 20
7.41155271179102
 30
0.0
 10
3.691378254799158
 20
7.407361566964014
 30
0.0
 10
3.697718680074066
 20
7.402262180912468
 30
0.0
  0
ENDBLK
  5
175
330
172
100
AcDbEntity
  8
0
100
AcDbBlockEnd
  0
BLOCK
  5
186
330
184
100
AcDbEntity
  8
0
100
AcDbBlockBegin
  2
block 18
 70
     0
 10
0.0
 20
0.0
 30
0.0
  3
block 18
  1

  0
INSERT
  5
189
330
184
100
AcDbEntity
  8
H2.5A
100
AcDbBlockReference
  2
block 19
 10
0.0
 20
0.0
 30
0.0
  0
INSERT
  5
18F
330
184
100
AcDbEntity
  8
H2.5A
100
AcDbBlockReference
  2
block 20
 10
0.0
 20
0.0
 30
0.0
  0
ENDBLK
  5
187
330
184
100
AcDbEntity
  8
0
100
AcDbBlockEnd
  0
BLOCK
  5
18A
330
188
100
AcDbEntity
  8
0
100
AcDbBlockBegin
  2
block 19
 70
     0
 10
0.0
 20
0.0
 30
0.0
  3
block 19
  1

  0
MTEXT
  5
18C
330
188
100
AcDbEntity
  8
H2.5A
 62
   250
420
  2301728
100
AcDbMText
 10
3.765824487385948
 20
7.266190977744473
 30
0.0
 40
0.0158584945925507
 41
0.0
 46
0.0
 71
     7
 72
     1
  1
\fHelvetica Neue LT Std 57 Condensed|b0|i0|c0|p34;\W0.836476;LINE
 11
0.9122643300932672
 21
-0.4096019922308514
 31
0.0
 73
     1
 44
1.0
  0
MTEXT
  5
18D
330
188
100
AcDbEntity
  8
H2.5A
 62
   250
420
  2301728
100
AcDbMText
 10
3.765824487385948
 20
7.295860845366001
 30
0.0
 40
0.0158584945925507
 41
0.0
 46
0.0
 71
     7
 72
     1
  1
\fHelvetica Neue LT Std 57 Condensed|b0|i0|c0|p34;\W0.836476;PLATE
 11
0.9122643300932672
 21
-0.4096019922308514
 31
0.0
 73
     1
 44
1.0
  0
ENDBLK
  5
18B
330
188
100
AcDbEntity
  8
0
100
AcDbBlockEnd
  0
BLOCK
  5
190
330
18E
100
AcDbEntity
  8
0
100
AcDbBlockBegin
  2
block 20
 70
     0
 10
0.0
 20
0.0
 30
0.0
  3
block 20
  1

  0
POLYLINE
  5
192
330
18E
100
AcDbEntity
  8
H2.5A
 62
     7
420
 16777215
370
     5
100
AcDb2dPolyline
 66
     1
 10
0.0
 20
0.0
 30
0.0
  0
VERTEX
  5
193
330
192
100
AcDbEntity
  8
H2.5A
 62
     7
420
 16777215
370
     5
100
AcDbVertex
100
AcDb2dVertex
 10
3.839036986507949
 20
7.251390557860304
 30
0.0
  0
VERTEX
  5
194
330
192
100
AcDbEntity
  8
H2.5A
 62
     7
420
 16777215
370
     5
100
AcDbVertex
100
AcDb2dVertex
 10
3.838774200768234
 20
7.286835942417938
 30
0.0
  0
SEQEND
  5
195
330
192
100
AcDbEntity
  8
H2.5A
 62
     7
420
 16777215
370
     5
  0
POLYLINE
  5
196
330
18E
100
AcDbEntity
  8
H2.5A
370
     0
100
AcDb2dPolyline
 66
     1
 10
0.0
 20
0.0
 30
0.0
  0
VERTEX
  5
197
330
196
100
AcDbEntity
  8
H2.5A
370
     0
100
AcDbVertex
100
AcDb2dVertex
 10
3.838661989339218
 20
7.23430277127381
 30
0.0
  0
VERTEX
  5
198
330
196
100
AcDbEntity
  8
H2.5A
370
     0
100
AcDbVertex
100
AcDb2dVertex
 10
3.833061008609295
 20
7.254710969852264
 30
0.0
  0
VERTEX
  5
199
330
196
100
AcDbEntity
  8
H2.5A
370
     0
100
AcDbVertex
100
AcDb2dVertex
 10
3.845143474432398
 20
7.249199078242504
 30
0.0
  0
VERTEX
  5
19A
330
196
100
AcDbEntity
  8
H2.5A
370
     0
100
AcDbVertex
100
AcDb2dVertex
 10
3.838661989339218
 20
7.23430277127381
 30
0.0
  0
SEQEND
  5
19C
330
196
100
AcDbEntity
  8
H2.5A
370
     0
  0
HATCH
  5
19B
330
18E
100
AcDbEntity
  8
H2.5A
 62
     7
420
 16777215
100
AcDbHatch
 10
0.0
 20
0.0
 30
0.0
210
0.0
220
0.0
230
1.0
  2
SOLID
 70
     1
 71
     0
 91
        1
 92
        1
 93
        3
 72
     1
 10
3.838661989339218
 20
7.23430277127381
 11
3.833061008609295
 21
7.254710969852264
 72
     1
 10
3.833061008609295
 20
7.254710969852264
 11
3.845143474432398
 21
7.249199078242504
 72
     1
 10
3.845143474432398
 20
7.249199078242504
 11
3.838661989339218
 21
7.23430277127381
 97
        0
 75
     2
 76
     1
 98
        0
  0
ENDBLK
  5
191
330
18E
100
AcDbEntity
  8
0
100
AcDbBlockEnd
  0
BLOCK
  5
19F
330
19D
100
AcDbEntity
  8
0
100
AcDbBlockBegin
  2
block 21
 70
     0
 10
0.0
 20
0.0
 30
0.0
  3
block 21
  1

  0
INSERT
  5
1A2
330
19D
100
AcDbEntity
  8
H2.5A
100
AcDbBlockReference
  2
block 22
 10
0.0
 20
0.0
 30
0.0
  0
INSERT
  5
1A8
330
19D
100
AcDbEntity
  8
H2.5A
100
AcDbBlockReference
  2
block 23
 10
0.0
 20
0.0
 30
0.0
  0
ENDBLK
  5
1A0
330
19D
100
AcDbEntity
  8
0
100
AcDbBlockEnd
  0
BLOCK
  5
1A3
330
1A1
100
AcDbEntity
  8
0
100
AcDbBlockBegin
  2
block 22
 70
     0
 10
0.0
 20
0.0
 30
0.0
  3
block 22
  1

  0
MTEXT
  5
1A5
330
1A1
100
AcDbEntity
  8
H2.5A
 62
   250
420
  2301728
100
AcDbMText
 10
3.604366409145465
 20
7.579693590809862
 30
0.0
 40
0.0140426045441664
 41
0.0
 46
0.0
 71
     7
 72
     1
  1
\fHelvetica Neue LT Std 57 Condensed|b0|i0|c0|p34;\W0.80219;LINE
 11
-0.9395397279137672
 21
-0.3424399212587871
 31
0.0
 73
     1
 44
1.0
  0
MTEXT
  5
1A6
330
1A1
100
AcDbEntity
  8
H2.5A
 62
   250
420
  2301728
100
AcDbMText
 10
3.605258930012698
 20
7.555594561817188
 30
0.0
 40
0.0140426045441664
 41
0.0
 46
0.0
 71
     7
 72
     1
  1
\fHelvetica Neue LT Std 57 Condensed|b0|i0|c0|p34;\W0.80219;PLATE
 11
-0.9395397279137672
 21
-0.3424399212587871
 31
0.0
 73
     1
 44
1.0
  0
ENDBLK
  5
1A4
330
1A1
100
AcDbEntity
  8
0
100
AcDbBlockEnd
  0
BLOCK
  5
1A9
330
1A7
100
AcDbEntity
  8
0
100
AcDbBlockBegin
  2
block 23
 70
     0
 10
0.0
 20
0.0
 30
0.0
  3
block 23
  1

  0
POLYLINE
  5
1AB
330
1A7
100
AcDbEntity
  8
H2.5A
 62
     7
420
 16777215
370
     5
100
AcDb2dPolyline
 66
     1
 10
0.0
 20
0.0
 30
0.0
  0
VERTEX
  5
1AC
330
1AB
100
AcDbEntity
  8
H2.5A
 62
     7
420
 16777215
370
     5
100
AcDbVertex
100
AcDb2dVertex
 10
3.544599951225627
 20
7.544685338339654
 30
0.0
  0
VERTEX
  5
1AD
330
1AB
100
AcDbEntity
  8
H2.5A
 62
     7
420
 16777215
370
     5
100
AcDbVertex
100
AcDb2dVertex
 10
3.545129358993247
 20
7.514620347942102
 30
0.0
  0
SEQEND
  5
1AE
330
1AB
100
AcDbEntity
  8
H2.5A
 62
     7
420
 16777215
370
     5
  0
POLYLINE
  5
1AF
330
1A7
100
AcDbEntity
  8
H2.5A
370
     0
100
AcDb2dPolyline
 66
     1
 10
0.0
 20
0.0
 30
0.0
  0
VERTEX
  5
1B0
330
1AF
100
AcDbEntity
  8
H2.5A
370
     0
100
AcDbVertex
100
AcDb2dVertex
 10
3.544005326559095
 20
7.559164448969745
 30
0.0
  0
VERTEX
  5
1B1
330
1AF
100
AcDbEntity
  8
H2.5A
370
     0
100
AcDbVertex
100
AcDb2dVertex
 10
3.540155611379317
 20
7.541697828926342
 30
0.0
  0
VERTEX
  5
1B2
330
1AF
100
AcDbEntity
  8
H2.5A
370
     0
100
AcDbVertex
100
AcDb2dVertex
 10
3.549156502500952
 20
7.546722407358553
 30
0.0
  0
VERTEX
  5
1B3
330
1AF
100
AcDbEntity
  8
H2.5A
370
     0
100
AcDbVertex
100
AcDb2dVertex
 10
3.544005326559095
 20
7.559164448969745
 30
0.0
  0
SEQEND
  5
1B5
330
1AF
100
AcDbEntity
  8
H2.5A
370
     0
  0
HATCH
  5
1B4
330
1A7
100
AcDbEntity
  8
H2.5A
 62
     7
420
 16777215
100
AcDbHatch
 10
0.0
 20
0.0
 30
0.0
210
0.0
220
0.0
230
1.0
  2
SOLID
 70
     1
 71
     0
 91
        1
 92
        1
 93
        3
 72
     1
 10
3.544005326559095
 20
7.559164448969745
 11
3.540155611379317
 21
7.541697828926342
 72
     1
 10
3.540155611379317
 20
7.541697828926342
 11
3.549156502500952
 21
7.546722407358553
 72
     1
 10
3.549156502500952
 20
7.546722407358553
 11
3.544005326559095
 21
7.559164448969745
 97
        0
 75
     2
 76
     1
 98
        0
  0
ENDBLK
  5
1AA
330
1A7
100
AcDbEntity
  8
0
100
AcDbBlockEnd
  0
ENDSEC
  0
SECTION
  2
ENTITIES
  0
INSERT
  5
42
330
1F
100
AcDbEntity
  8
Wood
100
AcDbBlockReference
  2
block 2
 10
0.0
 20
0.0
 30
0.0
  0
INSERT
  5
D8
330
1F
100
AcDbEntity
  8
Wood
100
AcDbBlockReference
  2
block 5
 10
0.0
 20
0.0
 30
0.0
  0
POLYLINE
  5
10C
330
1F
100
AcDbEntity
  8
Wood
 62
   250
420
  2301728
370
    13
100
AcDb2dPolyline
 66
     1
 10
0.0
 20
0.0
 30
0.0
  0
VERTEX
  5
10D
330
10C
100
AcDbEntity
  8
Wood
 62
   250
420
  2301728
370
    13
100
AcDbVertex
100
AcDb2dVertex
 10
4.683254397746496
 20
6.222317843304507
 30
0.0
  0
VERTEX
  5
10E
330
10C
100
AcDbEntity
  8
Wood
 62
   250
420
  2301728
370
    13
100
AcDbVertex
100
AcDb2dVertex
 10
4.716700215340248
 20
6.092543808550405
 30
0.0
  0
VERTEX
  5
10F
330
10C
100
AcDbEntity
  8
Wood
 62
   250
420
  2301728
370
    13
100
AcDbVertex
100
AcDb2dVertex
 10
4.740985739362586
 20
6.002798642145813
 30
0.0
  0
SEQEND
  5
110
330
10C
100
AcDbEntity
  8
Wood
 62
   250
420
  2301728
370
    13
  0
SPLINE
  5
112
330
1F
100
AcDbEntity
  8
H2.5A
 62
   250
420
  2301728
370
    25
100
AcDbSpline
210
0.0
220
0.0
230
1.0
 70
    11
 71
     3
 72
    62
 73
    58
 74
     0
 42
0.0000000001
 43
0.0000000001
 12
1.0
 22
0.0
 32
0.0
 13
1.0
 23
0.0
 33
0.0
 40
0.0
 40
0.0
 40
0.0
 40
0.0
 40
1.0
 40
1.0
 40
1.0
 40
2.0
 40
2.0
 40
2.0
 40
3.0
 40
3.0
 40
3.0
 40
4.0
 40
4.0
 40
4.0
 40
5.0
 40
5.0
 40
5.0
 40
6.0
 40
6.0
 40
6.0
 40
7.0
 40
7.0
 40
7.0
 40
8.0
 40
8.0
 40
8.0
 40
9.0
 40
9.0
 40
9.0
 40
10.0
 40
10.0
 40
10.0
 40
11.0
 40
11.0
 40
11.0
 40
12.0
 40
12.0
 40
12.0
 40
13.0
 40
13.0
 40
13.0
 40
14.0
 40
14.0
 40
14.0
 40
15.0
 40
15.0
 40
15.0
 40
16.0
 40
16.0
 40
16.0
 40
17.0
 40
17.0
 40
17.0
 40
18.0
 40
18.0
 40
18.0
 40
19.0
 40
19.0
 40
19.0
 40
19.0
 10
3.585370103764868
 20
8.016362723418776
 30
0.0
 10
3.585370103764868
 20
8.016362723418776
 30
0.0
 10
3.561421184844764
 20
8.028365634158337
 30
0.0
 10
3.561421184844764
 20
8.028365634158337
 30
0.0
 10
3.561421184844764
 20
8.028365634158337
 30
0.0
 10
3.397441855123159
 20
7.988714594569071
 30
0.0
 10
3.397441855123159
 20
7.988714594569071
 30
0.0
 10
3.397441855123159
 20
7.988714594569071
 30
0.0
 10
3.35552465242074
 20
7.916915584229261
 30
0.0
 10
3.35552465242074
 20
7.916915584229261
 30
0.0
 10
3.35552465242074
 20
7.916915584229261
 30
0.0
 10
3.35552465242074
 20
7.681868126125007
 30
0.0
 10
3.35552465242074
 20
7.681868126125007
 30
0.0
 10
3.35552465242074
 20
7.681868126125007
 30
0.0
 10
3.555038491339423
 20
7.319949822839539
 30
0.0
 10
3.562521171417302
 20
7.317041063488141
 30
0.0
 10
3.570004879844621
 20
7.314128255539774
 30
0.0
 10
3.603273101587736
 20
7.291575676453451
 30
0.0
 10
3.603273101587736
 20
7.291575676453451
 30
0.0
 10
3.603273101587736
 20
7.291575676453451
 30
0.0
 10
3.666155619145671
 20
7.312658104141835
 30
0.0
 10
3.666155619145671
 20
7.312658104141835
 30
0.0
 10
3.666155619145671
 20
7.312658104141835
 30
0.0
 10
3.736512185133102
 20
7.294896089460558
 30
0.0
 10
3.738011214735997
 20
7.239219933637223
 30
0.0
 10
3.738011214735997
 20
7.239219933637223
 30
0.0
 10
3.738011214735997
 20
6.876912247102394
 30
0.0
 10
3.738011214735997
 20
6.876912247102394
 30
0.0
 10
3.738011214735997
 20
6.876912247102394
 30
0.0
 10
3.784433178823431
 20
6.805282033442103
 30
0.0
 10
3.784433178823431
 20
6.805282033442103
 30
0.0
 10
3.784433178823431
 20
6.805282033442103
 30
0.0
 10
3.95210198963313
 20
6.733239418803426
 30
0.0
 10
3.95210198963313
 20
6.733239418803426
 30
0.0
 10
3.95210198963313
 20
6.733239418803426
 30
0.0
 10
4.035945985758405
 20
6.769822262803839
 30
0.0
 10
4.035945985758405
 20
6.769822262803839
 30
0.0
 10
4.035945985758405
 20
6.769822262803839
 30
0.0
 10
4.035945985758405
 20
7.022843690062106
 30
0.0
 10
4.035945985758405
 20
7.022843690062106
 30
0.0
 10
4.035945985758405
 20
7.022843690062106
 30
0.0
 10
3.760470763834178
 20
7.567341497206611
 30
0.0
 10
3.760470763834178
 20
7.567341497206611
 30
0.0
 10
3.760470763834178
 20
7.567341497206611
 30
0.0
 10
3.688605577523428
 20
7.598862358965132
 30
0.0
 10
3.688605577523428
 20
7.598862358965132
 30
0.0
 10
3.688605577523428
 20
7.598862358965132
 30
0.0
 10
3.675137328826445
 20
7.605886602606574
 30
0.0
 10
3.657173909464884
 20
7.601794242199958
 30
0.0
 10
3.657173909464884
 20
7.601794242199958
 30
0.0
 10
3.645195099650373
 20
7.587580794525731
 30
0.0
 10
3.628729750819654
 20
7.608659279882292
 30
0.0
 10
3.628729750819654
 20
7.608659279882292
 30
0.0
 10
3.628729750819654
 20
7.978444851134807
 30
0.0
 10
3.628729750819654
 20
7.978444851134807
 30
0.0
 10
3.628729750819654
 20
7.978444851134807
 30
0.0
 10
3.585370103764868
 20
8.016362723418776
 30
0.0
 10
3.585370103764868
 20
8.016362723418776
 30
0.0
  0
HATCH
  5
113
330
1F
100
AcDbEntity
  8
H2.5A
 62
   254
420
 13358815
100
AcDbHatch
 10
0.0
 20
0.0
 30
0.0
210
0.0
220
0.0
230
1.0
  2
SOLID
 70
     1
 71
     0
 91
        1
 92
        1
 93
        1
 72
     4
 94
        3
 73
     0
 74
     1
 95
       62
 96
       58
 40
0.0
 40
0.0
 40
0.0
 40
0.0
 40
1.0
 40
1.0
 40
1.0
 40
2.0
 40
2.0
 40
2.0
 40
3.0
 40
3.0
 40
3.0
 40
4.0
 40
4.0
 40
4.0
 40
5.0
 40
5.0
 40
5.0
 40
6.0
 40
6.0
 40
6.0
 40
7.0
 40
7.0
 40
7.0
 40
8.0
 40
8.0
 40
8.0
 40
9.0
 40
9.0
 40
9.0
 40
10.0
 40
10.0
 40
10.0
 40
11.0
 40
11.0
 40
11.0
 40
12.0
 40
12.0
 40
12.0
 40
13.0
 40
13.0
 40
13.0
 40
14.0
 40
14.0
 40
14.0
 40
15.0
 40
15.0
 40
15.0
 40
16.0
 40
16.0
 40
16.0
 40
17.0
 40
17.0
 40
17.0
 40
18.0
 40
18.0
 40
18.0
 40
19.0
 40
19.0
 40
19.0
 40
19.0
 10
3.585370103764868
 20
8.016362723418776
 10
3.585370103764868
 20
8.016362723418776
 10
3.561421184844764
 20
8.028365634158337
 10
3.561421184844764
 20
8.028365634158337
 10
3.561421184844764
 20
8.028365634158337
 10
3.397441855123159
 20
7.988714594569071
 10
3.397441855123159
 20
7.988714594569071
 10
3.397441855123159
 20
7.988714594569071
 10
3.35552465242074
 20
7.916915584229261
 10
3.35552465242074
 20
7.916915584229261
 10
3.35552465242074
 20
7.916915584229261
 10
3.35552465242074
 20
7.681868126125007
 10
3.35552465242074
 20
7.681868126125007
 10
3.35552465242074
 20
7.681868126125007
 10
3.555038491339423
 20
7.319949822839539
 10
3.562521171417302
 20
7.317041063488141
 10
3.570004879844621
 20
7.314128255539774
 10
3.603273101587736
 20
7.291575676453451
 10
3.603273101587736
 20
7.291575676453451
 10
3.603273101587736
 20
7.291575676453451
 10
3.666155619145671
 20
7.312658104141835
 10
3.666155619145671
 20
7.312658104141835
 10
3.666155619145671
 20
7.312658104141835
 10
3.736512185133102
 20
7.294896089460558
 10
3.738011214735997
 20
7.239219933637223
 10
3.738011214735997
 20
7.239219933637223
 10
3.738011214735997
 20
6.876912247102394
 10
3.738011214735997
 20
6.876912247102394
 10
3.738011214735997
 20
6.876912247102394
 10
3.784433178823431
 20
6.805282033442103
 10
3.784433178823431
 20
6.805282033442103
 10
3.784433178823431
 20
6.805282033442103
 10
3.95210198963313
 20
6.733239418803426
 10
3.95210198963313
 20
6.733239418803426
 10
3.95210198963313
 20
6.733239418803426
 10
4.035945985758405
 20
6.769822262803839
 10
4.035945985758405
 20
6.769822262803839
 10
4.035945985758405
 20
6.769822262803839
 10
4.035945985758405
 20
7.022843690062106
 10
4.035945985758405
 20
7.022843690062106
 10
4.035945985758405
 20
7.022843690062106
 10
3.760470763834178
 20
7.567341497206611
 10
3.760470763834178
 20
7.567341497206611
 10
3.760470763834178
 20
7.567341497206611
 10
3.688605577523428
 20
7.598862358965132
 10
3.688605577523428
 20
7.598862358965132
 10
3.688605577523428
 20
7.598862358965132
 10
3.675137328826445
 20
7.605886602606574
 10
3.657173909464884
 20
7.601794242199958
 10
3.657173909464884
 20
7.601794242199958
 10
3.645195099650373
 20
7.587580794525731
 10
3.628729750819654
 20
7.608659279882292
 10
3.628729750819654
 20
7.608659279882292
 10
3.628729750819654
 20
7.978444851134807
 10
3.628729750819654
 20
7.978444851134807
 10
3.628729750819654
 20
7.978444851134807
 10
3.585370103764868
 20
8.016362723418776
 10
3.585370103764868
 20
8.016362723418776
 97
        0
 97
        0
 75
     2
 76
     1
 98
        0
  0
POLYLINE
  5
114
330
1F
100
AcDbEntity
  8
H2.5A
 62
   250
420
  2301728
370
    18
100
AcDb2dPolyline
 66
     1
 10
0.0
 20
0.0
 30
0.0
  0
VERTEX
  5
115
330
114
100
AcDbEntity
  8
H2.5A
 62
   250
420
  2301728
370
    18
100
AcDbVertex
100
AcDb2dVertex
 10
3.585370103764868
 20
8.016362723418776
 30
0.0
  0
VERTEX
  5
116
330
114
100
AcDbEntity
  8
H2.5A
 62
   250
420
  2301728
370
    18
100
AcDbVertex
100
AcDb2dVertex
 10
3.420356004369624
 20
7.977559627639316
 30
0.0
  0
VERTEX
  5
117
330
114
100
AcDbEntity
  8
H2.5A
 62
   250
420
  2301728
370
    18
100
AcDbVertex
100
AcDb2dVertex
 10
3.377979470585122
 20
7.906238235176816
 30
0.0
  0
VERTEX
  5
118
330
114
100
AcDbEntity
  8
H2.5A
 62
   250
420
  2301728
370
    18
100
AcDbVertex
100
AcDb2dVertex
 10
3.377979470585122
 20
7.678093333839923
 30
0.0
  0
VERTEX
  5
119
330
114
100
AcDbEntity
  8
H2.5A
 62
   250
420
  2301728
370
    18
100
AcDbVertex
100
AcDb2dVertex
 10
3.595789462437791
 20
7.297480683020922
 30
0.0
  0
SEQEND
  5
11A
330
114
100
AcDbEntity
  8
H2.5A
 62
   250
420
  2301728
370
    18
  0
SPLINE
  5
11B
330
1F
100
AcDbEntity
  8
H2.5A
 62
   250
420
  2301728
370
    18
100
AcDbSpline
210
0.0
220
0.0
230
1.0
 70
     8
 71
     3
 72
    17
 73
    13
 74
     0
 42
0.0000000001
 43
0.0000000001
 12
1.0
 22
0.0
 32
0.0
 13
1.0
 23
0.0
 33
0.0
 40
0.0
 40
0.0
 40
0.0
 40
0.0
 40
1.0
 40
1.0
 40
1.0
 40
2.0
 40
2.0
 40
2.0
 40
3.0
 40
3.0
 40
3.0
 40
4.0
 40
4.0
 40
4.0
 40
4.0
 10
3.628729750819654
 20
7.608659279882292
 30
0.0
 10
3.628729750819654
 20
7.608659279882292
 30
0.0
 10
3.628729750819654
 20
7.563744977046136
 30
0.0
 10
3.675146919546869
 20
7.586433744362542
 30
0.0
 10
3.675146919546869
 20
7.586433744362542
 30
0.0
 10
3.745513076254737
 20
7.555198686072786
 30
0.0
 10
3.745513076254737
 20
7.555198686072786
 30
0.0
 10
3.745513076254737
 20
7.555198686072786
 30
0.0
 10
4.017982566396843
 20
7.017251340980565
 30
0.0
 10
4.017982566396843
 20
7.017251340980565
 30
0.0
 10
4.017982566396843
 20
7.017251340980565
 30
0.0
 10
4.017982566396843
 20
6.761243363381014
 30
0.0
 10
4.017982566396843
 20
6.761243363381014
 30
0.0
  0
POLYLINE
  5
11C
330
1F
100
AcDbEntity
  8
H2.5A
 62
   250
420
  2301728
370
    18
100
AcDb2dPolyline
 66
     1
 10
0.0
 20
0.0
 30
0.0
  0
VERTEX
  5
11D
330
11C
100
AcDbEntity
  8
H2.5A
 62
   250
420
  2301728
370
    18
100
AcDbVertex
100
AcDb2dVertex
 10
3.745503485534325
 20
7.558186195486087
 30
0.0
  0
VERTEX
  5
11E
330
11C
100
AcDbEntity
  8
H2.5A
 62
   250
420
  2301728
370
    18
100
AcDbVertex
100
AcDb2dVertex
 10
3.764965934498769
 20
7.563501372747269
 30
0.0
  0
SEQEND
  5
11F
330
11C
100
AcDbEntity
  8
H2.5A
 62
   250
420
  2301728
370
    18
  0
POLYLINE
  5
120
330
1F
100
AcDbEntity
  8
H2.5A
 62
   250
420
  2301728
370
    18
100
AcDb2dPolyline
 66
     1
 10
0.0
 20
0.0
 30
0.0
  0
VERTEX
  5
121
330
120
100
AcDbEntity
  8
H2.5A
 62
   250
420
  2301728
370
    18
100
AcDbVertex
100
AcDb2dVertex
 10
4.017982566396843
 20
7.006771659085277
 30
0.0
  0
VERTEX
  5
122
330
120
100
AcDbEntity
  8
H2.5A
 62
   250
420
  2301728
370
    18
100
AcDbVertex
100
AcDb2dVertex
 10
4.035945985758405
 20
7.022843690062106
 30
0.0
  0
SEQEND
  5
123
330
120
100
AcDbEntity
  8
H2.5A
 62
   250
420
  2301728
370
    18
  0
POLYLINE
  5
124
330
1F
100
AcDbEntity
  8
H2.5A
 62
   250
420
  2301728
370
    18
100
AcDb2dPolyline
 66
     1
 10
0.0
 20
0.0
 30
0.0
  0
VERTEX
  5
125
330
124
100
AcDbEntity
  8
H2.5A
 62
   250
420
  2301728
370
    18
100
AcDbVertex
100
AcDb2dVertex
 10
3.352527552287003
 20
7.68543683319625
 30
0.0
  0
VERTEX
  5
126
330
124
100
AcDbEntity
  8
H2.5A
 62
   250
420
  2301728
370
    18
100
AcDbVertex
100
AcDb2dVertex
 10
3.377525765082459
 20
7.676496363613309
 30
0.0
  0
SEQEND
  5
127
330
124
100
AcDbEntity
  8
H2.5A
 62
   250
420
  2301728
370
    18
  0
POLYLINE
  5
128
330
1F
100
AcDbEntity
  8
H2.5A
 62
   250
420
  2301728
370
    18
100
AcDb2dPolyline
 66
     1
 10
0.0
 20
0.0
 30
0.0
  0
VERTEX
  5
129
330
128
100
AcDbEntity
  8
H2.5A
 62
   250
420
  2301728
370
    18
100
AcDbVertex
100
AcDb2dVertex
 10
3.395948579952523
 20
7.989000398037824
 30
0.0
  0
VERTEX
  5
12A
330
128
100
AcDbEntity
  8
H2.5A
 62
   250
420
  2301728
370
    18
100
AcDbVertex
100
AcDb2dVertex
 10
3.417363699596105
 20
7.978585834725108
 30
0.0
  0
SEQEND
  5
12B
330
128
100
AcDbEntity
  8
H2.5A
 62
   250
420
  2301728
370
    18
  0
POLYLINE
  5
12C
330
1F
100
AcDbEntity
  8
H2.5A
 62
   250
420
  2301728
370
    18
100
AcDb2dPolyline
 66
     1
 10
0.0
 20
0.0
 30
0.0
  0
VERTEX
  5
12D
330
12C
100
AcDbEntity
  8
H2.5A
 62
   250
420
  2301728
370
    18
100
AcDbVertex
100
AcDb2dVertex
 10
3.35552465242074
 20
7.916915584229261
 30
0.0
  0
VERTEX
  5
12E
330
12C
100
AcDbEntity
  8
H2.5A
 62
   250
420
  2301728
370
    18
100
AcDbVertex
100
AcDb2dVertex
 10
3.376486130988079
 20
7.906397441135923
 30
0.0
  0
SEQEND
  5
12F
330
12C
100
AcDbEntity
  8
H2.5A
 62
   250
420
  2301728
370
    18
  0
INSERT
  5
131
330
1F
100
AcDbEntity
  8
H2.5A
100
AcDbBlockReference
  2
block 6
 10
0.0
 20
0.0
 30
0.0
  0
INSERT
  5
137
330
1F
100
AcDbEntity
  8
H2.5A
100
AcDbBlockReference
  2
block 7
 10
0.0
 20
0.0
 30
0.0
  0
INSERT
  5
13D
330
1F
100
AcDbEntity
  8
H2.5A
100
AcDbBlockReference
  2
block 8
 10
0.0
 20
0.0
 30
0.0
  0
INSERT
  5
143
330
1F
100
AcDbEntity
  8
H2.5A
100
AcDbBlockReference
  2
block 9
 10
0.0
 20
0.0
 30
0.0
  0
INSERT
  5
149
330
1F
100
AcDbEntity
  8
H2.5A
100
AcDbBlockReference
  2
block 10
 10
0.0
 20
0.0
 30
0.0
  0
INSERT
  5
14F
330
1F
100
AcDbEntity
  8
H2.5A
100
AcDbBlockReference
  2
block 11
 10
0.0
 20
0.0
 30
0.0
  0
INSERT
  5
155
330
1F
100
AcDbEntity
  8
H2.5A
100
AcDbBlockReference
  2
block 12
 10
0.0
 20
0.0
 30
0.0
  0
INSERT
  5
15B
330
1F
100
AcDbEntity
  8
H2.5A
100
AcDbBlockReference
  2
block 13
 10
0.0
 20
0.0
 30
0.0
  0
INSERT
  5
161
330
1F
100
AcDbEntity
  8
H2.5A
100
AcDbBlockReference
  2
block 14
 10
0.0
 20
0.0
 30
0.0
  0
INSERT
  5
167
330
1F
100
AcDbEntity
  8
H2.5A
100
AcDbBlockReference
  2
block 15
 10
0.0
 20
0.0
 30
0.0
  0
INSERT
  5
16D
330
1F
100
AcDbEntity
  8
H2.5A
100
AcDbBlockReference
  2
block 16
 10
0.0
 20
0.0
 30
0.0
  0
INSERT
  5
173
330
1F
100
AcDbEntity
  8
H2.5A
100
AcDbBlockReference
  2
block 17
 10
0.0
 20
0.0
 30
0.0
  0
POLYLINE
  5
178
330
1F
100
AcDbEntity
  8
H2.5A
 62
   250
420
  2301728
370
    18
100
AcDb2dPolyline
 66
     1
 10
0.0
 20
0.0
 30
0.0
  0
VERTEX
  5
179
330
178
100
AcDbEntity
  8
H2.5A
 62
   250
420
  2301728
370
    18
100
AcDbVertex
100
AcDb2dVertex
 10
3.672440418242116
 20
7.359450163994122
 30
0.0
  0
VERTEX
  5
17A
330
178
100
AcDbEntity
  8
H2.5A
 62
   250
420
  2301728
370
    18
100
AcDbVertex
100
AcDb2dVertex
 10
3.672440418242116
 20
7.32640725490368
 30
0.0
  0
SEQEND
  5
17B
330
178
100
AcDbEntity
  8
H2.5A
 62
   250
420
  2301728
370
    18
  0
POLYLINE
  5
17C
330
1F
100
AcDbEntity
  8
H2.5A
 62
   250
420
  2301728
370
    18
100
AcDb2dPolyline
 66
     1
 10
0.0
 20
0.0
 30
0.0
  0
VERTEX
  5
17D
330
17C
100
AcDbEntity
  8
H2.5A
 62
   250
420
  2301728
370
    18
100
AcDbVertex
100
AcDb2dVertex
 10
3.672440418242116
 20
7.472483517741895
 30
0.0
  0
VERTEX
  5
17E
330
17C
100
AcDbEntity
  8
H2.5A
 62
   250
420
  2301728
370
    18
100
AcDbVertex
100
AcDb2dVertex
 10
3.672440418242116
 20
7.433258430263574
 30
0.0
  0
SEQEND
  5
17F
330
17C
100
AcDbEntity
  8
H2.5A
 62
   250
420
  2301728
370
    18
  0
POLYLINE
  5
180
330
1F
100
AcDbEntity
  8
H2.5A
 62
   250
420
  2301728
370
    18
100
AcDb2dPolyline
 66
     1
 10
0.0
 20
0.0
 30
0.0
  0
VERTEX
  5
181
330
180
100
AcDbEntity
  8
H2.5A
 62
   250
420
  2301728
370
    18
100
AcDbVertex
100
AcDb2dVertex
 10
3.672440418242116
 20
7.56445660850189
 30
0.0
  0
VERTEX
  5
182
330
180
100
AcDbEntity
  8
H2.5A
 62
   250
420
  2301728
370
    18
100
AcDbVertex
100
AcDb2dVertex
 10
3.672440418242116
 20
7.538751559610874
 30
0.0
  0
SEQEND
  5
183
330
180
100
AcDbEntity
  8
H2.5A
 62
   250
420
  2301728
370
    18
  0
INSERT
  5
185
330
1F
100
AcDbEntity
  8
H2.5A
100
AcDbBlockReference
  2
block 18
 10
0.0
 20
0.0
 30
0.0
  0
INSERT
  5
19E
330
1F
100
AcDbEntity
  8
H2.5A
100
AcDbBlockReference
  2
block 21
 10
0.0
 20
0.0
 30
0.0
  0
MTEXT
  5
1B7
330
1F
100
AcDbEntity
  8
Callout
 62
   250
420
  2236191
100
AcDbMText
 10
3.039481017324659
 20
5.447285440233018
 30
0.0
 40
0.118
 41
0.0
 46
0.0
 71
     7
 72
     1
  1
\fHelvetica Neue LT Std 55 Roman|b0|i0|c0|p34;\W1;SIMPSON Strong-Tie\H0.068794;®\H0.118; ^C
 73
     1
 44
1.0
  0
MTEXT
  5
1B8
330
1F
100
AcDbEntity
  8
Callout
 62
   250
420
  2236191
100
AcDbMText
 10
2.633848150571187
 20
5.247293578253852
 30
0.0
 40
0.118
 41
0.0
 46
0.0
 71
     7
 72
     1
  1
\fHelvetica Neue LT Std 55 Roman|b0|i0|c0|p34;\W1;H2.5ASS Decking Joist Tie Down
 73
     1
 44
1.0
  0
MTEXT
  5
1B9
330
1F
100
AcDbEntity
  8
Callout
 62
   250
420
  2236191
100
AcDbMText
 10
2.649208969540066
 20
8.760448455810547
 30
0.0
 40
0.118
 41
0.0
 46
0.0
 71
     7
 72
     1
  1
\fHelvetica Neue LT Std 57 Condensed|b0|i0|c0|p34;\W1;H2.5ASS
 73
     1
 44
1.0
  0
POLYLINE
  5
1BA
330
1F
100
AcDbEntity
  8
Callout
 62
   250
420
  2170399
370
    18
100
AcDb2dPolyline
 66
     1
 10
0.0
 20
0.0
 30
0.0
  0
VERTEX
  5
1BB
330
1BA
100
AcDbEntity
  8
Callout
 62
   250
420
  2170399
370
    18
100
AcDbVertex
100
AcDb2dVertex
 10
2.879725034622045
 20
8.70946550690092
 30
0.0
  0
VERTEX
  5
1BC
330
1BA
100
AcDbEntity
  8
Callout
 62
   250
420
  2170399
370
    18
100
AcDbVertex
100
AcDb2dVertex
 10
3.397441855123159
 20
7.988714594569071
 30
0.0
  0
SEQEND
  5
1BD
330
1BA
100
AcDbEntity
  8
Callout
 62
   250
420
  2170399
370
    18
  0
MTEXT
  5
1BE
330
1F
100
AcDbEntity
  8
Callout
 62
   250
420
  2236191
100
AcDbMText
 10
1.733904123306274
 20
8.76044930352105
 30
0.0
 40
0.118
 41
0.0
 46
0.0
 71
     7
 72
     1
  1
\fHelvetica Neue LT Std 57 Condensed|b0|i0|c0|p34;\W1;Deck Joist
 73
     1
 44
1.0
  0
POLYLINE
  5
1BF
330
1F
100
AcDbEntity
  8
Callout
 62
   250
420
  2170399
370
    18
100
AcDb2dPolyline
 66
     1
 10
0.0
 20
0.0
 30
0.0
  0
VERTEX
  5
1C0
330
1BF
100
AcDbEntity
  8
Callout
 62
   250
420
  2170399
370
    18
100
AcDbVertex
100
AcDb2dVertex
 10
2.136871129594144
 20
8.724222148828781
 30
0.0
  0
VERTEX
  5
1C1
330
1BF
100
AcDbEntity
  8
Callout
 62
   250
420
  2170399
370
    18
100
AcDbVertex
100
AcDb2dVertex
 10
2.523852862573992
 20
8.349090050734995
 30
0.0
  0
SEQEND
  5
1C2
330
1BF
100
AcDbEntity
  8
Callout
 62
   250
420
  2170399
370
    18
  0
MTEXT
  5
1C3
330
1F
100
AcDbEntity
  8
Callout
 62
   250
420
  2236191
100
AcDbMText
 10
1.95303648047977
 20
6.315829753875732
 30
0.0
 40
0.118
 41
0.0
 46
0.0
 71
     7
 72
     1
  1
\fHelvetica Neue LT Std 57 Condensed|b0|i0|c0|p34;\W1;Bearer / Stringer
 73
     1
 44
1.0
  0
POLYLINE
  5
1C4
330
1F
100
AcDbEntity
  8
Callout
 62
   250
420
  2170399
370
    18
100
AcDb2dPolyline
 66
     1
 10
0.0
 20
0.0
 30
0.0
  0
VERTEX
  5
1C5
330
1C4
100
AcDbEntity
  8
Callout
 62
   250
420
  2170399
370
    18
100
AcDbVertex
100
AcDb2dVertex
 10
2.328405017921139
 20
6.459762903016402
 30
0.0
  0
VERTEX
  5
1C6
330
1C4
100
AcDbEntity
  8
Callout
 62
   250
420
  2170399
370
    18
100
AcDbVertex
100
AcDb2dVertex
 10
2.473670418588401
 20
6.724652480075658
 30
0.0
  0
SEQEND
  5
1C7
330
1C4
100
AcDbEntity
  8
Callout
 62
   250
420
  2170399
370
    18
  0
ENDSEC
  0
SECTION
  2
OBJECTS
  0
DICTIONARY
  5
C
330
0
100
AcDbDictionary
281
     1
  3
ACAD_GROUP
350
D
  3
ACAD_LAYOUT
350
1A
  3
ACAD_MATERIAL
350
3B
  3
ACAD_MLEADERSTYLE
350
1CC
  3
ACAD_MLINESTYLE
350
17
  3
ACAD_PLOTSETTINGS
350
19
  3
ACAD_PLOTSTYLENAME
350
E
  3
ACAD_TABLESTYLE
350
1CB
  3
ACAD_VISUALSTYLE
350
2A
  0
SUN
  5
3F
330
29
100
AcDbSun
 90
        1
290
     0
 63
     7
421
 16777215
 40
1.0
291
     1
 91
  2455826
 92
 54000000
292
     0
 70
     2
 71
   256
280
     1
  0
DICTIONARY
  5
D
102
{ACAD_REACTORS
330
C
102
}
330
C
100
AcDbDictionary
281
     1
  0
DICTIONARY
  5
1A
102
{ACAD_REACTORS
330
C
102
}
330
C
100
AcDbDictionary
281
     1
  3
Layout1
350
1E
  3
Layout2
350
26
  3
Model
350
22
  0
DICTIONARY
  5
3B
102
{ACAD_REACTORS
330
C
102
}
330
C
100
AcDbDictionary
281
     1
  3
ByBlock
350
3D
  3
ByLayer
350
3C
  3
Global
350
3E
  0
DICTIONARY
  5
1CC
102
{ACAD_REACTORS
330
C
102
}
330
C
100
AcDbDictionary
281
     1
  0
DICTIONARY
  5
17
102
{ACAD_REACTORS
330
C
102
}
330
C
100
AcDbDictionary
281
     1
  3
Standard
350
18
  0
DICTIONARY
  5
19
102
{ACAD_REACTORS
330
C
102
}
330
C
100
AcDbDictionary
281
     1
  0
ACDBDICTIONARYWDFLT
  5
E
102
{ACAD_REACTORS
330
C
102
}
330
C
100
AcDbDictionary
281
     1
  3
Normal
350
F
100
AcDbDictionaryWithDefault
340
F
  0
DICTIONARY
  5
1CB
102
{ACAD_REACTORS
330
C
102
}
330
C
100
AcDbDictionary
281
     1
  0
DICTIONARY
  5
2A
102
{ACAD_REACTORS
330
C
102
}
330
C
100
AcDbDictionary
281
     1
  3
2dWireframe
350
2F
  3
3D Hidden
350
31
  3
3dWireframe
350
30
  3
Basic
350
32
  3
Brighten
350
36
  3
ColorChange
350
3A
  3
Conceptual
350
34
  3
Dim
350
35
  3
Facepattern
350
39
  3
Flat
350
2B
  3
FlatWithEdges
350
2C
  3
Gouraud
350
2D
  3
GouraudWithEdges
350
2E
  3
Linepattern
350
38
  3
Realistic
350
33
  3
Thicken
350
37
  0
LAYOUT
  5
1E
102
{ACAD_REACTORS
330
1A
102
}
330
1A
100
AcDbPlotSettings
  1

  2
none_device
  4

  6

 40
0.0
 41
0.0
 42
0.0
 43
0.0
 44
0.0
 45
0.0
 46
0.0
 47
0.0
 48
0.0
 49
0.0
140
0.0
141
0.0
142
1.0
143
1.0
 70
   688
 72
     0
 73
     0
 74
     5
  7

 75
    16
 76
     0
 77
     2
 78
   300
147
1.0
148
0.0
149
0.0
100
AcDbLayout
  1
Layout1
 70
     1
 71
     1
 10
0.0
 20
0.0
 11
12.0
 21
9.0
 12
0.0
 22
0.0
 32
0.0
 14
1.000000000000000E+20
 24
1.000000000000000E+20
 34
1.000000000000000E+20
 15
-1.000000000000000E+20
 25
-1.000000000000000E+20
 35
-1.000000000000000E+20
146
0.0
 13
0.0
 23
0.0
 33
0.0
 16
1.0
 26
0.0
 36
0.0
 17
0.0
 27
1.0
 37
0.0
 76
     0
330
1B
  0
LAYOUT
  5
26
102
{ACAD_REACTORS
330
1A
102
}
330
1A
100
AcDbPlotSettings
  1

  2
none_device
  4

  6

 40
0.0
 41
0.0
 42
0.0
 43
0.0
 44
0.0
 45
0.0
 46
0.0
 47
0.0
 48
0.0
 49
0.0
140
0.0
141
0.0
142
1.0
143
1.0
 70
   688
 72
     0
 73
     0
 74
     5
  7

 75
    16
 76
     0
 77
     2
 78
   300
147
1.0
148
0.0
149
0.0
100
AcDbLayout
  1
Layout2
 70
     1
 71
     2
 10
0.0
 20
0.0
 11
0.0
 21
0.0
 12
0.0
 22
0.0
 32
0.0
 14
0.0
 24
0.0
 34
0.0
 15
0.0
 25
0.0
 35
0.0
146
0.0
 13
0.0
 23
0.0
 33
0.0
 16
1.0
 26
0.0
 36
0.0
 17
0.0
 27
1.0
 37
0.0
 76
     0
330
23
  0
LAYOUT
  5
22
102
{ACAD_REACTORS
330
1A
102
}
330
1A
100
AcDbPlotSettings
  1

  2
none_device
  4

  6

 40
0.0
 41
0.0
 42
0.0
 43
0.0
 44
0.0
 45
0.0
 46
0.0
 47
0.0
 48
0.0
 49
0.0
140
0.0
141
0.0
142
1.0
143
1.0
 70
  1712
 72
     0
 73
     0
 74
     0
  7

 75
     0
 76
     0
 77
     2
 78
   300
147
1.0
148
0.0
149
0.0
100
AcDbLayout
  1
Model
 70
     1
 71
     0
 10
0.0
 20
0.0
 11
12.0
 21
9.0
 12
0.0
 22
0.0
 32
0.0
 14
1.000000000000000E+20
 24
1.000000000000000E+20
 34
1.000000000000000E+20
 15
-1.000000000000000E+20
 25
-1.000000000000000E+20
 35
-1.000000000000000E+20
146
0.0
 13
0.0
 23
0.0
 33
0.0
 16
1.0
 26
0.0
 36
0.0
 17
0.0
 27
1.0
 37
0.0
 76
     0
330
1F
331
29
  0
MATERIAL
  5
3D
102
{ACAD_REACTORS
330
3B
102
}
330
3B
100
AcDbMaterial
  1
ByBlock
 72
     1
 94
      127
  0
MATERIAL
  5
3C
102
{ACAD_REACTORS
330
3B
102
}
330
3B
100
AcDbMaterial
  1
ByLayer
 72
     1
 94
      127
  0
MATERIAL
  5
3E
102
{ACAD_REACTORS
330
3B
102
}
330
3B
100
AcDbMaterial
  1
Global
 72
     1
 94
      127
  0
MLINESTYLE
  5
18
102
{ACAD_REACTORS
330
17
102
}
330
17
100
AcDbMlineStyle
  2
Standard
 70
     0
  3

 62
   256
 51
90.0
 52
90.0
 71
     2
 49
0.5
 62
   256
  6
BYLAYER
 49
-0.5
 62
   256
  6
BYLAYER
  0
ACDBPLACEHOLDER
  5
F
102
{ACAD_REACTORS
330
E
102
}
330
E
  0
VISUALSTYLE
  5
2F
102
{ACAD_REACTORS
330
2A
102
}
330
2A
100
AcDbVisualStyle
  2
2dWireframe
 70
     4
177
     2
291
     0
 71
     0
176
     1
 72
     2
176
     1
 73
     0
176
     1
 90
        0
176
     1
 40
-0.6
176
     1
 41
-30.0
176
     1
 62
     5
 63
     7
421
 16777215
176
     1
 74
     1
176
     1
 91
        4
176
     1
 64
     7
176
     1
 65
   257
176
     1
 75
     1
176
     1
175
     1
176
     1
 42
1.0
176
     1
 92
        0
176
     1
 66
   257
176
     1
 43
1.0
176
     1
 76
     1
176
     1
 77
     6
176
     1
 78
     2
176
     1
 67
     7
176
     1
 79
     5
176
     1
170
     0
176
     1
171
     0
176
     1
290
     0
176
     1
 93
        1
176
     1
 44
0.0
176
     1
173
     0
176
     1
  0
VISUALSTYLE
  5
31
102
{ACAD_REACTORS
330
2A
102
}
330
2A
100
AcDbVisualStyle
  2
3D Hidden
 70
     6
177
     2
291
     0
 71
     1
176
     1
 72
     2
176
     1
 73
     2
176
     1
 90
        0
176
     1
 40
-0.6
176
     1
 41
-30.0
176
     1
 62
     5
 63
     7
421
 16777215
176
     1
 74
     2
176
     1
 91
        2
176
     1
 64
     7
176
     1
 65
   257
176
     1
 75
     2
176
     1
175
     1
176
     1
 42
40.0
176
     1
 92
        0
176
     1
 66
   257
176
     1
 43
1.0
176
     1
 76
     1
176
     1
 77
     6
176
     1
 78
     2
176
     1
 67
     7
176
     1
 79
     3
176
     1
170
     0
176
     1
171
     0
176
     1
290
     0
176
     1
 93
        1
176
     1
 44
0.0
176
     1
173
     0
176
     1
  0
VISUALSTYLE
  5
30
102
{ACAD_REACTORS
330
2A
102
}
330
2A
100
AcDbVisualStyle
  2
3dWireframe
 70
     5
177
     2
291
     0
 71
     0
176
     1
 72
     2
176
     1
 73
     0
176
     1
 90
        0
176
     1
 40
-0.6
176
     1
 41
-30.0
176
     1
 62
     5
 63
     7
421
 16777215
176
     1
 74
     1
176
     1
 91
        4
176
     1
 64
     7
176
     1
 65
   257
176
     1
 75
     1
176
     1
175
     1
176
     1
 42
1.0
176
     1
 92
        0
176
     1
 66
   257
176
     1
 43
1.0
176
     1
 76
     1
176
     1
 77
     6
176
     1
 78
     2
176
     1
 67
     7
176
     1
 79
     5
176
     1
170
     0
176
     1
171
     0
176
     1
290
     0
176
     1
 93
        1
176
     1
 44
0.0
176
     1
173
     0
176
     1
  0
VISUALSTYLE
  5
32
102
{ACAD_REACTORS
330
2A
102
}
330
2A
100
AcDbVisualStyle
  2
Basic
 70
     7
177
     2
291
     1
 71
     1
176
     1
 72
     0
176
     1
 73
     1
176
     1
 90
        0
176
     1
 40
-0.6
176
     1
 41
-30.0
176
     1
 62
     5
 63
     7
421
 16777215
176
     1
 74
     0
176
     1
 91
        4
176
     1
 64
     7
176
     1
 65
   257
176
     1
 75
     1
176
     1
175
     1
176
     1
 42
1.0
176
     1
 92
        8
176
     1
 66
     7
176
     1
 43
1.0
176
     1
 76
     1
176
     1
 77
     6
176
     1
 78
     2
176
     1
 67
     7
176
     1
 79
     5
176
     1
170
     0
176
     1
171
     0
176
     1
290
     0
176
     1
 93
        1
176
     1
 44
0.0
176
     1
173
     0
176
     1
  0
VISUALSTYLE
  5
36
102
{ACAD_REACTORS
330
2A
102
}
330
2A
100
AcDbVisualStyle
  2
Brighten
 70
    12
177
     2
291
     1
 71
     2
176
     1
 72
     2
176
     1
 73
     0
176
     1
 90
        0
176
     1
 40
-0.6
176
     1
 41
-30.0
176
     1
 62
     5
 63
     7
421
 16777215
176
     1
 74
     1
176
     1
 91
        4
176
     1
 64
     7
176
     1
 65
   257
176
     1
 75
     1
176
     1
175
     1
176
     1
 42
1.0
176
     1
 92
        8
176
     1
 66
     7
176
     1
 43
1.0
176
     1
 76
     1
176
     1
 77
     6
176
     1
 78
     2
176
     1
 67
     7
176
     1
 79
     5
176
     1
170
     0
176
     1
171
     0
176
     1
290
     0
176
     1
 93
        1
176
     1
 44
50.0
176
     1
173
     0
176
     1
  0
VISUALSTYLE
  5
3A
102
{ACAD_REACTORS
330
2A
102
}
330
2A
100
AcDbVisualStyle
  2
ColorChange
 70
    16
177
     2
291
     1
 71
     2
176
     1
 72
     2
176
     1
 73
     3
176
     1
 90
        0
176
     1
 40
-0.6
176
     1
 41
-30.0
176
     1
 62
     5
 63
     8
421
  8421504
176
     1
 74
     1
176
     1
 91
        4
176
     1
 64
     7
176
     1
 65
   257
176
     1
 75
     1
176
     1
175
     1
176
     1
 42
1.0
176
     1
 92
        8
176
     1
 66
     8
424
  8421504
176
     1
 43
1.0
176
     1
 76
     1
176
     1
 77
     6
176
     1
 78
     2
176
     1
 67
     7
176
     1
 79
     5
176
     1
170
     0
176
     1
171
     0
176
     1
290
     0
176
     1
 93
        1
176
     1
 44
0.0
176
     1
173
     0
176
     1
  0
VISUALSTYLE
  5
34
102
{ACAD_REACTORS
330
2A
102
}
330
2A
100
AcDbVisualStyle
  2
Conceptual
 70
     9
177
     2
291
     0
 71
     3
176
     1
 72
     2
176
     1
 73
     0
176
     1
 90
        0
176
     1
 40
-0.6
176
     1
 41
-30.0
176
     1
 62
     5
 63
     7
421
 16777215
176
     1
 74
     2
176
     1
 91
        2
176
     1
 64
     7
176
     1
 65
   257
176
     1
 75
     1
176
     1
175
     1
176
     1
 42
40.0
176
     1
 92
        8
176
     1
 66
     7
176
     1
 43
1.0
176
     1
 76
     1
176
     1
 77
     6
176
     1
 78
     2
176
     1
 67
     7
176
     1
 79
     3
176
     1
170
     0
176
     1
171
     0
176
     1
290
     0
176
     1
 93
        1
176
     1
 44
0.0
176
     1
173
     0
176
     1
  0
VISUALSTYLE
  5
35
102
{ACAD_REACTORS
330
2A
102
}
330
2A
100
AcDbVisualStyle
  2
Dim
 70
    11
177
     2
291
     1
 71
     2
176
     1
 72
     2
176
     1
 73
     0
176
     1
 90
        0
176
     1
 40
-0.6
176
     1
 41
-30.0
176
     1
 62
     5
 63
     7
421
 16777215
176
     1
 74
     1
176
     1
 91
        4
176
     1
 64
     7
176
     1
 65
   257
176
     1
 75
     1
176
     1
175
     1
176
     1
 42
1.0
176
     1
 92
        8
176
     1
 66
     7
176
     1
 43
1.0
176
     1
 76
     1
176
     1
 77
     6
176
     1
 78
     2
176
     1
 67
     7
176
     1
 79
     5
176
     1
170
     0
176
     1
171
     0
176
     1
290
     0
176
     1
 93
        1
176
     1
 44
-50.0
176
     1
173
     0
176
     1
  0
VISUALSTYLE
  5
39
102
{ACAD_REACTORS
330
2A
102
}
330
2A
100
AcDbVisualStyle
  2
Facepattern
 70
    15
177
     2
291
     1
 71
     2
176
     1
 72
     2
176
     1
 73
     0
176
     1
 90
        0
176
     1
 40
-0.6
176
     1
 41
-30.0
176
     1
 62
     5
 63
     7
421
 16777215
176
     1
 74
     1
176
     1
 91
        4
176
     1
 64
     7
176
     1
 65
   257
176
     1
 75
     1
176
     1
175
     1
176
     1
 42
1.0
176
     1
 92
        8
176
     1
 66
     7
176
     1
 43
1.0
176
     1
 76
     1
176
     1
 77
     6
176
     1
 78
     2
176
     1
 67
     7
176
     1
 79
     5
176
     1
170
     0
176
     1
171
     0
176
     1
290
     0
176
     1
 93
        1
176
     1
 44
0.0
176
     1
173
     0
176
     1
  0
VISUALSTYLE
  5
2B
102
{ACAD_REACTORS
330
2A
102
}
330
2A
100
AcDbVisualStyle
  2
Flat
 70
     0
177
     2
291
     1
 71
     2
176
     1
 72
     1
176
     1
 73
     1
176
     1
 90
        2
176
     1
 40
-0.6
176
     1
 41
30.0
176
     1
 62
     5
 63
     7
421
 16777215
176
     1
 74
     0
176
     1
 91
        4
176
     1
 64
     7
176
     1
 65
   257
176
     1
 75
     1
176
     1
175
     1
176
     1
 42
1.0
176
     1
 92
        8
176
     1
 66
     7
176
     1
 43
1.0
176
     1
 76
     1
176
     1
 77
     6
176
     1
 78
     2
176
     1
 67
     7
176
     1
 79
     5
176
     1
170
     0
176
     1
171
     0
176
     1
290
     0
176
     1
 93
       13
176
     1
 44
0.0
176
     1
173
     0
176
     1
  0
VISUALSTYLE
  5
2C
102
{ACAD_REACTORS
330
2A
102
}
330
2A
100
AcDbVisualStyle
  2
FlatWithEdges
 70
     1
177
     2
291
     1
 71
     2
176
     1
 72
     1
176
     1
 73
     1
176
     1
 90
        2
176
     1
 40
-0.6
176
     1
 41
30.0
176
     1
 62
     5
 63
     7
421
 16777215
176
     1
 74
     1
176
     1
 91
        4
176
     1
 64
     7
176
     1
 65
   257
176
     1
 75
     1
176
     1
175
     1
176
     1
 42
1.0
176
     1
 92
        0
176
     1
 66
   257
176
     1
 43
1.0
176
     1
 76
     1
176
     1
 77
     6
176
     1
 78
     2
176
     1
 67
     7
176
     1
 79
     5
176
     1
170
     0
176
     1
171
     0
176
     1
290
     0
176
     1
 93
       13
176
     1
 44
0.0
176
     1
173
     0
176
     1
  0
VISUALSTYLE
  5
2D
102
{ACAD_REACTORS
330
2A
102
}
330
2A
100
AcDbVisualStyle
  2
Gouraud
 70
     2
177
     2
291
     1
 71
     2
176
     1
 72
     2
176
     1
 73
     1
176
     1
 90
        2
176
     1
 40
-0.6
176
     1
 41
30.0
176
     1
 62
     5
 63
     7
421
 16777215
176
     1
 74
     0
176
     1
 91
        4
176
     1
 64
     7
176
     1
 65
   257
176
     1
 75
     1
176
     1
175
     1
176
     1
 42
1.0
176
     1
 92
        0
176
     1
 66
     7
176
     1
 43
1.0
176
     1
 76
     1
176
     1
 77
     6
176
     1
 78
     2
176
     1
 67
     7
176
     1
 79
     5
176
     1
170
     0
176
     1
171
     0
176
     1
290
     0
176
     1
 93
       13
176
     1
 44
0.0
176
     1
173
     0
176
     1
  0
VISUALSTYLE
  5
2E
102
{ACAD_REACTORS
330
2A
102
}
330
2A
100
AcDbVisualStyle
  2
GouraudWithEdges
 70
     3
177
     2
291
     1
 71
     2
176
     1
 72
     2
176
     1
 73
     1
176
     1
 90
        2
176
     1
 40
-0.6
176
     1
 41
30.0
176
     1
 62
     5
 63
     7
421
 16777215
176
     1
 74
     1
176
     1
 91
        4
176
     1
 64
     7
176
     1
 65
   257
176
     1
 75
     1
176
     1
175
     1
176
     1
 42
1.0
176
     1
 92
        0
176
     1
 66
   257
176
     1
 43
1.0
176
     1
 76
     1
176
     1
 77
     6
176
     1
 78
     2
176
     1
 67
     7
176
     1
 79
     5
176
     1
170
     0
176
     1
171
     0
176
     1
290
     0
176
     1
 93
       13
176
     1
 44
0.0
176
     1
173
     0
176
     1
  0
VISUALSTYLE
  5
38
102
{ACAD_REACTORS
330
2A
102
}
330
2A
100
AcDbVisualStyle
  2
Linepattern
 70
    14
177
     2
291
     1
 71
     2
176
     1
 72
     2
176
     1
 73
     0
176
     1
 90
        0
176
     1
 40
-0.6
176
     1
 41
-30.0
176
     1
 62
     5
 63
     7
421
 16777215
176
     1
 74
     1
176
     1
 91
        4
176
     1
 64
     7
176
     1
 65
   257
176
     1
 75
     7
176
     1
175
     7
176
     1
 42
1.0
176
     1
 92
        8
176
     1
 66
     7
176
     1
 43
1.0
176
     1
 76
     1
176
     1
 77
     6
176
     1
 78
     2
176
     1
 67
     7
176
     1
 79
     5
176
     1
170
     0
176
     1
171
     0
176
     1
290
     0
176
     1
 93
        1
176
     1
 44
0.0
176
     1
173
     0
176
     1
  0
VISUALSTYLE
  5
33
102
{ACAD_REACTORS
330
2A
102
}
330
2A
100
AcDbVisualStyle
  2
Realistic
 70
     8
177
     2
291
     0
 71
     2
176
     1
 72
     2
176
     1
 73
     0
176
     1
 90
        0
176
     1
 40
-0.6
176
     1
 41
-30.0
176
     1
 62
     5
 63
     7
421
 16777215
176
     1
 74
     1
176
     1
 91
        0
176
     1
 64
     7
176
     1
 65
   257
176
     1
 75
     1
176
     1
175
     1
176
     1
 42
1.0
176
     1
 92
        8
176
     1
 66
     8
424
  7895160
176
     1
 43
1.0
176
     1
 76
     1
176
     1
 77
     6
176
     1
 78
     2
176
     1
 67
     7
176
     1
 79
     5
176
     1
170
     0
176
     1
171
     0
176
     1
290
     0
176
     1
 93
       13
176
     1
 44
0.0
176
     1
173
     0
176
     1
  0
VISUALSTYLE
  5
37
102
{ACAD_REACTORS
330
2A
102
}
330
2A
100
AcDbVisualStyle
  2
Thicken
 70
    13
177
     2
291
     1
 71
     2
176
     1
 72
     2
176
     1
 73
     0
176
     1
 90
        0
176
     1
 40
-0.6
176
     1
 41
-30.0
176
     1
 62
     5
 63
     7
421
 16777215
176
     1
 74
     1
176
     1
 91
        4
176
     1
 64
     7
176
     1
 65
   257
176
     1
 75
     1
176
     1
175
     1
176
     1
 42
1.0
176
     1
 92
       12
176
     1
 66
     7
176
     1
 43
1.0
176
     1
 76
     1
176
     1
 77
     6
176
     1
 78
     2
176
     1
 67
     7
176
     1
 79
     5
176
     1
170
     0
176
     1
171
     0
176
     1
290
     0
176
     1
 93
        1
176
     1
 44
0.0
176
     1
173
     0
176
     1
  0
ENDSEC
  0
EOF
