  0
SECTION
  2
HEADER
  9
$ACADVER
  1
AC1024
  9
$ACADMAINTVER
 70
     6
  9
$DWGCODEPAGE
  3
ANSI_1252
  9
$INSBASE
 10
0.0
 20
0.0
 30
0.0
  9
$EXTMIN
 10
1.000000000000000E+20
 20
1.000000000000000E+20
 30
1.000000000000000E+20
  9
$EXTMAX
 10
-1.000000000000000E+20
 20
-1.000000000000000E+20
 30
-1.000000000000000E+20
  9
$LIMMIN
 10
0.0
 20
0.0
  9
$LIMMAX
 10
12.0
 20
9.0
  9
$ORTHOMODE
 70
     0
  9
$REGENMODE
 70
     1
  9
$FILLMODE
 70
     1
  9
$QTEXTMODE
 70
     0
  9
$MIRRTEXT
 70
     1
  9
$LTSCALE
 40
1.0
  9
$ATTMODE
 70
     1
  9
$TEXTSIZE
 40
0.2
  9
$TRACEWID
 40
0.05
  9
$TEXTSTYLE
  7
Standard
  9
$CLAYER
  8
0
  9
$CELTYPE
  6
ByLayer
  9
$CECOLOR
 62
   256
  9
$CELTSCALE
 40
1.0
  9
$DISPSILH
 70
     0
  9
$DIMSCALE
 40
1.0
  9
$DIMASZ
 40
0.18
  9
$DIMEXO
 40
0.0625
  9
$DIMDLI
 40
0.38
  9
$DIMRND
 40
0.0
  9
$DIMDLE
 40
0.0
  9
$DIMEXE
 40
0.18
  9
$DIMTP
 40
0.0
  9
$DIMTM
 40
0.0
  9
$DIMTXT
 40
0.18
  9
$DIMCEN
 40
0.09
  9
$DIMTSZ
 40
0.0
  9
$DIMTOL
 70
     0
  9
$DIMLIM
 70
     0
  9
$DIMTIH
 70
     1
  9
$DIMTOH
 70
     1
  9
$DIMSE1
 70
     0
  9
$DIMSE2
 70
     0
  9
$DIMTAD
 70
     0
  9
$DIMZIN
 70
     0
  9
$DIMBLK
  1

  9
$DIMASO
 70
     1
  9
$DIMSHO
 70
     1
  9
$DIMPOST
  1

  9
$DIMAPOST
  1

  9
$DIMALT
 70
     0
  9
$DIMALTD
 70
     2
  9
$DIMALTF
 40
25.4
  9
$DIMLFAC
 40
1.0
  9
$DIMTOFL
 70
     0
  9
$DIMTVP
 40
0.0
  9
$DIMTIX
 70
     0
  9
$DIMSOXD
 70
     0
  9
$DIMSAH
 70
     0
  9
$DIMBLK1
  1

  9
$DIMBLK2
  1

  9
$DIMSTYLE
  2
Standard
  9
$DIMCLRD
 70
     0
  9
$DIMCLRE
 70
     0
  9
$DIMCLRT
 70
     0
  9
$DIMTFAC
 40
1.0
  9
$DIMGAP
 40
0.09
  9
$DIMJUST
 70
     0
  9
$DIMSD1
 70
     0
  9
$DIMSD2
 70
     0
  9
$DIMTOLJ
 70
     1
  9
$DIMTZIN
 70
     0
  9
$DIMALTZ
 70
     0
  9
$DIMALTTZ
 70
     0
  9
$DIMUPT
 70
     0
  9
$DIMDEC
 70
     4
  9
$DIMTDEC
 70
     4
  9
$DIMALTU
 70
     2
  9
$DIMALTTD
 70
     2
  9
$DIMTXSTY
  7
Standard
  9
$DIMAUNIT
 70
     0
  9
$DIMADEC
 70
     0
  9
$DIMALTRND
 40
0.0
  9
$DIMAZIN
 70
     0
  9
$DIMDSEP
 70
    46
  9
$DIMATFIT
 70
     3
  9
$DIMFRAC
 70
     0
  9
$DIMLDRBLK
  1

  9
$DIMLUNIT
 70
     2
  9
$DIMLWD
 70
    -2
  9
$DIMLWE
 70
    -2
  9
$DIMTMOVE
 70
     0
  9
$DIMFXL
 40
1.0
  9
$DIMFXLON
 70
     0
  9
$DIMJOGANG
 40
0.7853981633974483
  9
$DIMTFILL
 70
     0
  9
$DIMTFILLCLR
 70
     0
  9
$DIMARCSYM
 70
     0
  9
$DIMLTYPE
  6

  9
$DIMLTEX1
  6

  9
$DIMLTEX2
  6

  9
$DIMTXTDIRECTION
 70
     0
  9
$LUNITS
 70
     2
  9
$LUPREC
 70
     4
  9
$SKETCHINC
 40
0.1
  9
$FILLETRAD
 40
0.5
  9
$AUNITS
 70
     0
  9
$AUPREC
 70
     0
  9
$MENU
  1
.
  9
$ELEVATION
 40
0.0
  9
$PELEVATION
 40
0.0
  9
$THICKNESS
 40
0.0
  9
$LIMCHECK
 70
     0
  9
$CHAMFERA
 40
0.5
  9
$CHAMFERB
 40
0.5
  9
$CHAMFERC
 40
1.0
  9
$CHAMFERD
 40
0.0
  9
$SKPOLY
 70
     0
  9
$TDCREATE
 40
2458775.665696088
  9
$TDUCREATE
 40
2458775.124029421
  9
$TDUPDATE
 40
2458775.665696273
  9
$TDUUPDATE
 40
2458775.124029607
  9
$TDINDWG
 40
0.0000000116
  9
$TDUSRTIMER
 40
0.0000000116
  9
$USRTIMER
 70
     1
  9
$ANGBASE
 50
0.0
  9
$ANGDIR
 70
     0
  9
$PDMODE
 70
     0
  9
$PDSIZE
 40
0.0
  9
$PLINEWID
 40
0.0
  9
$SPLFRAME
 70
     0
  9
$SPLINETYPE
 70
     6
  9
$SPLINESEGS
 70
     8
  9
$HANDSEED
  5
50C
  9
$SURFTAB1
 70
     6
  9
$SURFTAB2
 70
     6
  9
$SURFTYPE
 70
     6
  9
$SURFU
 70
     6
  9
$SURFV
 70
     6
  9
$UCSBASE
  2

  9
$UCSNAME
  2

  9
$UCSORG
 10
0.0
 20
0.0
 30
0.0
  9
$UCSXDIR
 10
1.0
 20
0.0
 30
0.0
  9
$UCSYDIR
 10
0.0
 20
1.0
 30
0.0
  9
$UCSORTHOREF
  2

  9
$UCSORTHOVIEW
 70
     0
  9
$UCSORGTOP
 10
0.0
 20
0.0
 30
0.0
  9
$UCSORGBOTTOM
 10
0.0
 20
0.0
 30
0.0
  9
$UCSORGLEFT
 10
0.0
 20
0.0
 30
0.0
  9
$UCSORGRIGHT
 10
0.0
 20
0.0
 30
0.0
  9
$UCSORGFRONT
 10
0.0
 20
0.0
 30
0.0
  9
$UCSORGBACK
 10
0.0
 20
0.0
 30
0.0
  9
$PUCSBASE
  2

  9
$PUCSNAME
  2

  9
$PUCSORG
 10
0.0
 20
0.0
 30
0.0
  9
$PUCSXDIR
 10
1.0
 20
0.0
 30
0.0
  9
$PUCSYDIR
 10
0.0
 20
1.0
 30
0.0
  9
$PUCSORTHOREF
  2

  9
$PUCSORTHOVIEW
 70
     0
  9
$PUCSORGTOP
 10
0.0
 20
0.0
 30
0.0
  9
$PUCSORGBOTTOM
 10
0.0
 20
0.0
 30
0.0
  9
$PUCSORGLEFT
 10
0.0
 20
0.0
 30
0.0
  9
$PUCSORGRIGHT
 10
0.0
 20
0.0
 30
0.0
  9
$PUCSORGFRONT
 10
0.0
 20
0.0
 30
0.0
  9
$PUCSORGBACK
 10
0.0
 20
0.0
 30
0.0
  9
$USERI1
 70
     0
  9
$USERI2
 70
     0
  9
$USERI3
 70
     0
  9
$USERI4
 70
     0
  9
$USERI5
 70
     0
  9
$USERR1
 40
0.0
  9
$USERR2
 40
0.0
  9
$USERR3
 40
0.0
  9
$USERR4
 40
0.0
  9
$USERR5
 40
0.0
  9
$WORLDVIEW
 70
     1
  9
$SHADEDGE
 70
     3
  9
$SHADEDIF
 70
    70
  9
$TILEMODE
 70
     1
  9
$MAXACTVP
 70
    64
  9
$PINSBASE
 10
0.0
 20
0.0
 30
0.0
  9
$PLIMCHECK
 70
     0
  9
$PEXTMIN
 10
1.000000000000000E+20
 20
1.000000000000000E+20
 30
1.000000000000000E+20
  9
$PEXTMAX
 10
-1.000000000000000E+20
 20
-1.000000000000000E+20
 30
-1.000000000000000E+20
  9
$PLIMMIN
 10
0.0
 20
0.0
  9
$PLIMMAX
 10
12.0
 20
9.0
  9
$UNITMODE
 70
     0
  9
$VISRETAIN
 70
     1
  9
$PLINEGEN
 70
     0
  9
$PSLTSCALE
 70
     1
  9
$TREEDEPTH
 70
  3020
  9
$CMLSTYLE
  2
Standard
  9
$CMLJUST
 70
     0
  9
$CMLSCALE
 40
1.0
  9
$PROXYGRAPHICS
 70
     1
  9
$MEASUREMENT
 70
     0
  9
$CELWEIGHT
370
    -1
  9
$ENDCAPS
280
     0
  9
$JOINSTYLE
280
     0
  9
$LWDISPLAY
290
     1
  9
$INSUNITS
 70
     1
  9
$HYPERLINKBASE
  1

  9
$STYLESHEET
  1

  9
$XEDIT
290
     1
  9
$CEPSNTYPE
380
     0
  9
$PSTYLEMODE
290
     1
  9
$FINGERPRINTGUID
  2
{05E7319F-C0C7-4089-B7F1-D0321EA07E9F}
  9
$VERSIONGUID
  2
{FAEB1C32-E019-11D5-929B-00C0DF256EC4}
  9
$EXTNAMES
290
     1
  9
$PSVPSCALE
 40
0.0
  9
$OLESTARTUP
290
     0
  9
$SORTENTS
280
   127
  9
$INDEXCTL
280
     0
  9
$HIDETEXT
280
     1
  9
$XCLIPFRAME
280
     2
  9
$HALOGAP
280
     0
  9
$OBSCOLOR
 70
   257
  9
$OBSLTYPE
280
     0
  9
$INTERSECTIONDISPLAY
280
     0
  9
$INTERSECTIONCOLOR
 70
   257
  9
$DIMASSOC
280
     2
  9
$PROJECTNAME
  1

  9
$CAMERADISPLAY
290
     0
  9
$LENSLENGTH
 40
50.0
  9
$CAMERAHEIGHT
 40
0.0
  9
$STEPSPERSEC
 40
2.0
  9
$STEPSIZE
 40
6.0
  9
$3DDWFPREC
 40
2.0
  9
$PSOLWIDTH
 40
0.25
  9
$PSOLHEIGHT
 40
4.0
  9
$LOFTANG1
 40
1.570796326794897
  9
$LOFTANG2
 40
1.570796326794897
  9
$LOFTMAG1
 40
0.0
  9
$LOFTMAG2
 40
0.0
  9
$LOFTPARAM
 70
     7
  9
$LOFTNORMALS
280
     1
  9
$LATITUDE
 40
37.795
  9
$LONGITUDE
 40
-122.394
  9
$NORTHDIRECTION
 40
0.0
  9
$TIMEZONE
 70
 -8000
  9
$LIGHTGLYPHDISPLAY
280
     1
  9
$TILEMODELIGHTSYNCH
280
     1
  9
$CMATERIAL
347
3C
  9
$SOLIDHIST
280
     1
  9
$SHOWHIST
280
     1
  9
$DWFFRAME
280
     2
  9
$DGNFRAME
280
     2
  9
$REALWORLDSCALE
290
     1
  9
$INTERFERECOLOR
 62
   256
  9
$CSHADOW
280
     0
  9
$SHADOWPLANELOCATION
 40
0.0
  0
ENDSEC
  0
SECTION
  2
CLASSES
  0
CLASS
  1
ACDBDICTIONARYWDFLT
  2
AcDbDictionaryWithDefault
  3
ObjectDBX Classes
 90
        0
 91
        4
280
     0
281
     0
  0
CLASS
  1
VISUALSTYLE
  2
AcDbVisualStyle
  3
ObjectDBX Classes
 90
     4095
 91
        4
280
     0
281
     0
  0
CLASS
  1
MATERIAL
  2
AcDbMaterial
  3
ObjectDBX Classes
 90
     1153
 91
        4
280
     0
281
     0
  0
CLASS
  1
SUN
  2
AcDbSun
  3
SCENEOE
 90
     1024
 91
        4
280
     0
281
     0
  0
ENDSEC
  0
SECTION
  2
TABLES
  0
TABLE
  2
VPORT
  5
8
330
0
100
AcDbSymbolTable
 70
     1
  0
VPORT
  5
29
330
8
100
AcDbSymbolTableRecord
100
AcDbViewportTableRecord
  2
*Active
 70
     0
 10
0.0
 20
0.0
 11
1.0
 21
1.0
 12
0.0
 22
0.0
 13
0.0
 23
0.0
 14
0.5
 24
0.5
 15
0.5
 25
0.5
 16
0.0
 26
0.0
 36
1.0
 17
11.08760683859517
 27
10.62377332434562
 37
0.0
 40
11.69291338582681
 41
0.7070707070706993
 42
50.0
 43
0.0
 44
0.0
 50
0.0
 51
0.0
 71
     0
 72
   100
 73
     1
 74
     3
 75
     0
 76
     0
 77
     0
 78
     0
281
     0
 65
     1
110
0.0
120
0.0
130
0.0
111
1.0
121
0.0
131
0.0
112
0.0
122
1.0
132
0.0
 79
     0
146
0.0
 60
     3
 61
     5
292
     1
282
     1
141
0.0
142
0.0
 63
   250
361
3F
  0
ENDTAB
  0
TABLE
  2
LTYPE
  5
5
330
0
100
AcDbSymbolTable
 70
     1
  0
LTYPE
  5
14
330
5
100
AcDbSymbolTableRecord
100
AcDbLinetypeTableRecord
  2
ByBlock
 70
     0
  3

 72
    65
 73
     0
 40
0.0
  0
LTYPE
  5
15
330
5
100
AcDbSymbolTableRecord
100
AcDbLinetypeTableRecord
  2
ByLayer
 70
     0
  3

 72
    65
 73
     0
 40
0.0
  0
LTYPE
  5
16
330
5
100
AcDbSymbolTableRecord
100
AcDbLinetypeTableRecord
  2
Continuous
 70
     0
  3
Solid line
 72
    65
 73
     0
 40
0.0
  0
ENDTAB
  0
TABLE
  2
LAYER
  5
2
330
0
100
AcDbSymbolTable
 70
     3
  0
LAYER
  5
10
330
2
100
AcDbSymbolTableRecord
100
AcDbLayerTableRecord
  2
0
 70
     0
 62
     7
  6
Continuous
370
    -3
390
F
347
3E
  0
LAYER
  5
40
330
2
100
AcDbSymbolTableRecord
100
AcDbLayerTableRecord
  2
H1
 70
     0
 62
     7
  6
Continuous
370
    -3
390
F
347
3E
  0
LAYER
  5
49A
330
2
100
AcDbSymbolTableRecord
100
AcDbLayerTableRecord
  2
Callouts
 70
     0
 62
     7
  6
Continuous
370
    -3
390
F
347
3E
  0
ENDTAB
  0
TABLE
  2
STYLE
  5
3
330
0
100
AcDbSymbolTable
 70
     1
  0
STYLE
  5
11
330
3
100
AcDbSymbolTableRecord
100
AcDbTextStyleTableRecord
  2
Standard
 70
     0
 40
0.0
 41
1.0
 50
0.0
 71
     0
 42
0.2
  3
txt
  4

  0
ENDTAB
  0
TABLE
  2
VIEW
  5
6
330
0
100
AcDbSymbolTable
 70
     0
  0
ENDTAB
  0
TABLE
  2
UCS
  5
7
330
0
100
AcDbSymbolTable
 70
     0
  0
ENDTAB
  0
TABLE
  2
APPID
  5
9
330
0
100
AcDbSymbolTable
 70
     1
  0
APPID
  5
12
330
9
100
AcDbSymbolTableRecord
100
AcDbRegAppTableRecord
  2
ACAD
 70
     0
  0
ENDTAB
  0
TABLE
  2
DIMSTYLE
  5
A
330
0
100
AcDbSymbolTable
 70
     1
100
AcDbDimStyleTable
  0
DIMSTYLE
105
27
330
A
100
AcDbSymbolTableRecord
100
AcDbDimStyleTableRecord
  2
Standard
 70
     0
178
     0
340
11
  0
ENDTAB
  0
TABLE
  2
BLOCK_RECORD
  5
1
330
0
100
AcDbSymbolTable
 70
    42
  0
BLOCK_RECORD
  5
1F
330
1
100
AcDbSymbolTableRecord
100
AcDbBlockTableRecord
  2
*Model_Space
340
22
 70
     0
280
     1
281
     0
  0
BLOCK_RECORD
  5
1B
330
1
100
AcDbSymbolTableRecord
100
AcDbBlockTableRecord
  2
*Paper_Space
340
1E
 70
     0
280
     1
281
     0
  0
BLOCK_RECORD
  5
23
330
1
100
AcDbSymbolTableRecord
100
AcDbBlockTableRecord
  2
*Paper_Space0
340
26
 70
     0
280
     1
281
     0
  0
BLOCK_RECORD
  5
41
330
1
100
AcDbSymbolTableRecord
100
AcDbBlockTableRecord
  2
block 2
340
0
102
{BLKREFS
331
42
102
}
 70
     0
280
     1
281
     0
  0
BLOCK_RECORD
  5
137
330
1
100
AcDbSymbolTableRecord
100
AcDbBlockTableRecord
  2
block 3
340
0
102
{BLKREFS
331
138
102
}
 70
     0
280
     1
281
     0
  0
BLOCK_RECORD
  5
17B
330
1
100
AcDbSymbolTableRecord
100
AcDbBlockTableRecord
  2
block 4
340
0
102
{BLKREFS
331
17C
102
}
 70
     0
280
     1
281
     0
  0
BLOCK_RECORD
  5
1B1
330
1
100
AcDbSymbolTableRecord
100
AcDbBlockTableRecord
  2
block 5
340
0
102
{BLKREFS
331
1B2
102
}
 70
     0
280
     1
281
     0
  0
BLOCK_RECORD
  5
1D4
330
1
100
AcDbSymbolTableRecord
100
AcDbBlockTableRecord
  2
block 6
340
0
102
{BLKREFS
331
1D5
102
}
 70
     0
280
     1
281
     0
  0
BLOCK_RECORD
  5
1EA
330
1
100
AcDbSymbolTableRecord
100
AcDbBlockTableRecord
  2
block 7
340
0
102
{BLKREFS
331
1EB
102
}
 70
     0
280
     1
281
     0
  0
BLOCK_RECORD
  5
209
330
1
100
AcDbSymbolTableRecord
100
AcDbBlockTableRecord
  2
block 8
340
0
102
{BLKREFS
331
20A
102
}
 70
     0
280
     1
281
     0
  0
BLOCK_RECORD
  5
20E
330
1
100
AcDbSymbolTableRecord
100
AcDbBlockTableRecord
  2
block 9
340
0
102
{BLKREFS
331
20F
102
}
 70
     0
280
     1
281
     0
  0
BLOCK_RECORD
  5
213
330
1
100
AcDbSymbolTableRecord
100
AcDbBlockTableRecord
  2
block 10
340
0
102
{BLKREFS
331
214
102
}
 70
     0
280
     1
281
     0
  0
BLOCK_RECORD
  5
218
330
1
100
AcDbSymbolTableRecord
100
AcDbBlockTableRecord
  2
block 11
340
0
102
{BLKREFS
331
219
102
}
 70
     0
280
     1
281
     0
  0
BLOCK_RECORD
  5
21F
330
1
100
AcDbSymbolTableRecord
100
AcDbBlockTableRecord
  2
block 12
340
0
102
{BLKREFS
331
220
102
}
 70
     0
280
     1
281
     0
  0
BLOCK_RECORD
  5
226
330
1
100
AcDbSymbolTableRecord
100
AcDbBlockTableRecord
  2
block 13
340
0
102
{BLKREFS
331
227
102
}
 70
     0
280
     1
281
     0
  0
BLOCK_RECORD
  5
22A
330
1
100
AcDbSymbolTableRecord
100
AcDbBlockTableRecord
  2
block 14
340
0
102
{BLKREFS
331
22B
102
}
 70
     0
280
     1
281
     0
  0
BLOCK_RECORD
  5
231
330
1
100
AcDbSymbolTableRecord
100
AcDbBlockTableRecord
  2
block 15
340
0
102
{BLKREFS
331
232
102
}
 70
     0
280
     1
281
     0
  0
BLOCK_RECORD
  5
235
330
1
100
AcDbSymbolTableRecord
100
AcDbBlockTableRecord
  2
block 16
340
0
102
{BLKREFS
331
236
102
}
 70
     0
280
     1
281
     0
  0
BLOCK_RECORD
  5
23C
330
1
100
AcDbSymbolTableRecord
100
AcDbBlockTableRecord
  2
block 17
340
0
102
{BLKREFS
331
23D
102
}
 70
     0
280
     1
281
     0
  0
BLOCK_RECORD
  5
240
330
1
100
AcDbSymbolTableRecord
100
AcDbBlockTableRecord
  2
block 18
340
0
102
{BLKREFS
331
241
102
}
 70
     0
280
     1
281
     0
  0
BLOCK_RECORD
  5
247
330
1
100
AcDbSymbolTableRecord
100
AcDbBlockTableRecord
  2
block 19
340
0
102
{BLKREFS
331
248
102
}
 70
     0
280
     1
281
     0
  0
BLOCK_RECORD
  5
24B
330
1
100
AcDbSymbolTableRecord
100
AcDbBlockTableRecord
  2
block 20
340
0
102
{BLKREFS
331
24C
102
}
 70
     0
280
     1
281
     0
  0
BLOCK_RECORD
  5
25E
330
1
100
AcDbSymbolTableRecord
100
AcDbBlockTableRecord
  2
block 21
340
0
102
{BLKREFS
331
25F
102
}
 70
     0
280
     1
281
     0
  0
BLOCK_RECORD
  5
285
330
1
100
AcDbSymbolTableRecord
100
AcDbBlockTableRecord
  2
block 22
340
0
102
{BLKREFS
331
286
102
}
 70
     0
280
     1
281
     0
  0
BLOCK_RECORD
  5
2A5
330
1
100
AcDbSymbolTableRecord
100
AcDbBlockTableRecord
  2
block 23
340
0
102
{BLKREFS
331
2A6
102
}
 70
     0
280
     1
281
     0
  0
BLOCK_RECORD
  5
2CC
330
1
100
AcDbSymbolTableRecord
100
AcDbBlockTableRecord
  2
block 24
340
0
102
{BLKREFS
331
2CD
102
}
 70
     0
280
     1
281
     0
  0
BLOCK_RECORD
  5
2EC
330
1
100
AcDbSymbolTableRecord
100
AcDbBlockTableRecord
  2
block 25
340
0
102
{BLKREFS
331
2ED
102
}
 70
     0
280
     1
281
     0
  0
BLOCK_RECORD
  5
313
330
1
100
AcDbSymbolTableRecord
100
AcDbBlockTableRecord
  2
block 26
340
0
102
{BLKREFS
331
314
102
}
 70
     0
280
     1
281
     0
  0
BLOCK_RECORD
  5
333
330
1
100
AcDbSymbolTableRecord
100
AcDbBlockTableRecord
  2
block 27
340
0
102
{BLKREFS
331
334
102
}
 70
     0
280
     1
281
     0
  0
BLOCK_RECORD
  5
35A
330
1
100
AcDbSymbolTableRecord
100
AcDbBlockTableRecord
  2
block 28
340
0
102
{BLKREFS
331
35B
102
}
 70
     0
280
     1
281
     0
  0
BLOCK_RECORD
  5
37A
330
1
100
AcDbSymbolTableRecord
100
AcDbBlockTableRecord
  2
block 29
340
0
102
{BLKREFS
331
37B
102
}
 70
     0
280
     1
281
     0
  0
BLOCK_RECORD
  5
3A1
330
1
100
AcDbSymbolTableRecord
100
AcDbBlockTableRecord
  2
block 30
340
0
102
{BLKREFS
331
3A2
102
}
 70
     0
280
     1
281
     0
  0
BLOCK_RECORD
  5
3C1
330
1
100
AcDbSymbolTableRecord
100
AcDbBlockTableRecord
  2
block 31
340
0
102
{BLKREFS
331
3C2
102
}
 70
     0
280
     1
281
     0
  0
BLOCK_RECORD
  5
3E8
330
1
100
AcDbSymbolTableRecord
100
AcDbBlockTableRecord
  2
block 32
340
0
102
{BLKREFS
331
3E9
102
}
 70
     0
280
     1
281
     0
  0
BLOCK_RECORD
  5
408
330
1
100
AcDbSymbolTableRecord
100
AcDbBlockTableRecord
  2
block 33
340
0
102
{BLKREFS
331
409
102
}
 70
     0
280
     1
281
     0
  0
BLOCK_RECORD
  5
42F
330
1
100
AcDbSymbolTableRecord
100
AcDbBlockTableRecord
  2
block 34
340
0
102
{BLKREFS
331
430
102
}
 70
     0
280
     1
281
     0
  0
BLOCK_RECORD
  5
44F
330
1
100
AcDbSymbolTableRecord
100
AcDbBlockTableRecord
  2
block 35
340
0
102
{BLKREFS
331
450
102
}
 70
     0
280
     1
281
     0
  0
BLOCK_RECORD
  5
476
330
1
100
AcDbSymbolTableRecord
100
AcDbBlockTableRecord
  2
block 36
340
0
102
{BLKREFS
331
477
102
}
 70
     0
280
     1
281
     0
  0
BLOCK_RECORD
  5
49B
330
1
100
AcDbSymbolTableRecord
100
AcDbBlockTableRecord
  2
block 37
340
0
102
{BLKREFS
331
49C
102
}
 70
     0
280
     1
281
     0
  0
BLOCK_RECORD
  5
4AF
330
1
100
AcDbSymbolTableRecord
100
AcDbBlockTableRecord
  2
block 38
340
0
102
{BLKREFS
331
4B0
102
}
 70
     0
280
     1
281
     0
  0
BLOCK_RECORD
  5
4C3
330
1
100
AcDbSymbolTableRecord
100
AcDbBlockTableRecord
  2
block 39
340
0
102
{BLKREFS
331
4C4
102
}
 70
     0
280
     1
281
     0
  0
BLOCK_RECORD
  5
4C7
330
1
100
AcDbSymbolTableRecord
100
AcDbBlockTableRecord
  2
block 40
340
0
102
{BLKREFS
331
4C8
102
}
 70
     0
280
     1
281
     0
  0
BLOCK_RECORD
  5
4DD
330
1
100
AcDbSymbolTableRecord
100
AcDbBlockTableRecord
  2
block 41
340
0
102
{BLKREFS
331
4DE
102
}
 70
     0
280
     1
281
     0
  0
BLOCK_RECORD
  5
4E1
330
1
100
AcDbSymbolTableRecord
100
AcDbBlockTableRecord
  2
block 42
340
0
102
{BLKREFS
331
4E2
102
}
 70
     0
280
     1
281
     0
  0
ENDTAB
  0
ENDSEC
  0
SECTION
  2
BLOCKS
  0
BLOCK
  5
20
330
1F
100
AcDbEntity
  8
0
100
AcDbBlockBegin
  2
*Model_Space
 70
     0
 10
0.0
 20
0.0
 30
0.0
  3
*Model_Space
  1

  0
ENDBLK
  5
21
330
1F
100
AcDbEntity
  8
0
100
AcDbBlockEnd
  0
BLOCK
  5
1C
330
1B
100
AcDbEntity
 67
     1
  8
0
100
AcDbBlockBegin
  2
*Paper_Space
 70
     0
 10
0.0
 20
0.0
 30
0.0
  3
*Paper_Space
  1

  0
ENDBLK
  5
1D
330
1B
100
AcDbEntity
 67
     1
  8
0
100
AcDbBlockEnd
  0
BLOCK
  5
24
330
23
100
AcDbEntity
  8
0
100
AcDbBlockBegin
  2
*Paper_Space0
 70
     0
 10
0.0
 20
0.0
 30
0.0
  3
*Paper_Space0
  1

  0
ENDBLK
  5
25
330
23
100
AcDbEntity
  8
0
100
AcDbBlockEnd
  0
BLOCK
  5
43
330
41
100
AcDbEntity
  8
0
100
AcDbBlockBegin
  2
block 2
 70
     0
 10
0.0
 20
0.0
 30
0.0
  3
block 2
  1

  0
POLYLINE
  5
45
330
41
100
AcDbEntity
  8
H1
 62
   250
420
  2301728
370
    20
100
AcDb2dPolyline
 66
     1
 10
0.0
 20
0.0
 30
0.0
  0
VERTEX
  5
46
330
45
100
AcDbEntity
  8
H1
 62
   250
420
  2301728
370
    20
100
AcDbVertex
100
AcDb2dVertex
 10
12.42074934222056
 20
11.40080047678562
 30
0.0
  0
VERTEX
  5
47
330
45
100
AcDbEntity
  8
H1
 62
   250
420
  2301728
370
    20
100
AcDbVertex
100
AcDb2dVertex
 10
9.981985995645825
 20
10.56849591963574
 30
0.0
  0
VERTEX
  5
48
330
45
100
AcDbEntity
  8
H1
 62
   250
420
  2301728
370
    20
100
AcDbVertex
100
AcDb2dVertex
 10
9.981985995645825
 20
10.35899611802911
 30
0.0
  0
VERTEX
  5
49
330
45
100
AcDbEntity
  8
H1
 62
   250
420
  2301728
370
    20
100
AcDbVertex
100
AcDb2dVertex
 10
9.808607599193767
 20
10.29758860193192
 30
0.0
  0
VERTEX
  5
4A
330
45
100
AcDbEntity
  8
H1
 62
   250
420
  2301728
370
    20
100
AcDbVertex
100
AcDb2dVertex
 10
9.808607599193767
 20
10.08086580767656
 30
0.0
  0
VERTEX
  5
4B
330
45
100
AcDbEntity
  8
H1
 62
   250
420
  2301728
370
    20
100
AcDbVertex
100
AcDb2dVertex
 10
9.897475371178011
 20
10.01739688007649
 30
0.0
  0
VERTEX
  5
4C
330
45
100
AcDbEntity
  8
H1
 62
   250
420
  2301728
370
    20
100
AcDbVertex
100
AcDb2dVertex
 10
9.897475371178011
 20
9.960258740459102
 30
0.0
  0
VERTEX
  5
4D
330
45
100
AcDbEntity
  8
H1
 62
   250
420
  2301728
370
    20
100
AcDbVertex
100
AcDb2dVertex
 10
10.02386807966428
 20
9.967023552191739
 30
0.0
  0
VERTEX
  5
4E
330
45
100
AcDbEntity
  8
H1
 62
   250
420
  2301728
370
    20
100
AcDbVertex
100
AcDb2dVertex
 10
10.02386807966428
 20
9.927128908765388
 30
0.0
  0
VERTEX
  5
4F
330
45
100
AcDbEntity
  8
H1
 62
   250
420
  2301728
370
    20
100
AcDbVertex
100
AcDb2dVertex
 10
10.17840469183681
 20
9.816761147932198
 30
0.0
  0
VERTEX
  5
50
330
45
100
AcDbEntity
  8
H1
 62
   250
420
  2301728
370
    20
100
AcDbVertex
100
AcDb2dVertex
 10
12.94811014198945
 20
10.89149910659082
 30
0.0
  0
VERTEX
  5
51
330
45
100
AcDbEntity
  8
H1
 62
   250
420
  2301728
370
    20
100
AcDbVertex
100
AcDb2dVertex
 10
12.94811014198945
 20
11.09016267331946
 30
0.0
  0
VERTEX
  5
52
330
45
100
AcDbEntity
  8
H1
 62
   250
420
  2301728
370
    20
100
AcDbVertex
100
AcDb2dVertex
 10
12.80724064708137
 20
11.1479530564202
 30
0.0
  0
VERTEX
  5
53
330
45
100
AcDbEntity
  8
H1
 62
   250
420
  2301728
370
    20
100
AcDbVertex
100
AcDb2dVertex
 10
12.80724064708137
 20
11.23825495882891
 30
0.0
  0
VERTEX
  5
54
330
45
100
AcDbEntity
  8
H1
 62
   250
420
  2301728
370
    20
100
AcDbVertex
100
AcDb2dVertex
 10
12.69506120985958
 20
11.28543551460082
 30
0.0
  0
VERTEX
  5
55
330
45
100
AcDbEntity
  8
H1
 62
   250
420
  2301728
370
    20
100
AcDbVertex
100
AcDb2dVertex
 10
12.69506120985958
 20
11.33092828970477
 30
0.0
  0
VERTEX
  5
56
330
45
100
AcDbEntity
  8
H1
 62
   250
420
  2301728
370
    20
100
AcDbVertex
100
AcDb2dVertex
 10
12.52404618948602
 20
11.3209852001589
 30
0.0
  0
VERTEX
  5
57
330
45
100
AcDbEntity
  8
H1
 62
   250
420
  2301728
370
    20
100
AcDbVertex
100
AcDb2dVertex
 10
12.52404618948602
 20
11.35735396084169
 30
0.0
  0
VERTEX
  5
58
330
45
100
AcDbEntity
  8
H1
 62
   250
420
  2301728
370
    20
100
AcDbVertex
100
AcDb2dVertex
 10
12.42074934222056
 20
11.40080047678562
 30
0.0
  0
SEQEND
  5
5A
330
45
100
AcDbEntity
  8
H1
 62
   250
420
  2301728
370
    20
  0
HATCH
  5
59
330
41
100
AcDbEntity
  8
H1
 62
    43
420
 15510365
100
AcDbHatch
 10
0.0
 20
0.0
 30
0.0
210
0.0
220
0.0
230
1.0
  2
SOLID
 70
     1
 71
     0
 91
        1
 92
        1
 93
       18
 72
     1
 10
12.42074934222056
 20
11.40080047678562
 11
9.981985995645825
 21
10.56849591963574
 72
     1
 10
9.981985995645825
 20
10.56849591963574
 11
9.981985995645825
 21
10.35899611802911
 72
     1
 10
9.981985995645825
 20
10.35899611802911
 11
9.808607599193767
 21
10.29758860193192
 72
     1
 10
9.808607599193767
 20
10.29758860193192
 11
9.808607599193767
 21
10.08086580767656
 72
     1
 10
9.808607599193767
 20
10.08086580767656
 11
9.897475371178011
 21
10.01739688007649
 72
     1
 10
9.897475371178011
 20
10.01739688007649
 11
9.897475371178011
 21
9.960258740459102
 72
     1
 10
9.897475371178011
 20
9.960258740459102
 11
10.02386807966428
 21
9.967023552191739
 72
     1
 10
10.02386807966428
 20
9.967023552191739
 11
10.02386807966428
 21
9.927128908765388
 72
     1
 10
10.02386807966428
 20
9.927128908765388
 11
10.17840469183681
 21
9.816761147932198
 72
     1
 10
10.17840469183681
 20
9.816761147932198
 11
12.94811014198945
 21
10.89149910659082
 72
     1
 10
12.94811014198945
 20
10.89149910659082
 11
12.94811014198945
 21
11.09016267331946
 72
     1
 10
12.94811014198945
 20
11.09016267331946
 11
12.80724064708137
 21
11.1479530564202
 72
     1
 10
12.80724064708137
 20
11.1479530564202
 11
12.80724064708137
 21
11.23825495882891
 72
     1
 10
12.80724064708137
 20
11.23825495882891
 11
12.69506120985958
 21
11.28543551460082
 72
     1
 10
12.69506120985958
 20
11.28543551460082
 11
12.69506120985958
 21
11.33092828970477
 72
     1
 10
12.69506120985958
 20
11.33092828970477
 11
12.52404618948602
 21
11.3209852001589
 72
     1
 10
12.52404618948602
 20
11.3209852001589
 11
12.52404618948602
 21
11.35735396084169
 72
     1
 10
12.52404618948602
 20
11.35735396084169
 11
12.42074934222056
 21
11.40080047678562
 97
        0
 75
     2
 76
     1
 98
        0
  0
POLYLINE
  5
5B
330
41
100
AcDbEntity
  8
H1
 62
   250
420
  2301728
370
    15
100
AcDb2dPolyline
 66
     1
 10
0.0
 20
0.0
 30
0.0
  0
VERTEX
  5
5C
330
5B
100
AcDbEntity
  8
H1
 62
   250
420
  2301728
370
    15
100
AcDbVertex
100
AcDb2dVertex
 10
10.17840469183681
 20
10.0443603035818
 30
0.0
  0
VERTEX
  5
5D
330
5B
100
AcDbEntity
  8
H1
 62
   250
420
  2301728
370
    15
100
AcDbVertex
100
AcDb2dVertex
 10
12.94811014198945
 20
11.09016267331946
 30
0.0
  0
SEQEND
  5
5E
330
5B
100
AcDbEntity
  8
H1
 62
   250
420
  2301728
370
    15
  0
POLYLINE
  5
5F
330
41
100
AcDbEntity
  8
H1
 62
   250
420
  2301728
370
    15
100
AcDb2dPolyline
 66
     1
 10
0.0
 20
0.0
 30
0.0
  0
VERTEX
  5
60
330
5F
100
AcDbEntity
  8
H1
 62
   250
420
  2301728
370
    15
100
AcDbVertex
100
AcDb2dVertex
 10
9.808607599193767
 20
10.29758860193192
 30
0.0
  0
VERTEX
  5
61
330
5F
100
AcDbEntity
  8
H1
 62
   250
420
  2301728
370
    15
100
AcDbVertex
100
AcDb2dVertex
 10
9.932847098946189
 20
10.21251189453968
 30
0.0
  0
VERTEX
  5
62
330
5F
100
AcDbEntity
  8
H1
 62
   250
420
  2301728
370
    15
100
AcDbVertex
100
AcDb2dVertex
 10
9.897194342812957
 20
10.17346183562106
 30
0.0
  0
VERTEX
  5
63
330
5F
100
AcDbEntity
  8
H1
 62
   250
420
  2301728
370
    15
100
AcDbVertex
100
AcDb2dVertex
 10
10.05229784314876
 20
10.17940288799145
 30
0.0
  0
VERTEX
  5
64
330
5F
100
AcDbEntity
  8
H1
 62
   250
420
  2301728
370
    15
100
AcDbVertex
100
AcDb2dVertex
 10
10.02386807966428
 20
10.15018318517713
 30
0.0
  0
VERTEX
  5
65
330
5F
100
AcDbEntity
  8
H1
 62
   250
420
  2301728
370
    15
100
AcDbVertex
100
AcDb2dVertex
 10
10.17840469183681
 20
10.0443603035818
 30
0.0
  0
SEQEND
  5
66
330
5F
100
AcDbEntity
  8
H1
 62
   250
420
  2301728
370
    15
  0
POLYLINE
  5
67
330
41
100
AcDbEntity
  8
H1
 62
   250
420
  2301728
370
    15
100
AcDb2dPolyline
 66
     1
 10
0.0
 20
0.0
 30
0.0
  0
VERTEX
  5
68
330
67
100
AcDbEntity
  8
H1
 62
   250
420
  2301728
370
    15
100
AcDbVertex
100
AcDb2dVertex
 10
12.69506120985958
 20
11.28543551460082
 30
0.0
  0
VERTEX
  5
69
330
67
100
AcDbEntity
  8
H1
 62
   250
420
  2301728
370
    15
100
AcDbVertex
100
AcDb2dVertex
 10
12.66440979233744
 20
11.29832738888242
 30
0.0
  0
SEQEND
  5
6A
330
67
100
AcDbEntity
  8
H1
 62
   250
420
  2301728
370
    15
  0
POLYLINE
  5
6B
330
41
100
AcDbEntity
  8
H1
 62
   250
420
  2301728
370
    15
100
AcDb2dPolyline
 66
     1
 10
0.0
 20
0.0
 30
0.0
  0
VERTEX
  5
6C
330
6B
100
AcDbEntity
  8
H1
 62
   250
420
  2301728
370
    15
100
AcDbVertex
100
AcDb2dVertex
 10
12.80726641472514
 20
11.03503199420073
 30
0.0
  0
VERTEX
  5
6D
330
6B
100
AcDbEntity
  8
H1
 62
   250
420
  2301728
370
    15
100
AcDbVertex
100
AcDb2dVertex
 10
12.80726641472514
 20
11.1479530564202
 30
0.0
  0
SEQEND
  5
6E
330
6B
100
AcDbEntity
  8
H1
 62
   250
420
  2301728
370
    15
  0
POLYLINE
  5
6F
330
41
100
AcDbEntity
  8
H1
 62
   250
420
  2301728
370
    15
100
AcDb2dPolyline
 66
     1
 10
0.0
 20
0.0
 30
0.0
  0
VERTEX
  5
70
330
6F
100
AcDbEntity
  8
H1
 62
   250
420
  2301728
370
    15
100
AcDbVertex
100
AcDb2dVertex
 10
12.52404618948602
 20
11.35735396084169
 30
0.0
  0
VERTEX
  5
71
330
6F
100
AcDbEntity
  8
H1
 62
   250
420
  2301728
370
    15
100
AcDbVertex
100
AcDb2dVertex
 10
12.49179959376574
 20
11.31911060407348
 30
0.0
  0
VERTEX
  5
72
330
6F
100
AcDbEntity
  8
H1
 62
   250
420
  2301728
370
    15
100
AcDbVertex
100
AcDb2dVertex
 10
12.52404618948602
 20
11.3209852001589
 30
0.0
  0
SEQEND
  5
73
330
6F
100
AcDbEntity
  8
H1
 62
   250
420
  2301728
370
    15
  0
POLYLINE
  5
74
330
41
100
AcDbEntity
  8
H1
 62
   250
420
  2301728
370
    15
100
AcDb2dPolyline
 66
     1
 10
0.0
 20
0.0
 30
0.0
  0
VERTEX
  5
75
330
74
100
AcDbEntity
  8
H1
 62
   250
420
  2301728
370
    15
100
AcDbVertex
100
AcDb2dVertex
 10
12.69506120985958
 20
11.33092828970477
 30
0.0
  0
VERTEX
  5
76
330
74
100
AcDbEntity
  8
H1
 62
   250
420
  2301728
370
    15
100
AcDbVertex
100
AcDb2dVertex
 10
12.66440979233744
 20
11.29832738888242
 30
0.0
  0
SEQEND
  5
77
330
74
100
AcDbEntity
  8
H1
 62
   250
420
  2301728
370
    15
  0
POLYLINE
  5
78
330
41
100
AcDbEntity
  8
H1
 62
   250
420
  2301728
370
    15
100
AcDb2dPolyline
 66
     1
 10
0.0
 20
0.0
 30
0.0
  0
VERTEX
  5
79
330
78
100
AcDbEntity
  8
H1
 62
   250
420
  2301728
370
    15
100
AcDbVertex
100
AcDb2dVertex
 10
10.34438294308911
 20
10.34677339724706
 30
0.0
  0
VERTEX
  5
7A
330
78
100
AcDbEntity
  8
H1
 62
   250
420
  2301728
370
    15
100
AcDbVertex
100
AcDb2dVertex
 10
10.17827102218464
 20
10.44840420529398
 30
0.0
  0
VERTEX
  5
7B
330
78
100
AcDbEntity
  8
H1
 62
   250
420
  2301728
370
    15
100
AcDbVertex
100
AcDb2dVertex
 10
10.21578710105912
 20
10.47588459215274
 30
0.0
  0
VERTEX
  5
7C
330
78
100
AcDbEntity
  8
H1
 62
   250
420
  2301728
370
    15
100
AcDbVertex
100
AcDb2dVertex
 10
10.05246774854997
 20
10.46265612802418
 30
0.0
  0
VERTEX
  5
7D
330
78
100
AcDbEntity
  8
H1
 62
   250
420
  2301728
370
    15
100
AcDbVertex
100
AcDb2dVertex
 10
10.09326034437961
 20
10.50041538903688
 30
0.0
  0
VERTEX
  5
7E
330
78
100
AcDbEntity
  8
H1
 62
   250
420
  2301728
370
    15
100
AcDbVertex
100
AcDb2dVertex
 10
9.981985995645825
 20
10.56849591963574
 30
0.0
  0
SEQEND
  5
7F
330
78
100
AcDbEntity
  8
H1
 62
   250
420
  2301728
370
    15
  0
POLYLINE
  5
80
330
41
100
AcDbEntity
  8
H1
 62
   250
420
  2301728
370
    15
100
AcDb2dPolyline
 66
     1
 10
0.0
 20
0.0
 30
0.0
  0
VERTEX
  5
81
330
80
100
AcDbEntity
  8
H1
 62
   250
420
  2301728
370
    15
100
AcDbVertex
100
AcDb2dVertex
 10
12.80724064708137
 20
11.23825495882891
 30
0.0
  0
VERTEX
  5
82
330
80
100
AcDbEntity
  8
H1
 62
   250
420
  2301728
370
    15
100
AcDbVertex
100
AcDb2dVertex
 10
10.34438294308911
 20
10.34677339724706
 30
0.0
  0
SEQEND
  5
83
330
80
100
AcDbEntity
  8
H1
 62
   250
420
  2301728
370
    15
  0
POLYLINE
  5
84
330
41
100
AcDbEntity
  8
H1
 62
   250
420
  2301728
370
    15
100
AcDb2dPolyline
 66
     1
 10
0.0
 20
0.0
 30
0.0
  0
VERTEX
  5
85
330
84
100
AcDbEntity
  8
H1
 62
   250
420
  2301728
370
    15
100
AcDbVertex
100
AcDb2dVertex
 10
10.34438294308911
 20
10.34677339724706
 30
0.0
  0
VERTEX
  5
86
330
84
100
AcDbEntity
  8
H1
 62
   250
420
  2301728
370
    15
100
AcDbVertex
100
AcDb2dVertex
 10
10.34438294308911
 20
10.1092279310961
 30
0.0
  0
SEQEND
  5
87
330
84
100
AcDbEntity
  8
H1
 62
   250
420
  2301728
370
    15
  0
POLYLINE
  5
88
330
41
100
AcDbEntity
  8
H1
 62
   250
420
  2301728
370
    15
100
AcDb2dPolyline
 66
     1
 10
0.0
 20
0.0
 30
0.0
  0
VERTEX
  5
89
330
88
100
AcDbEntity
  8
H1
 62
   250
420
  2301728
370
    15
100
AcDbVertex
100
AcDb2dVertex
 10
10.34438294308911
 20
10.10838818260058
 30
0.0
  0
VERTEX
  5
8A
330
88
100
AcDbEntity
  8
H1
 62
   250
420
  2301728
370
    15
100
AcDbVertex
100
AcDb2dVertex
 10
10.17827102218464
 20
10.22325941771498
 30
0.0
  0
VERTEX
  5
8B
330
88
100
AcDbEntity
  8
H1
 62
   250
420
  2301728
370
    15
100
AcDbVertex
100
AcDb2dVertex
 10
10.17827102218464
 20
10.25821322651051
 30
0.0
  0
VERTEX
  5
8C
330
88
100
AcDbEntity
  8
H1
 62
   250
420
  2301728
370
    15
100
AcDbVertex
100
AcDb2dVertex
 10
10.05248385332735
 20
10.25618402456237
 30
0.0
  0
VERTEX
  5
8D
330
88
100
AcDbEntity
  8
H1
 62
   250
420
  2301728
370
    15
100
AcDbVertex
100
AcDb2dVertex
 10
10.05246774854997
 20
10.31043377235918
 30
0.0
  0
VERTEX
  5
8E
330
88
100
AcDbEntity
  8
H1
 62
   250
420
  2301728
370
    15
100
AcDbVertex
100
AcDb2dVertex
 10
9.981985995645825
 20
10.35899611802911
 30
0.0
  0
SEQEND
  5
8F
330
88
100
AcDbEntity
  8
H1
 62
   250
420
  2301728
370
    15
  0
POLYLINE
  5
90
330
41
100
AcDbEntity
  8
H1
 62
   250
420
  2301728
370
    15
100
AcDb2dPolyline
 66
     1
 10
0.0
 20
0.0
 30
0.0
  0
VERTEX
  5
91
330
90
100
AcDbEntity
  8
H1
 62
   250
420
  2301728
370
    15
100
AcDbVertex
100
AcDb2dVertex
 10
10.17840469183681
 20
10.0443603035818
 30
0.0
  0
VERTEX
  5
92
330
90
100
AcDbEntity
  8
H1
 62
   250
420
  2301728
370
    15
100
AcDbVertex
100
AcDb2dVertex
 10
10.17840469183681
 20
9.816761147932198
 30
0.0
  0
SEQEND
  5
93
330
90
100
AcDbEntity
  8
H1
 62
   250
420
  2301728
370
    15
  0
POLYLINE
  5
94
330
41
100
AcDbEntity
  8
H1
 62
   250
420
  2301728
370
    15
100
AcDb2dPolyline
 66
     1
 10
0.0
 20
0.0
 30
0.0
  0
VERTEX
  5
95
330
94
100
AcDbEntity
  8
H1
 62
   250
420
  2301728
370
    15
100
AcDbVertex
100
AcDb2dVertex
 10
10.05047075615658
 20
10.17767323490231
 30
0.0
  0
VERTEX
  5
96
330
94
100
AcDbEntity
  8
H1
 62
   250
420
  2301728
370
    15
100
AcDbVertex
100
AcDb2dVertex
 10
10.02386807966428
 20
10.15018318517713
 30
0.0
  0
VERTEX
  5
97
330
94
100
AcDbEntity
  8
H1
 62
   250
420
  2301728
370
    15
100
AcDbVertex
100
AcDb2dVertex
 10
10.02386807966428
 20
9.927128908765388
 30
0.0
  0
SEQEND
  5
98
330
94
100
AcDbEntity
  8
H1
 62
   250
420
  2301728
370
    15
  0
POLYLINE
  5
99
330
41
100
AcDbEntity
  8
H1
 62
   250
420
  2301728
370
    15
100
AcDb2dPolyline
 66
     1
 10
0.0
 20
0.0
 30
0.0
  0
VERTEX
  5
9A
330
99
100
AcDbEntity
  8
H1
 62
   250
420
  2301728
370
    15
100
AcDbVertex
100
AcDb2dVertex
 10
9.897475371178011
 20
10.17163394339001
 30
0.0
  0
VERTEX
  5
9B
330
99
100
AcDbEntity
  8
H1
 62
   250
420
  2301728
370
    15
100
AcDbVertex
100
AcDb2dVertex
 10
9.897475371178011
 20
9.960258740459102
 30
0.0
  0
SEQEND
  5
9C
330
99
100
AcDbEntity
  8
H1
 62
   250
420
  2301728
370
    15
  0
POLYLINE
  5
9D
330
41
100
AcDbEntity
  8
H1
 62
   250
420
  2301728
370
    15
100
AcDb2dPolyline
 66
     1
 10
0.0
 20
0.0
 30
0.0
  0
VERTEX
  5
9E
330
9D
100
AcDbEntity
  8
H1
 62
   250
420
  2301728
370
    15
100
AcDbVertex
100
AcDb2dVertex
 10
11.17310821346935
 20
10.66300519513137
 30
0.0
  0
VERTEX
  5
508
330
9D
100
AcDbEntity
  8
0
100
AcDbVertex
100
AcDb2dVertex
 10
11.17310821346935
 20
10.66300519513137
 30
0.0
  0
SEQEND
  5
9F
330
9D
100
AcDbEntity
  8
H1
 62
   250
420
  2301728
370
    15
  0
POLYLINE
  5
A0
330
41
100
AcDbEntity
  8
H1
 62
   250
420
  2301728
370
    15
100
AcDb2dPolyline
 66
     1
 10
0.0
 20
0.0
 30
0.0
  0
VERTEX
  5
A1
330
A0
100
AcDbEntity
  8
H1
 62
   250
420
  2301728
370
    15
100
AcDbVertex
100
AcDb2dVertex
 10
11.03259644666615
 20
10.7363101155078
 30
0.0
  0
VERTEX
  5
509
330
A0
100
AcDbEntity
  8
0
100
AcDbVertex
100
AcDb2dVertex
 10
11.03259644666615
 20
10.7363101155078
 30
0.0
  0
SEQEND
  5
A2
330
A0
100
AcDbEntity
  8
H1
 62
   250
420
  2301728
370
    15
  0
POLYLINE
  5
A3
330
41
100
AcDbEntity
  8
H1
 62
   250
420
  2301728
370
    15
100
AcDb2dPolyline
 66
     1
 10
0.0
 20
0.0
 30
0.0
  0
VERTEX
  5
A4
330
A3
100
AcDbEntity
  8
H1
 62
   250
420
  2301728
370
    15
100
AcDbVertex
100
AcDb2dVertex
 10
10.17827102218464
 20
10.44840420529398
 30
0.0
  0
VERTEX
  5
A5
330
A3
100
AcDbEntity
  8
H1
 62
   250
420
  2301728
370
    15
100
AcDbVertex
100
AcDb2dVertex
 10
10.17827102218464
 20
10.25821322651051
 30
0.0
  0
SEQEND
  5
A6
330
A3
100
AcDbEntity
  8
H1
 62
   250
420
  2301728
370
    15
  0
POLYLINE
  5
A7
330
41
100
AcDbEntity
  8
H1
 62
   250
420
  2301728
370
    15
100
AcDb2dPolyline
 66
     1
 10
0.0
 20
0.0
 30
0.0
  0
VERTEX
  5
A8
330
A7
100
AcDbEntity
  8
H1
 62
   250
420
  2301728
370
    15
100
AcDbVertex
100
AcDb2dVertex
 10
10.05246774854997
 20
10.46265612802418
 30
0.0
  0
VERTEX
  5
A9
330
A7
100
AcDbEntity
  8
H1
 62
   250
420
  2301728
370
    15
100
AcDbVertex
100
AcDb2dVertex
 10
10.05246774854997
 20
10.25618402456237
 30
0.0
  0
SEQEND
  5
AA
330
A7
100
AcDbEntity
  8
H1
 62
   250
420
  2301728
370
    15
  0
POLYLINE
  5
AB
330
41
100
AcDbEntity
  8
H1
 62
   250
420
  2301728
370
     9
100
AcDb2dPolyline
 66
     1
 10
0.0
 20
0.0
 30
0.0
  0
VERTEX
  5
AC
330
AB
100
AcDbEntity
  8
H1
 62
   250
420
  2301728
370
     9
100
AcDbVertex
100
AcDb2dVertex
 10
10.34438294308911
 20
10.30266816926525
 30
0.0
  0
VERTEX
  5
AD
330
AB
100
AcDbEntity
  8
H1
 62
   250
420
  2301728
370
     9
100
AcDbVertex
100
AcDb2dVertex
 10
10.31675680799519
 20
10.33940707207978
 30
0.0
  0
VERTEX
  5
AE
330
AB
100
AcDbEntity
  8
H1
 62
   250
420
  2301728
370
     9
100
AcDbVertex
100
AcDb2dVertex
 10
10.30597949098175
 20
10.37026946218542
 30
0.0
  0
SEQEND
  5
AF
330
AB
100
AcDbEntity
  8
H1
 62
   250
420
  2301728
370
     9
  0
SPLINE
  5
B0
330
41
100
AcDbEntity
  8
H1
 62
   250
420
  2301728
370
     9
100
AcDbSpline
210
0.0
220
0.0
230
1.0
 70
     8
 71
     3
 72
    14
 73
    10
 74
     0
 42
0.0000000001
 43
0.0000000001
 12
1.0
 22
0.0
 32
0.0
 13
1.0
 23
0.0
 33
0.0
 40
0.0
 40
0.0
 40
0.0
 40
0.0
 40
1.0
 40
1.0
 40
1.0
 40
2.0
 40
2.0
 40
2.0
 40
3.0
 40
3.0
 40
3.0
 40
3.0
 10
10.26873880380023
 20
10.39305450120308
 30
0.0
 10
10.26873880380023
 20
10.39305450120308
 30
0.0
 10
10.27649486457977
 20
10.3645707867144
 30
0.0
 10
10.28152760750671
 20
10.35047910651901
 30
0.0
 10
10.28656035043362
 20
10.33638742632361
 30
0.0
 10
10.29813565916556
 20
10.31877294703827
 30
0.0
 10
10.30165857921439
 20
10.31072055815175
 30
0.0
 10
10.30518149926325
 20
10.30266816926525
 30
0.0
 10
10.34438294308911
 20
10.25083079656587
 30
0.0
 10
10.34438294308911
 20
10.25083079656587
 30
0.0
  0
POLYLINE
  5
B1
330
41
100
AcDbEntity
  8
H1
 62
   250
420
  2301728
370
     9
100
AcDb2dPolyline
 66
     1
 10
0.0
 20
0.0
 30
0.0
  0
VERTEX
  5
B2
330
B1
100
AcDbEntity
  8
H1
 62
   250
420
  2301728
370
     9
100
AcDbVertex
100
AcDb2dVertex
 10
10.34438294308911
 20
10.20251646446737
 30
0.0
  0
VERTEX
  5
B3
330
B1
100
AcDbEntity
  8
H1
 62
   250
420
  2301728
370
     9
100
AcDbVertex
100
AcDb2dVertex
 10
10.30656087344467
 20
10.23724250956241
 30
0.0
  0
VERTEX
  5
B4
330
B1
100
AcDbEntity
  8
H1
 62
   250
420
  2301728
370
     9
100
AcDbVertex
100
AcDb2dVertex
 10
10.27800468745785
 20
10.27599451120049
 30
0.0
  0
VERTEX
  5
B5
330
B1
100
AcDbEntity
  8
H1
 62
   250
420
  2301728
370
     9
100
AcDbVertex
100
AcDb2dVertex
 10
10.25485406999398
 20
10.32194224626504
 30
0.0
  0
VERTEX
  5
B6
330
B1
100
AcDbEntity
  8
H1
 62
   250
420
  2301728
370
     9
100
AcDbVertex
100
AcDb2dVertex
 10
10.21505272321123
 20
10.42590019464137
 30
0.0
  0
SEQEND
  5
B7
330
B1
100
AcDbEntity
  8
H1
 62
   250
420
  2301728
370
     9
  0
SPLINE
  5
B8
330
41
100
AcDbEntity
  8
H1
 62
   250
420
  2301728
370
     9
100
AcDbSpline
210
0.0
220
0.0
230
1.0
 70
     8
 71
     3
 72
    23
 73
    19
 74
     0
 42
0.0000000001
 43
0.0000000001
 12
1.0
 22
0.0
 32
0.0
 13
1.0
 23
0.0
 33
0.0
 40
0.0
 40
0.0
 40
0.0
 40
0.0
 40
1.0
 40
1.0
 40
1.0
 40
2.0
 40
2.0
 40
2.0
 40
3.0
 40
3.0
 40
3.0
 40
4.0
 40
4.0
 40
4.0
 40
5.0
 40
5.0
 40
5.0
 40
6.0
 40
6.0
 40
6.0
 40
6.0
 10
10.17906820866427
 20
10.40965127951778
 30
0.0
 10
10.17906820866427
 20
10.40965127951778
 30
0.0
 10
10.20804956077356
 20
10.34677339724706
 30
0.0
 10
10.20804956077356
 20
10.34677339724706
 30
0.0
 10
10.20804956077356
 20
10.34677339724706
 30
0.0
 10
10.23572964687166
 20
10.29310583715205
 30
0.0
 10
10.23572964687166
 20
10.29310583715205
 30
0.0
 10
10.23572964687166
 20
10.29310583715205
 30
0.0
 10
10.25938353862822
 20
10.24680460222431
 30
0.0
 10
10.25938353862822
 20
10.24680460222431
 30
0.0
 10
10.25938353862822
 20
10.24680460222431
 30
0.0
 10
10.25988681292092
 20
10.24177185929739
 30
0.0
 10
10.27095884736016
 20
10.22466053334584
 30
0.0
 10
10.28203088179938
 20
10.2075492073943
 30
0.0
 10
10.30597949098175
 20
10.17332655549118
 30
0.0
 10
10.30597949098175
 20
10.17332655549118
 30
0.0
 10
10.30597949098175
 20
10.17332655549118
 30
0.0
 10
10.34438294308911
 20
10.14413664651502
 30
0.0
 10
10.34438294308911
 20
10.14413664651502
 30
0.0
  0
POLYLINE
  5
B9
330
41
100
AcDbEntity
  8
H1
 62
   250
420
  2301728
370
     9
100
AcDb2dPolyline
 66
     1
 10
0.0
 20
0.0
 30
0.0
  0
VERTEX
  5
BA
330
B9
100
AcDbEntity
  8
H1
 62
   250
420
  2301728
370
     9
100
AcDbVertex
100
AcDb2dVertex
 10
10.30961917066649
 20
10.13242847336982
 30
0.0
  0
VERTEX
  5
BB
330
B9
100
AcDbEntity
  8
H1
 62
   250
420
  2301728
370
     9
100
AcDbVertex
100
AcDb2dVertex
 10
10.25384752140859
 20
10.18842478427196
 30
0.0
  0
VERTEX
  5
BC
330
B9
100
AcDbEntity
  8
H1
 62
   250
420
  2301728
370
     9
100
AcDbVertex
100
AcDb2dVertex
 10
10.23421982399357
 20
10.23774566495585
 30
0.0
  0
VERTEX
  5
BD
330
B9
100
AcDbEntity
  8
H1
 62
   250
420
  2301728
370
     9
100
AcDbVertex
100
AcDb2dVertex
 10
10.21811504662742
 20
10.27045861371927
 30
0.0
  0
VERTEX
  5
BE
330
B9
100
AcDbEntity
  8
H1
 62
   250
420
  2301728
370
     9
100
AcDbVertex
100
AcDb2dVertex
 10
10.17840469183681
 20
10.34343326642132
 30
0.0
  0
SEQEND
  5
BF
330
B9
100
AcDbEntity
  8
H1
 62
   250
420
  2301728
370
     9
  0
POLYLINE
  5
C0
330
41
100
AcDbEntity
  8
H1
 62
   250
420
  2301728
370
     9
100
AcDb2dPolyline
 66
     1
 10
0.0
 20
0.0
 30
0.0
  0
VERTEX
  5
C1
330
C0
100
AcDbEntity
  8
H1
 62
   250
420
  2301728
370
     9
100
AcDbVertex
100
AcDb2dVertex
 10
10.23304256476811
 20
10.18538339706636
 30
0.0
  0
VERTEX
  5
C2
330
C0
100
AcDbEntity
  8
H1
 62
   250
420
  2301728
370
     9
100
AcDbVertex
100
AcDb2dVertex
 10
10.21157248082242
 20
10.21459504749199
 30
0.0
  0
VERTEX
  5
C3
330
C0
100
AcDbEntity
  8
H1
 62
   250
420
  2301728
370
     9
100
AcDbVertex
100
AcDb2dVertex
 10
10.19748080062701
 20
10.23793086989556
 30
0.0
  0
VERTEX
  5
C4
330
C0
100
AcDbEntity
  8
H1
 62
   250
420
  2301728
370
     9
100
AcDbVertex
100
AcDb2dVertex
 10
10.1795634305683
 20
10.29483710071891
 30
0.0
  0
SEQEND
  5
C5
330
C0
100
AcDbEntity
  8
H1
 62
   250
420
  2301728
370
     9
  0
POLYLINE
  5
C6
330
41
100
AcDbEntity
  8
H1
 62
   250
420
  2301728
370
     9
100
AcDb2dPolyline
 66
     1
 10
0.0
 20
0.0
 30
0.0
  0
VERTEX
  5
C7
330
C6
100
AcDbEntity
  8
H1
 62
   250
420
  2301728
370
     9
100
AcDbVertex
100
AcDb2dVertex
 10
10.04269214868873
 20
10.53019070667032
 30
0.0
  0
VERTEX
  5
C8
330
C6
100
AcDbEntity
  8
H1
 62
   250
420
  2301728
370
     9
100
AcDbVertex
100
AcDb2dVertex
 10
10.05047075615658
 20
10.5059997205886
 30
0.0
  0
VERTEX
  5
C9
330
C6
100
AcDbEntity
  8
H1
 62
   250
420
  2301728
370
     9
100
AcDbVertex
100
AcDb2dVertex
 10
10.06210001589269
 20
10.48938281130219
 30
0.0
  0
VERTEX
  5
CA
330
C6
100
AcDbEntity
  8
H1
 62
   250
420
  2301728
370
     9
100
AcDbVertex
100
AcDb2dVertex
 10
10.07315836127117
 20
10.48180792926802
 30
0.0
  0
SEQEND
  5
CB
330
C6
100
AcDbEntity
  8
H1
 62
   250
420
  2301728
370
     9
  0
POLYLINE
  5
CC
330
41
100
AcDbEntity
  8
H1
 62
   250
420
  2301728
370
     9
100
AcDb2dPolyline
 66
     1
 10
0.0
 20
0.0
 30
0.0
  0
VERTEX
  5
CD
330
CC
100
AcDbEntity
  8
H1
 62
   250
420
  2301728
370
     9
100
AcDbVertex
100
AcDb2dVertex
 10
10.010671147693
 20
10.55094573850096
 30
0.0
  0
VERTEX
  5
CE
330
CC
100
AcDbEntity
  8
H1
 62
   250
420
  2301728
370
     9
100
AcDbVertex
100
AcDb2dVertex
 10
10.03716982052985
 20
10.47680107893589
 30
0.0
  0
VERTEX
  5
CF
330
CC
100
AcDbEntity
  8
H1
 62
   250
420
  2301728
370
     9
100
AcDbVertex
100
AcDb2dVertex
 10
10.05047075615658
 20
10.45163736366557
 30
0.0
  0
SEQEND
  5
D0
330
CC
100
AcDbEntity
  8
H1
 62
   250
420
  2301728
370
     9
  0
SPLINE
  5
D1
330
41
100
AcDbEntity
  8
H1
 62
   250
420
  2301728
370
     9
100
AcDbSpline
210
0.0
220
0.0
230
1.0
 70
     8
 71
     3
 72
    17
 73
    13
 74
     0
 42
0.0000000001
 43
0.0000000001
 12
1.0
 22
0.0
 32
0.0
 13
1.0
 23
0.0
 33
0.0
 40
0.0
 40
0.0
 40
0.0
 40
0.0
 40
1.0
 40
1.0
 40
1.0
 40
2.0
 40
2.0
 40
2.0
 40
3.0
 40
3.0
 40
3.0
 40
4.0
 40
4.0
 40
4.0
 40
4.0
 10
10.05246774854997
 20
10.41439506506549
 30
0.0
 10
10.05246774854997
 20
10.41439506506549
 30
0.0
 10
10.04283145501293
 20
10.42999644476446
 30
0.0
 10
10.03359294947684
 20
10.43754568311418
 30
0.0
 10
10.02435444394074
 20
10.44509467354524
 30
0.0
 10
10.01730860384302
 20
10.45214051364293
 30
0.0
 10
10.00975948945264
 20
10.46673559282775
 30
0.0
 10
10.00221037506225
 20
10.48133042261913
 30
0.0
 10
9.99350654813472
 20
10.49592550254133
 30
0.0
 10
9.99350654813472
 20
10.49592550254133
 30
0.0
 10
9.99350654813472
 20
10.49592550254133
 30
0.0
 10
9.981985995645825
 20
10.53417434975223
 30
0.0
 10
9.981985995645825
 20
10.53417434975223
 30
0.0
  0
SPLINE
  5
D2
330
41
100
AcDbEntity
  8
H1
 62
   250
420
  2301728
370
     9
100
AcDbSpline
210
0.0
220
0.0
230
1.0
 70
     8
 71
     3
 72
    17
 73
    13
 74
     0
 42
0.0000000001
 43
0.0000000001
 12
1.0
 22
0.0
 32
0.0
 13
1.0
 23
0.0
 33
0.0
 40
0.0
 40
0.0
 40
0.0
 40
0.0
 40
1.0
 40
1.0
 40
1.0
 40
2.0
 40
2.0
 40
2.0
 40
3.0
 40
3.0
 40
3.0
 40
4.0
 40
4.0
 40
4.0
 40
4.0
 10
10.05246774854997
 20
10.36608073174649
 30
0.0
 10
10.05246774854997
 20
10.36608073174649
 30
0.0
 10
10.03716982052985
 20
10.38772140417828
 30
0.0
 10
10.03716982052985
 20
10.38772140417828
 30
0.0
 10
10.03716982052985
 20
10.38772140417828
 30
0.0
 10
10.02469425474315
 20
10.40382618154443
 30
0.0
 10
10.01722727471734
 20
10.41439506506549
 30
0.0
 10
10.00975948945264
 20
10.42496370183753
 30
0.0
 10
10.00070055218417
 20
10.43653913450338
 30
0.0
 10
10.00070055218417
 20
10.43653913450338
 30
0.0
 10
10.00070055218417
 20
10.43653913450338
 30
0.0
 10
9.981985995645825
 20
10.47931732544834
 30
0.0
 10
9.981985995645825
 20
10.47931732544834
 30
0.0
  0
POLYLINE
  5
D3
330
41
100
AcDbEntity
  8
H1
 62
   250
420
  2301728
370
     9
100
AcDb2dPolyline
 66
     1
 10
0.0
 20
0.0
 30
0.0
  0
VERTEX
  5
D4
330
D3
100
AcDbEntity
  8
H1
 62
   250
420
  2301728
370
     9
100
AcDbVertex
100
AcDb2dVertex
 10
10.05047075615658
 20
10.32194224626504
 30
0.0
  0
VERTEX
  5
D5
330
D3
100
AcDbEntity
  8
H1
 62
   250
420
  2301728
370
     9
100
AcDbVertex
100
AcDb2dVertex
 10
10.03359294947684
 20
10.33646875544932
 30
0.0
  0
VERTEX
  5
D6
330
D3
100
AcDbEntity
  8
H1
 62
   250
420
  2301728
370
     9
100
AcDbVertex
100
AcDb2dVertex
 10
10.01076603803803
 20
10.36608073174649
 30
0.0
  0
VERTEX
  5
D7
330
D3
100
AcDbEntity
  8
H1
 62
   250
420
  2301728
370
     9
100
AcDbVertex
100
AcDb2dVertex
 10
9.97905975759838
 20
10.42269937013985
 30
0.0
  0
SEQEND
  5
D8
330
D3
100
AcDbEntity
  8
H1
 62
   250
420
  2301728
370
     9
  0
POLYLINE
  5
D9
330
41
100
AcDbEntity
  8
H1
 62
   250
420
  2301728
370
     9
100
AcDb2dPolyline
 66
     1
 10
0.0
 20
0.0
 30
0.0
  0
VERTEX
  5
DA
330
D9
100
AcDbEntity
  8
H1
 62
   250
420
  2301728
370
     9
100
AcDbVertex
100
AcDb2dVertex
 10
10.00192451526401
 20
10.34525874293577
 30
0.0
  0
VERTEX
  5
DB
330
D9
100
AcDbEntity
  8
H1
 62
   250
420
  2301728
370
     9
100
AcDbVertex
100
AcDb2dVertex
 10
9.99350654813472
 20
10.35651839803132
 30
0.0
  0
VERTEX
  5
DC
330
D9
100
AcDbEntity
  8
H1
 62
   250
420
  2301728
370
     9
100
AcDbVertex
100
AcDb2dVertex
 10
9.981985995645825
 20
10.38067556408057
 30
0.0
  0
SEQEND
  5
DD
330
D9
100
AcDbEntity
  8
H1
 62
   250
420
  2301728
370
     9
  0
POLYLINE
  5
DE
330
41
100
AcDbEntity
  8
H1
 62
   250
420
  2301728
370
     9
100
AcDb2dPolyline
 66
     1
 10
0.0
 20
0.0
 30
0.0
  0
VERTEX
  5
DF
330
DE
100
AcDbEntity
  8
H1
 62
   250
420
  2301728
370
     9
100
AcDbVertex
100
AcDb2dVertex
 10
10.10387754905426
 20
10.25701342059674
 30
0.0
  0
VERTEX
  5
E0
330
DE
100
AcDbEntity
  8
H1
 62
   250
420
  2301728
370
     9
100
AcDbVertex
100
AcDb2dVertex
 10
10.08122443901501
 20
10.27045861371927
 30
0.0
  0
VERTEX
  5
E1
330
DE
100
AcDbEntity
  8
H1
 62
   250
420
  2301728
370
     9
100
AcDbVertex
100
AcDb2dVertex
 10
10.05247016426658
 20
10.30266816926525
 30
0.0
  0
SEQEND
  5
E2
330
DE
100
AcDbEntity
  8
H1
 62
   250
420
  2301728
370
     9
  0
SPLINE
  5
E3
330
41
100
AcDbEntity
  8
H1
 62
   250
420
  2301728
370
     9
100
AcDbSpline
210
0.0
220
0.0
230
1.0
 70
     8
 71
     3
 72
    14
 73
    10
 74
     0
 42
0.0000000001
 43
0.0000000001
 12
1.0
 22
0.0
 32
0.0
 13
1.0
 23
0.0
 33
0.0
 40
0.0
 40
0.0
 40
0.0
 40
0.0
 40
1.0
 40
1.0
 40
1.0
 40
2.0
 40
2.0
 40
2.0
 40
3.0
 40
3.0
 40
3.0
 40
3.0
 10
10.14010753126005
 20
10.25821322651051
 30
0.0
 10
10.14010753126005
 20
10.25821322651051
 30
0.0
 10
10.11242744516196
 20
10.27412474654828
 30
0.0
 10
10.10638815364963
 20
10.27984033203553
 30
0.0
 10
10.10034886213733
 20
10.28555684288143
 30
0.0
 10
10.09783249067386
 20
10.28750942701732
 30
0.0
 10
10.09128992486886
 20
10.29483710071891
 30
0.0
 10
10.08474735906386
 20
10.30216477442051
 30
0.0
 10
10.05247016426658
 20
10.35330871590226
 30
0.0
 10
10.05247016426658
 20
10.35330871590226
 30
0.0
  0
SPLINE
  5
E4
330
41
100
AcDbEntity
  8
H1
 62
   250
420
  2301728
370
     9
100
AcDbSpline
210
0.0
220
0.0
230
1.0
 70
     8
 71
     3
 72
    17
 73
    13
 74
     0
 42
0.0000000001
 43
0.0000000001
 12
1.0
 22
0.0
 32
0.0
 13
1.0
 23
0.0
 33
0.0
 40
0.0
 40
0.0
 40
0.0
 40
0.0
 40
1.0
 40
1.0
 40
1.0
 40
2.0
 40
2.0
 40
2.0
 40
3.0
 40
3.0
 40
3.0
 40
4.0
 40
4.0
 40
4.0
 40
4.0
 10
10.17827102218464
 20
10.266432419276
 30
0.0
 10
10.17827102218464
 20
10.266432419276
 30
0.0
 10
10.14262390272352
 20
10.29758860193192
 30
0.0
 10
10.14262390272352
 20
10.29758860193192
 30
0.0
 10
10.14262390272352
 20
10.29758860193192
 30
0.0
 10
10.12198965672312
 20
10.31927610037207
 30
0.0
 10
10.11343399374735
 20
10.3303481348113
 30
0.0
 10
10.10487833077157
 20
10.34142016925054
 30
0.0
 10
10.08625718194195
 20
10.35899611802911
 30
0.0
 10
10.08625718194195
 20
10.35899611802911
 30
0.0
 10
10.08625718194195
 20
10.35899611802911
 30
0.0
 10
10.05047075615658
 20
10.40432957895736
 30
0.0
 10
10.05047075615658
 20
10.40432957895736
 30
0.0
  0
POLYLINE
  5
E5
330
41
100
AcDbEntity
  8
H1
 62
   250
420
  2301728
370
     9
100
AcDb2dPolyline
 66
     1
 10
0.0
 20
0.0
 30
0.0
  0
VERTEX
  5
E6
330
E5
100
AcDbEntity
  8
H1
 62
   250
420
  2301728
370
     9
100
AcDbVertex
100
AcDb2dVertex
 10
10.17827102218464
 20
10.32194224626504
 30
0.0
  0
VERTEX
  5
E7
330
E5
100
AcDbEntity
  8
H1
 62
   250
420
  2301728
370
     9
100
AcDbVertex
100
AcDb2dVertex
 10
10.1441337256016
 20
10.35330871590226
 30
0.0
  0
VERTEX
  5
E8
330
E5
100
AcDbEntity
  8
H1
 62
   250
420
  2301728
370
     9
100
AcDbVertex
100
AcDb2dVertex
 10
10.09628884776331
 20
10.39305450120308
 30
0.0
  0
VERTEX
  5
E9
330
E5
100
AcDbEntity
  8
H1
 62
   250
420
  2301728
370
     9
100
AcDbVertex
100
AcDb2dVertex
 10
10.0579248523605
 20
10.46265612802418
 30
0.0
  0
SEQEND
  5
EA
330
E5
100
AcDbEntity
  8
H1
 62
   250
420
  2301728
370
     9
  0
SPLINE
  5
EB
330
41
100
AcDbEntity
  8
H1
 62
   250
420
  2301728
370
     9
100
AcDbSpline
210
0.0
220
0.0
230
1.0
 70
     8
 71
     3
 72
    14
 73
    10
 74
     0
 42
0.0000000001
 43
0.0000000001
 12
1.0
 22
0.0
 32
0.0
 13
1.0
 23
0.0
 33
0.0
 40
0.0
 40
0.0
 40
0.0
 40
0.0
 40
1.0
 40
1.0
 40
1.0
 40
2.0
 40
2.0
 40
2.0
 40
3.0
 40
3.0
 40
3.0
 40
3.0
 10
10.17906820866427
 20
10.37026946218542
 30
0.0
 10
10.17906820866427
 20
10.37026946218542
 30
0.0
 10
10.16275487443123
 20
10.38117896090867
 30
0.0
 10
10.15772213150429
 20
10.38872795276365
 30
0.0
 10
10.15268938857738
 20
10.39627719007085
 30
0.0
 10
10.14765664565044
 20
10.39937079488609
 30
0.0
 10
10.14010753126005
 20
10.40965127951778
 30
0.0
 10
10.13255841686967
 20
10.4199309589106
 30
0.0
 10
10.1078246997907
 20
10.46713969804292
 30
0.0
 10
10.1078246997907
 20
10.46713969804292
 30
0.0
  0
POLYLINE
  5
EC
330
41
100
AcDbEntity
  8
H1
 62
   250
420
  2301728
370
     9
100
AcDb2dPolyline
 66
     1
 10
0.0
 20
0.0
 30
0.0
  0
VERTEX
  5
ED
330
EC
100
AcDbEntity
  8
H1
 62
   250
420
  2301728
370
     9
100
AcDbVertex
100
AcDb2dVertex
 10
10.17906820866427
 20
10.42590019464137
 30
0.0
  0
VERTEX
  5
EE
330
EC
100
AcDbEntity
  8
H1
 62
   250
420
  2301728
370
     9
100
AcDbVertex
100
AcDb2dVertex
 10
10.16157439425029
 20
10.4475450154215
 30
0.0
  0
VERTEX
  5
EF
330
EC
100
AcDbEntity
  8
H1
 62
   250
420
  2301728
370
     9
100
AcDbVertex
100
AcDb2dVertex
 10
10.15268938857738
 20
10.46978329724757
 30
0.0
  0
SEQEND
  5
F0
330
EC
100
AcDbEntity
  8
H1
 62
   250
420
  2301728
370
     9
  0
POLYLINE
  5
F1
330
41
100
AcDbEntity
  8
H1
 62
   250
420
  2301728
370
     9
100
AcDb2dPolyline
 66
     1
 10
0.0
 20
0.0
 30
0.0
  0
VERTEX
  5
F2
330
F1
100
AcDbEntity
  8
H1
 62
   250
420
  2301728
370
     9
100
AcDbVertex
100
AcDb2dVertex
 10
10.17665410253709
 20
10.00425699222344
 30
0.0
  0
VERTEX
  5
F3
330
F1
100
AcDbEntity
  8
H1
 62
   250
420
  2301728
370
     9
100
AcDbVertex
100
AcDb2dVertex
 10
10.14955539890191
 20
10.0426757438693
 30
0.0
  0
VERTEX
  5
F4
330
F1
100
AcDbEntity
  8
H1
 62
   250
420
  2301728
370
     9
100
AcDbVertex
100
AcDb2dVertex
 10
10.13450548445323
 20
10.07442148101349
 30
0.0
  0
SEQEND
  5
F5
330
F1
100
AcDbEntity
  8
H1
 62
   250
420
  2301728
370
     9
  0
SPLINE
  5
F6
330
41
100
AcDbEntity
  8
H1
 62
   250
420
  2301728
370
     9
100
AcDbSpline
210
0.0
220
0.0
230
1.0
 70
     8
 71
     3
 72
    14
 73
    10
 74
     0
 42
0.0000000001
 43
0.0000000001
 12
1.0
 22
0.0
 32
0.0
 13
1.0
 23
0.0
 33
0.0
 40
0.0
 40
0.0
 40
0.0
 40
0.0
 40
1.0
 40
1.0
 40
1.0
 40
2.0
 40
2.0
 40
2.0
 40
3.0
 40
3.0
 40
3.0
 40
3.0
 10
10.09297851077571
 20
10.10285768640892
 30
0.0
 10
10.09297851077571
 20
10.10285768640892
 30
0.0
 10
10.10994811468643
 20
10.06989776372309
 30
0.0
 10
10.1148552403499
 20
10.05539851798857
 30
0.0
 10
10.11976236601337
 20
10.04089858168694
 30
0.0
 10
10.13110737642897
 20
10.02254971707046
 30
0.0
 10
10.13454909832295
 20
10.01423631751839
 30
0.0
 10
10.13799136351415
 20
10.00592303144198
 30
0.0
 10
10.17644567769942
 20
9.951706298438769
 30
0.0
 10
10.17644567769942
 20
9.951706298438769
 30
0.0
  0
POLYLINE
  5
F7
330
41
100
AcDbEntity
  8
H1
 62
   250
420
  2301728
370
     9
100
AcDb2dPolyline
 66
     1
 10
0.0
 20
0.0
 30
0.0
  0
VERTEX
  5
F8
330
F7
100
AcDbEntity
  8
H1
 62
   250
420
  2301728
370
     9
100
AcDbVertex
100
AcDb2dVertex
 10
10.17625067786407
 20
9.902726033796183
 30
0.0
  0
VERTEX
  5
F9
330
F7
100
AcDbEntity
  8
H1
 62
   250
420
  2301728
370
     9
100
AcDbVertex
100
AcDb2dVertex
 10
10.13908890409165
 20
9.939538333899765
 30
0.0
  0
VERTEX
  5
FA
330
F7
100
AcDbEntity
  8
H1
 62
   250
420
  2301728
370
     9
100
AcDbVertex
100
AcDb2dVertex
 10
10.11108108577413
 20
9.980037822781329
 30
0.0
  0
VERTEX
  5
FB
330
F7
100
AcDbEntity
  8
H1
 62
   250
420
  2301728
370
     9
100
AcDbVertex
100
AcDb2dVertex
 10
10.08843374260297
 20
10.02760247749342
 30
0.0
  0
VERTEX
  5
FC
330
F7
100
AcDbEntity
  8
H1
 62
   250
420
  2301728
370
     9
100
AcDbVertex
100
AcDb2dVertex
 10
10.04959787722333
 20
10.13468394743994
 30
0.0
  0
SEQEND
  5
FD
330
F7
100
AcDbEntity
  8
H1
 62
   250
420
  2301728
370
     9
  0
SPLINE
  5
FE
330
41
100
AcDbEntity
  8
H1
 62
   250
420
  2301728
370
     9
100
AcDbSpline
210
0.0
220
0.0
230
1.0
 70
     8
 71
     3
 72
    23
 73
    19
 74
     0
 42
0.0000000001
 43
0.0000000001
 12
1.0
 22
0.0
 32
0.0
 13
1.0
 23
0.0
 33
0.0
 40
0.0
 40
0.0
 40
0.0
 40
0.0
 40
1.0
 40
1.0
 40
1.0
 40
2.0
 40
2.0
 40
2.0
 40
3.0
 40
3.0
 40
3.0
 40
4.0
 40
4.0
 40
4.0
 40
5.0
 40
5.0
 40
5.0
 40
6.0
 40
6.0
 40
6.0
 40
6.0
 10
10.02286475203437
 20
10.11335397505732
 30
0.0
 10
10.02286475203437
 20
10.11335397505732
 30
0.0
 10
10.042372468858
 20
10.05476479499921
 30
0.0
 10
10.042372468858
 20
10.05476479499921
 30
0.0
 10
10.042372468858
 20
10.05476479499921
 30
0.0
 10
10.06945587295468
 20
9.999181684521822
 30
0.0
 10
10.06945587295468
 20
9.999181684521822
 30
0.0
 10
10.06945587295468
 20
9.999181684521822
 30
0.0
 10
10.09259843802985
 20
9.951237761091583
 30
0.0
 10
10.09259843802985
 20
9.951237761091583
 30
0.0
 10
10.09259843802985
 20
9.951237761091583
 30
0.0
 10
10.09307433420104
 20
9.946113914498394
 30
0.0
 10
10.10392586338758
 20
9.928296505153929
 30
0.0
 10
10.1147763269408
 20
9.910478873620264
 30
0.0
 10
10.13825789757955
 20
9.874767335049656
 30
0.0
 10
10.13825789757955
 20
9.874767335049656
 30
0.0
 10
10.13825789757955
 20
9.874767335049656
 30
0.0
 10
10.17601635335339
 20
9.843542587453259
 30
0.0
 10
10.17601635335339
 20
9.843542587453259
 30
0.0
  0
POLYLINE
  5
FF
330
41
100
AcDbEntity
  8
H1
 62
   250
420
  2301728
370
     9
100
AcDb2dPolyline
 66
     1
 10
0.0
 20
0.0
 30
0.0
  0
VERTEX
  5
100
330
FF
100
AcDbEntity
  8
H1
 62
   250
420
  2301728
370
     9
100
AcDbVertex
100
AcDb2dVertex
 10
10.1416835148764
 20
9.842986972634131
 30
0.0
  0
VERTEX
  5
101
330
FF
100
AcDbEntity
  8
H1
 62
   250
420
  2301728
370
     9
100
AcDbVertex
100
AcDb2dVertex
 10
10.08690378875318
 20
9.892289332824046
 30
0.0
  0
VERTEX
  5
102
330
FF
100
AcDbEntity
  8
H1
 62
   250
420
  2301728
370
     9
100
AcDbVertex
100
AcDb2dVertex
 10
10.06774393512066
 20
9.943123257341476
 30
0.0
  0
VERTEX
  5
103
330
FF
100
AcDbEntity
  8
H1
 62
   250
420
  2301728
370
     9
100
AcDbVertex
100
AcDb2dVertex
 10
10.05199265761768
 20
9.976971473170819
 30
0.0
  0
VERTEX
  5
104
330
FF
100
AcDbEntity
  8
H1
 62
   250
420
  2301728
370
     9
100
AcDbVertex
100
AcDb2dVertex
 10
10.0219444921341
 20
10.04625261492232
 30
0.0
  0
SEQEND
  5
105
330
FF
100
AcDbEntity
  8
H1
 62
   250
420
  2301728
370
     9
  0
POLYLINE
  5
106
330
41
100
AcDbEntity
  8
H1
 62
   250
420
  2301728
370
     9
100
AcDb2dPolyline
 66
     1
 10
0.0
 20
0.0
 30
0.0
  0
VERTEX
  5
107
330
106
100
AcDbEntity
  8
H1
 62
   250
420
  2301728
370
     9
100
AcDbVertex
100
AcDb2dVertex
 10
10.06413727022949
 20
9.898369691518635
 30
0.0
  0
VERTEX
  5
108
330
106
100
AcDbEntity
  8
H1
 62
   250
420
  2301728
370
     9
100
AcDbVertex
100
AcDb2dVertex
 10
10.0453148116828
 20
9.920616830972259
 30
0.0
  0
VERTEX
  5
109
330
106
100
AcDbEntity
  8
H1
 62
   250
420
  2301728
370
     9
100
AcDbVertex
100
AcDb2dVertex
 10
10.03151140700225
 20
9.944873041402312
 30
0.0
  0
VERTEX
  5
10A
330
106
100
AcDbEntity
  8
H1
 62
   250
420
  2301728
370
     9
100
AcDbVertex
100
AcDb2dVertex
 10
10.02289132491703
 20
9.99693817614938
 30
0.0
  0
SEQEND
  5
10B
330
106
100
AcDbEntity
  8
H1
 62
   250
420
  2301728
370
     9
  0
POLYLINE
  5
10C
330
41
100
AcDbEntity
  8
H1
 62
   250
420
  2301728
370
     9
100
AcDb2dPolyline
 66
     1
 10
0.0
 20
0.0
 30
0.0
  0
VERTEX
  5
10D
330
10C
100
AcDbEntity
  8
H1
 62
   250
420
  2301728
370
     9
100
AcDbVertex
100
AcDb2dVertex
 10
9.880026650140634
 20
10.24773626359496
 30
0.0
  0
VERTEX
  5
10E
330
10C
100
AcDbEntity
  8
H1
 62
   250
420
  2301728
370
     9
100
AcDbVertex
100
AcDb2dVertex
 10
9.887601532174813
 20
10.22288176068575
 30
0.0
  0
VERTEX
  5
10F
330
10C
100
AcDbEntity
  8
H1
 62
   250
420
  2301728
370
     9
100
AcDbVertex
100
AcDb2dVertex
 10
9.899003714550037
 20
10.20554174689559
 30
0.0
  0
VERTEX
  5
110
330
10C
100
AcDbEntity
  8
H1
 62
   250
420
  2301728
370
     9
100
AcDbVertex
100
AcDb2dVertex
 10
9.913714623435174
 20
10.19155716346967
 30
0.0
  0
SEQEND
  5
111
330
10C
100
AcDbEntity
  8
H1
 62
   250
420
  2301728
370
     9
  0
POLYLINE
  5
112
330
41
100
AcDbEntity
  8
H1
 62
   250
420
  2301728
370
     9
100
AcDb2dPolyline
 66
     1
 10
0.0
 20
0.0
 30
0.0
  0
VERTEX
  5
113
330
112
100
AcDbEntity
  8
H1
 62
   250
420
  2301728
370
     9
100
AcDbVertex
100
AcDb2dVertex
 10
9.827312492865707
 20
10.28429491345502
 30
0.0
  0
VERTEX
  5
114
330
112
100
AcDbEntity
  8
H1
 62
   250
420
  2301728
370
     9
100
AcDbVertex
100
AcDb2dVertex
 10
9.864799583140918
 20
10.19991232196725
 30
0.0
  0
VERTEX
  5
115
330
112
100
AcDbEntity
  8
H1
 62
   250
420
  2301728
370
     9
100
AcDbVertex
100
AcDb2dVertex
 10
9.896019499304101
 20
10.16300983511043
 30
0.0
  0
SEQEND
  5
116
330
112
100
AcDbEntity
  8
H1
 62
   250
420
  2301728
370
     9
  0
SPLINE
  5
117
330
41
100
AcDbEntity
  8
H1
 62
   250
420
  2301728
370
     9
100
AcDbSpline
210
0.0
220
0.0
230
1.0
 70
     8
 71
     3
 72
    17
 73
    13
 74
     0
 42
0.0000000001
 43
0.0000000001
 12
1.0
 22
0.0
 32
0.0
 13
1.0
 23
0.0
 33
0.0
 40
0.0
 40
0.0
 40
0.0
 40
0.0
 40
1.0
 40
1.0
 40
1.0
 40
2.0
 40
2.0
 40
2.0
 40
3.0
 40
3.0
 40
3.0
 40
4.0
 40
4.0
 40
4.0
 40
4.0
 10
9.89853587076757
 20
10.12274789169501
 30
0.0
 10
9.89853587076757
 20
10.12274789169501
 30
0.0
 10
9.879760921314073
 20
10.14615699083559
 30
0.0
 10
9.87068036690112
 20
10.15420293760773
 30
0.0
 10
9.861598758639401
 20
10.16224888437985
 30
0.0
 10
9.854678535805153
 20
10.16969101919354
 30
0.0
 10
9.847291274427283
 20
10.18480765127553
 30
0.0
 10
9.839904818288307
 20
10.19992440055028
 30
0.0
 10
9.83137975438952
 20
10.21509038773564
 30
0.0
 10
9.83137975438952
 20
10.21509038773564
 30
0.0
 10
9.83137975438952
 20
10.21509038773564
 30
0.0
 10
9.810275248890017
 20
10.26743896788679
 30
0.0
 10
9.810275248890017
 20
10.26743896788679
 30
0.0
  0
SPLINE
  5
118
330
41
100
AcDbEntity
  8
H1
 62
   250
420
  2301728
370
     9
100
AcDbSpline
210
0.0
220
0.0
230
1.0
 70
     8
 71
     3
 72
    17
 73
    13
 74
     0
 42
0.0000000001
 43
0.0000000001
 12
1.0
 22
0.0
 32
0.0
 13
1.0
 23
0.0
 33
0.0
 40
0.0
 40
0.0
 40
0.0
 40
0.0
 40
1.0
 40
1.0
 40
1.0
 40
2.0
 40
2.0
 40
2.0
 40
3.0
 40
3.0
 40
3.0
 40
4.0
 40
4.0
 40
4.0
 40
4.0
 10
9.896870636787904
 20
10.07443355959651
 30
0.0
 10
9.896870636787904
 20
10.07443355959651
 30
0.0
 10
9.874006684361145
 20
10.10354064449091
 30
0.0
 10
9.874006684361145
 20
10.10354064449091
 30
0.0
 10
9.874006684361145
 20
10.10354064449091
 30
0.0
 10
9.86176785880174
 20
10.12039739943841
 30
0.0
 10
9.854445821772211
 20
10.13142917193424
 30
0.0
 10
9.847123784742683
 20
10.14246094443006
 30
0.0
 10
9.838235558114294
 20
10.15458059463697
 30
0.0
 10
9.838235558114294
 20
10.15458059463697
 30
0.0
 10
9.838235558114294
 20
10.15458059463697
 30
0.0
 10
9.810054613440116
 20
10.21182663626275
 30
0.0
 10
9.810054613440116
 20
10.21182663626275
 30
0.0
  0
POLYLINE
  5
119
330
41
100
AcDbEntity
  8
H1
 62
   250
420
  2301728
370
     9
100
AcDb2dPolyline
 66
     1
 10
0.0
 20
0.0
 30
0.0
  0
VERTEX
  5
11A
330
119
100
AcDbEntity
  8
H1
 62
   250
420
  2301728
370
     9
100
AcDbVertex
100
AcDb2dVertex
 10
9.896019499304101
 20
10.03085805823801
 30
0.0
  0
VERTEX
  5
11B
330
119
100
AcDbEntity
  8
H1
 62
   250
420
  2301728
370
     9
100
AcDbVertex
100
AcDb2dVertex
 10
9.870273596967687
 20
10.0517346811378
 30
0.0
  0
VERTEX
  5
11C
330
119
100
AcDbEntity
  8
H1
 62
   250
420
  2301728
370
     9
100
AcDbVertex
100
AcDb2dVertex
 10
9.84787909880116
 20
10.08272429898462
 30
0.0
  0
VERTEX
  5
11D
330
119
100
AcDbEntity
  8
H1
 62
   250
420
  2301728
370
     9
100
AcDbVertex
100
AcDb2dVertex
 10
9.806940754736361
 20
10.15455321651545
 30
0.0
  0
SEQEND
  5
11E
330
119
100
AcDbEntity
  8
H1
 62
   250
420
  2301728
370
     9
  0
POLYLINE
  5
11F
330
41
100
AcDbEntity
  8
H1
 62
   250
420
  2301728
370
     9
100
AcDb2dPolyline
 66
     1
 10
0.0
 20
0.0
 30
0.0
  0
VERTEX
  5
120
330
11F
100
AcDbEntity
  8
H1
 62
   250
420
  2301728
370
     9
100
AcDbVertex
100
AcDb2dVertex
 10
9.839075422253952
 20
10.06199100860341
 30
0.0
  0
VERTEX
  5
121
330
11F
100
AcDbEntity
  8
H1
 62
   250
420
  2301728
370
     9
100
AcDbVertex
100
AcDb2dVertex
 10
9.830818502898309
 20
10.07376440609695
 30
0.0
  0
VERTEX
  5
122
330
11F
100
AcDbEntity
  8
H1
 62
   250
420
  2301728
370
     9
100
AcDbVertex
100
AcDb2dVertex
 10
9.809657630678025
 20
10.11182655265513
 30
0.0
  0
SEQEND
  5
123
330
11F
100
AcDbEntity
  8
H1
 62
   250
420
  2301728
370
     9
  0
POLYLINE
  5
124
330
41
100
AcDbEntity
  8
H1
 62
   250
420
  2301728
370
     9
100
AcDb2dPolyline
 66
     1
 10
0.0
 20
0.0
 30
0.0
  0
VERTEX
  5
125
330
124
100
AcDbEntity
  8
H1
 62
   250
420
  2301728
370
     9
100
AcDbVertex
100
AcDb2dVertex
 10
9.95139497103878
 20
9.960258740459102
 30
0.0
  0
VERTEX
  5
126
330
124
100
AcDbEntity
  8
H1
 62
   250
420
  2301728
370
     9
100
AcDbVertex
100
AcDb2dVertex
 10
9.916983893240513
 20
9.982790129233207
 30
0.0
  0
VERTEX
  5
127
330
124
100
AcDbEntity
  8
H1
 62
   250
420
  2301728
370
     9
100
AcDbVertex
100
AcDb2dVertex
 10
9.897475371178011
 20
10.00620083885154
 30
0.0
  0
SEQEND
  5
128
330
124
100
AcDbEntity
  8
H1
 62
   250
420
  2301728
370
     9
  0
SPLINE
  5
129
330
41
100
AcDbEntity
  8
H1
 62
   250
420
  2301728
370
     9
100
AcDbSpline
210
0.0
220
0.0
230
1.0
 70
     8
 71
     3
 72
    14
 73
    10
 74
     0
 42
0.0000000001
 43
0.0000000001
 12
1.0
 22
0.0
 32
0.0
 13
1.0
 23
0.0
 33
0.0
 40
0.0
 40
0.0
 40
0.0
 40
0.0
 40
1.0
 40
1.0
 40
1.0
 40
2.0
 40
2.0
 40
2.0
 40
3.0
 40
3.0
 40
3.0
 40
3.0
 10
9.981516541385593
 20
9.964756804777442
 30
0.0
 10
9.981516541385593
 20
9.964756804777442
 30
0.0
 10
9.947773006609141
 20
9.98518007819435
 30
0.0
 10
9.941840006627444
 20
9.991232253528551
 30
0.0
 10
9.935906201406876
 20
9.997283623623893
 30
0.0
 10
9.933432633493641
 20
9.99936999753168
 30
0.0
 10
9.927009117150948
 20
10.00707693874026
 30
0.0
 10
9.92058653193731
 20
10.01478387994884
 30
0.0
 10
9.897753983826432
 20
10.06100459098973
 30
0.0
 10
9.897753983826432
 20
10.06100459098973
 30
0.0
  0
SPLINE
  5
12A
330
41
100
AcDbEntity
  8
H1
 62
   250
420
  2301728
370
     9
100
AcDbSpline
210
0.0
220
0.0
230
1.0
 70
     8
 71
     3
 72
    17
 73
    13
 74
     0
 42
0.0000000001
 43
0.0000000001
 12
1.0
 22
0.0
 32
0.0
 13
1.0
 23
0.0
 33
0.0
 40
0.0
 40
0.0
 40
0.0
 40
0.0
 40
1.0
 40
1.0
 40
1.0
 40
2.0
 40
2.0
 40
2.0
 40
3.0
 40
3.0
 40
3.0
 40
4.0
 40
4.0
 40
4.0
 40
4.0
 10
10.02150228786917
 20
9.968196785222858
 30
0.0
 10
10.02150228786917
 20
9.968196785222858
 30
0.0
 10
9.977648300869431
 20
10.00768408884696
 30
0.0
 10
9.977648300869431
 20
10.00768408884696
 30
0.0
 10
9.977648300869431
 20
10.00768408884696
 30
0.0
 10
9.957385142980128
 20
10.03054723603484
 30
0.0
 10
9.948992138255763
 20
10.04213542858866
 30
0.0
 10
9.940598328292506
 20
10.0537236211425
 30
0.0
 10
9.922304232052511
 20
10.07233269138909
 30
0.0
 10
9.922304232052511
 20
10.07233269138909
 30
0.0
 10
9.922304232052511
 20
10.07233269138909
 30
0.0
 10
9.895987289749376
 20
10.11281285453781
 30
0.0
 10
9.895987289749376
 20
10.11281285453781
 30
0.0
  0
POLYLINE
  5
12B
330
41
100
AcDbEntity
  8
H1
 62
   250
420
  2301728
370
     9
100
AcDb2dPolyline
 66
     1
 10
0.0
 20
0.0
 30
0.0
  0
VERTEX
  5
12C
330
12B
100
AcDbEntity
  8
H1
 62
   250
420
  2301728
370
     9
100
AcDbVertex
100
AcDb2dVertex
 10
10.02172614427458
 20
10.02447170877348
 30
0.0
  0
VERTEX
  5
12D
330
12B
100
AcDbEntity
  8
H1
 62
   250
420
  2301728
370
     9
100
AcDbVertex
100
AcDb2dVertex
 10
9.979361722174012
 20
10.06410717634933
 30
0.0
  0
VERTEX
  5
12E
330
12B
100
AcDbEntity
  8
H1
 62
   250
420
  2301728
370
     9
100
AcDbVertex
100
AcDb2dVertex
 10
9.932334967025932
 20
10.10643375222308
 30
0.0
  0
VERTEX
  5
12F
330
12B
100
AcDbEntity
  8
H1
 62
   250
420
  2301728
370
     9
100
AcDbVertex
100
AcDb2dVertex
 10
9.900664117096488
 20
10.17357859525698
 30
0.0
  0
SEQEND
  5
130
330
12B
100
AcDbEntity
  8
H1
 62
   250
420
  2301728
370
     9
  0
SPLINE
  5
131
330
41
100
AcDbEntity
  8
H1
 62
   250
420
  2301728
370
     9
100
AcDbSpline
210
0.0
220
0.0
230
1.0
 70
     8
 71
     3
 72
    14
 73
    10
 74
     0
 42
0.0000000001
 43
0.0000000001
 12
1.0
 22
0.0
 32
0.0
 13
1.0
 23
0.0
 33
0.0
 40
0.0
 40
0.0
 40
0.0
 40
0.0
 40
1.0
 40
1.0
 40
1.0
 40
2.0
 40
2.0
 40
2.0
 40
3.0
 40
3.0
 40
3.0
 40
3.0
 10
10.02270692521617
 20
10.07343023196661
 30
0.0
 10
10.02270692521617
 20
10.07343023196661
 30
0.0
 10
9.9978387332462
 20
10.09156984795298
 30
0.0
 10
9.99290583993896
 20
10.0994362264575
 30
0.0
 10
9.987972946631695
 20
10.10730341020086
 30
0.0
 10
9.98302153283046
 20
10.11065400913189
 30
0.0
 10
9.975617361436383
 20
10.12139670087399
 30
0.0
 10
9.96821399528115
 20
10.13213858737722
 30
0.0
 10
9.940326157555015
 20
10.17511418577885
 30
0.0
 10
9.940326157555015
 20
10.17511418577885
 30
0.0
  0
POLYLINE
  5
132
330
41
100
AcDbEntity
  8
H1
 62
   250
420
  2301728
370
     9
100
AcDb2dPolyline
 66
     1
 10
0.0
 20
0.0
 30
0.0
  0
VERTEX
  5
133
330
132
100
AcDbEntity
  8
H1
 62
   250
420
  2301728
370
     9
100
AcDbVertex
100
AcDb2dVertex
 10
10.02386807966428
 20
10.13834939476847
 30
0.0
  0
VERTEX
  5
134
330
132
100
AcDbEntity
  8
H1
 62
   250
420
  2301728
370
     9
100
AcDbVertex
100
AcDb2dVertex
 10
9.996942502385789
 20
10.15889989592659
 30
0.0
  0
VERTEX
  5
135
330
132
100
AcDbEntity
  8
H1
 62
   250
420
  2301728
370
     9
100
AcDbVertex
100
AcDb2dVertex
 10
9.986114455323634
 20
10.17686799603401
 30
0.0
  0
SEQEND
  5
136
330
132
100
AcDbEntity
  8
H1
 62
   250
420
  2301728
370
     9
  0
ENDBLK
  5
44
330
41
100
AcDbEntity
  8
0
100
AcDbBlockEnd
  0
BLOCK
  5
139
330
137
100
AcDbEntity
  8
0
100
AcDbBlockBegin
  2
block 3
 70
     0
 10
0.0
 20
0.0
 30
0.0
  3
block 3
  1

  0
POLYLINE
  5
13B
330
137
100
AcDbEntity
  8
H1
 62
   250
420
  2301728
370
    20
100
AcDb2dPolyline
 66
     1
 10
0.0
 20
0.0
 30
0.0
  0
VERTEX
  5
13C
330
13B
100
AcDbEntity
  8
H1
 62
   250
420
  2301728
370
    20
100
AcDbVertex
100
AcDb2dVertex
 10
9.91455086399992
 20
12.45126718987041
 30
0.0
  0
VERTEX
  5
13D
330
13B
100
AcDbEntity
  8
H1
 62
   250
420
  2301728
370
    20
100
AcDbVertex
100
AcDb2dVertex
 10
9.91455086399992
 20
12.91283872307856
 30
0.0
  0
VERTEX
  5
13E
330
13B
100
AcDbEntity
  8
H1
 62
   250
420
  2301728
370
    20
100
AcDbVertex
100
AcDb2dVertex
 10
9.861620902708257
 20
12.97690352905958
 30
0.0
  0
VERTEX
  5
13F
330
13B
100
AcDbEntity
  8
H1
 62
   250
420
  2301728
370
    20
100
AcDbVertex
100
AcDb2dVertex
 10
9.938030824160906
 20
12.99849663552566
 30
0.0
  0
VERTEX
  5
140
330
13B
100
AcDbEntity
  8
H1
 62
   250
420
  2301728
370
    20
100
AcDbVertex
100
AcDb2dVertex
 10
9.91455086399992
 20
13.032869644918
 30
0.0
  0
VERTEX
  5
141
330
13B
100
AcDbEntity
  8
H1
 62
   250
420
  2301728
370
    20
100
AcDbVertex
100
AcDb2dVertex
 10
9.91455086399992
 20
13.54171077608643
 30
0.0
  0
VERTEX
  5
142
330
13B
100
AcDbEntity
  8
H1
 62
   250
420
  2301728
370
    20
100
AcDbVertex
100
AcDb2dVertex
 10
10.10235108858337
 20
13.59295859338221
 30
0.0
  0
VERTEX
  5
143
330
13B
100
AcDbEntity
  8
H1
 62
   250
420
  2301728
370
    20
100
AcDbVertex
100
AcDb2dVertex
 10
12.05158436208914
 20
11.09236594736464
 30
0.0
  0
VERTEX
  5
144
330
13B
100
AcDbEntity
  8
H1
 62
   250
420
  2301728
370
    20
100
AcDbVertex
100
AcDb2dVertex
 10
12.05158436208914
 20
10.5619953533551
 30
0.0
  0
VERTEX
  5
145
330
13B
100
AcDbEntity
  8
H1
 62
   250
420
  2301728
370
    20
100
AcDbVertex
100
AcDb2dVertex
 10
12.05158436208914
 20
9.890925368331699
 30
0.0
  0
VERTEX
  5
146
330
13B
100
AcDbEntity
  8
H1
 62
   250
420
  2301728
370
    20
100
AcDbVertex
100
AcDb2dVertex
 10
11.83148537509803
 20
9.787016429375765
 30
0.0
  0
VERTEX
  5
147
330
13B
100
AcDbEntity
  8
H1
 62
   250
420
  2301728
370
    20
100
AcDbVertex
100
AcDb2dVertex
 10
9.91455086399992
 20
12.45126718987041
 30
0.0
  0
SEQEND
  5
149
330
13B
100
AcDbEntity
  8
H1
 62
   250
420
  2301728
370
    20
  0
HATCH
  5
148
330
137
100
AcDbEntity
  8
H1
 62
    43
420
 15510365
100
AcDbHatch
 10
0.0
 20
0.0
 30
0.0
210
0.0
220
0.0
230
1.0
  2
SOLID
 70
     1
 71
     0
 91
        1
 92
        1
 93
       11
 72
     1
 10
9.91455086399992
 20
12.45126718987041
 11
9.91455086399992
 21
12.91283872307856
 72
     1
 10
9.91455086399992
 20
12.91283872307856
 11
9.861620902708257
 21
12.97690352905958
 72
     1
 10
9.861620902708257
 20
12.97690352905958
 11
9.938030824160906
 21
12.99849663552566
 72
     1
 10
9.938030824160906
 20
12.99849663552566
 11
9.91455086399992
 21
13.032869644918
 72
     1
 10
9.91455086399992
 20
13.032869644918
 11
9.91455086399992
 21
13.54171077608643
 72
     1
 10
9.91455086399992
 20
13.54171077608643
 11
10.10235108858337
 21
13.59295859338221
 72
     1
 10
10.10235108858337
 20
13.59295859338221
 11
12.05158436208914
 21
11.09236594736464
 72
     1
 10
12.05158436208914
 20
11.09236594736464
 11
12.05158436208914
 21
10.5619953533551
 72
     1
 10
12.05158436208914
 20
10.5619953533551
 11
12.05158436208914
 21
9.890925368331699
 72
     1
 10
12.05158436208914
 20
9.890925368331699
 11
11.83148537509803
 21
9.787016429375765
 72
     1
 10
11.83148537509803
 20
9.787016429375765
 11
9.91455086399992
 21
12.45126718987041
 97
        0
 75
     2
 76
     1
 98
        0
  0
POLYLINE
  5
14A
330
137
100
AcDbEntity
  8
H1
 62
   250
420
  2301728
370
     9
100
AcDb2dPolyline
 66
     1
 10
0.0
 20
0.0
 30
0.0
  0
VERTEX
  5
14B
330
14A
100
AcDbEntity
  8
H1
 62
   250
420
  2301728
370
     9
100
AcDbVertex
100
AcDb2dVertex
 10
12.02367317243584
 20
9.877656532109148
 30
0.0
  0
VERTEX
  5
14C
330
14A
100
AcDbEntity
  8
H1
 62
   250
420
  2301728
370
     9
100
AcDbVertex
100
AcDb2dVertex
 10
12.02367317243584
 20
11.08085411200182
 30
0.0
  0
VERTEX
  5
14D
330
14A
100
AcDbEntity
  8
H1
 62
   250
420
  2301728
370
     9
100
AcDbVertex
100
AcDb2dVertex
 10
10.08111130295401
 20
13.58716248400812
 30
0.0
  0
SEQEND
  5
14E
330
14A
100
AcDbEntity
  8
H1
 62
   250
420
  2301728
370
     9
  0
POLYLINE
  5
14F
330
137
100
AcDbEntity
  8
H1
 62
   250
420
  2301728
370
     9
100
AcDb2dPolyline
 66
     1
 10
0.0
 20
0.0
 30
0.0
  0
VERTEX
  5
150
330
14F
100
AcDbEntity
  8
H1
 62
   250
420
  2301728
370
     9
100
AcDbVertex
100
AcDb2dVertex
 10
12.00020931705222
 20
9.869268358817976
 30
0.0
  0
VERTEX
  5
151
330
14F
100
AcDbEntity
  8
H1
 62
   250
420
  2301728
370
     9
100
AcDbVertex
100
AcDb2dVertex
 10
12.00020931705222
 20
11.07246674394952
 30
0.0
  0
VERTEX
  5
152
330
14F
100
AcDbEntity
  8
H1
 62
   250
420
  2301728
370
     9
100
AcDbVertex
100
AcDb2dVertex
 10
10.05879732867432
 20
13.58107326768595
 30
0.0
  0
SEQEND
  5
153
330
14F
100
AcDbEntity
  8
H1
 62
   250
420
  2301728
370
     9
  0
POLYLINE
  5
154
330
137
100
AcDbEntity
  8
H1
 62
   250
420
  2301728
370
     9
100
AcDb2dPolyline
 66
     1
 10
0.0
 20
0.0
 30
0.0
  0
VERTEX
  5
155
330
154
100
AcDbEntity
  8
H1
 62
   250
420
  2301728
370
     9
100
AcDbVertex
100
AcDb2dVertex
 10
11.97506814910589
 20
9.854801437309964
 30
0.0
  0
VERTEX
  5
156
330
154
100
AcDbEntity
  8
H1
 62
   250
420
  2301728
370
     9
100
AcDbVertex
100
AcDb2dVertex
 10
11.97506814910589
 20
11.06357529636567
 30
0.0
  0
VERTEX
  5
157
330
154
100
AcDbEntity
  8
H1
 62
   250
420
  2301728
370
     9
100
AcDbVertex
100
AcDb2dVertex
 10
10.0305793430122
 20
13.57337276838832
 30
0.0
  0
SEQEND
  5
158
330
154
100
AcDbEntity
  8
H1
 62
   250
420
  2301728
370
     9
  0
POLYLINE
  5
159
330
137
100
AcDbEntity
  8
H1
 62
   250
420
  2301728
370
     9
100
AcDb2dPolyline
 66
     1
 10
0.0
 20
0.0
 30
0.0
  0
VERTEX
  5
15A
330
159
100
AcDbEntity
  8
H1
 62
   250
420
  2301728
370
     9
100
AcDbVertex
100
AcDb2dVertex
 10
11.94759661987468
 20
9.84183226009697
 30
0.0
  0
VERTEX
  5
15B
330
159
100
AcDbEntity
  8
H1
 62
   250
420
  2301728
370
     9
100
AcDbVertex
100
AcDb2dVertex
 10
11.94759661987468
 20
11.05216747731833
 30
0.0
  0
VERTEX
  5
15C
330
159
100
AcDbEntity
  8
H1
 62
   250
420
  2301728
370
     9
100
AcDbVertex
100
AcDb2dVertex
 10
10.0034959389155
 20
13.56598228605498
 30
0.0
  0
SEQEND
  5
15D
330
159
100
AcDbEntity
  8
H1
 62
   250
420
  2301728
370
     9
  0
POLYLINE
  5
15E
330
137
100
AcDbEntity
  8
H1
 62
   250
420
  2301728
370
     9
100
AcDb2dPolyline
 66
     1
 10
0.0
 20
0.0
 30
0.0
  0
VERTEX
  5
15F
330
15E
100
AcDbEntity
  8
H1
 62
   250
420
  2301728
370
     9
100
AcDbVertex
100
AcDb2dVertex
 10
11.91769487973892
 20
9.828507167304211
 30
0.0
  0
VERTEX
  5
160
330
15E
100
AcDbEntity
  8
H1
 62
   250
420
  2301728
370
     9
100
AcDbVertex
100
AcDb2dVertex
 10
11.91769487973892
 20
11.04126373780257
 30
0.0
  0
VERTEX
  5
161
330
15E
100
AcDbEntity
  8
H1
 62
   250
420
  2301728
370
     9
100
AcDbVertex
100
AcDb2dVertex
 10
9.97953686162787
 20
13.55944455168321
 30
0.0
  0
SEQEND
  5
162
330
15E
100
AcDbEntity
  8
H1
 62
   250
420
  2301728
370
     9
  0
POLYLINE
  5
163
330
137
100
AcDbEntity
  8
H1
 62
   250
420
  2301728
370
     9
100
AcDb2dPolyline
 66
     1
 10
0.0
 20
0.0
 30
0.0
  0
VERTEX
  5
164
330
163
100
AcDbEntity
  8
H1
 62
   250
420
  2301728
370
     9
100
AcDbVertex
100
AcDb2dVertex
 10
11.89083148119155
 20
9.814173110209454
 30
0.0
  0
VERTEX
  5
165
330
163
100
AcDbEntity
  8
H1
 62
   250
420
  2301728
370
     9
100
AcDbVertex
100
AcDb2dVertex
 10
11.89083148119155
 20
11.02935264446256
 30
0.0
  0
VERTEX
  5
166
330
163
100
AcDbEntity
  8
H1
 62
   250
420
  2301728
370
     9
100
AcDbVertex
100
AcDb2dVertex
 10
9.958080466742912
 20
13.55309221583333
 30
0.0
  0
SEQEND
  5
167
330
163
100
AcDbEntity
  8
H1
 62
   250
420
  2301728
370
     9
  0
POLYLINE
  5
168
330
137
100
AcDbEntity
  8
H1
 62
   250
420
  2301728
370
     9
100
AcDb2dPolyline
 66
     1
 10
0.0
 20
0.0
 30
0.0
  0
VERTEX
  5
169
330
168
100
AcDbEntity
  8
H1
 62
   250
420
  2301728
370
     9
100
AcDbVertex
100
AcDb2dVertex
 10
11.86032161037196
 20
9.800629797683376
 30
0.0
  0
VERTEX
  5
16A
330
168
100
AcDbEntity
  8
H1
 62
   250
420
  2301728
370
     9
100
AcDbVertex
100
AcDb2dVertex
 10
11.86032161037196
 20
11.01698175972874
 30
0.0
  0
VERTEX
  5
16B
330
168
100
AcDbEntity
  8
H1
 62
   250
420
  2301728
370
     9
100
AcDbVertex
100
AcDb2dVertex
 10
9.93678270391504
 20
13.54777763916822
 30
0.0
  0
SEQEND
  5
16C
330
168
100
AcDbEntity
  8
H1
 62
   250
420
  2301728
370
     9
  0
POLYLINE
  5
16D
330
137
100
AcDbEntity
  8
H1
 62
   250
420
  2301728
370
    15
100
AcDb2dPolyline
 66
     1
 10
0.0
 20
0.0
 30
0.0
  0
VERTEX
  5
16E
330
16D
100
AcDbEntity
  8
H1
 62
   250
420
  2301728
370
    15
100
AcDbVertex
100
AcDb2dVertex
 10
12.05158436208914
 20
11.09236594736464
 30
0.0
  0
VERTEX
  5
16F
330
16D
100
AcDbEntity
  8
H1
 62
   250
420
  2301728
370
    15
100
AcDbVertex
100
AcDb2dVertex
 10
11.83148537509803
 20
11.00647500297504
 30
0.0
  0
VERTEX
  5
170
330
16D
100
AcDbEntity
  8
H1
 62
   250
420
  2301728
370
    15
100
AcDbVertex
100
AcDb2dVertex
 10
11.83148537509803
 20
9.787016429375765
 30
0.0
  0
SEQEND
  5
171
330
16D
100
AcDbEntity
  8
H1
 62
   250
420
  2301728
370
    15
  0
POLYLINE
  5
172
330
137
100
AcDbEntity
  8
H1
 62
   250
420
  2301728
370
    15
100
AcDb2dPolyline
 66
     1
 10
0.0
 20
0.0
 30
0.0
  0
VERTEX
  5
173
330
172
100
AcDbEntity
  8
H1
 62
   250
420
  2301728
370
    15
100
AcDbVertex
100
AcDb2dVertex
 10
11.83148537509803
 20
11.00616257029415
 30
0.0
  0
VERTEX
  5
174
330
172
100
AcDbEntity
  8
H1
 62
   250
420
  2301728
370
    15
100
AcDbVertex
100
AcDb2dVertex
 10
9.91455086399992
 20
13.54171077608643
 30
0.0
  0
SEQEND
  5
175
330
172
100
AcDbEntity
  8
H1
 62
   250
420
  2301728
370
    15
  0
POLYLINE
  5
176
330
137
100
AcDbEntity
  8
H1
 62
   250
420
  2301728
370
    15
100
AcDb2dPolyline
 66
     1
 10
0.0
 20
0.0
 30
0.0
  0
VERTEX
  5
177
330
176
100
AcDbEntity
  8
H1
 62
   250
420
  2301728
370
    15
100
AcDbVertex
100
AcDb2dVertex
 10
9.861620902708257
 20
12.97690352905958
 30
0.0
  0
VERTEX
  5
178
330
176
100
AcDbEntity
  8
H1
 62
   250
420
  2301728
370
    15
100
AcDbVertex
100
AcDb2dVertex
 10
9.960452700448968
 20
12.9674208571199
 30
0.0
  0
VERTEX
  5
179
330
176
100
AcDbEntity
  8
H1
 62
   250
420
  2301728
370
    15
100
AcDbVertex
100
AcDb2dVertex
 10
9.938030824160906
 20
12.99849663552566
 30
0.0
  0
SEQEND
  5
17A
330
176
100
AcDbEntity
  8
H1
 62
   250
420
  2301728
370
    15
  0
ENDBLK
  5
13A
330
137
100
AcDbEntity
  8
0
100
AcDbBlockEnd
  0
BLOCK
  5
17D
330
17B
100
AcDbEntity
  8
0
100
AcDbBlockBegin
  2
block 4
 70
     0
 10
0.0
 20
0.0
 30
0.0
  3
block 4
  1

  0
POLYLINE
  5
17F
330
17B
100
AcDbEntity
  8
H1
 62
   250
420
  2301728
370
    20
100
AcDb2dPolyline
 66
     1
 10
0.0
 20
0.0
 30
0.0
  0
VERTEX
  5
180
330
17F
100
AcDbEntity
  8
H1
 62
   250
420
  2301728
370
    20
100
AcDbVertex
100
AcDb2dVertex
 10
10.27490852707456
 20
11.95042421775097
 30
0.0
  0
VERTEX
  5
181
330
17F
100
AcDbEntity
  8
H1
 62
   250
420
  2301728
370
    20
100
AcDbVertex
100
AcDb2dVertex
 10
10.12487195113744
 20
12.05469258903645
 30
0.0
  0
VERTEX
  5
182
330
17F
100
AcDbEntity
  8
H1
 62
   250
420
  2301728
370
    20
100
AcDbVertex
100
AcDb2dVertex
 10
9.91455086399992
 20
12.01833011250257
 30
0.0
  0
VERTEX
  5
183
330
17F
100
AcDbEntity
  8
H1
 62
   250
420
  2301728
370
    20
100
AcDbVertex
100
AcDb2dVertex
 10
9.91455086399992
 20
11.83211862420628
 30
0.0
  0
VERTEX
  5
184
330
17F
100
AcDbEntity
  8
H1
 62
   250
420
  2301728
370
    20
100
AcDbVertex
100
AcDb2dVertex
 10
9.938030824160906
 20
11.80405895069431
 30
0.0
  0
VERTEX
  5
185
330
17F
100
AcDbEntity
  8
H1
 62
   250
420
  2301728
370
    20
100
AcDbVertex
100
AcDb2dVertex
 10
9.869077941512716
 20
11.78380429210778
 30
0.0
  0
VERTEX
  5
186
330
17F
100
AcDbEntity
  8
H1
 62
   250
420
  2301728
370
    20
100
AcDbVertex
100
AcDb2dVertex
 10
9.91455086399992
 20
11.74505232856018
 30
0.0
  0
VERTEX
  5
187
330
17F
100
AcDbEntity
  8
H1
 62
   250
420
  2301728
370
    20
100
AcDbVertex
100
AcDb2dVertex
 10
9.91455086399992
 20
11.54257641851109
 30
0.0
  0
VERTEX
  5
188
330
17F
100
AcDbEntity
  8
H1
 62
   250
420
  2301728
370
    20
100
AcDbVertex
100
AcDb2dVertex
 10
11.21051813284579
 20
10.64685353221924
 30
0.0
  0
VERTEX
  5
189
330
17F
100
AcDbEntity
  8
H1
 62
   250
420
  2301728
370
    20
100
AcDbVertex
100
AcDb2dVertex
 10
10.27490852707456
 20
11.95042421775097
 30
0.0
  0
SEQEND
  5
18B
330
17F
100
AcDbEntity
  8
H1
 62
   250
420
  2301728
370
    20
  0
HATCH
  5
18A
330
17B
100
AcDbEntity
  8
H1
 62
    43
420
 15510365
100
AcDbHatch
 10
0.0
 20
0.0
 30
0.0
210
0.0
220
0.0
230
1.0
  2
SOLID
 70
     1
 71
     0
 91
        1
 92
        1
 93
        9
 72
     1
 10
10.27490852707456
 20
11.95042421775097
 11
10.12487195113744
 21
12.05469258903645
 72
     1
 10
10.12487195113744
 20
12.05469258903645
 11
9.91455086399992
 21
12.01833011250257
 72
     1
 10
9.91455086399992
 20
12.01833011250257
 11
9.91455086399992
 21
11.83211862420628
 72
     1
 10
9.91455086399992
 20
11.83211862420628
 11
9.938030824160906
 21
11.80405895069431
 72
     1
 10
9.938030824160906
 20
11.80405895069431
 11
9.869077941512716
 21
11.78380429210778
 72
     1
 10
9.869077941512716
 20
11.78380429210778
 11
9.91455086399992
 21
11.74505232856018
 72
     1
 10
9.91455086399992
 20
11.74505232856018
 11
9.91455086399992
 21
11.54257641851109
 72
     1
 10
9.91455086399992
 20
11.54257641851109
 11
11.21051813284579
 21
10.64685353221924
 72
     1
 10
11.21051813284579
 20
10.64685353221924
 11
10.27490852707456
 21
11.95042421775097
 97
        0
 75
     2
 76
     1
 98
        0
  0
POLYLINE
  5
18C
330
17B
100
AcDbEntity
  8
H1
 62
   250
420
  2301728
370
    15
100
AcDb2dPolyline
 66
     1
 10
0.0
 20
0.0
 30
0.0
  0
VERTEX
  5
18D
330
18C
100
AcDbEntity
  8
H1
 62
   250
420
  2301728
370
    15
100
AcDbVertex
100
AcDb2dVertex
 10
10.52143256837252
 20
11.59849185300795
 30
0.0
  0
VERTEX
  5
18E
330
18C
100
AcDbEntity
  8
H1
 62
   250
420
  2301728
370
    15
100
AcDbVertex
100
AcDb2dVertex
 10
9.91455086399992
 20
12.01833011250257
 30
0.0
  0
SEQEND
  5
18F
330
18C
100
AcDbEntity
  8
H1
 62
   250
420
  2301728
370
    15
  0
POLYLINE
  5
190
330
17B
100
AcDbEntity
  8
H1
 62
   250
420
  2301728
370
    15
100
AcDb2dPolyline
 66
     1
 10
0.0
 20
0.0
 30
0.0
  0
VERTEX
  5
191
330
190
100
AcDbEntity
  8
H1
 62
   250
420
  2301728
370
    15
100
AcDbVertex
100
AcDb2dVertex
 10
9.869077941512716
 20
11.78380429210778
 30
0.0
  0
VERTEX
  5
192
330
190
100
AcDbEntity
  8
H1
 62
   250
420
  2301728
370
    15
100
AcDbVertex
100
AcDb2dVertex
 10
9.964196658567163
 20
11.77474535483931
 30
0.0
  0
VERTEX
  5
193
330
190
100
AcDbEntity
  8
H1
 62
   250
420
  2301728
370
    15
100
AcDbVertex
100
AcDb2dVertex
 10
9.938030824160906
 20
11.80405895069431
 30
0.0
  0
SEQEND
  5
194
330
190
100
AcDbEntity
  8
H1
 62
   250
420
  2301728
370
    15
  0
POLYLINE
  5
195
330
17B
100
AcDbEntity
  8
H1
 62
   250
420
  2301728
370
     9
100
AcDb2dPolyline
 66
     1
 10
0.0
 20
0.0
 30
0.0
  0
VERTEX
  5
196
330
195
100
AcDbEntity
  8
H1
 62
   250
420
  2301728
370
     9
100
AcDbVertex
100
AcDb2dVertex
 10
9.93678270391504
 20
12.02217392861626
 30
0.0
  0
VERTEX
  5
197
330
195
100
AcDbEntity
  8
H1
 62
   250
420
  2301728
370
     9
100
AcDbVertex
100
AcDb2dVertex
 10
10.50451139362584
 20
11.63052202317743
 30
0.0
  0
SEQEND
  5
198
330
195
100
AcDbEntity
  8
H1
 62
   250
420
  2301728
370
     9
  0
POLYLINE
  5
199
330
17B
100
AcDbEntity
  8
H1
 62
   250
420
  2301728
370
     9
100
AcDb2dPolyline
 66
     1
 10
0.0
 20
0.0
 30
0.0
  0
VERTEX
  5
19A
330
199
100
AcDbEntity
  8
H1
 62
   250
420
  2301728
370
     9
100
AcDbVertex
100
AcDb2dVertex
 10
9.964196658567163
 20
12.02717286079931
 30
0.0
  0
VERTEX
  5
19B
330
199
100
AcDbEntity
  8
H1
 62
   250
420
  2301728
370
     9
100
AcDbVertex
100
AcDb2dVertex
 10
10.47051959674615
 20
11.67788227865961
 30
0.0
  0
SEQEND
  5
19C
330
199
100
AcDbEntity
  8
H1
 62
   250
420
  2301728
370
     9
  0
POLYLINE
  5
19D
330
17B
100
AcDbEntity
  8
H1
 62
   250
420
  2301728
370
     9
100
AcDb2dPolyline
 66
     1
 10
0.0
 20
0.0
 30
0.0
  0
VERTEX
  5
19E
330
19D
100
AcDbEntity
  8
H1
 62
   250
420
  2301728
370
     9
100
AcDbVertex
100
AcDb2dVertex
 10
9.991610866554032
 20
12.03217179298237
 30
0.0
  0
VERTEX
  5
19F
330
19D
100
AcDbEntity
  8
H1
 62
   250
420
  2301728
370
     9
100
AcDbVertex
100
AcDb2dVertex
 10
10.43652782617247
 20
11.72524249749006
 30
0.0
  0
SEQEND
  5
1A0
330
19D
100
AcDbEntity
  8
H1
 62
   250
420
  2301728
370
     9
  0
POLYLINE
  5
1A1
330
17B
100
AcDbEntity
  8
H1
 62
   250
420
  2301728
370
     9
100
AcDb2dPolyline
 66
     1
 10
0.0
 20
0.0
 30
0.0
  0
VERTEX
  5
1A2
330
1A1
100
AcDbEntity
  8
H1
 62
   250
420
  2301728
370
     9
100
AcDbVertex
100
AcDb2dVertex
 10
10.01902494787353
 20
12.03717072516541
 30
0.0
  0
VERTEX
  5
1A3
330
1A1
100
AcDbEntity
  8
H1
 62
   250
420
  2301728
370
     9
100
AcDbVertex
100
AcDb2dVertex
 10
10.40316238475677
 20
11.77217063846179
 30
0.0
  0
SEQEND
  5
1A4
330
1A1
100
AcDbEntity
  8
H1
 62
   250
420
  2301728
370
     9
  0
POLYLINE
  5
1A5
330
17B
100
AcDbEntity
  8
H1
 62
   250
420
  2301728
370
     9
100
AcDb2dPolyline
 66
     1
 10
0.0
 20
0.0
 30
0.0
  0
VERTEX
  5
1A6
330
1A5
100
AcDbEntity
  8
H1
 62
   250
420
  2301728
370
     9
100
AcDbVertex
100
AcDb2dVertex
 10
10.04643902919303
 20
12.04216965734847
 30
0.0
  0
VERTEX
  5
1A7
330
1A5
100
AcDbEntity
  8
H1
 62
   250
420
  2301728
370
     9
100
AcDbVertex
100
AcDb2dVertex
 10
10.36900380035152
 20
11.81964593506278
 30
0.0
  0
SEQEND
  5
1A8
330
1A5
100
AcDbEntity
  8
H1
 62
   250
420
  2301728
370
     9
  0
POLYLINE
  5
1A9
330
17B
100
AcDbEntity
  8
H1
 62
   250
420
  2301728
370
     9
100
AcDb2dPolyline
 66
     1
 10
0.0
 20
0.0
 30
0.0
  0
VERTEX
  5
1AA
330
1A9
100
AcDbEntity
  8
H1
 62
   250
420
  2301728
370
     9
100
AcDbVertex
100
AcDb2dVertex
 10
10.07385311051252
 20
12.04716858953151
 30
0.0
  0
VERTEX
  5
1AB
330
1A9
100
AcDbEntity
  8
H1
 62
   250
420
  2301728
370
     9
100
AcDbVertex
100
AcDb2dVertex
 10
10.33484521594631
 20
11.86712123166378
 30
0.0
  0
SEQEND
  5
1AC
330
1A9
100
AcDbEntity
  8
H1
 62
   250
420
  2301728
370
     9
  0
POLYLINE
  5
1AD
330
17B
100
AcDbEntity
  8
H1
 62
   250
420
  2301728
370
     9
100
AcDb2dPolyline
 66
     1
 10
0.0
 20
0.0
 30
0.0
  0
VERTEX
  5
1AE
330
1AD
100
AcDbEntity
  8
H1
 62
   250
420
  2301728
370
     9
100
AcDbVertex
100
AcDb2dVertex
 10
10.10126719183202
 20
12.05216752171457
 30
0.0
  0
VERTEX
  5
1AF
330
1AD
100
AcDbEntity
  8
H1
 62
   250
420
  2301728
370
     9
100
AcDbVertex
100
AcDb2dVertex
 10
10.30056074387767
 20
11.91468337281184
 30
0.0
  0
SEQEND
  5
1B0
330
1AD
100
AcDbEntity
  8
H1
 62
   250
420
  2301728
370
     9
  0
ENDBLK
  5
17E
330
17B
100
AcDbEntity
  8
0
100
AcDbBlockEnd
  0
BLOCK
  5
1B3
330
1B1
100
AcDbEntity
  8
0
100
AcDbBlockBegin
  2
block 5
 70
     0
 10
0.0
 20
0.0
 30
0.0
  3
block 5
  1

  0
POLYLINE
  5
1B5
330
1B1
100
AcDbEntity
  8
H1
 62
   250
420
  2301728
370
    15
100
AcDb2dPolyline
 66
     1
 10
0.0
 20
0.0
 30
0.0
  0
VERTEX
  5
1B6
330
1B5
100
AcDbEntity
  8
H1
 62
   250
420
  2301728
370
    15
100
AcDbVertex
100
AcDb2dVertex
 10
11.30168311928873
 20
11.01559996983071
 30
0.0
  0
VERTEX
  5
1B7
330
1B5
100
AcDbEntity
  8
H1
 62
   250
420
  2301728
370
    15
100
AcDbVertex
100
AcDb2dVertex
 10
11.30168311928873
 20
10.6188821313424
 30
0.0
  0
VERTEX
  5
1B8
330
1B5
100
AcDbEntity
  8
H1
 62
   250
420
  2301728
370
    15
100
AcDbVertex
100
AcDb2dVertex
 10
11.29307994721974
 20
10.61673133832515
 30
0.0
  0
VERTEX
  5
1B9
330
1B5
100
AcDbEntity
  8
H1
 62
   250
420
  2301728
370
    15
100
AcDbVertex
100
AcDb2dVertex
 10
11.20214029562733
 20
10.66604094566488
 30
0.0
  0
VERTEX
  5
1BA
330
1B5
100
AcDbEntity
  8
H1
 62
   250
420
  2301728
370
    15
100
AcDbVertex
100
AcDb2dVertex
 10
11.18953508638282
 20
10.66158958520086
 30
0.0
  0
VERTEX
  5
1BB
330
1B5
100
AcDbEntity
  8
H1
 62
   250
420
  2301728
370
    15
100
AcDbVertex
100
AcDb2dVertex
 10
11.1873255109282
 20
10.65714305617007
 30
0.0
  0
VERTEX
  5
1BC
330
1B5
100
AcDbEntity
  8
H1
 62
   250
420
  2301728
370
    15
100
AcDbVertex
100
AcDb2dVertex
 10
11.20273069367317
 20
10.65586594732493
 30
0.0
  0
VERTEX
  5
1BD
330
1B5
100
AcDbEntity
  8
H1
 62
   250
420
  2301728
370
    15
100
AcDbVertex
100
AcDb2dVertex
 10
11.20988508306272
 20
10.64825080334735
 30
0.0
  0
VERTEX
  5
1BE
330
1B5
100
AcDbEntity
  8
H1
 62
   250
420
  2301728
370
    15
100
AcDbVertex
100
AcDb2dVertex
 10
11.38965224469595
 20
10.40233890535467
 30
0.0
  0
VERTEX
  5
1BF
330
1B5
100
AcDbEntity
  8
H1
 62
   250
420
  2301728
370
    15
100
AcDbVertex
100
AcDb2dVertex
 10
11.35372651258636
 20
10.34342038259942
 30
0.0
  0
VERTEX
  5
1C0
330
1B5
100
AcDbEntity
  8
H1
 62
   250
420
  2301728
370
    15
100
AcDbVertex
100
AcDb2dVertex
 10
11.26941800307448
 20
10.31342201379947
 30
0.0
  0
VERTEX
  5
1C1
330
1B5
100
AcDbEntity
  8
H1
 62
   250
420
  2301728
370
    15
100
AcDbVertex
100
AcDb2dVertex
 10
11.26296256254422
 20
10.31556878062237
 30
0.0
  0
VERTEX
  5
1C2
330
1B5
100
AcDbEntity
  8
H1
 62
   250
420
  2301728
370
    15
100
AcDbVertex
100
AcDb2dVertex
 10
10.96825544537172
 20
10.5651026430447
 30
0.0
  0
VERTEX
  5
1C3
330
1B5
100
AcDbEntity
  8
H1
 62
   250
420
  2301728
370
    15
100
AcDbVertex
100
AcDb2dVertex
 10
10.96825544537172
 20
10.63394090341863
 30
0.0
  0
VERTEX
  5
1C4
330
1B5
100
AcDbEntity
  8
H1
 62
   250
420
  2301728
370
    15
100
AcDbVertex
100
AcDb2dVertex
 10
11.18662092691842
 20
10.98332760646669
 30
0.0
  0
VERTEX
  5
1C5
330
1B5
100
AcDbEntity
  8
H1
 62
   250
420
  2301728
370
    15
100
AcDbVertex
100
AcDb2dVertex
 10
11.19627815666604
 20
10.99102971624205
 30
0.0
  0
VERTEX
  5
1C6
330
1B5
100
AcDbEntity
  8
H1
 62
   250
420
  2301728
370
    15
100
AcDbVertex
100
AcDb2dVertex
 10
11.2565100240155
 20
11.02975057138318
 30
0.0
  0
VERTEX
  5
1C7
330
1B5
100
AcDbEntity
  8
H1
 62
   250
420
  2301728
370
    15
100
AcDbVertex
100
AcDb2dVertex
 10
11.27452579298524
 20
11.03365503573592
 30
0.0
  0
VERTEX
  5
1C8
330
1B5
100
AcDbEntity
  8
H1
 62
   250
420
  2301728
370
    15
100
AcDbVertex
100
AcDb2dVertex
 10
11.30168311928873
 20
11.01620550945968
 30
0.0
  0
VERTEX
  5
1C9
330
1B5
100
AcDbEntity
  8
H1
 62
   250
420
  2301728
370
    15
100
AcDbVertex
100
AcDb2dVertex
 10
11.30168311928873
 20
11.01559996983071
 30
0.0
  0
SEQEND
  5
1CB
330
1B5
100
AcDbEntity
  8
H1
 62
   250
420
  2301728
370
    15
  0
HATCH
  5
1CA
330
1B1
100
AcDbEntity
  8
H1
 62
   254
420
 13358815
100
AcDbHatch
 10
0.0
 20
0.0
 30
0.0
210
0.0
220
0.0
230
1.0
  2
SOLID
 70
     1
 71
     0
 91
        1
 92
        1
 93
       19
 72
     1
 10
11.30168311928873
 20
11.01559996983071
 11
11.30168311928873
 21
10.6188821313424
 72
     1
 10
11.30168311928873
 20
10.6188821313424
 11
11.29307994721974
 21
10.61673133832515
 72
     1
 10
11.29307994721974
 20
10.61673133832515
 11
11.20214029562733
 21
10.66604094566488
 72
     1
 10
11.20214029562733
 20
10.66604094566488
 11
11.18953508638282
 21
10.66158958520086
 72
     1
 10
11.18953508638282
 20
10.66158958520086
 11
11.1873255109282
 21
10.65714305617007
 72
     1
 10
11.1873255109282
 20
10.65714305617007
 11
11.20273069367317
 21
10.65586594732493
 72
     1
 10
11.20273069367317
 20
10.65586594732493
 11
11.20988508306272
 21
10.64825080334735
 72
     1
 10
11.20988508306272
 20
10.64825080334735
 11
11.38965224469595
 21
10.40233890535467
 72
     1
 10
11.38965224469595
 20
10.40233890535467
 11
11.35372651258636
 21
10.34342038259942
 72
     1
 10
11.35372651258636
 20
10.34342038259942
 11
11.26941800307448
 21
10.31342201379947
 72
     1
 10
11.26941800307448
 20
10.31342201379947
 11
11.26296256254422
 21
10.31556878062237
 72
     1
 10
11.26296256254422
 20
10.31556878062237
 11
10.96825544537172
 21
10.5651026430447
 72
     1
 10
10.96825544537172
 20
10.5651026430447
 11
10.96825544537172
 21
10.63394090341863
 72
     1
 10
10.96825544537172
 20
10.63394090341863
 11
11.18662092691842
 21
10.98332760646669
 72
     1
 10
11.18662092691842
 20
10.98332760646669
 11
11.19627815666604
 21
10.99102971624205
 72
     1
 10
11.19627815666604
 20
10.99102971624205
 11
11.2565100240155
 21
11.02975057138318
 72
     1
 10
11.2565100240155
 20
11.02975057138318
 11
11.27452579298524
 21
11.03365503573592
 72
     1
 10
11.27452579298524
 20
11.03365503573592
 11
11.30168311928873
 21
11.01620550945968
 72
     1
 10
11.30168311928873
 20
11.01620550945968
 11
11.30168311928873
 21
11.01559996983071
 97
        0
 75
     2
 76
     1
 98
        0
  0
SPLINE
  5
1CC
330
1B1
100
AcDbEntity
  8
H1
 62
   250
420
  2301728
370
     9
100
AcDbSpline
210
0.0
220
0.0
230
1.0
 70
     8
 71
     3
 72
    14
 73
    10
 74
     0
 42
0.0000000001
 43
0.0000000001
 12
1.0
 22
0.0
 32
0.0
 13
1.0
 23
0.0
 33
0.0
 40
0.0
 40
0.0
 40
0.0
 40
0.0
 40
1.0
 40
1.0
 40
1.0
 40
2.0
 40
2.0
 40
2.0
 40
3.0
 40
3.0
 40
3.0
 40
3.0
 10
11.20273069367317
 20
10.66620601963288
 30
0.0
 10
11.20273069367317
 20
10.66620601963288
 30
0.0
 10
11.19034918287869
 20
10.66211299046526
 30
0.0
 10
11.19034918287869
 20
10.66211299046526
 30
0.0
 10
11.19034918287869
 20
10.66211299046526
 30
0.0
 10
11.18492348338403
 20
10.65994206647631
 30
0.0
 10
11.18636969239151
 20
10.6508992339852
 30
0.0
 10
11.18636969239151
 20
10.6508992339852
 30
0.0
 10
11.18673204988224
 20
10.64692054873689
 30
0.0
 10
11.19143464487317
 20
10.6451111769998
 30
0.0
  0
SPLINE
  5
1CD
330
1B1
100
AcDbEntity
  8
H1
 62
   250
420
  2301728
370
     9
100
AcDbSpline
210
0.0
220
0.0
230
1.0
 70
     8
 71
     3
 72
    11
 73
     7
 74
     0
 42
0.0000000001
 43
0.0000000001
 12
1.0
 22
0.0
 32
0.0
 13
1.0
 23
0.0
 33
0.0
 40
0.0
 40
0.0
 40
0.0
 40
0.0
 40
1.0
 40
1.0
 40
1.0
 40
2.0
 40
2.0
 40
2.0
 40
2.0
 10
11.20988508306272
 20
10.64825080334735
 30
0.0
 10
11.20988508306272
 20
10.64825080334735
 30
0.0
 10
11.19830735861418
 20
10.6440265202442
 30
0.0
 10
11.19830735861418
 20
10.6440265202442
 30
0.0
 10
11.19830735861418
 20
10.6440265202442
 30
0.0
 10
11.19251930162879
 20
10.64294105824971
 30
0.0
 10
11.18962446789722
 20
10.64547353449055
 30
0.0
  0
SPLINE
  5
1CE
330
1B1
100
AcDbEntity
  8
H1
 62
   250
420
  2301728
370
     9
100
AcDbSpline
210
0.0
220
0.0
230
1.0
 70
    11
 71
     3
 72
    14
 73
    10
 74
     0
 42
0.0000000001
 43
0.0000000001
 12
1.0
 22
0.0
 32
0.0
 13
1.0
 23
0.0
 33
0.0
 40
0.0
 40
0.0
 40
0.0
 40
0.0
 40
1.0
 40
1.0
 40
1.0
 40
2.0
 40
2.0
 40
2.0
 40
3.0
 40
3.0
 40
3.0
 40
3.0
 10
11.18838278956228
 20
10.64989268539983
 30
0.0
 10
11.18838278956228
 20
10.64989268539983
 30
0.0
 10
11.20273069367317
 20
10.65586594732493
 30
0.0
 10
11.20273069367317
 20
10.65586594732493
 30
0.0
 10
11.20273069367317
 20
10.65586594732493
 30
0.0
 10
11.18731343234516
 20
10.65788226545117
 30
0.0
 10
11.18731343234516
 20
10.65788226545117
 30
0.0
 10
11.18731343234516
 20
10.65788226545117
 30
0.0
 10
11.18508855735205
 20
10.6556607408829
 30
0.0
 10
11.18838278956228
 20
10.64989268539983
 30
0.0
  0
POLYLINE
  5
1CF
330
1B1
100
AcDbEntity
  8
H1
 62
   250
420
  2301728
370
     9
100
AcDb2dPolyline
 66
     1
 10
0.0
 20
0.0
 30
0.0
  0
VERTEX
  5
1D0
330
1CF
100
AcDbEntity
  8
H1
 62
   250
420
  2301728
370
     9
100
AcDbVertex
100
AcDb2dVertex
 10
11.2565100240155
 20
11.03109532032726
 30
0.0
  0
VERTEX
  5
1D1
330
1CF
100
AcDbEntity
  8
H1
 62
   250
420
  2301728
370
     9
100
AcDbVertex
100
AcDb2dVertex
 10
11.28928888262774
 20
11.01084261859675
 30
0.0
  0
VERTEX
  5
1D2
330
1CF
100
AcDbEntity
  8
H1
 62
   250
420
  2301728
370
     9
100
AcDbVertex
100
AcDb2dVertex
 10
11.28928888262774
 20
10.61673133832515
 30
0.0
  0
SEQEND
  5
1D3
330
1CF
100
AcDbEntity
  8
H1
 62
   250
420
  2301728
370
     9
  0
INSERT
  5
1D5
330
1B1
100
AcDbEntity
  8
H1
100
AcDbBlockReference
  2
block 6
 10
0.0
 20
0.0
 30
0.0
  0
POLYLINE
  5
1E4
330
1B1
100
AcDbEntity
  8
H1
 62
   250
420
  2301728
370
     5
100
AcDb2dPolyline
 66
     1
 10
0.0
 20
0.0
 30
0.0
  0
VERTEX
  5
1E5
330
1E4
100
AcDbEntity
  8
H1
 62
   250
420
  2301728
370
     5
100
AcDbVertex
100
AcDb2dVertex
 10
11.12733360476149
 20
10.68877444939495
 30
0.0
  0
VERTEX
  5
1E6
330
1E4
100
AcDbEntity
  8
H1
 62
   250
420
  2301728
370
     5
100
AcDbVertex
100
AcDb2dVertex
 10
11.14820298051144
 20
10.72457375900221
 30
0.0
  0
SEQEND
  5
1E7
330
1E4
100
AcDbEntity
  8
H1
 62
   250
420
  2301728
370
     5
  0
SPLINE
  5
1E8
330
1B1
100
AcDbEntity
  8
H1
 62
   250
420
  2301728
370
     5
100
AcDbSpline
210
0.0
220
0.0
230
1.0
 70
     8
 71
     3
 72
     8
 73
     4
 74
     0
 42
0.0000000001
 43
0.0000000001
 12
1.0
 22
0.0
 32
0.0
 13
1.0
 23
0.0
 33
0.0
 40
0.0
 40
0.0
 40
0.0
 40
0.0
 40
1.0
 40
1.0
 40
1.0
 40
1.0
 10
11.12186055208602
 20
10.66553767137219
 30
0.0
 10
11.12010658591842
 20
10.66894624750173
 30
0.0
 10
11.11896636768089
 20
10.67385739935954
 30
0.0
 10
11.12187665686378
 20
10.67942079470068
 30
0.0
  0
SPLINE
  5
1E9
330
1B1
100
AcDbEntity
  8
H1
 62
   250
420
  2301728
370
     9
100
AcDbSpline
210
0.0
220
0.0
230
1.0
 70
     8
 71
     3
 72
    17
 73
    13
 74
     0
 42
0.0000000001
 43
0.0000000001
 12
1.0
 22
0.0
 32
0.0
 13
1.0
 23
0.0
 33
0.0
 40
0.0
 40
0.0
 40
0.0
 40
0.0
 40
1.0
 40
1.0
 40
1.0
 40
2.0
 40
2.0
 40
2.0
 40
3.0
 40
3.0
 40
3.0
 40
4.0
 40
4.0
 40
4.0
 40
4.0
 10
11.15505314756413
 20
10.7325046880268
 30
0.0
 10
11.15505314756413
 20
10.7325046880268
 30
0.0
 10
11.16238162650461
 20
10.73651867237469
 30
0.0
 10
11.16978982409306
 20
10.73089649459616
 30
0.0
 10
11.16978982409306
 20
10.73089649459616
 30
0.0
 10
11.18066538024843
 20
10.72508911187792
 30
0.0
 10
11.17345366094385
 20
10.71069466186805
 30
0.0
 10
11.17345366094385
 20
10.71069466186805
 30
0.0
 10
11.14851863414783
 20
10.6681949596376
 30
0.0
 10
11.14851863414783
 20
10.6681949596376
 30
0.0
 10
11.14851863414783
 20
10.6681949596376
 30
0.0
 10
11.13885415725038
 20
10.65360403134386
 30
0.0
 10
11.12555659858493
 20
10.6605596846883
 30
0.0
  0
INSERT
  5
1EB
330
1B1
100
AcDbEntity
  8
H1
100
AcDbBlockReference
  2
block 7
 10
0.0
 20
0.0
 30
0.0
  0
SPLINE
  5
1FC
330
1B1
100
AcDbEntity
  8
H1
 62
   250
420
  2301728
370
     9
100
AcDbSpline
210
0.0
220
0.0
230
1.0
 70
     8
 71
     3
 72
    17
 73
    13
 74
     0
 42
0.0000000001
 43
0.0000000001
 12
1.0
 22
0.0
 32
0.0
 13
1.0
 23
0.0
 33
0.0
 40
0.0
 40
0.0
 40
0.0
 40
0.0
 40
1.0
 40
1.0
 40
1.0
 40
2.0
 40
2.0
 40
2.0
 40
3.0
 40
3.0
 40
3.0
 40
4.0
 40
4.0
 40
4.0
 40
4.0
 10
11.18662092691842
 20
10.98332760646669
 30
0.0
 10
11.18662092691842
 20
10.98332760646669
 30
0.0
 10
11.18662092691842
 20
10.96118353758819
 30
0.0
 10
11.18259473257689
 20
10.95514424607587
 30
0.0
 10
11.18259473257689
 20
10.95514424607587
 30
0.0
 10
10.97725882115828
 20
10.62700940724024
 30
0.0
 10
10.97725882115828
 20
10.62700940724024
 30
0.0
 10
10.97725882115828
 20
10.62700940724024
 30
0.0
 10
10.97725882115828
 20
10.56460339494635
 30
0.0
 10
10.97725882115828
 20
10.56460339494635
 30
0.0
 10
10.97725882115828
 20
10.56460339494635
 30
0.0
 10
11.27184434748604
 20
10.31497934577077
 30
0.0
 10
11.27184434748604
 20
10.31497934577077
 30
0.0
  0
POLYLINE
  5
1FD
330
1B1
100
AcDbEntity
  8
H1
 62
   250
420
  2301728
370
     9
100
AcDb2dPolyline
 66
     1
 10
0.0
 20
0.0
 30
0.0
  0
VERTEX
  5
1FE
330
1FD
100
AcDbEntity
  8
H1
 62
   250
420
  2301728
370
     9
100
AcDbVertex
100
AcDb2dVertex
 10
10.97725882115828
 20
10.62700940724024
 30
0.0
  0
VERTEX
  5
1FF
330
1FD
100
AcDbEntity
  8
H1
 62
   250
420
  2301728
370
     9
100
AcDbVertex
100
AcDb2dVertex
 10
10.96719333530442
 20
10.63506179592332
 30
0.0
  0
SEQEND
  5
200
330
1FD
100
AcDbEntity
  8
H1
 62
   250
420
  2301728
370
     9
  0
POLYLINE
  5
201
330
1B1
100
AcDbEntity
  8
H1
 62
   250
420
  2301728
370
     9
100
AcDb2dPolyline
 66
     1
 10
0.0
 20
0.0
 30
0.0
  0
VERTEX
  5
202
330
201
100
AcDbEntity
  8
H1
 62
   250
420
  2301728
370
     9
100
AcDbVertex
100
AcDb2dVertex
 10
10.97725882115828
 20
10.56044353095266
 30
0.0
  0
VERTEX
  5
203
330
201
100
AcDbEntity
  8
H1
 62
   250
420
  2301728
370
     9
100
AcDbVertex
100
AcDb2dVertex
 10
10.96719333530442
 20
10.56849591963574
 30
0.0
  0
SEQEND
  5
204
330
201
100
AcDbEntity
  8
H1
 62
   250
420
  2301728
370
     9
  0
POLYLINE
  5
205
330
1B1
100
AcDbEntity
  8
H1
 62
   250
420
  2301728
370
     9
100
AcDb2dPolyline
 66
     1
 10
0.0
 20
0.0
 30
0.0
  0
VERTEX
  5
206
330
205
100
AcDbEntity
  8
H1
 62
   250
420
  2301728
370
     9
100
AcDbVertex
100
AcDb2dVertex
 10
11.3022250450471
 20
11.01522231280148
 30
0.0
  0
VERTEX
  5
207
330
205
100
AcDbEntity
  8
H1
 62
   250
420
  2301728
370
     9
100
AcDbVertex
100
AcDb2dVertex
 10
11.28928888262774
 20
11.01084261859675
 30
0.0
  0
SEQEND
  5
208
330
205
100
AcDbEntity
  8
H1
 62
   250
420
  2301728
370
     9
  0
INSERT
  5
20A
330
1B1
100
AcDbEntity
  8
H1
100
AcDbBlockReference
  2
block 8
 10
0.0
 20
0.0
 30
0.0
  0
INSERT
  5
20F
330
1B1
100
AcDbEntity
  8
H1
100
AcDbBlockReference
  2
block 9
 10
0.0
 20
0.0
 30
0.0
  0
INSERT
  5
214
330
1B1
100
AcDbEntity
  8
H1
100
AcDbBlockReference
  2
block 10
 10
0.0
 20
0.0
 30
0.0
  0
INSERT
  5
219
330
1B1
100
AcDbEntity
  8
H1
100
AcDbBlockReference
  2
block 11
 10
0.0
 20
0.0
 30
0.0
  0
INSERT
  5
220
330
1B1
100
AcDbEntity
  8
H1
100
AcDbBlockReference
  2
block 12
 10
0.0
 20
0.0
 30
0.0
  0
INSERT
  5
227
330
1B1
100
AcDbEntity
  8
H1
100
AcDbBlockReference
  2
block 13
 10
0.0
 20
0.0
 30
0.0
  0
INSERT
  5
232
330
1B1
100
AcDbEntity
  8
H1
100
AcDbBlockReference
  2
block 15
 10
0.0
 20
0.0
 30
0.0
  0
INSERT
  5
23D
330
1B1
100
AcDbEntity
  8
H1
100
AcDbBlockReference
  2
block 17
 10
0.0
 20
0.0
 30
0.0
  0
ENDBLK
  5
1B4
330
1B1
100
AcDbEntity
  8
0
100
AcDbBlockEnd
  0
BLOCK
  5
1D6
330
1D4
100
AcDbEntity
  8
0
100
AcDbBlockBegin
  2
block 6
 70
     0
 10
0.0
 20
0.0
 30
0.0
  3
block 6
  1

  0
POLYLINE
  5
1D8
330
1D4
100
AcDbEntity
  8
H1
 62
   250
420
  2301728
370
     5
100
AcDb2dPolyline
 66
     1
 10
0.0
 20
0.0
 30
0.0
  0
VERTEX
  5
1D9
330
1D8
100
AcDbEntity
  8
H1
 62
   250
420
  2301728
370
     5
100
AcDbVertex
100
AcDb2dVertex
 10
11.19668641277227
 20
10.7017420161302
 30
0.0
  0
VERTEX
  5
1DA
330
1D8
100
AcDbEntity
  8
H1
 62
   250
420
  2301728
370
     5
100
AcDbVertex
100
AcDb2dVertex
 10
11.19668641277227
 20
10.67397899042868
 30
0.0
  0
SEQEND
  5
1DB
330
1D8
100
AcDbEntity
  8
H1
 62
   250
420
  2301728
370
     5
  0
POLYLINE
  5
1DC
330
1D4
100
AcDbEntity
  8
H1
 62
   250
420
  2301728
370
     5
100
AcDb2dPolyline
 66
     1
 10
0.0
 20
0.0
 30
0.0
  0
VERTEX
  5
1DD
330
1DC
100
AcDbEntity
  8
H1
 62
   250
420
  2301728
370
     5
100
AcDbVertex
100
AcDb2dVertex
 10
11.19668641277227
 20
10.94115563645564
 30
0.0
  0
VERTEX
  5
1DE
330
1DC
100
AcDbEntity
  8
H1
 62
   250
420
  2301728
370
     5
100
AcDbVertex
100
AcDb2dVertex
 10
11.19668641277227
 20
10.72104439704241
 30
0.0
  0
SEQEND
  5
1DF
330
1DC
100
AcDbEntity
  8
H1
 62
   250
420
  2301728
370
     5
  0
POLYLINE
  5
1E0
330
1D4
100
AcDbEntity
  8
H1
 62
   250
420
  2301728
370
     5
100
AcDb2dPolyline
 66
     1
 10
0.0
 20
0.0
 30
0.0
  0
VERTEX
  5
1E1
330
1E0
100
AcDbEntity
  8
H1
 62
   250
420
  2301728
370
     5
100
AcDbVertex
100
AcDb2dVertex
 10
11.19668641277227
 20
10.97728831495434
 30
0.0
  0
VERTEX
  5
1E2
330
1E0
100
AcDbEntity
  8
H1
 62
   250
420
  2301728
370
     5
100
AcDbVertex
100
AcDb2dVertex
 10
11.19668641277227
 20
10.95241851250665
 30
0.0
  0
SEQEND
  5
1E3
330
1E0
100
AcDbEntity
  8
H1
 62
   250
420
  2301728
370
     5
  0
ENDBLK
  5
1D7
330
1D4
100
AcDbEntity
  8
0
100
AcDbBlockEnd
  0
BLOCK
  5
1EC
330
1EA
100
AcDbEntity
  8
0
100
AcDbBlockBegin
  2
block 7
 70
     0
 10
0.0
 20
0.0
 30
0.0
  3
block 7
  1

  0
POLYLINE
  5
1EE
330
1EA
100
AcDbEntity
  8
H1
 62
   250
420
  2301728
370
     5
100
AcDb2dPolyline
 66
     1
 10
0.0
 20
0.0
 30
0.0
  0
VERTEX
  5
1EF
330
1EE
100
AcDbEntity
  8
H1
 62
   250
420
  2301728
370
     5
100
AcDbVertex
100
AcDb2dVertex
 10
11.12285904830795
 20
10.79212283194799
 30
0.0
  0
VERTEX
  5
1F0
330
1EE
100
AcDbEntity
  8
H1
 62
   250
420
  2301728
370
     5
100
AcDbVertex
100
AcDb2dVertex
 10
11.15441636035416
 20
10.84441987548913
 30
0.0
  0
SEQEND
  5
1F1
330
1EE
100
AcDbEntity
  8
H1
 62
   250
420
  2301728
370
     5
  0
POLYLINE
  5
1F2
330
1EA
100
AcDbEntity
  8
H1
 62
   250
420
  2301728
370
     5
100
AcDb2dPolyline
 66
     1
 10
0.0
 20
0.0
 30
0.0
  0
VERTEX
  5
1F3
330
1F2
100
AcDbEntity
  8
H1
 62
   250
420
  2301728
370
     5
100
AcDbVertex
100
AcDb2dVertex
 10
11.08405604178425
 20
10.73230405213797
 30
0.0
  0
VERTEX
  5
1F4
330
1F2
100
AcDbEntity
  8
H1
 62
   250
420
  2301728
370
     5
100
AcDbVertex
100
AcDb2dVertex
 10
11.1183769328293
 20
10.78497875270835
 30
0.0
  0
SEQEND
  5
1F5
330
1F2
100
AcDbEntity
  8
H1
 62
   250
420
  2301728
370
     5
  0
POLYLINE
  5
1F6
330
1EA
100
AcDbEntity
  8
H1
 62
   250
420
  2301728
370
     5
100
AcDb2dPolyline
 66
     1
 10
0.0
 20
0.0
 30
0.0
  0
VERTEX
  5
1F7
330
1F6
100
AcDbEntity
  8
H1
 62
   250
420
  2301728
370
     5
100
AcDbVertex
100
AcDb2dVertex
 10
11.0415998224527
 20
10.66464466146723
 30
0.0
  0
VERTEX
  5
1F8
330
1F6
100
AcDbEntity
  8
H1
 62
   250
420
  2301728
370
     5
100
AcDbVertex
100
AcDb2dVertex
 10
11.07732505008408
 20
10.72158564869671
 30
0.0
  0
SEQEND
  5
1F9
330
1F6
100
AcDbEntity
  8
H1
 62
   250
420
  2301728
370
     5
  0
SPLINE
  5
1FA
330
1EA
100
AcDbEntity
  8
H1
 62
   250
420
  2301728
370
     5
100
AcDbSpline
210
0.0
220
0.0
230
1.0
 70
     8
 71
     3
 72
     8
 73
     4
 74
     0
 42
0.0000000001
 43
0.0000000001
 12
1.0
 22
0.0
 32
0.0
 13
1.0
 23
0.0
 33
0.0
 40
0.0
 40
0.0
 40
0.0
 40
0.0
 40
1.0
 40
1.0
 40
1.0
 40
1.0
 10
11.0365437275986
 20
10.64130964430252
 30
0.0
 10
11.0347271087117
 20
10.64468681611621
 30
0.0
 10
11.03350072991525
 20
10.64957381080798
 30
0.0
 10
11.03631503976001
 20
10.65519276763103
 30
0.0
  0
SPLINE
  5
1FB
330
1EA
100
AcDbEntity
  8
H1
 62
   250
420
  2301728
370
     9
100
AcDbSpline
210
0.0
220
0.0
230
1.0
 70
     8
 71
     3
 72
    17
 73
    13
 74
     0
 42
0.0000000001
 43
0.0000000001
 12
1.0
 22
0.0
 32
0.0
 13
1.0
 23
0.0
 33
0.0
 40
0.0
 40
0.0
 40
0.0
 40
0.0
 40
1.0
 40
1.0
 40
1.0
 40
2.0
 40
2.0
 40
2.0
 40
3.0
 40
3.0
 40
3.0
 40
4.0
 40
4.0
 40
4.0
 40
4.0
 10
11.16112400029662
 20
10.85247226417222
 30
0.0
 10
11.16112400029662
 20
10.85247226417222
 30
0.0
 10
11.16837421416257
 20
10.8566168286274
 30
0.0
 10
11.17588402912558
 20
10.85113154145649
 30
0.0
 10
11.17588402912558
 20
10.85113154145649
 30
0.0
 10
11.18686169334006
 20
10.84552466321646
 30
0.0
 10
11.17991022356882
 20
10.83100056974878
 30
0.0
 10
11.17991022356882
 20
10.83100056974878
 30
0.0
 10
11.06314559885204
 20
10.64445490732213
 30
0.0
 10
11.06314559885204
 20
10.64445490732213
 30
0.0
 10
11.06314559885204
 20
10.64445490732213
 30
0.0
 10
11.05375651364756
 20
10.6296908526717
 30
0.0
 10
11.04033318171287
 20
10.63640251863905
 30
0.0
  0
ENDBLK
  5
1ED
330
1EA
100
AcDbEntity
  8
0
100
AcDbBlockEnd
  0
BLOCK
  5
20B
330
209
100
AcDbEntity
  8
0
100
AcDbBlockBegin
  2
block 8
 70
     0
 10
0.0
 20
0.0
 30
0.0
  3
block 8
  1

  0
SPLINE
  5
20D
330
209
100
AcDbEntity
  8
H1
 62
   250
420
  2301728
370
     9
100
AcDbSpline
210
0.0
220
0.0
230
1.0
 70
    11
 71
     3
 72
    17
 73
    13
 74
     0
 42
0.0000000001
 43
0.0000000001
 12
1.0
 22
0.0
 32
0.0
 13
1.0
 23
0.0
 33
0.0
 40
0.0
 40
0.0
 40
0.0
 40
0.0
 40
1.0
 40
1.0
 40
1.0
 40
2.0
 40
2.0
 40
2.0
 40
3.0
 40
3.0
 40
3.0
 40
4.0
 40
4.0
 40
4.0
 40
4.0
 10
11.26129072717665
 20
10.93443913905505
 30
0.0
 10
11.26216763230425
 20
10.92856492151074
 30
0.0
 10
11.25971809566684
 20
10.92327289166822
 30
0.0
 10
11.25582557097745
 20
10.92261581675168
 30
0.0
 10
11.25192982533258
 20
10.92196357326835
 30
0.0
 10
11.24806065257035
 20
10.92619429828245
 30
0.0
 10
11.24717988032666
 20
10.93205643724373
 30
0.0
 10
11.24630684231518
 20
10.93793065478805
 30
0.0
 10
11.24875637895257
 20
10.94322268463057
 30
0.0
 10
11.25265292983631
 20
10.94387989629752
 30
0.0
 10
11.25654948072004
 20
10.94453213979732
 30
0.0
 10
11.26042106919888
 20
10.94029805706086
 30
0.0
 10
11.26129072717665
 20
10.93443913905505
 30
0.0
  0
ENDBLK
  5
20C
330
209
100
AcDbEntity
  8
0
100
AcDbBlockEnd
  0
BLOCK
  5
210
330
20E
100
AcDbEntity
  8
0
100
AcDbBlockBegin
  2
block 9
 70
     0
 10
0.0
 20
0.0
 30
0.0
  3
block 9
  1

  0
SPLINE
  5
212
330
20E
100
AcDbEntity
  8
H1
 62
   250
420
  2301728
370
     9
100
AcDbSpline
210
0.0
220
0.0
230
1.0
 70
    11
 71
     3
 72
    17
 73
    13
 74
     0
 42
0.0000000001
 43
0.0000000001
 12
1.0
 22
0.0
 32
0.0
 13
1.0
 23
0.0
 33
0.0
 40
0.0
 40
0.0
 40
0.0
 40
0.0
 40
1.0
 40
1.0
 40
1.0
 40
2.0
 40
2.0
 40
2.0
 40
3.0
 40
3.0
 40
3.0
 40
4.0
 40
4.0
 40
4.0
 40
4.0
 10
11.26129072717665
 20
10.82894009733156
 30
0.0
 10
11.26216763230425
 20
10.82306655117933
 30
0.0
 10
11.25971809566684
 20
10.81777371609794
 30
0.0
 10
11.25582557097745
 20
10.81711744642027
 30
0.0
 10
11.25192982533258
 20
10.81646439769808
 30
0.0
 10
11.24806065257035
 20
10.82069512271217
 30
0.0
 10
11.24717988032666
 20
10.82655806691232
 30
0.0
 10
11.24630684231518
 20
10.83243147921776
 30
0.0
 10
11.24875637895257
 20
10.83772431429915
 30
0.0
 10
11.25265292983631
 20
10.83838058397681
 30
0.0
 10
11.25654948072004
 20
10.83903363269902
 30
0.0
 10
11.26042106919888
 20
10.83479888149058
 30
0.0
 10
11.26129072717665
 20
10.82894009733156
 30
0.0
  0
ENDBLK
  5
211
330
20E
100
AcDbEntity
  8
0
100
AcDbBlockEnd
  0
BLOCK
  5
215
330
213
100
AcDbEntity
  8
0
100
AcDbBlockBegin
  2
block 10
 70
     0
 10
0.0
 20
0.0
 30
0.0
  3
block 10
  1

  0
SPLINE
  5
217
330
213
100
AcDbEntity
  8
H1
 62
   250
420
  2301728
370
     9
100
AcDbSpline
210
0.0
220
0.0
230
1.0
 70
    11
 71
     3
 72
    17
 73
    13
 74
     0
 42
0.0000000001
 43
0.0000000001
 12
1.0
 22
0.0
 32
0.0
 13
1.0
 23
0.0
 33
0.0
 40
0.0
 40
0.0
 40
0.0
 40
0.0
 40
1.0
 40
1.0
 40
1.0
 40
2.0
 40
2.0
 40
2.0
 40
3.0
 40
3.0
 40
3.0
 40
4.0
 40
4.0
 40
4.0
 40
4.0
 10
11.26129072717665
 20
10.7222459445854
 30
0.0
 10
11.26216763230425
 20
10.71637240112848
 30
0.0
 10
11.25971809566684
 20
10.7110795660471
 30
0.0
 10
11.25582557097745
 20
10.71042329636943
 30
0.0
 10
11.25192982533258
 20
10.70977024764722
 30
0.0
 10
11.24806065257035
 20
10.71400097266132
 30
0.0
 10
11.24717988032666
 20
10.71986391686148
 30
0.0
 10
11.24630684231518
 20
10.72573732916692
 30
0.0
 10
11.24875637895257
 20
10.73103016424831
 30
0.0
 10
11.25265292983631
 20
10.73168643392599
 30
0.0
 10
11.25654948072004
 20
10.73233948264817
 30
0.0
 10
11.26042106919888
 20
10.72810473143973
 30
0.0
 10
11.26129072717665
 20
10.7222459445854
 30
0.0
  0
ENDBLK
  5
216
330
213
100
AcDbEntity
  8
0
100
AcDbBlockEnd
  0
BLOCK
  5
21A
330
218
100
AcDbEntity
  8
0
100
AcDbBlockBegin
  2
block 11
 70
     0
 10
0.0
 20
0.0
 30
0.0
  3
block 11
  1

  0
SPLINE
  5
21C
330
218
100
AcDbEntity
  8
H1
 62
   250
420
  2301728
370
     5
100
AcDbSpline
210
0.0
220
0.0
230
1.0
 70
    11
 71
     3
 72
    17
 73
    13
 74
     0
 42
0.0000000001
 43
0.0000000001
 12
1.0
 22
0.0
 32
0.0
 13
1.0
 23
0.0
 33
0.0
 40
0.0
 40
0.0
 40
0.0
 40
0.0
 40
1.0
 40
1.0
 40
1.0
 40
2.0
 40
2.0
 40
2.0
 40
3.0
 40
3.0
 40
3.0
 40
4.0
 40
4.0
 40
4.0
 40
4.0
 10
11.05742196097609
 20
10.54830629224802
 30
0.0
 10
11.05287638756449
 20
10.53927863253804
 30
0.0
 10
11.05490558951263
 20
10.52908752942074
 30
0.0
 10
11.06195948199901
 20
10.52554850459451
 30
0.0
 10
11.06899726970803
 20
10.52200947976831
 30
0.0
 10
11.07838635491251
 20
10.52644473545496
 30
0.0
 10
11.08291582354673
 20
10.5354408640917
 30
0.0
 10
11.08746879915177
 20
10.5444683970443
 30
0.0
 10
11.0854321950102
 20
10.55465547396726
 30
0.0
 10
11.07838635491251
 20
10.55820267818956
 30
0.0
 10
11.07134856720348
 20
10.5617335236197
 30
0.0
 10
11.06196688354822
 20
10.55730632032174
 30
0.0
 10
11.05742196097609
 20
10.54830629224802
 30
0.0
  0
SPLINE
  5
21D
330
218
100
AcDbEntity
  8
H1
 62
   250
420
  2301728
370
     9
100
AcDbSpline
210
0.0
220
0.0
230
1.0
 70
     8
 71
     3
 72
    11
 73
     7
 74
     0
 42
0.0000000001
 43
0.0000000001
 12
1.0
 22
0.0
 32
0.0
 13
1.0
 23
0.0
 33
0.0
 40
0.0
 40
0.0
 40
0.0
 40
0.0
 40
1.0
 40
1.0
 40
1.0
 40
2.0
 40
2.0
 40
2.0
 40
2.0
 10
11.04997511192199
 20
10.53563009522574
 30
0.0
 10
11.04836302370763
 20
10.54015956385998
 30
0.0
 10
11.04873987549801
 20
10.54593151606799
 30
0.0
 10
11.05144547809553
 20
10.55129440693094
 30
0.0
 10
11.0536945102547
 20
10.55574898835042
 30
0.0
 10
11.05713851689446
 20
10.5590907296539
 30
0.0
 10
11.06087402000452
 20
10.56088412368875
 30
0.0
  0
SPLINE
  5
21E
330
218
100
AcDbEntity
  8
H1
 62
   250
420
  2301728
370
     9
100
AcDbSpline
210
0.0
220
0.0
230
1.0
 70
     8
 71
     3
 72
    23
 73
    19
 74
     0
 42
0.0000000001
 43
0.0000000001
 12
1.0
 22
0.0
 32
0.0
 13
1.0
 23
0.0
 33
0.0
 40
0.0
 40
0.0
 40
0.0
 40
0.0
 40
1.0
 40
1.0
 40
1.0
 40
2.0
 40
2.0
 40
2.0
 40
3.0
 40
3.0
 40
3.0
 40
4.0
 40
4.0
 40
4.0
 40
5.0
 40
5.0
 40
5.0
 40
6.0
 40
6.0
 40
6.0
 40
6.0
 10
11.05532995039622
 20
10.55676358932449
 30
0.0
 10
11.06025237559821
 20
10.56189872468848
 30
0.0
 10
11.06701573138005
 20
10.56390376952121
 30
0.0
 10
11.07240987203191
 20
10.56119079262246
 30
0.0
 10
11.07343977254449
 20
10.56067141355239
 30
0.0
 10
11.07734840201126
 20
10.55872112501335
 30
0.0
 10
11.07838635491251
 20
10.55820267818956
 30
0.0
 10
11.0854321950102
 20
10.55465547396726
 30
0.0
 10
11.08746879915177
 20
10.5444683970443
 30
0.0
 10
11.08291582354673
 20
10.5354408640917
 30
0.0
 10
11.07838635491251
 20
10.52644473545496
 30
0.0
 10
11.06899726970803
 20
10.52200947976831
 30
0.0
 10
11.06195948199901
 20
10.52554850459451
 30
0.0
 10
11.06092877624759
 20
10.52606788366458
 30
0.0
 10
11.05701289963099
 20
10.52801736696477
 30
0.0
 10
11.05597494672975
 20
10.52853674603482
 30
0.0
 10
11.0503761208784
 20
10.53135186111844
 30
0.0
 10
11.04801677099426
 20
10.53836629690026
 30
0.0
 10
11.04952659387234
 20
10.54564807198637
 30
0.0
  0
ENDBLK
  5
21B
330
218
100
AcDbEntity
  8
0
100
AcDbBlockEnd
  0
BLOCK
  5
221
330
21F
100
AcDbEntity
  8
0
100
AcDbBlockBegin
  2
block 12
 70
     0
 10
0.0
 20
0.0
 30
0.0
  3
block 12
  1

  0
SPLINE
  5
223
330
21F
100
AcDbEntity
  8
H1
 62
   250
420
  2301728
370
     5
100
AcDbSpline
210
0.0
220
0.0
230
1.0
 70
    11
 71
     3
 72
    17
 73
    13
 74
     0
 42
0.0000000001
 43
0.0000000001
 12
1.0
 22
0.0
 32
0.0
 13
1.0
 23
0.0
 33
0.0
 40
0.0
 40
0.0
 40
0.0
 40
0.0
 40
1.0
 40
1.0
 40
1.0
 40
2.0
 40
2.0
 40
2.0
 40
3.0
 40
3.0
 40
3.0
 40
4.0
 40
4.0
 40
4.0
 40
4.0
 10
11.29973363598856
 20
10.37367159640402
 30
0.0
 10
11.29518822286802
 20
10.36464325821256
 30
0.0
 10
11.29721742486741
 20
10.35445215509525
 30
0.0
 10
11.30427131753198
 20
10.35091313026903
 30
0.0
 10
11.31130910541879
 20
10.34737410544282
 30
0.0
 10
11.32069819086046
 20
10.35180936112945
 30
0.0
 10
11.32522749855919
 20
10.36080548976619
 30
0.0
 10
11.32978031912062
 20
10.36983314496758
 30
0.0
 10
11.32774403113614
 20
10.38002009964177
 30
0.0
 10
11.32069819086046
 20
10.38356798209554
 30
0.0
 10
11.31366040297363
 20
10.3870981492942
 30
0.0
 10
11.3042784041613
 20
10.38267094599625
 30
0.0
 10
11.29973363598856
 20
10.37367159640402
 30
0.0
  0
SPLINE
  5
224
330
21F
100
AcDbEntity
  8
H1
 62
   250
420
  2301728
370
     9
100
AcDbSpline
210
0.0
220
0.0
230
1.0
 70
     8
 71
     3
 72
    11
 73
     7
 74
     0
 42
0.0000000001
 43
0.0000000001
 12
1.0
 22
0.0
 32
0.0
 13
1.0
 23
0.0
 33
0.0
 40
0.0
 40
0.0
 40
0.0
 40
0.0
 40
1.0
 40
1.0
 40
1.0
 40
2.0
 40
2.0
 40
2.0
 40
2.0
 10
11.29228678693446
 20
10.36099472090025
 30
0.0
 10
11.29067469872009
 20
10.36552418953449
 30
0.0
 10
11.29105155051045
 20
10.37129614174252
 30
0.0
 10
11.29375715310796
 20
10.37665903260545
 30
0.0
 10
11.29600618526716
 20
10.38111361402495
 30
0.0
 10
11.29945019190692
 20
10.38445535532841
 30
0.0
 10
11.30318569501699
 20
10.386249427527
 30
0.0
  0
SPLINE
  5
225
330
21F
100
AcDbEntity
  8
H1
 62
   250
420
  2301728
370
     9
100
AcDbSpline
210
0.0
220
0.0
230
1.0
 70
     8
 71
     3
 72
    23
 73
    19
 74
     0
 42
0.0000000001
 43
0.0000000001
 12
1.0
 22
0.0
 32
0.0
 13
1.0
 23
0.0
 33
0.0
 40
0.0
 40
0.0
 40
0.0
 40
0.0
 40
1.0
 40
1.0
 40
1.0
 40
2.0
 40
2.0
 40
2.0
 40
3.0
 40
3.0
 40
3.0
 40
4.0
 40
4.0
 40
4.0
 40
5.0
 40
5.0
 40
5.0
 40
6.0
 40
6.0
 40
6.0
 40
6.0
 10
11.29764162540869
 20
10.38212821499901
 30
0.0
 10
11.30256421108806
 20
10.38726402850107
 30
0.0
 10
11.30932725186557
 20
10.38926907328315
 30
0.0
 10
11.31472154704438
 20
10.38655541829696
 30
0.0
 10
11.31575144755695
 20
10.38603603922691
 30
0.0
 10
11.31966007702373
 20
10.38408587329671
 30
0.0
 10
11.32069819086046
 20
10.38356798209554
 30
0.0
 10
11.32774403113614
 20
10.38002009964177
 30
0.0
 10
11.32978031912062
 20
10.36983314496758
 30
0.0
 10
11.32522749855919
 20
10.36080548976619
 30
0.0
 10
11.32069819086046
 20
10.35180936112945
 30
0.0
 10
11.31130910541879
 20
10.34737410544282
 30
0.0
 10
11.30427131753198
 20
10.35091313026903
 30
0.0
 10
11.30324061175449
 20
10.35143250933908
 30
0.0
 10
11.29932457464345
 20
10.35338211447245
 30
0.0
 10
11.29828662174221
 20
10.35390137170932
 30
0.0
 10
11.29268779589087
 20
10.35671648679294
 30
0.0
 10
11.29032844600672
 20
10.36373092257476
 30
0.0
 10
11.29183842909123
 20
10.37101269766087
 30
0.0
  0
ENDBLK
  5
222
330
21F
100
AcDbEntity
  8
0
100
AcDbBlockEnd
  0
BLOCK
  5
228
330
226
100
AcDbEntity
  8
0
100
AcDbBlockBegin
  2
block 13
 70
     0
 10
0.0
 20
0.0
 30
0.0
  3
block 13
  1

  0
INSERT
  5
22B
330
226
100
AcDbEntity
  8
H1
100
AcDbBlockReference
  2
block 14
 10
0.0
 20
0.0
 30
0.0
  0
ENDBLK
  5
229
330
226
100
AcDbEntity
  8
0
100
AcDbBlockEnd
  0
BLOCK
  5
22C
330
22A
100
AcDbEntity
  8
0
100
AcDbBlockBegin
  2
block 14
 70
     0
 10
0.0
 20
0.0
 30
0.0
  3
block 14
  1

  0
SPLINE
  5
22E
330
22A
100
AcDbEntity
  8
H1
 62
   250
420
  2301728
370
     9
100
AcDbSpline
210
0.0
220
0.0
230
1.0
 70
    11
 71
     3
 72
    35
 73
    31
 74
     0
 42
0.0000000001
 43
0.0000000001
 12
1.0
 22
0.0
 32
0.0
 13
1.0
 23
0.0
 33
0.0
 40
0.0
 40
0.0
 40
0.0
 40
0.0
 40
1.0
 40
1.0
 40
1.0
 40
2.0
 40
2.0
 40
2.0
 40
3.0
 40
3.0
 40
3.0
 40
4.0
 40
4.0
 40
4.0
 40
5.0
 40
5.0
 40
5.0
 40
6.0
 40
6.0
 40
6.0
 40
7.0
 40
7.0
 40
7.0
 40
8.0
 40
8.0
 40
8.0
 40
9.0
 40
9.0
 40
9.0
 40
10.0
 40
10.0
 40
10.0
 40
10.0
 10
11.26586770490412
 20
10.93094118141113
 30
0.0
 10
11.26593937116339
 20
10.93279484128597
 30
0.0
 10
11.26580892246673
 20
10.93473707743635
 30
0.0
 10
11.26545381212582
 20
10.93671393885803
 30
0.0
 10
11.2650576346026
 20
10.93889130475793
 30
0.0
 10
11.26442004493267
 20
10.94092936433362
 30
0.0
 10
11.26359371034002
 20
10.9427693351477
 30
0.0
 10
11.26359371034002
 20
10.9427693351477
 30
0.0
 10
11.26354942220226
 20
10.94275000941486
 30
0.0
 10
11.26354942220226
 20
10.94275000941486
 30
0.0
 10
11.26064009417107
 20
10.94922815611041
 30
0.0
 10
11.25542456202104
 20
10.95327126046818
 30
0.0
 10
11.25029680090764
 20
10.95226551712167
 30
0.0
 10
11.24889890623225
 20
10.95199334638418
 30
0.0
 10
11.24552817632952
 20
10.95048916017817
 30
0.0
 10
11.24500638154286
 20
10.95041038368447
 30
0.0
 10
11.23837362898459
 20
10.94929338045874
 30
0.0
 10
11.2342145702298
 20
10.94033751376542
 30
0.0
 10
11.23568815735878
 20
10.93038798230862
 30
0.0
 10
11.2371995907146
 20
10.92045213991254
 30
0.0
 10
11.24376631368566
 20
10.91328081852881
 30
0.0
 10
11.25039826100505
 20
10.91438708075644
 30
0.0
 10
11.25191372055519
 20
10.91463106813354
 30
0.0
 10
11.25598339779564
 20
10.91627053446942
 30
0.0
 10
11.25675079043713
 20
10.91642030889891
 30
0.0
 10
11.26201624739701
 20
10.91746389847225
 30
0.0
 10
11.26551420504092
 20
10.9234993000258
 30
0.0
 10
11.26579925960032
 20
10.9309444023666
 30
0.0
 10
11.26579925960032
 20
10.9309444023666
 30
0.0
 10
11.26586770490412
 20
10.93094118141113
 30
0.0
 10
11.26586770490412
 20
10.93094118141113
 30
0.0
  0
HATCH
  5
22F
330
22A
100
AcDbEntity
  8
H1
 62
   254
420
 13358815
100
AcDbHatch
 10
0.0
 20
0.0
 30
0.0
210
0.0
220
0.0
230
1.0
  2
SOLID
 70
     1
 71
     0
 91
        1
 92
        1
 93
        1
 72
     4
 94
        3
 73
     0
 74
     1
 95
       35
 96
       31
 40
0.0
 40
0.0
 40
0.0
 40
0.0
 40
1.0
 40
1.0
 40
1.0
 40
2.0
 40
2.0
 40
2.0
 40
3.0
 40
3.0
 40
3.0
 40
4.0
 40
4.0
 40
4.0
 40
5.0
 40
5.0
 40
5.0
 40
6.0
 40
6.0
 40
6.0
 40
7.0
 40
7.0
 40
7.0
 40
8.0
 40
8.0
 40
8.0
 40
9.0
 40
9.0
 40
9.0
 40
10.0
 40
10.0
 40
10.0
 40
10.0
 10
11.26586770490412
 20
10.93094118141113
 10
11.26593937116339
 20
10.93279484128597
 10
11.26580892246673
 20
10.93473707743635
 10
11.26545381212582
 20
10.93671393885803
 10
11.2650576346026
 20
10.93889130475793
 10
11.26442004493267
 20
10.94092936433362
 10
11.26359371034002
 20
10.9427693351477
 10
11.26359371034002
 20
10.9427693351477
 10
11.26354942220226
 20
10.94275000941486
 10
11.26354942220226
 20
10.94275000941486
 10
11.26064009417107
 20
10.94922815611041
 10
11.25542456202104
 20
10.95327126046818
 10
11.25029680090764
 20
10.95226551712167
 10
11.24889890623225
 20
10.95199334638418
 10
11.24552817632952
 20
10.95048916017817
 10
11.24500638154286
 20
10.95041038368447
 10
11.23837362898459
 20
10.94929338045874
 10
11.2342145702298
 20
10.94033751376542
 10
11.23568815735878
 20
10.93038798230862
 10
11.2371995907146
 20
10.92045213991254
 10
11.24376631368566
 20
10.91328081852881
 10
11.25039826100505
 20
10.91438708075644
 10
11.25191372055519
 20
10.91463106813354
 10
11.25598339779564
 20
10.91627053446942
 10
11.25675079043713
 20
10.91642030889891
 10
11.26201624739701
 20
10.91746389847225
 10
11.26551420504092
 20
10.9234993000258
 10
11.26579925960032
 20
10.9309444023666
 10
11.26579925960032
 20
10.9309444023666
 10
11.26586770490412
 20
10.93094118141113
 10
11.26586770490412
 20
10.93094118141113
 97
        0
 97
        0
 75
     2
 76
     1
 98
        0
  0
SPLINE
  5
230
330
22A
100
AcDbEntity
  8
H1
 62
   250
420
  2301728
370
     5
100
AcDbSpline
210
0.0
220
0.0
230
1.0
 70
    11
 71
     3
 72
    17
 73
    13
 74
     0
 42
0.0000000001
 43
0.0000000001
 12
1.0
 22
0.0
 32
0.0
 13
1.0
 23
0.0
 33
0.0
 40
0.0
 40
0.0
 40
0.0
 40
0.0
 40
1.0
 40
1.0
 40
1.0
 40
2.0
 40
2.0
 40
2.0
 40
3.0
 40
3.0
 40
3.0
 40
4.0
 40
4.0
 40
4.0
 40
4.0
 10
11.25956107408754
 20
10.93520411597996
 30
0.0
 10
11.26193008683809
 20
10.9254228794466
 30
0.0
 10
11.2585835141014
 20
10.91613203338408
 30
0.0
 10
11.25208523643417
 20
10.91443861604402
 30
0.0
 10
11.24558132209482
 20
10.91275647204812
 30
0.0
 10
11.23839939662839
 20
10.91932077930256
 30
0.0
 10
11.23601266862273
 20
10.92907383247551
 30
0.0
 10
11.23364381460846
 20
10.93885909520319
 30
0.0
 10
11.23699022860885
 20
10.94815235698234
 30
0.0
 10
11.24349494818704
 20
10.9498457743224
 30
0.0
 10
11.25000772015392
 20
10.95152067116847
 30
0.0
 10
11.25720333468113
 20
10.94494750628648
 30
0.0
 10
11.25956107408754
 20
10.93520411597996
 30
0.0
  0
ENDBLK
  5
22D
330
22A
100
AcDbEntity
  8
0
100
AcDbBlockEnd
  0
BLOCK
  5
233
330
231
100
AcDbEntity
  8
0
100
AcDbBlockBegin
  2
block 15
 70
     0
 10
0.0
 20
0.0
 30
0.0
  3
block 15
  1

  0
INSERT
  5
236
330
231
100
AcDbEntity
  8
H1
100
AcDbBlockReference
  2
block 16
 10
0.0
 20
0.0
 30
0.0
  0
ENDBLK
  5
234
330
231
100
AcDbEntity
  8
0
100
AcDbBlockEnd
  0
BLOCK
  5
237
330
235
100
AcDbEntity
  8
0
100
AcDbBlockBegin
  2
block 16
 70
     0
 10
0.0
 20
0.0
 30
0.0
  3
block 16
  1

  0
SPLINE
  5
239
330
235
100
AcDbEntity
  8
H1
 62
   250
420
  2301728
370
     9
100
AcDbSpline
210
0.0
220
0.0
230
1.0
 70
    11
 71
     3
 72
    35
 73
    31
 74
     0
 42
0.0000000001
 43
0.0000000001
 12
1.0
 22
0.0
 32
0.0
 13
1.0
 23
0.0
 33
0.0
 40
0.0
 40
0.0
 40
0.0
 40
0.0
 40
1.0
 40
1.0
 40
1.0
 40
2.0
 40
2.0
 40
2.0
 40
3.0
 40
3.0
 40
3.0
 40
4.0
 40
4.0
 40
4.0
 40
5.0
 40
5.0
 40
5.0
 40
6.0
 40
6.0
 40
6.0
 40
7.0
 40
7.0
 40
7.0
 40
8.0
 40
8.0
 40
8.0
 40
9.0
 40
9.0
 40
9.0
 40
10.0
 40
10.0
 40
10.0
 40
10.0
 10
11.26586770490412
 20
10.82539288626987
 30
0.0
 10
11.26593937116339
 20
10.82724654614473
 30
0.0
 10
11.26580892246673
 20
10.82918878229508
 30
0.0
 10
11.26545381212582
 20
10.83116564371678
 30
0.0
 10
11.2650576346026
 20
10.83334300961668
 30
0.0
 10
11.26442004493267
 20
10.83538200844077
 30
0.0
 10
11.26359371034002
 20
10.83722104000646
 30
0.0
 10
11.26359371034002
 20
10.83722104000646
 30
0.0
 10
11.26354942220226
 20
10.83720184832912
 30
0.0
 10
11.26354942220226
 20
10.83720184832912
 30
0.0
 10
11.26064009417107
 20
10.84368066620803
 30
0.0
 10
11.25542456202104
 20
10.84772296532693
 30
0.0
 10
11.25029680090764
 20
10.84671722198042
 30
0.0
 10
11.24889890623225
 20
10.84644505124293
 30
0.0
 10
11.24552817632952
 20
10.84494086503693
 30
0.0
 10
11.24500638154286
 20
10.84486275686671
 30
0.0
 10
11.23837362898459
 20
10.84374508531749
 30
0.0
 10
11.2342145702298
 20
10.83479002386304
 30
0.0
 10
11.23568815735878
 20
10.82483968716738
 30
0.0
 10
11.2371995907146
 20
10.81490384477129
 30
0.0
 10
11.24376631368566
 20
10.80773238741014
 30
0.0
 10
11.25039826100505
 20
10.80883878561519
 30
0.0
 10
11.25191372055519
 20
10.80908290633745
 30
0.0
 10
11.25598339779564
 20
10.81072223932817
 30
0.0
 10
11.25675079043713
 20
10.81087201375768
 30
0.0
 10
11.26201624739701
 20
10.81191560333102
 30
0.0
 10
11.26551420504092
 20
10.81795086864897
 30
0.0
 10
11.26579925960032
 20
10.82539610722535
 30
0.0
 10
11.26579925960032
 20
10.82539610722535
 30
0.0
 10
11.26586770490412
 20
10.82539288626987
 30
0.0
 10
11.26586770490412
 20
10.82539288626987
 30
0.0
  0
HATCH
  5
23A
330
235
100
AcDbEntity
  8
H1
 62
   254
420
 13358815
100
AcDbHatch
 10
0.0
 20
0.0
 30
0.0
210
0.0
220
0.0
230
1.0
  2
SOLID
 70
     1
 71
     0
 91
        1
 92
        1
 93
        1
 72
     4
 94
        3
 73
     0
 74
     1
 95
       35
 96
       31
 40
0.0
 40
0.0
 40
0.0
 40
0.0
 40
1.0
 40
1.0
 40
1.0
 40
2.0
 40
2.0
 40
2.0
 40
3.0
 40
3.0
 40
3.0
 40
4.0
 40
4.0
 40
4.0
 40
5.0
 40
5.0
 40
5.0
 40
6.0
 40
6.0
 40
6.0
 40
7.0
 40
7.0
 40
7.0
 40
8.0
 40
8.0
 40
8.0
 40
9.0
 40
9.0
 40
9.0
 40
10.0
 40
10.0
 40
10.0
 40
10.0
 10
11.26586770490412
 20
10.82539288626987
 10
11.26593937116339
 20
10.82724654614473
 10
11.26580892246673
 20
10.82918878229508
 10
11.26545381212582
 20
10.83116564371678
 10
11.2650576346026
 20
10.83334300961668
 10
11.26442004493267
 20
10.83538200844077
 10
11.26359371034002
 20
10.83722104000646
 10
11.26359371034002
 20
10.83722104000646
 10
11.26354942220226
 20
10.83720184832912
 10
11.26354942220226
 20
10.83720184832912
 10
11.26064009417107
 20
10.84368066620803
 10
11.25542456202104
 20
10.84772296532693
 10
11.25029680090764
 20
10.84671722198042
 10
11.24889890623225
 20
10.84644505124293
 10
11.24552817632952
 20
10.84494086503693
 10
11.24500638154286
 20
10.84486275686671
 10
11.23837362898459
 20
10.84374508531749
 10
11.2342145702298
 20
10.83479002386304
 10
11.23568815735878
 20
10.82483968716738
 10
11.2371995907146
 20
10.81490384477129
 10
11.24376631368566
 20
10.80773238741014
 10
11.25039826100505
 20
10.80883878561519
 10
11.25191372055519
 20
10.80908290633745
 10
11.25598339779564
 20
10.81072223932817
 10
11.25675079043713
 20
10.81087201375768
 10
11.26201624739701
 20
10.81191560333102
 10
11.26551420504092
 20
10.81795086864897
 10
11.26579925960032
 20
10.82539610722535
 10
11.26579925960032
 20
10.82539610722535
 10
11.26586770490412
 20
10.82539288626987
 10
11.26586770490412
 20
10.82539288626987
 97
        0
 97
        0
 75
     2
 76
     1
 98
        0
  0
SPLINE
  5
23B
330
235
100
AcDbEntity
  8
H1
 62
   250
420
  2301728
370
     5
100
AcDbSpline
210
0.0
220
0.0
230
1.0
 70
    11
 71
     3
 72
    17
 73
    13
 74
     0
 42
0.0000000001
 43
0.0000000001
 12
1.0
 22
0.0
 32
0.0
 13
1.0
 23
0.0
 33
0.0
 40
0.0
 40
0.0
 40
0.0
 40
0.0
 40
1.0
 40
1.0
 40
1.0
 40
2.0
 40
2.0
 40
2.0
 40
3.0
 40
3.0
 40
3.0
 40
4.0
 40
4.0
 40
4.0
 40
4.0
 10
11.25956107408754
 20
10.8296558208387
 30
0.0
 10
11.26193008683809
 20
10.81987458430537
 30
0.0
 10
11.2585835141014
 20
10.81058373824284
 30
0.0
 10
11.25208523643417
 20
10.80889032090277
 30
0.0
 10
11.24558132209482
 20
10.80720817690687
 30
0.0
 10
11.23839939662839
 20
10.81377248416132
 30
0.0
 10
11.23601266862273
 20
10.82352553733427
 30
0.0
 10
11.23364381460846
 20
10.83331080006196
 30
0.0
 10
11.23699022860885
 20
10.84260406184109
 30
0.0
 10
11.24349494818704
 20
10.84429747918115
 30
0.0
 10
11.25000772015392
 20
10.84597237602724
 30
0.0
 10
11.25720333468113
 20
10.83939921114524
 30
0.0
 10
11.25956107408754
 20
10.8296558208387
 30
0.0
  0
ENDBLK
  5
238
330
235
100
AcDbEntity
  8
0
100
AcDbBlockEnd
  0
BLOCK
  5
23E
330
23C
100
AcDbEntity
  8
0
100
AcDbBlockBegin
  2
block 17
 70
     0
 10
0.0
 20
0.0
 30
0.0
  3
block 17
  1

  0
INSERT
  5
241
330
23C
100
AcDbEntity
  8
H1
100
AcDbBlockReference
  2
block 18
 10
0.0
 20
0.0
 30
0.0
  0
ENDBLK
  5
23F
330
23C
100
AcDbEntity
  8
0
100
AcDbBlockEnd
  0
BLOCK
  5
242
330
240
100
AcDbEntity
  8
0
100
AcDbBlockBegin
  2
block 18
 70
     0
 10
0.0
 20
0.0
 30
0.0
  3
block 18
  1

  0
SPLINE
  5
244
330
240
100
AcDbEntity
  8
H1
 62
   250
420
  2301728
370
     9
100
AcDbSpline
210
0.0
220
0.0
230
1.0
 70
    11
 71
     3
 72
    35
 73
    31
 74
     0
 42
0.0000000001
 43
0.0000000001
 12
1.0
 22
0.0
 32
0.0
 13
1.0
 23
0.0
 33
0.0
 40
0.0
 40
0.0
 40
0.0
 40
0.0
 40
1.0
 40
1.0
 40
1.0
 40
2.0
 40
2.0
 40
2.0
 40
3.0
 40
3.0
 40
3.0
 40
4.0
 40
4.0
 40
4.0
 40
5.0
 40
5.0
 40
5.0
 40
6.0
 40
6.0
 40
6.0
 40
7.0
 40
7.0
 40
7.0
 40
8.0
 40
8.0
 40
8.0
 40
9.0
 40
9.0
 40
9.0
 40
10.0
 40
10.0
 40
10.0
 40
10.0
 10
11.26586770490412
 20
10.71984539636752
 30
0.0
 10
11.26593937116339
 20
10.72169838214112
 30
0.0
 10
11.26580892246673
 20
10.72364048715383
 30
0.0
 10
11.26545381212582
 20
10.72561734857555
 30
0.0
 10
11.2650576346026
 20
10.72779471447543
 30
0.0
 10
11.26442004493267
 20
10.72983357928999
 30
0.0
 10
11.26359371034002
 20
10.73167355010408
 30
0.0
 10
11.26359371034002
 20
10.73167355010408
 30
0.0
 10
11.26354942220226
 20
10.73165341913237
 30
0.0
 10
11.26354942220226
 20
10.73165341913237
 30
0.0
 10
11.26064009417107
 20
10.73813237106678
 30
0.0
 10
11.25542456202104
 20
10.74217467018569
 30
0.0
 10
11.25029680090764
 20
10.7411690584687
 30
0.0
 10
11.24889890623225
 20
10.74089756134055
 30
0.0
 10
11.24552817632952
 20
10.73939256989567
 30
0.0
 10
11.24500638154286
 20
10.73931446172546
 30
0.0
 10
11.23837362898459
 20
10.73819679017625
 30
0.0
 10
11.2342145702298
 20
10.72924172872179
 30
0.0
 10
11.23568815735878
 20
10.71929139202611
 30
0.0
 10
11.2371995907146
 20
10.70935635486891
 30
0.0
 10
11.24376631368566
 20
10.70218409226891
 30
0.0
 10
11.25039826100505
 20
10.70329062114657
 30
0.0
 10
11.25191372055519
 20
10.70353447785105
 30
0.0
 10
11.25598339779564
 20
10.70517394418692
 30
0.0
 10
11.25675079043713
 20
10.70532371861643
 30
0.0
 10
11.26201624739701
 20
10.70636730818976
 30
0.0
 10
11.26551420504092
 20
10.71240257350773
 30
0.0
 10
11.26579925960032
 20
10.7198478120841
 30
0.0
 10
11.26579925960032
 20
10.7198478120841
 30
0.0
 10
11.26586770490412
 20
10.71984539636752
 30
0.0
 10
11.26586770490412
 20
10.71984539636752
 30
0.0
  0
HATCH
  5
245
330
240
100
AcDbEntity
  8
H1
 62
   254
420
 13358815
100
AcDbHatch
 10
0.0
 20
0.0
 30
0.0
210
0.0
220
0.0
230
1.0
  2
SOLID
 70
     1
 71
     0
 91
        1
 92
        1
 93
        1
 72
     4
 94
        3
 73
     0
 74
     1
 95
       35
 96
       31
 40
0.0
 40
0.0
 40
0.0
 40
0.0
 40
1.0
 40
1.0
 40
1.0
 40
2.0
 40
2.0
 40
2.0
 40
3.0
 40
3.0
 40
3.0
 40
4.0
 40
4.0
 40
4.0
 40
5.0
 40
5.0
 40
5.0
 40
6.0
 40
6.0
 40
6.0
 40
7.0
 40
7.0
 40
7.0
 40
8.0
 40
8.0
 40
8.0
 40
9.0
 40
9.0
 40
9.0
 40
10.0
 40
10.0
 40
10.0
 40
10.0
 10
11.26586770490412
 20
10.71984539636752
 10
11.26593937116339
 20
10.72169838214112
 10
11.26580892246673
 20
10.72364048715383
 10
11.26545381212582
 20
10.72561734857555
 10
11.2650576346026
 20
10.72779471447543
 10
11.26442004493267
 20
10.72983357928999
 10
11.26359371034002
 20
10.73167355010408
 10
11.26359371034002
 20
10.73167355010408
 10
11.26354942220226
 20
10.73165341913237
 10
11.26354942220226
 20
10.73165341913237
 10
11.26064009417107
 20
10.73813237106678
 10
11.25542456202104
 20
10.74217467018569
 10
11.25029680090764
 20
10.7411690584687
 10
11.24889890623225
 20
10.74089756134055
 10
11.24552817632952
 20
10.73939256989567
 10
11.24500638154286
 20
10.73931446172546
 10
11.23837362898459
 20
10.73819679017625
 10
11.2342145702298
 20
10.72924172872179
 10
11.23568815735878
 20
10.71929139202611
 10
11.2371995907146
 20
10.70935635486891
 10
11.24376631368566
 20
10.70218409226891
 10
11.25039826100505
 20
10.70329062114657
 10
11.25191372055519
 20
10.70353447785105
 10
11.25598339779564
 20
10.70517394418692
 10
11.25675079043713
 20
10.70532371861643
 10
11.26201624739701
 20
10.70636730818976
 10
11.26551420504092
 20
10.71240257350773
 10
11.26579925960032
 20
10.7198478120841
 10
11.26579925960032
 20
10.7198478120841
 10
11.26586770490412
 20
10.71984539636752
 10
11.26586770490412
 20
10.71984539636752
 97
        0
 97
        0
 75
     2
 76
     1
 98
        0
  0
SPLINE
  5
246
330
240
100
AcDbEntity
  8
H1
 62
   250
420
  2301728
370
     5
100
AcDbSpline
210
0.0
220
0.0
230
1.0
 70
    11
 71
     3
 72
    17
 73
    13
 74
     0
 42
0.0000000001
 43
0.0000000001
 12
1.0
 22
0.0
 32
0.0
 13
1.0
 23
0.0
 33
0.0
 40
0.0
 40
0.0
 40
0.0
 40
0.0
 40
1.0
 40
1.0
 40
1.0
 40
2.0
 40
2.0
 40
2.0
 40
3.0
 40
3.0
 40
3.0
 40
4.0
 40
4.0
 40
4.0
 40
4.0
 10
11.25956107408754
 20
10.72410752569745
 30
0.0
 10
11.26193008683809
 20
10.71432628916412
 30
0.0
 10
11.2585835141014
 20
10.70503544310158
 30
0.0
 10
11.25208523643417
 20
10.70334202576153
 30
0.0
 10
11.24558132209482
 20
10.70165988176562
 30
0.0
 10
11.23839939662839
 20
10.70822418902007
 30
0.0
 10
11.23601266862273
 20
10.71797724219304
 30
0.0
 10
11.23364381460846
 20
10.72776250492071
 30
0.0
 10
11.23699022860885
 20
10.73705576669986
 30
0.0
 10
11.24349494818704
 20
10.7387491840399
 30
0.0
 10
11.25000772015392
 20
10.74042408088599
 30
0.0
 10
11.25720333468113
 20
10.733850916004
 30
0.0
 10
11.25956107408754
 20
10.72410752569745
 30
0.0
  0
ENDBLK
  5
243
330
240
100
AcDbEntity
  8
0
100
AcDbBlockEnd
  0
BLOCK
  5
249
330
247
100
AcDbEntity
  8
0
100
AcDbBlockBegin
  2
block 19
 70
     0
 10
0.0
 20
0.0
 30
0.0
  3
block 19
  1

  0
INSERT
  5
24C
330
247
100
AcDbEntity
  8
H1
100
AcDbBlockReference
  2
block 20
 10
0.0
 20
0.0
 30
0.0
  0
ENDBLK
  5
24A
330
247
100
AcDbEntity
  8
0
100
AcDbBlockEnd
  0
BLOCK
  5
24D
330
24B
100
AcDbEntity
  8
0
100
AcDbBlockBegin
  2
block 20
 70
     0
 10
0.0
 20
0.0
 30
0.0
  3
block 20
  1

  0
POLYLINE
  5
24F
330
24B
100
AcDbEntity
  8
H1
 62
   250
420
  2301728
370
    15
100
AcDb2dPolyline
 66
     1
 10
0.0
 20
0.0
 30
0.0
  0
VERTEX
  5
250
330
24F
100
AcDbEntity
  8
H1
 62
   250
420
  2301728
370
    15
100
AcDbVertex
100
AcDb2dVertex
 10
11.04003662092666
 20
10.85741153267232
 30
0.0
  0
VERTEX
  5
251
330
24F
100
AcDbEntity
  8
H1
 62
   250
420
  2301728
370
    15
100
AcDbVertex
100
AcDb2dVertex
 10
10.42322098315129
 20
11.29456833080923
 30
0.0
  0
VERTEX
  5
252
330
24F
100
AcDbEntity
  8
H1
 62
   250
420
  2301728
370
    15
100
AcDbVertex
100
AcDb2dVertex
 10
10.42322098315129
 20
11.85267139339199
 30
0.0
  0
VERTEX
  5
253
330
24F
100
AcDbEntity
  8
H1
 62
   250
420
  2301728
370
    15
100
AcDbVertex
100
AcDb2dVertex
 10
10.43265727807246
 20
11.85514233456092
 30
0.0
  0
VERTEX
  5
254
330
24F
100
AcDbEntity
  8
H1
 62
   250
420
  2301728
370
    15
100
AcDbVertex
100
AcDb2dVertex
 10
11.0494719887325
 20
11.46527271238617
 30
0.0
  0
VERTEX
  5
255
330
24F
100
AcDbEntity
  8
H1
 62
   250
420
  2301728
370
    15
100
AcDbVertex
100
AcDb2dVertex
 10
11.04947198873017
 20
10.85988268013972
 30
0.0
  0
VERTEX
  5
256
330
24F
100
AcDbEntity
  8
H1
 62
   250
420
  2301728
370
    15
100
AcDbVertex
100
AcDb2dVertex
 10
11.04003662092666
 20
10.85741153267232
 30
0.0
  0
SEQEND
  5
258
330
24F
100
AcDbEntity
  8
H1
 62
   250
420
  2301728
370
    15
  0
HATCH
  5
257
330
24B
100
AcDbEntity
  8
H1
 62
   254
420
 13358815
100
AcDbHatch
 10
0.0
 20
0.0
 30
0.0
210
0.0
220
0.0
230
1.0
  2
SOLID
 70
     1
 71
     0
 91
        1
 92
        1
 93
        6
 72
     1
 10
11.04003662092666
 20
10.85741153267232
 11
10.42322098315129
 21
11.29456833080923
 72
     1
 10
10.42322098315129
 20
11.29456833080923
 11
10.42322098315129
 21
11.85267139339199
 72
     1
 10
10.42322098315129
 20
11.85267139339199
 11
10.43265727807246
 21
11.85514233456092
 72
     1
 10
10.43265727807246
 20
11.85514233456092
 11
11.0494719887325
 21
11.46527271238617
 72
     1
 10
11.0494719887325
 20
11.46527271238617
 11
11.04947198873017
 21
10.85988268013972
 72
     1
 10
11.04947198873017
 20
10.85988268013972
 11
11.04003662092666
 21
10.85741153267232
 97
        0
 75
     2
 76
     1
 98
        0
  0
POLYLINE
  5
259
330
24B
100
AcDbEntity
  8
H1
 62
   250
420
  2301728
370
     9
100
AcDb2dPolyline
 66
     1
 10
0.0
 20
0.0
 30
0.0
  0
VERTEX
  5
25A
330
259
100
AcDbEntity
  8
H1
 62
   250
420
  2301728
370
     9
100
AcDbVertex
100
AcDb2dVertex
 10
11.04003662092666
 20
10.85741153267232
 30
0.0
  0
VERTEX
  5
25B
330
259
100
AcDbEntity
  8
H1
 62
   250
420
  2301728
370
     9
100
AcDbVertex
100
AcDb2dVertex
 10
11.04003662092666
 20
11.46280156480376
 30
0.0
  0
VERTEX
  5
25C
330
259
100
AcDbEntity
  8
H1
 62
   250
420
  2301728
370
     9
100
AcDbVertex
100
AcDb2dVertex
 10
10.42322098315129
 20
11.85267139339199
 30
0.0
  0
SEQEND
  5
25D
330
259
100
AcDbEntity
  8
H1
 62
   250
420
  2301728
370
     9
  0
INSERT
  5
25F
330
24B
100
AcDbEntity
  8
H1
100
AcDbBlockReference
  2
block 21
 10
0.0
 20
0.0
 30
0.0
  0
INSERT
  5
286
330
24B
100
AcDbEntity
  8
H1
100
AcDbBlockReference
  2
block 22
 10
0.0
 20
0.0
 30
0.0
  0
INSERT
  5
2A6
330
24B
100
AcDbEntity
  8
H1
100
AcDbBlockReference
  2
block 23
 10
0.0
 20
0.0
 30
0.0
  0
INSERT
  5
2CD
330
24B
100
AcDbEntity
  8
H1
100
AcDbBlockReference
  2
block 24
 10
0.0
 20
0.0
 30
0.0
  0
INSERT
  5
2ED
330
24B
100
AcDbEntity
  8
H1
100
AcDbBlockReference
  2
block 25
 10
0.0
 20
0.0
 30
0.0
  0
INSERT
  5
314
330
24B
100
AcDbEntity
  8
H1
100
AcDbBlockReference
  2
block 26
 10
0.0
 20
0.0
 30
0.0
  0
INSERT
  5
334
330
24B
100
AcDbEntity
  8
H1
100
AcDbBlockReference
  2
block 27
 10
0.0
 20
0.0
 30
0.0
  0
INSERT
  5
35B
330
24B
100
AcDbEntity
  8
H1
100
AcDbBlockReference
  2
block 28
 10
0.0
 20
0.0
 30
0.0
  0
INSERT
  5
37B
330
24B
100
AcDbEntity
  8
H1
100
AcDbBlockReference
  2
block 29
 10
0.0
 20
0.0
 30
0.0
  0
INSERT
  5
3A2
330
24B
100
AcDbEntity
  8
H1
100
AcDbBlockReference
  2
block 30
 10
0.0
 20
0.0
 30
0.0
  0
INSERT
  5
3C2
330
24B
100
AcDbEntity
  8
H1
100
AcDbBlockReference
  2
block 31
 10
0.0
 20
0.0
 30
0.0
  0
INSERT
  5
3E9
330
24B
100
AcDbEntity
  8
H1
100
AcDbBlockReference
  2
block 32
 10
0.0
 20
0.0
 30
0.0
  0
INSERT
  5
409
330
24B
100
AcDbEntity
  8
H1
100
AcDbBlockReference
  2
block 33
 10
0.0
 20
0.0
 30
0.0
  0
INSERT
  5
430
330
24B
100
AcDbEntity
  8
H1
100
AcDbBlockReference
  2
block 34
 10
0.0
 20
0.0
 30
0.0
  0
INSERT
  5
450
330
24B
100
AcDbEntity
  8
H1
100
AcDbBlockReference
  2
block 35
 10
0.0
 20
0.0
 30
0.0
  0
INSERT
  5
477
330
24B
100
AcDbEntity
  8
H1
100
AcDbBlockReference
  2
block 36
 10
0.0
 20
0.0
 30
0.0
  0
POLYLINE
  5
496
330
24B
100
AcDbEntity
  8
H1
 62
   250
420
  2301728
370
     9
100
AcDb2dPolyline
 66
     1
 10
0.0
 20
0.0
 30
0.0
  0
VERTEX
  5
497
330
496
100
AcDbEntity
  8
H1
 62
   250
420
  2301728
370
     9
100
AcDbVertex
100
AcDb2dVertex
 10
11.04003662092666
 20
11.46280156480376
 30
0.0
  0
VERTEX
  5
498
330
496
100
AcDbEntity
  8
H1
 62
   250
420
  2301728
370
     9
100
AcDbVertex
100
AcDb2dVertex
 10
11.0494719887325
 20
11.46527271238617
 30
0.0
  0
SEQEND
  5
499
330
496
100
AcDbEntity
  8
H1
 62
   250
420
  2301728
370
     9
  0
ENDBLK
  5
24E
330
24B
100
AcDbEntity
  8
0
100
AcDbBlockEnd
  0
BLOCK
  5
260
330
25E
100
AcDbEntity
  8
0
100
AcDbBlockBegin
  2
block 21
 70
     0
 10
0.0
 20
0.0
 30
0.0
  3
block 21
  1

  0
POLYLINE
  5
262
330
25E
100
AcDbEntity
  8
H1
 62
   250
420
  2301728
370
     9
100
AcDb2dPolyline
 66
     1
 10
0.0
 20
0.0
 30
0.0
  0
VERTEX
  5
263
330
262
100
AcDbEntity
  8
H1
 62
   250
420
  2301728
370
     9
100
AcDbVertex
100
AcDb2dVertex
 10
10.93629276470235
 20
11.50995790158256
 30
0.0
  0
VERTEX
  5
264
330
262
100
AcDbEntity
  8
H1
 62
   250
420
  2301728
370
     9
100
AcDbVertex
100
AcDb2dVertex
 10
10.91663146853259
 20
11.50866416492277
 30
0.0
  0
VERTEX
  5
265
330
262
100
AcDbEntity
  8
H1
 62
   250
420
  2301728
370
     9
100
AcDbVertex
100
AcDb2dVertex
 10
11.00892268021996
 20
11.45009484122057
 30
0.0
  0
VERTEX
  5
266
330
262
100
AcDbEntity
  8
H1
 62
   250
420
  2301728
370
     9
100
AcDbVertex
100
AcDb2dVertex
 10
11.00919979072584
 20
11.46381889846887
 30
0.0
  0
VERTEX
  5
267
330
262
100
AcDbEntity
  8
H1
 62
   250
420
  2301728
370
     9
100
AcDbVertex
100
AcDb2dVertex
 10
10.91692275568481
 20
11.5222140044123
 30
0.0
  0
SEQEND
  5
268
330
262
100
AcDbEntity
  8
H1
 62
   250
420
  2301728
370
     9
  0
POLYLINE
  5
269
330
25E
100
AcDbEntity
  8
H1
 62
   250
420
  2301728
370
     9
100
AcDb2dPolyline
 66
     1
 10
0.0
 20
0.0
 30
0.0
  0
VERTEX
  5
26A
330
269
100
AcDbEntity
  8
H1
 62
   250
420
  2301728
370
     9
100
AcDbVertex
100
AcDb2dVertex
 10
10.81969857793858
 20
11.58373717290436
 30
0.0
  0
VERTEX
  5
26B
330
269
100
AcDbEntity
  8
H1
 62
   250
420
  2301728
370
     9
100
AcDbVertex
100
AcDb2dVertex
 10
10.80063363822708
 20
11.58227555052263
 30
0.0
  0
VERTEX
  5
26C
330
269
100
AcDbEntity
  8
H1
 62
   250
420
  2301728
370
     9
100
AcDbVertex
100
AcDb2dVertex
 10
10.89010564216043
 20
11.52549441364987
 30
0.0
  0
VERTEX
  5
26D
330
269
100
AcDbEntity
  8
H1
 62
   250
420
  2301728
370
     9
100
AcDbVertex
100
AcDb2dVertex
 10
10.89039706013341
 20
11.53900460977983
 30
0.0
  0
VERTEX
  5
26E
330
269
100
AcDbEntity
  8
H1
 62
   250
420
  2301728
370
     9
100
AcDbVertex
100
AcDb2dVertex
 10
10.8009216176554
 20
11.59561545074895
 30
0.0
  0
SEQEND
  5
26F
330
269
100
AcDbEntity
  8
H1
 62
   250
420
  2301728
370
     9
  0
POLYLINE
  5
270
330
25E
100
AcDbEntity
  8
H1
 62
   250
420
  2301728
370
     9
100
AcDb2dPolyline
 66
     1
 10
0.0
 20
0.0
 30
0.0
  0
VERTEX
  5
271
330
270
100
AcDbEntity
  8
H1
 62
   250
420
  2301728
370
     9
100
AcDbVertex
100
AcDb2dVertex
 10
10.70661532853832
 20
11.65529785105256
 30
0.0
  0
VERTEX
  5
272
330
270
100
AcDbEntity
  8
H1
 62
   250
420
  2301728
370
     9
100
AcDbVertex
100
AcDb2dVertex
 10
10.68810332937687
 20
11.65369061361763
 30
0.0
  0
VERTEX
  5
273
330
270
100
AcDbEntity
  8
H1
 62
   250
420
  2301728
370
     9
100
AcDbVertex
100
AcDb2dVertex
 10
10.77488948951875
 20
11.59861485226785
 30
0.0
  0
VERTEX
  5
274
330
270
100
AcDbEntity
  8
H1
 62
   250
420
  2301728
370
     9
100
AcDbVertex
100
AcDb2dVertex
 10
10.77518585331768
 20
11.61190876994263
 30
0.0
  0
VERTEX
  5
275
330
270
100
AcDbEntity
  8
H1
 62
   250
420
  2301728
370
     9
100
AcDbVertex
100
AcDb2dVertex
 10
10.68839558088227
 20
11.66682698992136
 30
0.0
  0
SEQEND
  5
276
330
270
100
AcDbEntity
  8
H1
 62
   250
420
  2301728
370
     9
  0
POLYLINE
  5
277
330
25E
100
AcDbEntity
  8
H1
 62
   250
420
  2301728
370
     9
100
AcDb2dPolyline
 66
     1
 10
0.0
 20
0.0
 30
0.0
  0
VERTEX
  5
278
330
277
100
AcDbEntity
  8
H1
 62
   250
420
  2301728
370
     9
100
AcDbVertex
100
AcDb2dVertex
 10
10.59690006062669
 20
11.72472308223486
 30
0.0
  0
VERTEX
  5
279
330
277
100
AcDbEntity
  8
H1
 62
   250
420
  2301728
370
     9
100
AcDbVertex
100
AcDb2dVertex
 10
10.57891255973547
 20
11.72298196409142
 30
0.0
  0
VERTEX
  5
27A
330
277
100
AcDbEntity
  8
H1
 62
   250
420
  2301728
370
     9
100
AcDbVertex
100
AcDb2dVertex
 10
10.6631397683387
 20
11.66953110814637
 30
0.0
  0
VERTEX
  5
27B
330
277
100
AcDbEntity
  8
H1
 62
   250
420
  2301728
370
     9
100
AcDbVertex
100
AcDb2dVertex
 10
10.66344033182428
 20
11.68261791672166
 30
0.0
  0
VERTEX
  5
27C
330
277
100
AcDbEntity
  8
H1
 62
   250
420
  2301728
370
     9
100
AcDbVertex
100
AcDb2dVertex
 10
10.5792183725687
 20
11.73591364863254
 30
0.0
  0
SEQEND
  5
27D
330
277
100
AcDbEntity
  8
H1
 62
   250
420
  2301728
370
     9
  0
POLYLINE
  5
27E
330
25E
100
AcDbEntity
  8
H1
 62
   250
420
  2301728
370
     9
100
AcDb2dPolyline
 66
     1
 10
0.0
 20
0.0
 30
0.0
  0
VERTEX
  5
27F
330
27E
100
AcDbEntity
  8
H1
 62
   250
420
  2301728
370
     9
100
AcDbVertex
100
AcDb2dVertex
 10
10.4903904976527
 20
11.79212552328197
 30
0.0
  0
VERTEX
  5
280
330
27E
100
AcDbEntity
  8
H1
 62
   250
420
  2301728
370
     9
100
AcDbVertex
100
AcDb2dVertex
 10
10.47291811092625
 20
11.79025171338853
 30
0.0
  0
VERTEX
  5
281
330
27E
100
AcDbEntity
  8
H1
 62
   250
420
  2301728
370
     9
100
AcDbVertex
100
AcDb2dVertex
 10
10.55468551917458
 20
11.73835507030971
 30
0.0
  0
VERTEX
  5
282
330
27E
100
AcDbEntity
  8
H1
 62
   250
420
  2301728
370
     9
100
AcDbVertex
100
AcDb2dVertex
 10
10.55499146282856
 20
11.75124711149125
 30
0.0
  0
VERTEX
  5
283
330
27E
100
AcDbEntity
  8
H1
 62
   250
420
  2301728
370
     9
100
AcDbVertex
100
AcDb2dVertex
 10
10.47322095988999
 20
11.8029904882568
 30
0.0
  0
SEQEND
  5
284
330
27E
100
AcDbEntity
  8
H1
 62
   250
420
  2301728
370
     9
  0
ENDBLK
  5
261
330
25E
100
AcDbEntity
  8
0
100
AcDbBlockEnd
  0
BLOCK
  5
287
330
285
100
AcDbEntity
  8
0
100
AcDbBlockBegin
  2
block 22
 70
     0
 10
0.0
 20
0.0
 30
0.0
  3
block 22
  1

  0
POLYLINE
  5
289
330
285
100
AcDbEntity
  8
H1
 62
   250
420
  2301728
370
     9
100
AcDb2dPolyline
 66
     1
 10
0.0
 20
0.0
 30
0.0
  0
VERTEX
  5
28A
330
289
100
AcDbEntity
  8
H1
 62
   250
420
  2301728
370
     9
100
AcDbVertex
100
AcDb2dVertex
 10
10.88292002062859
 20
11.5078786198521
 30
0.0
  0
VERTEX
  5
28B
330
289
100
AcDbEntity
  8
H1
 62
   250
420
  2301728
370
     9
100
AcDbVertex
100
AcDb2dVertex
 10
10.86352250083147
 20
11.50660088273587
 30
0.0
  0
VERTEX
  5
28C
330
289
100
AcDbEntity
  8
H1
 62
   250
420
  2301728
370
     9
100
AcDbVertex
100
AcDb2dVertex
 10
10.95455746298785
 20
11.44840308406553
 30
0.0
  0
VERTEX
  5
28D
330
289
100
AcDbEntity
  8
H1
 62
   250
420
  2301728
370
     9
100
AcDbVertex
100
AcDb2dVertex
 10
10.95484190820333
 20
11.46202917369696
 30
0.0
  0
VERTEX
  5
28E
330
289
100
AcDbEntity
  8
H1
 62
   250
420
  2301728
370
     9
100
AcDbVertex
100
AcDb2dVertex
 10
10.86382214029663
 20
11.52005702966625
 30
0.0
  0
SEQEND
  5
28F
330
289
100
AcDbEntity
  8
H1
 62
   250
420
  2301728
370
     9
  0
POLYLINE
  5
290
330
285
100
AcDbEntity
  8
H1
 62
   250
420
  2301728
370
     9
100
AcDb2dPolyline
 66
     1
 10
0.0
 20
0.0
 30
0.0
  0
VERTEX
  5
291
330
290
100
AcDbEntity
  8
H1
 62
   250
420
  2301728
370
     9
100
AcDbVertex
100
AcDb2dVertex
 10
10.76791741880142
 20
11.5812027036615
 30
0.0
  0
VERTEX
  5
292
330
290
100
AcDbEntity
  8
H1
 62
   250
420
  2301728
370
     9
100
AcDbVertex
100
AcDb2dVertex
 10
10.74909864914695
 20
11.57975649908498
 30
0.0
  0
VERTEX
  5
293
330
290
100
AcDbEntity
  8
H1
 62
   250
420
  2301728
370
     9
100
AcDbVertex
100
AcDb2dVertex
 10
10.83736792287133
 20
11.52332236714609
 30
0.0
  0
VERTEX
  5
294
330
290
100
AcDbEntity
  8
H1
 62
   250
420
  2301728
370
     9
100
AcDbVertex
100
AcDb2dVertex
 10
10.83764811514996
 20
11.5367378276335
 30
0.0
  0
VERTEX
  5
295
330
290
100
AcDbEntity
  8
H1
 62
   250
420
  2301728
370
     9
100
AcDbVertex
100
AcDb2dVertex
 10
10.74938494549812
 20
11.59301304394789
 30
0.0
  0
SEQEND
  5
296
330
290
100
AcDbEntity
  8
H1
 62
   250
420
  2301728
370
     9
  0
POLYLINE
  5
297
330
285
100
AcDbEntity
  8
H1
 62
   250
420
  2301728
370
     9
100
AcDb2dPolyline
 66
     1
 10
0.0
 20
0.0
 30
0.0
  0
VERTEX
  5
298
330
297
100
AcDbEntity
  8
H1
 62
   250
420
  2301728
370
     9
100
AcDbVertex
100
AcDb2dVertex
 10
10.65632690136198
 20
11.65234730912047
 30
0.0
  0
VERTEX
  5
299
330
297
100
AcDbEntity
  8
H1
 62
   250
420
  2301728
370
     9
100
AcDbVertex
100
AcDb2dVertex
 10
10.63805089645335
 20
11.65075415374309
 30
0.0
  0
VERTEX
  5
29A
330
297
100
AcDbEntity
  8
H1
 62
   250
420
  2301728
370
     9
100
AcDbVertex
100
AcDb2dVertex
 10
10.72369802587913
 20
11.59599771038732
 30
0.0
  0
VERTEX
  5
29B
330
297
100
AcDbEntity
  8
H1
 62
   250
420
  2301728
370
     9
100
AcDbVertex
100
AcDb2dVertex
 10
10.72399270660091
 20
11.60920827269866
 30
0.0
  0
VERTEX
  5
29C
330
297
100
AcDbEntity
  8
H1
 62
   250
420
  2301728
370
     9
100
AcDbVertex
100
AcDb2dVertex
 10
10.63836000718796
 20
11.66380304641492
 30
0.0
  0
SEQEND
  5
29D
330
297
100
AcDbEntity
  8
H1
 62
   250
420
  2301728
370
     9
  0
POLYLINE
  5
29E
330
285
100
AcDbEntity
  8
H1
 62
   250
420
  2301728
370
     9
100
AcDb2dPolyline
 66
     1
 10
0.0
 20
0.0
 30
0.0
  0
VERTEX
  5
29F
330
29E
100
AcDbEntity
  8
H1
 62
   250
420
  2301728
370
     9
100
AcDbVertex
100
AcDb2dVertex
 10
10.54804901868948
 20
11.72137329165344
 30
0.0
  0
VERTEX
  5
2A0
330
29E
100
AcDbEntity
  8
H1
 62
   250
420
  2301728
370
     9
100
AcDbVertex
100
AcDb2dVertex
 10
10.53029834431168
 20
11.71964607027257
 30
0.0
  0
VERTEX
  5
2A1
330
29E
100
AcDbEntity
  8
H1
 62
   250
420
  2301728
370
     9
100
AcDbVertex
100
AcDb2dVertex
 10
10.61342258920821
 20
11.66650200072668
 30
0.0
  0
VERTEX
  5
2A2
330
29E
100
AcDbEntity
  8
H1
 62
   250
420
  2301728
370
     9
100
AcDbVertex
100
AcDb2dVertex
 10
10.61372146961662
 20
11.67950545393856
 30
0.0
  0
VERTEX
  5
2A3
330
29E
100
AcDbEntity
  8
H1
 62
   250
420
  2301728
370
     9
100
AcDbVertex
100
AcDb2dVertex
 10
10.53060347357352
 20
11.73249777821378
 30
0.0
  0
SEQEND
  5
2A4
330
29E
100
AcDbEntity
  8
H1
 62
   250
420
  2301728
370
     9
  0
ENDBLK
  5
288
330
285
100
AcDbEntity
  8
0
100
AcDbBlockEnd
  0
BLOCK
  5
2A7
330
2A5
100
AcDbEntity
  8
0
100
AcDbBlockBegin
  2
block 23
 70
     0
 10
0.0
 20
0.0
 30
0.0
  3
block 23
  1

  0
POLYLINE
  5
2A9
330
2A5
100
AcDbEntity
  8
H1
 62
   250
420
  2301728
370
     9
100
AcDb2dPolyline
 66
     1
 10
0.0
 20
0.0
 30
0.0
  0
VERTEX
  5
2AA
330
2A9
100
AcDbEntity
  8
H1
 62
   250
420
  2301728
370
     9
100
AcDbVertex
100
AcDb2dVertex
 10
10.93479874438903
 20
11.43868690357611
 30
0.0
  0
VERTEX
  5
2AB
330
2A9
100
AcDbEntity
  8
H1
 62
   250
420
  2301728
370
     9
100
AcDbVertex
100
AcDb2dVertex
 10
10.91513170609877
 20
11.43757000842541
 30
0.0
  0
VERTEX
  5
2AC
330
2A9
100
AcDbEntity
  8
H1
 62
   250
420
  2301728
370
     9
100
AcDbVertex
100
AcDb2dVertex
 10
11.00744223055214
 20
11.37811226725234
 30
0.0
  0
VERTEX
  5
2AD
330
2A9
100
AcDbEntity
  8
H1
 62
   250
420
  2301728
370
     9
100
AcDbVertex
100
AcDb2dVertex
 10
11.00772795655992
 20
11.39184791119327
 30
0.0
  0
VERTEX
  5
2AE
330
2A9
100
AcDbEntity
  8
H1
 62
   250
420
  2301728
370
     9
100
AcDbVertex
100
AcDb2dVertex
 10
10.91542419183035
 20
11.45113308591496
 30
0.0
  0
SEQEND
  5
2AF
330
2A9
100
AcDbEntity
  8
H1
 62
   250
420
  2301728
370
     9
  0
POLYLINE
  5
2B0
330
2A5
100
AcDbEntity
  8
H1
 62
   250
420
  2301728
370
     9
100
AcDb2dPolyline
 66
     1
 10
0.0
 20
0.0
 30
0.0
  0
VERTEX
  5
2B1
330
2B0
100
AcDbEntity
  8
H1
 62
   250
420
  2301728
370
     9
100
AcDbVertex
100
AcDb2dVertex
 10
10.81818166049109
 20
11.51359217547209
 30
0.0
  0
VERTEX
  5
2B2
330
2B0
100
AcDbEntity
  8
H1
 62
   250
420
  2301728
370
     9
100
AcDbVertex
100
AcDb2dVertex
 10
10.79910339885813
 20
11.51230097925876
 30
0.0
  0
VERTEX
  5
2B3
330
2B0
100
AcDbEntity
  8
H1
 62
   250
420
  2301728
370
     9
100
AcDbVertex
100
AcDb2dVertex
 10
10.88860274779856
 20
11.45466024761155
 30
0.0
  0
VERTEX
  5
2B4
330
2B0
100
AcDbEntity
  8
H1
 62
   250
420
  2301728
370
     9
100
AcDbVertex
100
AcDb2dVertex
 10
10.88889425625959
 20
11.4681749252127
 30
0.0
  0
VERTEX
  5
2B5
330
2B0
100
AcDbEntity
  8
H1
 62
   250
420
  2301728
370
     9
100
AcDbVertex
100
AcDb2dVertex
 10
10.79939997569075
 20
11.52565156988343
 30
0.0
  0
SEQEND
  5
2B6
330
2B0
100
AcDbEntity
  8
H1
 62
   250
420
  2301728
370
     9
  0
POLYLINE
  5
2B7
330
2A5
100
AcDbEntity
  8
H1
 62
   250
420
  2301728
370
     9
100
AcDb2dPolyline
 66
     1
 10
0.0
 20
0.0
 30
0.0
  0
VERTEX
  5
2B8
330
2B7
100
AcDbEntity
  8
H1
 62
   250
420
  2301728
370
     9
100
AcDbVertex
100
AcDb2dVertex
 10
10.70506627876961
 20
11.58624129608761
 30
0.0
  0
VERTEX
  5
2B9
330
2B7
100
AcDbEntity
  8
H1
 62
   250
420
  2301728
370
     9
100
AcDbVertex
100
AcDb2dVertex
 10
10.68654837897591
 20
11.5847983309241
 30
0.0
  0
VERTEX
  5
2BA
330
2B7
100
AcDbEntity
  8
H1
 62
   250
420
  2301728
370
     9
100
AcDbVertex
100
AcDb2dVertex
 10
10.77335491964239
 20
11.52888703346304
 30
0.0
  0
VERTEX
  5
2BB
330
2B7
100
AcDbEntity
  8
H1
 62
   250
420
  2301728
370
     9
100
AcDbVertex
100
AcDb2dVertex
 10
10.77365062779007
 20
11.54219460196468
 30
0.0
  0
VERTEX
  5
2BC
330
2B7
100
AcDbEntity
  8
H1
 62
   250
420
  2301728
370
     9
100
AcDbVertex
100
AcDb2dVertex
 10
10.68684090584381
 20
11.59794364915586
 30
0.0
  0
SEQEND
  5
2BD
330
2B7
100
AcDbEntity
  8
H1
 62
   250
420
  2301728
370
     9
  0
POLYLINE
  5
2BE
330
2A5
100
AcDbEntity
  8
H1
 62
   250
420
  2301728
370
     9
100
AcDb2dPolyline
 66
     1
 10
0.0
 20
0.0
 30
0.0
  0
VERTEX
  5
2BF
330
2BE
100
AcDbEntity
  8
H1
 62
   250
420
  2301728
370
     9
100
AcDbVertex
100
AcDb2dVertex
 10
10.59531761630026
 20
11.65672914138111
 30
0.0
  0
VERTEX
  5
2C0
330
2BE
100
AcDbEntity
  8
H1
 62
   250
420
  2301728
370
     9
100
AcDbVertex
100
AcDb2dVertex
 10
10.57733321009927
 20
11.65514128955096
 30
0.0
  0
VERTEX
  5
2C1
330
2BE
100
AcDbEntity
  8
H1
 62
   250
420
  2301728
370
     9
100
AcDbVertex
100
AcDb2dVertex
 10
10.66158134215521
 20
11.60088178632151
 30
0.0
  0
VERTEX
  5
2C2
330
2BE
100
AcDbEntity
  8
H1
 62
   250
420
  2301728
370
     9
100
AcDbVertex
100
AcDb2dVertex
 10
10.66187288785406
 20
11.61398320715028
 30
0.0
  0
VERTEX
  5
2C3
330
2BE
100
AcDbEntity
  8
H1
 62
   250
420
  2301728
370
     9
100
AcDbVertex
100
AcDb2dVertex
 10
10.57763093226107
 20
11.66808737993214
 30
0.0
  0
SEQEND
  5
2C4
330
2BE
100
AcDbEntity
  8
H1
 62
   250
420
  2301728
370
     9
  0
POLYLINE
  5
2C5
330
2A5
100
AcDbEntity
  8
H1
 62
   250
420
  2301728
370
     9
100
AcDb2dPolyline
 66
     1
 10
0.0
 20
0.0
 30
0.0
  0
VERTEX
  5
2C6
330
2C5
100
AcDbEntity
  8
H1
 62
   250
420
  2301728
370
     9
100
AcDbVertex
100
AcDb2dVertex
 10
10.48878311001585
 20
11.72515180039232
 30
0.0
  0
VERTEX
  5
2C7
330
2C5
100
AcDbEntity
  8
H1
 62
   250
420
  2301728
370
     9
100
AcDbVertex
100
AcDb2dVertex
 10
10.47130540111261
 20
11.72342952945377
 30
0.0
  0
VERTEX
  5
2C8
330
2C5
100
AcDbEntity
  8
H1
 62
   250
420
  2301728
370
     9
100
AcDbVertex
100
AcDb2dVertex
 10
10.55309333211466
 20
11.67075493930103
 30
0.0
  0
VERTEX
  5
2C9
330
2C5
100
AcDbEntity
  8
H1
 62
   250
420
  2301728
370
     9
100
AcDbVertex
100
AcDb2dVertex
 10
10.55339934815907
 20
11.68365056565952
 30
0.0
  0
VERTEX
  5
2CA
330
2C5
100
AcDbEntity
  8
H1
 62
   250
420
  2301728
370
     9
100
AcDbVertex
100
AcDb2dVertex
 10
10.47160841454062
 20
11.73618087223451
 30
0.0
  0
SEQEND
  5
2CB
330
2C5
100
AcDbEntity
  8
H1
 62
   250
420
  2301728
370
     9
  0
ENDBLK
  5
2A8
330
2A5
100
AcDbEntity
  8
0
100
AcDbBlockEnd
  0
BLOCK
  5
2CE
330
2CC
100
AcDbEntity
  8
0
100
AcDbBlockBegin
  2
block 24
 70
     0
 10
0.0
 20
0.0
 30
0.0
  3
block 24
  1

  0
POLYLINE
  5
2D0
330
2CC
100
AcDbEntity
  8
H1
 62
   250
420
  2301728
370
     9
100
AcDb2dPolyline
 66
     1
 10
0.0
 20
0.0
 30
0.0
  0
VERTEX
  5
2D1
330
2D0
100
AcDbEntity
  8
H1
 62
   250
420
  2301728
370
     9
100
AcDbVertex
100
AcDb2dVertex
 10
10.88141791368586
 20
11.43708839435341
 30
0.0
  0
VERTEX
  5
2D2
330
2D0
100
AcDbEntity
  8
H1
 62
   250
420
  2301728
370
     9
100
AcDbVertex
100
AcDb2dVertex
 10
10.86201449776523
 20
11.43597492850471
 30
0.0
  0
VERTEX
  5
2D3
330
2D0
100
AcDbEntity
  8
H1
 62
   250
420
  2301728
370
     9
100
AcDbVertex
100
AcDb2dVertex
 10
10.95306802654838
 20
11.37689788171925
 30
0.0
  0
VERTEX
  5
2D4
330
2D0
100
AcDbEntity
  8
H1
 62
   250
420
  2301728
370
     9
100
AcDbVertex
100
AcDb2dVertex
 10
10.95334356256275
 20
11.39054396136957
 30
0.0
  0
VERTEX
  5
2D5
330
2D0
100
AcDbEntity
  8
H1
 62
   250
420
  2301728
370
     9
100
AcDbVertex
100
AcDb2dVertex
 10
10.8623053004197
 20
11.44945465063088
 30
0.0
  0
SEQEND
  5
2D6
330
2D0
100
AcDbEntity
  8
H1
 62
   250
420
  2301728
370
     9
  0
POLYLINE
  5
2D7
330
2CC
100
AcDbEntity
  8
H1
 62
   250
420
  2301728
370
     9
100
AcDb2dPolyline
 66
     1
 10
0.0
 20
0.0
 30
0.0
  0
VERTEX
  5
2D8
330
2D7
100
AcDbEntity
  8
H1
 62
   250
420
  2301728
370
     9
100
AcDbVertex
100
AcDb2dVertex
 10
10.76637446455447
 20
11.51152086740821
 30
0.0
  0
VERTEX
  5
2D9
330
2D7
100
AcDbEntity
  8
H1
 62
   250
420
  2301728
370
     9
100
AcDbVertex
100
AcDb2dVertex
 10
10.74754986776123
 20
11.51024252003442
 30
0.0
  0
VERTEX
  5
2DA
330
2D7
100
AcDbEntity
  8
H1
 62
   250
420
  2301728
370
     9
100
AcDbVertex
100
AcDb2dVertex
 10
10.83583815508268
 20
11.45295605017139
 30
0.0
  0
VERTEX
  5
2DB
330
2D7
100
AcDbEntity
  8
H1
 62
   250
420
  2301728
370
     9
100
AcDbVertex
100
AcDb2dVertex
 10
10.83613632450442
 20
11.46638551468828
 30
0.0
  0
VERTEX
  5
2DC
330
2D7
100
AcDbEntity
  8
H1
 62
   250
420
  2301728
370
     9
100
AcDbVertex
100
AcDb2dVertex
 10
10.74783643557693
 20
11.52351250931065
 30
0.0
  0
SEQEND
  5
2DD
330
2D7
100
AcDbEntity
  8
H1
 62
   250
420
  2301728
370
     9
  0
POLYLINE
  5
2DE
330
2CC
100
AcDbEntity
  8
H1
 62
   250
420
  2301728
370
     9
100
AcDb2dPolyline
 66
     1
 10
0.0
 20
0.0
 30
0.0
  0
VERTEX
  5
2DF
330
2DE
100
AcDbEntity
  8
H1
 62
   250
420
  2301728
370
     9
100
AcDbVertex
100
AcDb2dVertex
 10
10.65476007580918
 20
11.5837385712456
 30
0.0
  0
VERTEX
  5
2E0
330
2DE
100
AcDbEntity
  8
H1
 62
   250
420
  2301728
370
     9
100
AcDbVertex
100
AcDb2dVertex
 10
10.63647798446656
 20
11.5823052278891
 30
0.0
  0
VERTEX
  5
2E1
330
2DE
100
AcDbEntity
  8
H1
 62
   250
420
  2301728
370
     9
100
AcDbVertex
100
AcDb2dVertex
 10
10.72213649208796
 20
11.5267332591749
 30
0.0
  0
VERTEX
  5
2E2
330
2DE
100
AcDbEntity
  8
H1
 62
   250
420
  2301728
370
     9
100
AcDbVertex
100
AcDb2dVertex
 10
10.72243960733565
 20
11.5399464452366
 30
0.0
  0
VERTEX
  5
2E3
330
2DE
100
AcDbEntity
  8
H1
 62
   250
420
  2301728
370
     9
100
AcDbVertex
100
AcDb2dVertex
 10
10.63677791189616
 20
11.5953651683715
 30
0.0
  0
SEQEND
  5
2E4
330
2DE
100
AcDbEntity
  8
H1
 62
   250
420
  2301728
370
     9
  0
POLYLINE
  5
2E5
330
2CC
100
AcDbEntity
  8
H1
 62
   250
420
  2301728
370
     9
100
AcDb2dPolyline
 66
     1
 10
0.0
 20
0.0
 30
0.0
  0
VERTEX
  5
2E6
330
2E5
100
AcDbEntity
  8
H1
 62
   250
420
  2301728
370
     9
100
AcDbVertex
100
AcDb2dVertex
 10
10.54646671810128
 20
11.65380157051432
 30
0.0
  0
VERTEX
  5
2E7
330
2E5
100
AcDbEntity
  8
H1
 62
   250
420
  2301728
370
     9
100
AcDbVertex
100
AcDb2dVertex
 10
10.52870075898575
 20
11.65223981036336
 30
0.0
  0
VERTEX
  5
2E8
330
2E5
100
AcDbEntity
  8
H1
 62
   250
420
  2301728
370
     9
100
AcDbVertex
100
AcDb2dVertex
 10
10.6118450907077
 20
11.59829178141768
 30
0.0
  0
VERTEX
  5
2E9
330
2E5
100
AcDbEntity
  8
H1
 62
   250
420
  2301728
370
     9
100
AcDbVertex
100
AcDb2dVertex
 10
10.61214422448259
 20
11.61130778274879
 30
0.0
  0
VERTEX
  5
2EA
330
2E5
100
AcDbEntity
  8
H1
 62
   250
420
  2301728
370
     9
100
AcDbVertex
100
AcDb2dVertex
 10
10.52900606922362
 20
11.66510048124691
 30
0.0
  0
SEQEND
  5
2EB
330
2E5
100
AcDbEntity
  8
H1
 62
   250
420
  2301728
370
     9
  0
ENDBLK
  5
2CF
330
2CC
100
AcDbEntity
  8
0
100
AcDbBlockEnd
  0
BLOCK
  5
2EE
330
2EC
100
AcDbEntity
  8
0
100
AcDbBlockBegin
  2
block 25
 70
     0
 10
0.0
 20
0.0
 30
0.0
  3
block 25
  1

  0
POLYLINE
  5
2F0
330
2EC
100
AcDbEntity
  8
H1
 62
   250
420
  2301728
370
     9
100
AcDb2dPolyline
 66
     1
 10
0.0
 20
0.0
 30
0.0
  0
VERTEX
  5
2F1
330
2F0
100
AcDbEntity
  8
H1
 62
   250
420
  2301728
370
     9
100
AcDbVertex
100
AcDb2dVertex
 10
10.93330440245634
 20
11.36735385485437
 30
0.0
  0
VERTEX
  5
2F2
330
2F0
100
AcDbEntity
  8
H1
 62
   250
420
  2301728
370
     9
100
AcDbVertex
100
AcDb2dVertex
 10
10.91364073032034
 20
11.36640367043043
 30
0.0
  0
VERTEX
  5
2F3
330
2F0
100
AcDbEntity
  8
H1
 62
   250
420
  2301728
370
     9
100
AcDbVertex
100
AcDb2dVertex
 10
11.00597800255989
 20
11.30605675677332
 30
0.0
  0
VERTEX
  5
2F4
330
2F0
100
AcDbEntity
  8
H1
 62
   250
420
  2301728
370
     9
100
AcDbVertex
100
AcDb2dVertex
 10
11.00625565599388
 20
11.31980770284856
 30
0.0
  0
VERTEX
  5
2F5
330
2F0
100
AcDbEntity
  8
H1
 62
   250
420
  2301728
370
     9
100
AcDbVertex
100
AcDb2dVertex
 10
10.91391501760007
 20
11.37998790577888
 30
0.0
  0
SEQEND
  5
2F6
330
2F0
100
AcDbEntity
  8
H1
 62
   250
420
  2301728
370
     9
  0
POLYLINE
  5
2F7
330
2EC
100
AcDbEntity
  8
H1
 62
   250
420
  2301728
370
     9
100
AcDb2dPolyline
 66
     1
 10
0.0
 20
0.0
 30
0.0
  0
VERTEX
  5
2F8
330
2F7
100
AcDbEntity
  8
H1
 62
   250
420
  2301728
370
     9
100
AcDbVertex
100
AcDb2dVertex
 10
10.81664673384282
 20
11.44338546400267
 30
0.0
  0
VERTEX
  5
2F9
330
2F7
100
AcDbEntity
  8
H1
 62
   250
420
  2301728
370
     9
100
AcDbVertex
100
AcDb2dVertex
 10
10.79757098363921
 20
11.44226477010649
 30
0.0
  0
VERTEX
  5
2FA
330
2F7
100
AcDbEntity
  8
H1
 62
   250
420
  2301728
370
     9
100
AcDbVertex
100
AcDb2dVertex
 10
10.88708908018243
 20
11.38375375328645
 30
0.0
  0
VERTEX
  5
2FB
330
2F7
100
AcDbEntity
  8
H1
 62
   250
420
  2301728
370
     9
100
AcDbVertex
100
AcDb2dVertex
 10
10.88738095059549
 20
11.39728635677218
 30
0.0
  0
VERTEX
  5
2FC
330
2F7
100
AcDbEntity
  8
H1
 62
   250
420
  2301728
370
     9
100
AcDbVertex
100
AcDb2dVertex
 10
10.79786774144787
 20
11.45562432367346
 30
0.0
  0
SEQEND
  5
2FD
330
2F7
100
AcDbEntity
  8
H1
 62
   250
420
  2301728
370
     9
  0
POLYLINE
  5
2FE
330
2EC
100
AcDbEntity
  8
H1
 62
   250
420
  2301728
370
     9
100
AcDb2dPolyline
 66
     1
 10
0.0
 20
0.0
 30
0.0
  0
VERTEX
  5
2FF
330
2FE
100
AcDbEntity
  8
H1
 62
   250
420
  2301728
370
     9
100
AcDbVertex
100
AcDb2dVertex
 10
10.70350782157109
 20
11.51712921489434
 30
0.0
  0
VERTEX
  5
300
330
2FE
100
AcDbEntity
  8
H1
 62
   250
420
  2301728
370
     9
100
AcDbVertex
100
AcDb2dVertex
 10
10.68498290868714
 20
11.51584626806296
 30
0.0
  0
VERTEX
  5
301
330
2FE
100
AcDbEntity
  8
H1
 62
   250
420
  2301728
370
     9
100
AcDbVertex
100
AcDb2dVertex
 10
10.77180892086052
 20
11.45910053719828
 30
0.0
  0
VERTEX
  5
302
330
2FE
100
AcDbEntity
  8
H1
 62
   250
420
  2301728
370
     9
100
AcDbVertex
100
AcDb2dVertex
 10
10.77211406303978
 20
11.47241410821373
 30
0.0
  0
VERTEX
  5
303
330
2FE
100
AcDbEntity
  8
H1
 62
   250
420
  2301728
370
     9
100
AcDbVertex
100
AcDb2dVertex
 10
10.68527663023593
 20
11.52900932678018
 30
0.0
  0
SEQEND
  5
304
330
2FE
100
AcDbEntity
  8
H1
 62
   250
420
  2301728
370
     9
  0
POLYLINE
  5
305
330
2EC
100
AcDbEntity
  8
H1
 62
   250
420
  2301728
370
     9
100
AcDb2dPolyline
 66
     1
 10
0.0
 20
0.0
 30
0.0
  0
VERTEX
  5
306
330
305
100
AcDbEntity
  8
H1
 62
   250
420
  2301728
370
     9
100
AcDbVertex
100
AcDb2dVertex
 10
10.59373477796412
 20
11.5886695646351
 30
0.0
  0
VERTEX
  5
307
330
305
100
AcDbEntity
  8
H1
 62
   250
420
  2301728
370
     9
100
AcDbVertex
100
AcDb2dVertex
 10
10.57573508702538
 20
11.5872471740349
 30
0.0
  0
VERTEX
  5
308
330
305
100
AcDbEntity
  8
H1
 62
   250
420
  2301728
370
     9
100
AcDbVertex
100
AcDb2dVertex
 10
10.66001137848058
 20
11.53216840927136
 30
0.0
  0
VERTEX
  5
309
330
305
100
AcDbEntity
  8
H1
 62
   250
420
  2301728
370
     9
100
AcDbVertex
100
AcDb2dVertex
 10
10.66031244869906
 20
11.54528031408507
 30
0.0
  0
VERTEX
  5
30A
330
305
100
AcDbEntity
  8
H1
 62
   250
420
  2301728
370
     9
100
AcDbVertex
100
AcDb2dVertex
 10
10.57604226131639
 20
11.60020016322411
 30
0.0
  0
SEQEND
  5
30B
330
305
100
AcDbEntity
  8
H1
 62
   250
420
  2301728
370
     9
  0
POLYLINE
  5
30C
330
2EC
100
AcDbEntity
  8
H1
 62
   250
420
  2301728
370
     9
100
AcDb2dPolyline
 66
     1
 10
0.0
 20
0.0
 30
0.0
  0
VERTEX
  5
30D
330
30C
100
AcDbEntity
  8
H1
 62
   250
420
  2301728
370
     9
100
AcDbVertex
100
AcDb2dVertex
 10
10.48717534876106
 20
11.65812234062877
 30
0.0
  0
VERTEX
  5
30E
330
30C
100
AcDbEntity
  8
H1
 62
   250
420
  2301728
370
     9
100
AcDbVertex
100
AcDb2dVertex
 10
10.46970062640109
 20
11.65654795814051
 30
0.0
  0
VERTEX
  5
30F
330
30C
100
AcDbEntity
  8
H1
 62
   250
420
  2301728
370
     9
100
AcDbVertex
100
AcDb2dVertex
 10
10.55150824085033
 20
11.60308660454259
 30
0.0
  0
VERTEX
  5
310
330
30C
100
AcDbEntity
  8
H1
 62
   250
420
  2301728
370
     9
100
AcDbVertex
100
AcDb2dVertex
 10
10.55180618432185
 20
11.61599753303517
 30
0.0
  0
VERTEX
  5
311
330
30C
100
AcDbEntity
  8
H1
 62
   250
420
  2301728
370
     9
100
AcDbVertex
100
AcDb2dVertex
 10
10.47000307308008
 20
11.66931293195488
 30
0.0
  0
SEQEND
  5
312
330
30C
100
AcDbEntity
  8
H1
 62
   250
420
  2301728
370
     9
  0
ENDBLK
  5
2EF
330
2EC
100
AcDbEntity
  8
0
100
AcDbBlockEnd
  0
BLOCK
  5
315
330
313
100
AcDbEntity
  8
0
100
AcDbBlockBegin
  2
block 26
 70
     0
 10
0.0
 20
0.0
 30
0.0
  3
block 26
  1

  0
POLYLINE
  5
317
330
313
100
AcDbEntity
  8
H1
 62
   250
420
  2301728
370
     9
100
AcDb2dPolyline
 66
     1
 10
0.0
 20
0.0
 30
0.0
  0
VERTEX
  5
318
330
317
100
AcDbEntity
  8
H1
 62
   250
420
  2301728
370
     9
100
AcDbVertex
100
AcDb2dVertex
 10
10.8798958616991
 20
11.3662278825798
 30
0.0
  0
VERTEX
  5
319
330
317
100
AcDbEntity
  8
H1
 62
   250
420
  2301728
370
     9
100
AcDbVertex
100
AcDb2dVertex
 10
10.8604969019265
 20
11.36528898769255
 30
0.0
  0
VERTEX
  5
31A
330
317
100
AcDbEntity
  8
H1
 62
   250
420
  2301728
370
     9
100
AcDbVertex
100
AcDb2dVertex
 10
10.95156901543396
 20
11.30533358908617
 30
0.0
  0
VERTEX
  5
31B
330
317
100
AcDbEntity
  8
H1
 62
   250
420
  2301728
370
     9
100
AcDbVertex
100
AcDb2dVertex
 10
10.95185314885263
 20
11.31899035913487
 30
0.0
  0
VERTEX
  5
31C
330
317
100
AcDbEntity
  8
H1
 62
   250
420
  2301728
370
     9
100
AcDbVertex
100
AcDb2dVertex
 10
10.8607869584417
 20
11.37877787917445
 30
0.0
  0
SEQEND
  5
31D
330
317
100
AcDbEntity
  8
H1
 62
   250
420
  2301728
370
     9
  0
POLYLINE
  5
31E
330
313
100
AcDbEntity
  8
H1
 62
   250
420
  2301728
370
     9
100
AcDb2dPolyline
 66
     1
 10
0.0
 20
0.0
 30
0.0
  0
VERTEX
  5
31F
330
31E
100
AcDbEntity
  8
H1
 62
   250
420
  2301728
370
     9
100
AcDbVertex
100
AcDb2dVertex
 10
10.76482924396952
 20
11.44177291179535
 30
0.0
  0
VERTEX
  5
320
330
31E
100
AcDbEntity
  8
H1
 62
   250
420
  2301728
370
     9
100
AcDbVertex
100
AcDb2dVertex
 10
10.74599957333493
 20
11.44066315423322
 30
0.0
  0
VERTEX
  5
321
330
31E
100
AcDbEntity
  8
H1
 62
   250
420
  2301728
370
     9
100
AcDbVertex
100
AcDb2dVertex
 10
10.83431631922458
 20
11.38252134328939
 30
0.0
  0
VERTEX
  5
322
330
31E
100
AcDbEntity
  8
H1
 62
   250
420
  2301728
370
     9
100
AcDbVertex
100
AcDb2dVertex
 10
10.83461466962235
 20
11.39595977074861
 30
0.0
  0
VERTEX
  5
323
330
31E
100
AcDbEntity
  8
H1
 62
   250
420
  2301728
370
     9
100
AcDbVertex
100
AcDb2dVertex
 10
10.74629466616408
 20
11.45394024873105
 30
0.0
  0
SEQEND
  5
324
330
31E
100
AcDbEntity
  8
H1
 62
   250
420
  2301728
370
     9
  0
POLYLINE
  5
325
330
313
100
AcDbEntity
  8
H1
 62
   250
420
  2301728
370
     9
100
AcDb2dPolyline
 66
     1
 10
0.0
 20
0.0
 30
0.0
  0
VERTEX
  5
326
330
325
100
AcDbEntity
  8
H1
 62
   250
420
  2301728
370
     9
100
AcDbVertex
100
AcDb2dVertex
 10
10.65319081484219
 20
11.5150646519778
 30
0.0
  0
VERTEX
  5
327
330
325
100
AcDbEntity
  8
H1
 62
   250
420
  2301728
370
     9
100
AcDbVertex
100
AcDb2dVertex
 10
10.63491290864259
 20
11.51379243506704
 30
0.0
  0
VERTEX
  5
328
330
325
100
AcDbEntity
  8
H1
 62
   250
420
  2301728
370
     9
100
AcDbVertex
100
AcDb2dVertex
 10
10.72059021666188
 20
11.45739428527668
 30
0.0
  0
VERTEX
  5
329
330
325
100
AcDbEntity
  8
H1
 62
   250
420
  2301728
370
     9
100
AcDbVertex
100
AcDb2dVertex
 10
10.7208936033736
 20
11.47062091575182
 30
0.0
  0
VERTEX
  5
32A
330
325
100
AcDbEntity
  8
H1
 62
   250
420
  2301728
370
     9
100
AcDbVertex
100
AcDb2dVertex
 10
10.63521329115211
 20
11.52687028070002
 30
0.0
  0
SEQEND
  5
32B
330
325
100
AcDbEntity
  8
H1
 62
   250
420
  2301728
370
     9
  0
POLYLINE
  5
32C
330
313
100
AcDbEntity
  8
H1
 62
   250
420
  2301728
370
     9
100
AcDb2dPolyline
 66
     1
 10
0.0
 20
0.0
 30
0.0
  0
VERTEX
  5
32D
330
32C
100
AcDbEntity
  8
H1
 62
   250
420
  2301728
370
     9
100
AcDbVertex
100
AcDb2dVertex
 10
10.54486471696007
 20
11.58617661481302
 30
0.0
  0
VERTEX
  5
32E
330
32C
100
AcDbEntity
  8
H1
 62
   250
420
  2301728
370
     9
100
AcDbVertex
100
AcDb2dVertex
 10
10.52710194291065
 20
11.58476810085407
 30
0.0
  0
VERTEX
  5
32F
330
32C
100
AcDbEntity
  8
H1
 62
   250
420
  2301728
370
     9
100
AcDbVertex
100
AcDb2dVertex
 10
10.61026634347255
 20
11.53001971780681
 30
0.0
  0
VERTEX
  5
330
330
32C
100
AcDbEntity
  8
H1
 62
   250
420
  2301728
370
     9
100
AcDbVertex
100
AcDb2dVertex
 10
10.61056574871153
 20
11.54304916355137
 30
0.0
  0
VERTEX
  5
331
330
32C
100
AcDbEntity
  8
H1
 62
   250
420
  2301728
370
     9
100
AcDbVertex
100
AcDb2dVertex
 10
10.52740743423669
 20
11.59764223627236
 30
0.0
  0
SEQEND
  5
332
330
32C
100
AcDbEntity
  8
H1
 62
   250
420
  2301728
370
     9
  0
ENDBLK
  5
316
330
313
100
AcDbEntity
  8
0
100
AcDbBlockEnd
  0
BLOCK
  5
335
330
333
100
AcDbEntity
  8
0
100
AcDbBlockBegin
  2
block 27
 70
     0
 10
0.0
 20
0.0
 30
0.0
  3
block 27
  1

  0
POLYLINE
  5
337
330
333
100
AcDbEntity
  8
H1
 62
   250
420
  2301728
370
     9
100
AcDb2dPolyline
 66
     1
 10
0.0
 20
0.0
 30
0.0
  0
VERTEX
  5
338
330
337
100
AcDbEntity
  8
H1
 62
   250
420
  2301728
370
     9
100
AcDbVertex
100
AcDb2dVertex
 10
10.93180782249578
 20
11.29595107917611
 30
0.0
  0
VERTEX
  5
339
330
337
100
AcDbEntity
  8
H1
 62
   250
420
  2301728
370
     9
100
AcDbVertex
100
AcDb2dVertex
 10
10.91213841612441
 20
11.29518313644663
 30
0.0
  0
VERTEX
  5
33A
330
337
100
AcDbEntity
  8
H1
 62
   250
420
  2301728
370
     9
100
AcDbVertex
100
AcDb2dVertex
 10
11.00449472966594
 20
11.23393436090526
 30
0.0
  0
VERTEX
  5
33B
330
337
100
AcDbEntity
  8
H1
 62
   250
420
  2301728
370
     9
100
AcDbVertex
100
AcDb2dVertex
 10
11.00478099860182
 20
11.24769689367306
 30
0.0
  0
VERTEX
  5
33C
330
337
100
AcDbEntity
  8
H1
 62
   250
420
  2301728
370
     9
100
AcDbVertex
100
AcDb2dVertex
 10
10.91241279389217
 20
11.30877185326626
 30
0.0
  0
SEQEND
  5
33D
330
337
100
AcDbEntity
  8
H1
 62
   250
420
  2301728
370
     9
  0
POLYLINE
  5
33E
330
333
100
AcDbEntity
  8
H1
 62
   250
420
  2301728
370
     9
100
AcDb2dPolyline
 66
     1
 10
0.0
 20
0.0
 30
0.0
  0
VERTEX
  5
33F
330
33E
100
AcDbEntity
  8
H1
 62
   250
420
  2301728
370
     9
100
AcDbVertex
100
AcDb2dVertex
 10
10.81512715604761
 20
11.37310871131857
 30
0.0
  0
VERTEX
  5
340
330
33E
100
AcDbEntity
  8
H1
 62
   250
420
  2301728
370
     9
100
AcDbVertex
100
AcDb2dVertex
 10
10.79603706631921
 20
11.37215416853313
 30
0.0
  0
VERTEX
  5
341
330
33E
100
AcDbEntity
  8
H1
 62
   250
420
  2301728
370
     9
100
AcDbVertex
100
AcDb2dVertex
 10
10.88558355261188
 20
11.31278422466015
 30
0.0
  0
VERTEX
  5
342
330
33E
100
AcDbEntity
  8
H1
 62
   250
420
  2301728
370
     9
100
AcDbVertex
100
AcDb2dVertex
 10
10.88586631475045
 20
11.32632695892815
 30
0.0
  0
VERTEX
  5
343
330
33E
100
AcDbEntity
  8
H1
 62
   250
420
  2301728
370
     9
100
AcDbVertex
100
AcDb2dVertex
 10
10.79632498731717
 20
11.38553729729588
 30
0.0
  0
SEQEND
  5
344
330
33E
100
AcDbEntity
  8
H1
 62
   250
420
  2301728
370
     9
  0
POLYLINE
  5
345
330
333
100
AcDbEntity
  8
H1
 62
   250
420
  2301728
370
     9
100
AcDb2dPolyline
 66
     1
 10
0.0
 20
0.0
 30
0.0
  0
VERTEX
  5
346
330
345
100
AcDbEntity
  8
H1
 62
   250
420
  2301728
370
     9
100
AcDbVertex
100
AcDb2dVertex
 10
10.70194704374176
 20
11.44794832545876
 30
0.0
  0
VERTEX
  5
347
330
345
100
AcDbEntity
  8
H1
 62
   250
420
  2301728
370
     9
100
AcDbVertex
100
AcDb2dVertex
 10
10.68341715686329
 20
11.4468294445917
 30
0.0
  0
VERTEX
  5
348
330
345
100
AcDbEntity
  8
H1
 62
   250
420
  2301728
370
     9
100
AcDbVertex
100
AcDb2dVertex
 10
10.77027076352114
 20
11.38924116955511
 30
0.0
  0
VERTEX
  5
349
330
345
100
AcDbEntity
  8
H1
 62
   250
420
  2301728
370
     9
100
AcDbVertex
100
AcDb2dVertex
 10
10.77056783312658
 20
11.40257004270484
 30
0.0
  0
VERTEX
  5
34A
330
345
100
AcDbEntity
  8
H1
 62
   250
420
  2301728
370
     9
100
AcDbVertex
100
AcDb2dVertex
 10
10.68371938143933
 20
11.46000321471945
 30
0.0
  0
SEQEND
  5
34B
330
345
100
AcDbEntity
  8
H1
 62
   250
420
  2301728
370
     9
  0
POLYLINE
  5
34C
330
333
100
AcDbEntity
  8
H1
 62
   250
420
  2301728
370
     9
100
AcDb2dPolyline
 66
     1
 10
0.0
 20
0.0
 30
0.0
  0
VERTEX
  5
34D
330
34C
100
AcDbEntity
  8
H1
 62
   250
420
  2301728
370
     9
100
AcDbVertex
100
AcDb2dVertex
 10
10.59214985582237
 20
11.52054832950785
 30
0.0
  0
VERTEX
  5
34E
330
34C
100
AcDbEntity
  8
H1
 62
   250
420
  2301728
370
     9
100
AcDbVertex
100
AcDb2dVertex
 10
10.57415318562708
 20
11.51928012200801
 30
0.0
  0
VERTEX
  5
34F
330
34C
100
AcDbEntity
  8
H1
 62
   250
420
  2301728
370
     9
100
AcDbVertex
100
AcDb2dVertex
 10
10.65844109318661
 20
11.46339298150589
 30
0.0
  0
VERTEX
  5
350
330
34C
100
AcDbEntity
  8
H1
 62
   250
420
  2301728
370
     9
100
AcDbVertex
100
AcDb2dVertex
 10
10.65874245296674
 20
11.47651922702729
 30
0.0
  0
VERTEX
  5
351
330
34C
100
AcDbEntity
  8
H1
 62
   250
420
  2301728
370
     9
100
AcDbVertex
100
AcDb2dVertex
 10
10.57446070377258
 20
11.53225014078758
 30
0.0
  0
SEQEND
  5
352
330
34C
100
AcDbEntity
  8
H1
 62
   250
420
  2301728
370
     9
  0
POLYLINE
  5
353
330
333
100
AcDbEntity
  8
H1
 62
   250
420
  2301728
370
     9
100
AcDb2dPolyline
 66
     1
 10
0.0
 20
0.0
 30
0.0
  0
VERTEX
  5
354
330
353
100
AcDbEntity
  8
H1
 62
   250
420
  2301728
370
     9
100
AcDbVertex
100
AcDb2dVertex
 10
10.48557477215041
 20
11.59102915895163
 30
0.0
  0
VERTEX
  5
355
330
353
100
AcDbEntity
  8
H1
 62
   250
420
  2301728
370
     9
100
AcDbVertex
100
AcDb2dVertex
 10
10.46808469266231
 20
11.58961665251638
 30
0.0
  0
VERTEX
  5
356
330
353
100
AcDbEntity
  8
H1
 62
   250
420
  2301728
370
     9
100
AcDbVertex
100
AcDb2dVertex
 10
10.54991339295033
 20
11.5353592200092
 30
0.0
  0
VERTEX
  5
357
330
353
100
AcDbEntity
  8
H1
 62
   250
420
  2301728
370
     9
100
AcDbVertex
100
AcDb2dVertex
 10
10.55021995192285
 20
11.5482817351946
 30
0.0
  0
VERTEX
  5
358
330
353
100
AcDbEntity
  8
H1
 62
   250
420
  2301728
370
     9
100
AcDbVertex
100
AcDb2dVertex
 10
10.46838815694458
 20
11.60238590138846
 30
0.0
  0
SEQEND
  5
359
330
353
100
AcDbEntity
  8
H1
 62
   250
420
  2301728
370
     9
  0
ENDBLK
  5
336
330
333
100
AcDbEntity
  8
0
100
AcDbBlockEnd
  0
BLOCK
  5
35C
330
35A
100
AcDbEntity
  8
0
100
AcDbBlockBegin
  2
block 28
 70
     0
 10
0.0
 20
0.0
 30
0.0
  3
block 28
  1

  0
POLYLINE
  5
35E
330
35A
100
AcDbEntity
  8
H1
 62
   250
420
  2301728
370
     9
100
AcDb2dPolyline
 66
     1
 10
0.0
 20
0.0
 30
0.0
  0
VERTEX
  5
35F
330
35E
100
AcDbEntity
  8
H1
 62
   250
420
  2301728
370
     9
100
AcDbVertex
100
AcDb2dVertex
 10
10.87839112138166
 20
11.29530229453005
 30
0.0
  0
VERTEX
  5
360
330
35E
100
AcDbEntity
  8
H1
 62
   250
420
  2301728
370
     9
100
AcDbVertex
100
AcDb2dVertex
 10
10.85898632900057
 20
11.29453575968075
 30
0.0
  0
VERTEX
  5
361
330
35E
100
AcDbEntity
  8
H1
 62
   250
420
  2301728
370
     9
100
AcDbVertex
100
AcDb2dVertex
 10
10.95007691864675
 20
11.23369663148811
 30
0.0
  0
VERTEX
  5
362
330
35E
100
AcDbEntity
  8
H1
 62
   250
420
  2301728
370
     9
100
AcDbVertex
100
AcDb2dVertex
 10
10.9503622506448
 20
11.24736663953682
 30
0.0
  0
VERTEX
  5
363
330
35E
100
AcDbEntity
  8
H1
 62
   250
420
  2301728
370
     9
100
AcDbVertex
100
AcDb2dVertex
 10
10.85926822245395
 20
11.30803547182578
 30
0.0
  0
SEQEND
  5
364
330
35E
100
AcDbEntity
  8
H1
 62
   250
420
  2301728
370
     9
  0
POLYLINE
  5
365
330
35A
100
AcDbEntity
  8
H1
 62
   250
420
  2301728
370
     9
100
AcDb2dPolyline
 66
     1
 10
0.0
 20
0.0
 30
0.0
  0
VERTEX
  5
366
330
365
100
AcDbEntity
  8
H1
 62
   250
420
  2301728
370
     9
100
AcDbVertex
100
AcDb2dVertex
 10
10.76329206390071
 20
11.37196194404057
 30
0.0
  0
VERTEX
  5
367
330
365
100
AcDbEntity
  8
H1
 62
   250
420
  2301728
370
     9
100
AcDbVertex
100
AcDb2dVertex
 10
10.7444563977792
 20
11.37101647986833
 30
0.0
  0
VERTEX
  5
368
330
365
100
AcDbEntity
  8
H1
 62
   250
420
  2301728
370
     9
100
AcDbVertex
100
AcDb2dVertex
 10
10.83279235142587
 20
11.31202228777248
 30
0.0
  0
VERTEX
  5
369
330
365
100
AcDbEntity
  8
H1
 62
   250
420
  2301728
370
     9
100
AcDbVertex
100
AcDb2dVertex
 10
10.8330826111527
 20
11.32547512107164
 30
0.0
  0
VERTEX
  5
36A
330
365
100
AcDbEntity
  8
H1
 62
   250
420
  2301728
370
     9
100
AcDbVertex
100
AcDb2dVertex
 10
10.7447433094489
 20
11.38430349873507
 30
0.0
  0
SEQEND
  5
36B
330
365
100
AcDbEntity
  8
H1
 62
   250
420
  2301728
370
     9
  0
POLYLINE
  5
36C
330
35A
100
AcDbEntity
  8
H1
 62
   250
420
  2301728
370
     9
100
AcDb2dPolyline
 66
     1
 10
0.0
 20
0.0
 30
0.0
  0
VERTEX
  5
36D
330
36C
100
AcDbEntity
  8
H1
 62
   250
420
  2301728
370
     9
100
AcDbVertex
100
AcDb2dVertex
 10
10.65162134394041
 20
11.44632955745264
 30
0.0
  0
VERTEX
  5
36E
330
36C
100
AcDbEntity
  8
H1
 62
   250
420
  2301728
370
     9
100
AcDbVertex
100
AcDb2dVertex
 10
10.63332833660931
 20
11.4452272625111
 30
0.0
  0
VERTEX
  5
36F
330
36C
100
AcDbEntity
  8
H1
 62
   250
420
  2301728
370
     9
100
AcDbVertex
100
AcDb2dVertex
 10
10.71903429417047
 20
11.38799263591478
 30
0.0
  0
VERTEX
  5
370
330
36C
100
AcDbEntity
  8
H1
 62
   250
420
  2301728
370
     9
100
AcDbVertex
100
AcDb2dVertex
 10
10.71932968069879
 20
11.4012381537011
 30
0.0
  0
VERTEX
  5
371
330
36C
100
AcDbEntity
  8
H1
 62
   250
420
  2301728
370
     9
100
AcDbVertex
100
AcDb2dVertex
 10
10.63362880697665
 20
11.45831409181826
 30
0.0
  0
SEQEND
  5
372
330
36C
100
AcDbEntity
  8
H1
 62
   250
420
  2301728
370
     9
  0
POLYLINE
  5
373
330
35A
100
AcDbEntity
  8
H1
 62
   250
420
  2301728
370
     9
100
AcDb2dPolyline
 66
     1
 10
0.0
 20
0.0
 30
0.0
  0
VERTEX
  5
374
330
373
100
AcDbEntity
  8
H1
 62
   250
420
  2301728
370
     9
100
AcDbVertex
100
AcDb2dVertex
 10
10.54327084682303
 20
11.51849312844099
 30
0.0
  0
VERTEX
  5
375
330
373
100
AcDbEntity
  8
H1
 62
   250
420
  2301728
370
     9
100
AcDbVertex
100
AcDb2dVertex
 10
10.52550180593476
 20
11.51723996505096
 30
0.0
  0
VERTEX
  5
376
330
373
100
AcDbEntity
  8
H1
 62
   250
420
  2301728
370
     9
100
AcDbVertex
100
AcDb2dVertex
 10
10.60867802156253
 20
11.46168856390915
 30
0.0
  0
VERTEX
  5
377
330
373
100
AcDbEntity
  8
H1
 62
   250
420
  2301728
370
     9
100
AcDbVertex
100
AcDb2dVertex
 10
10.60898604230339
 20
11.47472959634631
 30
0.0
  0
VERTEX
  5
378
330
373
100
AcDbEntity
  8
H1
 62
   250
420
  2301728
370
     9
100
AcDbVertex
100
AcDb2dVertex
 10
10.52579836984993
 20
11.5301286926014
 30
0.0
  0
SEQEND
  5
379
330
373
100
AcDbEntity
  8
H1
 62
   250
420
  2301728
370
     9
  0
ENDBLK
  5
35D
330
35A
100
AcDbEntity
  8
0
100
AcDbBlockEnd
  0
BLOCK
  5
37C
330
37A
100
AcDbEntity
  8
0
100
AcDbBlockBegin
  2
block 29
 70
     0
 10
0.0
 20
0.0
 30
0.0
  3
block 29
  1

  0
POLYLINE
  5
37E
330
37A
100
AcDbEntity
  8
H1
 62
   250
420
  2301728
370
     9
100
AcDb2dPolyline
 66
     1
 10
0.0
 20
0.0
 30
0.0
  0
VERTEX
  5
37F
330
37E
100
AcDbEntity
  8
H1
 62
   250
420
  2301728
370
     9
100
AcDbVertex
100
AcDb2dVertex
 10
10.93030137597126
 20
11.22448477657992
 30
0.0
  0
VERTEX
  5
380
330
37E
100
AcDbEntity
  8
H1
 62
   250
420
  2301728
370
     9
100
AcDbVertex
100
AcDb2dVertex
 10
10.91062614720391
 20
11.22388468999726
 30
0.0
  0
VERTEX
  5
381
330
37E
100
AcDbEntity
  8
H1
 62
   250
420
  2301728
370
     9
100
AcDbVertex
100
AcDb2dVertex
 10
11.00301847968472
 20
11.16174467783754
 30
0.0
  0
VERTEX
  5
382
330
37E
100
AcDbEntity
  8
H1
 62
   250
420
  2301728
370
     9
100
AcDbVertex
100
AcDb2dVertex
 10
11.00329665794922
 20
11.17552161644544
 30
0.0
  0
VERTEX
  5
383
330
37E
100
AcDbEntity
  8
H1
 62
   250
420
  2301728
370
     9
100
AcDbVertex
100
AcDb2dVertex
 10
10.91091951971809
 20
11.23749168590407
 30
0.0
  0
SEQEND
  5
384
330
37E
100
AcDbEntity
  8
H1
 62
   250
420
  2301728
370
     9
  0
POLYLINE
  5
385
330
37A
100
AcDbEntity
  8
H1
 62
   250
420
  2301728
370
     9
100
AcDb2dPolyline
 66
     1
 10
0.0
 20
0.0
 30
0.0
  0
VERTEX
  5
386
330
385
100
AcDbEntity
  8
H1
 62
   250
420
  2301728
370
     9
100
AcDbVertex
100
AcDb2dVertex
 10
10.81359801081367
 20
11.30276836511915
 30
0.0
  0
VERTEX
  5
387
330
385
100
AcDbEntity
  8
H1
 62
   250
420
  2301728
370
     9
100
AcDbVertex
100
AcDb2dVertex
 10
10.79451033479043
 20
11.30198434640816
 30
0.0
  0
VERTEX
  5
388
330
385
100
AcDbEntity
  8
H1
 62
   250
420
  2301728
370
     9
100
AcDbVertex
100
AcDb2dVertex
 10
10.88406714321614
 20
11.24174689353675
 30
0.0
  0
VERTEX
  5
389
330
385
100
AcDbEntity
  8
H1
 62
   250
420
  2301728
370
     9
100
AcDbVertex
100
AcDb2dVertex
 10
10.88435944797172
 20
11.255301008084
 30
0.0
  0
VERTEX
  5
38A
330
385
100
AcDbEntity
  8
H1
 62
   250
420
  2301728
370
     9
100
AcDbVertex
100
AcDb2dVertex
 10
10.79479929148932
 20
11.31537264652288
 30
0.0
  0
SEQEND
  5
38B
330
385
100
AcDbEntity
  8
H1
 62
   250
420
  2301728
370
     9
  0
POLYLINE
  5
38C
330
37A
100
AcDbEntity
  8
H1
 62
   250
420
  2301728
370
     9
100
AcDb2dPolyline
 66
     1
 10
0.0
 20
0.0
 30
0.0
  0
VERTEX
  5
38D
330
38C
100
AcDbEntity
  8
H1
 62
   250
420
  2301728
370
     9
100
AcDbVertex
100
AcDb2dVertex
 10
10.70038501717777
 20
11.37870559172133
 30
0.0
  0
VERTEX
  5
38E
330
38C
100
AcDbEntity
  8
H1
 62
   250
420
  2301728
370
     9
100
AcDbVertex
100
AcDb2dVertex
 10
10.6818491128257
 20
11.37775461043322
 30
0.0
  0
VERTEX
  5
38F
330
38C
100
AcDbEntity
  8
H1
 62
   250
420
  2301728
370
     9
100
AcDbVertex
100
AcDb2dVertex
 10
10.76873230266
 20
11.31932064749085
 30
0.0
  0
VERTEX
  5
390
330
38C
100
AcDbEntity
  8
H1
 62
   250
420
  2301728
370
     9
100
AcDbVertex
100
AcDb2dVertex
 10
10.7690287166142
 20
11.33266317146745
 30
0.0
  0
VERTEX
  5
391
330
38C
100
AcDbEntity
  8
H1
 62
   250
420
  2301728
370
     9
100
AcDbVertex
100
AcDb2dVertex
 10
10.68215152226682
 20
11.39093284101995
 30
0.0
  0
SEQEND
  5
392
330
38C
100
AcDbEntity
  8
H1
 62
   250
420
  2301728
370
     9
  0
POLYLINE
  5
393
330
37A
100
AcDbEntity
  8
H1
 62
   250
420
  2301728
370
     9
100
AcDb2dPolyline
 66
     1
 10
0.0
 20
0.0
 30
0.0
  0
VERTEX
  5
394
330
393
100
AcDbEntity
  8
H1
 62
   250
420
  2301728
370
     9
100
AcDbVertex
100
AcDb2dVertex
 10
10.59056444607015
 20
11.45236598094518
 30
0.0
  0
VERTEX
  5
395
330
393
100
AcDbEntity
  8
H1
 62
   250
420
  2301728
370
     9
100
AcDbVertex
100
AcDb2dVertex
 10
10.57256176384665
 20
11.45125666857704
 30
0.0
  0
VERTEX
  5
396
330
393
100
AcDbEntity
  8
H1
 62
   250
420
  2301728
370
     9
100
AcDbVertex
100
AcDb2dVertex
 10
10.6568695953532
 20
11.39455750202704
 30
0.0
  0
VERTEX
  5
397
330
393
100
AcDbEntity
  8
H1
 62
   250
420
  2301728
370
     9
100
AcDbVertex
100
AcDb2dVertex
 10
10.65717111801175
 20
11.40769181419653
 30
0.0
  0
VERTEX
  5
398
330
393
100
AcDbEntity
  8
H1
 62
   250
420
  2301728
370
     9
100
AcDbVertex
100
AcDb2dVertex
 10
10.57286955345623
 20
11.46424013177006
 30
0.0
  0
SEQEND
  5
399
330
393
100
AcDbEntity
  8
H1
 62
   250
420
  2301728
370
     9
  0
POLYLINE
  5
39A
330
37A
100
AcDbEntity
  8
H1
 62
   250
420
  2301728
370
     9
100
AcDb2dPolyline
 66
     1
 10
0.0
 20
0.0
 30
0.0
  0
VERTEX
  5
39B
330
39A
100
AcDbEntity
  8
H1
 62
   250
420
  2301728
370
     9
100
AcDbVertex
100
AcDb2dVertex
 10
10.48396469208918
 20
11.52387597080678
 30
0.0
  0
VERTEX
  5
39C
330
39A
100
AcDbEntity
  8
H1
 62
   250
420
  2301728
370
     9
100
AcDbVertex
100
AcDb2dVertex
 10
10.46645909215489
 20
11.52261727387435
 30
0.0
  0
VERTEX
  5
39D
330
39A
100
AcDbEntity
  8
H1
 62
   250
420
  2301728
370
     9
100
AcDbVertex
100
AcDb2dVertex
 10
10.54830811614288
 20
11.46757203505231
 30
0.0
  0
VERTEX
  5
39E
330
39A
100
AcDbEntity
  8
H1
 62
   250
420
  2301728
370
     9
100
AcDbVertex
100
AcDb2dVertex
 10
10.54861494657947
 20
11.48050799465113
 30
0.0
  0
VERTEX
  5
39F
330
39A
100
AcDbEntity
  8
H1
 62
   250
420
  2301728
370
     9
100
AcDbVertex
100
AcDb2dVertex
 10
10.46677208256253
 20
11.53540150799132
 30
0.0
  0
SEQEND
  5
3A0
330
39A
100
AcDbEntity
  8
H1
 62
   250
420
  2301728
370
     9
  0
ENDBLK
  5
37D
330
37A
100
AcDbEntity
  8
0
100
AcDbBlockEnd
  0
BLOCK
  5
3A3
330
3A1
100
AcDbEntity
  8
0
100
AcDbBlockBegin
  2
block 30
 70
     0
 10
0.0
 20
0.0
 30
0.0
  3
block 30
  1

  0
POLYLINE
  5
3A5
330
3A1
100
AcDbEntity
  8
H1
 62
   250
420
  2301728
370
     9
100
AcDb2dPolyline
 66
     1
 10
0.0
 20
0.0
 30
0.0
  0
VERTEX
  5
3A6
330
3A5
100
AcDbEntity
  8
H1
 62
   250
420
  2301728
370
     9
100
AcDbVertex
100
AcDb2dVertex
 10
10.87686733616253
 20
11.22430982109127
 30
0.0
  0
VERTEX
  5
3A7
330
3A5
100
AcDbEntity
  8
H1
 62
   250
420
  2301728
370
     9
100
AcDbVertex
100
AcDb2dVertex
 10
10.85746498282037
 20
11.22371020338215
 30
0.0
  0
VERTEX
  5
3A8
330
3A5
100
AcDbEntity
  8
H1
 62
   250
420
  2301728
370
     9
100
AcDbVertex
100
AcDb2dVertex
 10
10.94858351883209
 20
11.16199514070548
 30
0.0
  0
VERTEX
  5
3A9
330
3A5
100
AcDbEntity
  8
H1
 62
   250
420
  2301728
370
     9
100
AcDbVertex
100
AcDb2dVertex
 10
10.94887828486175
 20
11.17567115126799
 30
0.0
  0
VERTEX
  5
3AA
330
3A5
100
AcDbEntity
  8
H1
 62
   250
420
  2301728
370
     9
100
AcDbVertex
100
AcDb2dVertex
 10
10.85774731061623
 20
11.23723142658869
 30
0.0
  0
SEQEND
  5
3AB
330
3A5
100
AcDbEntity
  8
H1
 62
   250
420
  2301728
370
     9
  0
POLYLINE
  5
3AC
330
3A1
100
AcDbEntity
  8
H1
 62
   250
420
  2301728
370
     9
100
AcDb2dPolyline
 66
     1
 10
0.0
 20
0.0
 30
0.0
  0
VERTEX
  5
3AD
330
3AC
100
AcDbEntity
  8
H1
 62
   250
420
  2301728
370
     9
100
AcDbVertex
100
AcDb2dVertex
 10
10.76174512818099
 20
11.3020829230567
 30
0.0
  0
VERTEX
  5
3AE
330
3AC
100
AcDbEntity
  8
H1
 62
   250
420
  2301728
370
     9
100
AcDbVertex
100
AcDb2dVertex
 10
10.74290355706052
 20
11.3013062337455
 30
0.0
  0
VERTEX
  5
3AF
330
3AC
100
AcDbEntity
  8
H1
 62
   250
420
  2301728
370
     9
100
AcDbVertex
100
AcDb2dVertex
 10
10.83126768462742
 20
11.24145226232559
 30
0.0
  0
VERTEX
  5
3B0
330
3AC
100
AcDbEntity
  8
H1
 62
   250
420
  2301728
370
     9
100
AcDbVertex
100
AcDb2dVertex
 10
10.83155728870252
 20
11.25491874645171
 30
0.0
  0
VERTEX
  5
3B1
330
3AC
100
AcDbEntity
  8
H1
 62
   250
420
  2301728
370
     9
100
AcDbVertex
100
AcDb2dVertex
 10
10.74319925257027
 20
11.31460840311989
 30
0.0
  0
SEQEND
  5
3B2
330
3AC
100
AcDbEntity
  8
H1
 62
   250
420
  2301728
370
     9
  0
POLYLINE
  5
3B3
330
3A1
100
AcDbEntity
  8
H1
 62
   250
420
  2301728
370
     9
100
AcDb2dPolyline
 66
     1
 10
0.0
 20
0.0
 30
0.0
  0
VERTEX
  5
3B4
330
3B3
100
AcDbEntity
  8
H1
 62
   250
420
  2301728
370
     9
100
AcDbVertex
100
AcDb2dVertex
 10
10.65005062430396
 20
11.37753261862568
 30
0.0
  0
VERTEX
  5
3B5
330
3B3
100
AcDbEntity
  8
H1
 62
   250
420
  2301728
370
     9
100
AcDbVertex
100
AcDb2dVertex
 10
10.63175980001514
 20
11.37658919490815
 30
0.0
  0
VERTEX
  5
3B6
330
3B3
100
AcDbEntity
  8
H1
 62
   250
420
  2301728
370
     9
100
AcDbVertex
100
AcDb2dVertex
 10
10.7174771229444
 20
11.31852914225093
 30
0.0
  0
VERTEX
  5
3B7
330
3B3
100
AcDbEntity
  8
H1
 62
   250
420
  2301728
370
     9
100
AcDbVertex
100
AcDb2dVertex
 10
10.71777276283921
 20
11.33178720815653
 30
0.0
  0
VERTEX
  5
3B8
330
3B3
100
AcDbEntity
  8
H1
 62
   250
420
  2301728
370
     9
100
AcDbVertex
100
AcDb2dVertex
 10
10.63206154398249
 20
11.3896883451892
 30
0.0
  0
SEQEND
  5
3B9
330
3B3
100
AcDbEntity
  8
H1
 62
   250
420
  2301728
370
     9
  0
POLYLINE
  5
3BA
330
3A1
100
AcDbEntity
  8
H1
 62
   250
420
  2301728
370
     9
100
AcDb2dPolyline
 66
     1
 10
0.0
 20
0.0
 30
0.0
  0
VERTEX
  5
3BB
330
3BA
100
AcDbEntity
  8
H1
 62
   250
420
  2301728
370
     9
100
AcDbVertex
100
AcDb2dVertex
 10
10.54167563746334
 20
11.45074331629595
 30
0.0
  0
VERTEX
  5
3BC
330
3BA
100
AcDbEntity
  8
H1
 62
   250
420
  2301728
370
     9
100
AcDbVertex
100
AcDb2dVertex
 10
10.52390051060009
 20
11.44964996482463
 30
0.0
  0
VERTEX
  5
3BD
330
3BA
100
AcDbEntity
  8
H1
 62
   250
420
  2301728
370
     9
100
AcDbVertex
100
AcDb2dVertex
 10
10.60709681305328
 20
11.39329460428304
 30
0.0
  0
VERTEX
  5
3BE
330
3BA
100
AcDbEntity
  8
H1
 62
   250
420
  2301728
370
     9
100
AcDbVertex
100
AcDb2dVertex
 10
10.60740583329988
 20
11.4063390154837
 30
0.0
  0
VERTEX
  5
3BF
330
3BA
100
AcDbEntity
  8
H1
 62
   250
420
  2301728
370
     9
100
AcDbVertex
100
AcDb2dVertex
 10
10.5242065266445
 20
11.46254559118312
 30
0.0
  0
SEQEND
  5
3C0
330
3BA
100
AcDbEntity
  8
H1
 62
   250
420
  2301728
370
     9
  0
ENDBLK
  5
3A4
330
3A1
100
AcDbEntity
  8
0
100
AcDbBlockEnd
  0
BLOCK
  5
3C3
330
3C1
100
AcDbEntity
  8
0
100
AcDbBlockBegin
  2
block 31
 70
     0
 10
0.0
 20
0.0
 30
0.0
  3
block 31
  1

  0
POLYLINE
  5
3C5
330
3C1
100
AcDbEntity
  8
H1
 62
   250
420
  2301728
370
     9
100
AcDb2dPolyline
 66
     1
 10
0.0
 20
0.0
 30
0.0
  0
VERTEX
  5
3C6
330
3C5
100
AcDbEntity
  8
H1
 62
   250
420
  2301728
370
     9
100
AcDbVertex
100
AcDb2dVertex
 10
10.92880196257205
 20
11.15294668289294
 30
0.0
  0
VERTEX
  5
3C7
330
3C5
100
AcDbEntity
  8
H1
 62
   250
420
  2301728
370
     9
100
AcDbVertex
100
AcDb2dVertex
 10
10.90912201443171
 20
11.15252298273389
 30
0.0
  0
VERTEX
  5
3C8
330
3C5
100
AcDbEntity
  8
H1
 62
   250
420
  2301728
370
     9
100
AcDbVertex
100
AcDb2dVertex
 10
11.00154081354142
 20
11.08948485852493
 30
0.0
  0
VERTEX
  5
3C9
330
3C5
100
AcDbEntity
  8
H1
 62
   250
420
  2301728
370
     9
100
AcDbVertex
100
AcDb2dVertex
 10
11.00182844392809
 20
11.10326869559259
 30
0.0
  0
VERTEX
  5
3CA
330
3C5
100
AcDbEntity
  8
H1
 62
   250
420
  2301728
370
     9
100
AcDbVertex
100
AcDb2dVertex
 10
10.90941557249302
 20
11.16613916794578
 30
0.0
  0
SEQEND
  5
3CB
330
3C5
100
AcDbEntity
  8
H1
 62
   250
420
  2301728
370
     9
  0
POLYLINE
  5
3CC
330
3C1
100
AcDbEntity
  8
H1
 62
   250
420
  2301728
370
     9
100
AcDb2dPolyline
 66
     1
 10
0.0
 20
0.0
 30
0.0
  0
VERTEX
  5
3CD
330
3CC
100
AcDbEntity
  8
H1
 62
   250
420
  2301728
370
     9
100
AcDbVertex
100
AcDb2dVertex
 10
10.8120580778531
 20
11.23236469708997
 30
0.0
  0
VERTEX
  5
3CE
330
3CC
100
AcDbEntity
  8
H1
 62
   250
420
  2301728
370
     9
100
AcDbVertex
100
AcDb2dVertex
 10
10.79296561215847
 20
11.23175370654037
 30
0.0
  0
VERTEX
  5
3CF
330
3CC
100
AcDbEntity
  8
H1
 62
   250
420
  2301728
370
     9
100
AcDbVertex
100
AcDb2dVertex
 10
10.88255876528039
 20
11.17064115034678
 30
0.0
  0
VERTEX
  5
3D0
330
3CC
100
AcDbEntity
  8
H1
 62
   250
420
  2301728
370
     9
100
AcDbVertex
100
AcDb2dVertex
 10
10.88284207034684
 20
11.18421077344177
 30
0.0
  0
VERTEX
  5
3D1
330
3CC
100
AcDbEntity
  8
H1
 62
   250
420
  2301728
370
     9
100
AcDbVertex
100
AcDb2dVertex
 10
10.79326316626172
 20
11.24515269705349
 30
0.0
  0
SEQEND
  5
3D2
330
3CC
100
AcDbEntity
  8
H1
 62
   250
420
  2301728
370
     9
  0
POLYLINE
  5
3D3
330
3C1
100
AcDbEntity
  8
H1
 62
   250
420
  2301728
370
     9
100
AcDb2dPolyline
 66
     1
 10
0.0
 20
0.0
 30
0.0
  0
VERTEX
  5
3D4
330
3D3
100
AcDbEntity
  8
H1
 62
   250
420
  2301728
370
     9
100
AcDbVertex
100
AcDb2dVertex
 10
10.69883103112996
 20
11.30939984584199
 30
0.0
  0
VERTEX
  5
3D5
330
3D3
100
AcDbEntity
  8
H1
 62
   250
420
  2301728
370
     9
100
AcDbVertex
100
AcDb2dVertex
 10
10.68028904080292
 20
11.30860867647263
 30
0.0
  0
VERTEX
  5
3D6
330
3D3
100
AcDbEntity
  8
H1
 62
   250
420
  2301728
370
     9
100
AcDbVertex
100
AcDb2dVertex
 10
10.76718232240533
 20
11.24933696649551
 30
0.0
  0
VERTEX
  5
3D7
330
3D3
100
AcDbEntity
  8
H1
 62
   250
420
  2301728
370
     9
100
AcDbVertex
100
AcDb2dVertex
 10
10.76748826087914
 20
11.26268997445706
 30
0.0
  0
VERTEX
  5
3D8
330
3D3
100
AcDbEntity
  8
H1
 62
   250
420
  2301728
370
     9
100
AcDbVertex
100
AcDb2dVertex
 10
10.68059272121384
 20
11.3218037302363
 30
0.0
  0
SEQEND
  5
3D9
330
3D3
100
AcDbEntity
  8
H1
 62
   250
420
  2301728
370
     9
  0
POLYLINE
  5
3DA
330
3C1
100
AcDbEntity
  8
H1
 62
   250
420
  2301728
370
     9
100
AcDb2dPolyline
 66
     1
 10
0.0
 20
0.0
 30
0.0
  0
VERTEX
  5
3DB
330
3DA
100
AcDbEntity
  8
H1
 62
   250
420
  2301728
370
     9
100
AcDbVertex
100
AcDb2dVertex
 10
10.58897697060992
 20
11.38412287029549
 30
0.0
  0
VERTEX
  5
3DC
330
3DA
100
AcDbEntity
  8
H1
 62
   250
420
  2301728
370
     9
100
AcDbVertex
100
AcDb2dVertex
 10
10.57097756405268
 20
11.38317578718295
 30
0.0
  0
VERTEX
  5
3DD
330
3DA
100
AcDbEntity
  8
H1
 62
   250
420
  2301728
370
     9
100
AcDbVertex
100
AcDb2dVertex
 10
10.655305102335
 20
11.32565383905434
 30
0.0
  0
VERTEX
  5
3DE
330
3DA
100
AcDbEntity
  8
H1
 62
   250
420
  2301728
370
     9
100
AcDbVertex
100
AcDb2dVertex
 10
10.65559770093917
 20
11.33880274260866
 30
0.0
  0
VERTEX
  5
3DF
330
3DA
100
AcDbEntity
  8
H1
 62
   250
420
  2301728
370
     9
100
AcDbVertex
100
AcDb2dVertex
 10
10.57126791944724
 20
11.3961721351734
 30
0.0
  0
SEQEND
  5
3E0
330
3DA
100
AcDbEntity
  8
H1
 62
   250
420
  2301728
370
     9
  0
POLYLINE
  5
3E1
330
3C1
100
AcDbEntity
  8
H1
 62
   250
420
  2301728
370
     9
100
AcDb2dPolyline
 66
     1
 10
0.0
 20
0.0
 30
0.0
  0
VERTEX
  5
3E2
330
3E1
100
AcDbEntity
  8
H1
 62
   250
420
  2301728
370
     9
100
AcDbVertex
100
AcDb2dVertex
 10
10.48234394969144
 20
11.45666483485618
 30
0.0
  0
VERTEX
  5
3E3
330
3E1
100
AcDbEntity
  8
H1
 62
   250
420
  2301728
370
     9
100
AcDbVertex
100
AcDb2dVertex
 10
10.46485078843057
 20
11.45556092518181
 30
0.0
  0
VERTEX
  5
3E4
330
3E1
100
AcDbEntity
  8
H1
 62
   250
420
  2301728
370
     9
100
AcDbVertex
100
AcDb2dVertex
 10
10.5467201691024
 20
11.39972067011346
 30
0.0
  0
VERTEX
  5
3E5
330
3E1
100
AcDbEntity
  8
H1
 62
   250
420
  2301728
370
     9
100
AcDbVertex
100
AcDb2dVertex
 10
10.54701789126418
 20
11.41266676049464
 30
0.0
  0
VERTEX
  5
3E6
330
3E1
100
AcDbEntity
  8
H1
 62
   250
420
  2301728
370
     9
100
AcDbVertex
100
AcDb2dVertex
 10
10.46516404869658
 20
11.46835410245229
 30
0.0
  0
SEQEND
  5
3E7
330
3E1
100
AcDbEntity
  8
H1
 62
   250
420
  2301728
370
     9
  0
ENDBLK
  5
3C4
330
3C1
100
AcDbEntity
  8
0
100
AcDbBlockEnd
  0
BLOCK
  5
3EA
330
3E8
100
AcDbEntity
  8
0
100
AcDbBlockBegin
  2
block 32
 70
     0
 10
0.0
 20
0.0
 30
0.0
  3
block 32
  1

  0
POLYLINE
  5
3EC
330
3E8
100
AcDbEntity
  8
H1
 62
   250
420
  2301728
370
     9
100
AcDb2dPolyline
 66
     1
 10
0.0
 20
0.0
 30
0.0
  0
VERTEX
  5
3ED
330
3EC
100
AcDbEntity
  8
H1
 62
   250
420
  2301728
370
     9
100
AcDbVertex
100
AcDb2dVertex
 10
10.87535901268019
 20
11.15324795441985
 30
0.0
  0
VERTEX
  5
3EE
330
3EC
100
AcDbEntity
  8
H1
 62
   250
420
  2301728
370
     9
100
AcDbVertex
100
AcDb2dVertex
 10
10.85593414788852
 20
11.15282981219509
 30
0.0
  0
VERTEX
  5
3EF
330
3EC
100
AcDbEntity
  8
H1
 62
   250
420
  2301728
370
     9
100
AcDbVertex
100
AcDb2dVertex
 10
10.9470977749406
 20
11.09021159059368
 30
0.0
  0
VERTEX
  5
3F0
330
3EC
100
AcDbEntity
  8
H1
 62
   250
420
  2301728
370
     9
100
AcDbVertex
100
AcDb2dVertex
 10
10.94738372225018
 20
11.10391207230006
 30
0.0
  0
VERTEX
  5
3F1
330
3EC
100
AcDbEntity
  8
H1
 62
   250
420
  2301728
370
     9
100
AcDbVertex
100
AcDb2dVertex
 10
10.85623428022222
 20
11.16635157266443
 30
0.0
  0
SEQEND
  5
3F2
330
3EC
100
AcDbEntity
  8
H1
 62
   250
420
  2301728
370
     9
  0
POLYLINE
  5
3F3
330
3E8
100
AcDbEntity
  8
H1
 62
   250
420
  2301728
370
     9
100
AcDb2dPolyline
 66
     1
 10
0.0
 20
0.0
 30
0.0
  0
VERTEX
  5
3F4
330
3F3
100
AcDbEntity
  8
H1
 62
   250
420
  2301728
370
     9
100
AcDbVertex
100
AcDb2dVertex
 10
10.76019594422087
 20
11.23213867900747
 30
0.0
  0
VERTEX
  5
3F5
330
3F3
100
AcDbEntity
  8
H1
 62
   250
420
  2301728
370
     9
100
AcDbVertex
100
AcDb2dVertex
 10
10.7413586482724
 20
11.23152759771539
 30
0.0
  0
VERTEX
  5
3F6
330
3F3
100
AcDbEntity
  8
H1
 62
   250
420
  2301728
370
     9
100
AcDbVertex
100
AcDb2dVertex
 10
10.82974095827879
 20
11.17082147342065
 30
0.0
  0
VERTEX
  5
3F7
330
3F3
100
AcDbEntity
  8
H1
 62
   250
420
  2301728
370
     9
100
AcDbVertex
100
AcDb2dVertex
 10
10.83003167044525
 20
11.18429671407569
 30
0.0
  0
VERTEX
  5
3F8
330
3F3
100
AcDbEntity
  8
H1
 62
   250
420
  2301728
370
     9
100
AcDbVertex
100
AcDb2dVertex
 10
10.74164524814531
 20
11.24484529699936
 30
0.0
  0
SEQEND
  5
3F9
330
3F3
100
AcDbEntity
  8
H1
 62
   250
420
  2301728
370
     9
  0
POLYLINE
  5
3FA
330
3E8
100
AcDbEntity
  8
H1
 62
   250
420
  2301728
370
     9
100
AcDb2dPolyline
 66
     1
 10
0.0
 20
0.0
 30
0.0
  0
VERTEX
  5
3FB
330
3FA
100
AcDbEntity
  8
H1
 62
   250
420
  2301728
370
     9
100
AcDbVertex
100
AcDb2dVertex
 10
10.64847774691515
 20
11.30867493820449
 30
0.0
  0
VERTEX
  5
3FC
330
3FA
100
AcDbEntity
  8
H1
 62
   250
420
  2301728
370
     9
100
AcDbVertex
100
AcDb2dVertex
 10
10.6301735852279
 20
11.30789654216025
 30
0.0
  0
VERTEX
  5
3FD
330
3FA
100
AcDbEntity
  8
H1
 62
   250
420
  2301728
370
     9
100
AcDbVertex
100
AcDb2dVertex
 10
10.71592797413688
 20
11.24900174015102
 30
0.0
  0
VERTEX
  5
3FE
330
3FA
100
AcDbEntity
  8
H1
 62
   250
420
  2301728
370
     9
100
AcDbVertex
100
AcDb2dVertex
 10
10.71622279550196
 20
11.2622653902354
 30
0.0
  0
VERTEX
  5
3FF
330
3FA
100
AcDbEntity
  8
H1
 62
   250
420
  2301728
370
     9
100
AcDbVertex
100
AcDb2dVertex
 10
10.63047448994729
 20
11.32100488252681
 30
0.0
  0
SEQEND
  5
400
330
3FA
100
AcDbEntity
  8
H1
 62
   250
420
  2301728
370
     9
  0
POLYLINE
  5
401
330
3E8
100
AcDbEntity
  8
H1
 62
   250
420
  2301728
370
     9
100
AcDb2dPolyline
 66
     1
 10
0.0
 20
0.0
 30
0.0
  0
VERTEX
  5
402
330
401
100
AcDbEntity
  8
H1
 62
   250
420
  2301728
370
     9
100
AcDbVertex
100
AcDb2dVertex
 10
10.54006994441102
 20
11.38293551657177
 30
0.0
  0
VERTEX
  5
403
330
401
100
AcDbEntity
  8
H1
 62
   250
420
  2301728
370
     9
100
AcDbVertex
100
AcDb2dVertex
 10
10.52229798462842
 20
11.38199901659067
 30
0.0
  0
VERTEX
  5
404
330
401
100
AcDbEntity
  8
H1
 62
   250
420
  2301728
370
     9
100
AcDbVertex
100
AcDb2dVertex
 10
10.60551426532144
 20
11.32483431888392
 30
0.0
  0
VERTEX
  5
405
330
401
100
AcDbEntity
  8
H1
 62
   250
420
  2301728
370
     9
100
AcDbVertex
100
AcDb2dVertex
 10
10.60582364752008
 20
11.33789665596915
 30
0.0
  0
VERTEX
  5
406
330
401
100
AcDbEntity
  8
H1
 62
   250
420
  2301728
370
     9
100
AcDbVertex
100
AcDb2dVertex
 10
10.52260427213686
 20
11.3949080873626
 30
0.0
  0
SEQEND
  5
407
330
401
100
AcDbEntity
  8
H1
 62
   250
420
  2301728
370
     9
  0
ENDBLK
  5
3EB
330
3E8
100
AcDbEntity
  8
0
100
AcDbBlockEnd
  0
BLOCK
  5
40A
330
408
100
AcDbEntity
  8
0
100
AcDbBlockBegin
  2
block 33
 70
     0
 10
0.0
 20
0.0
 30
0.0
  3
block 33
  1

  0
POLYLINE
  5
40C
330
408
100
AcDbEntity
  8
H1
 62
   250
420
  2301728
370
     9
100
AcDb2dPolyline
 66
     1
 10
0.0
 20
0.0
 30
0.0
  0
VERTEX
  5
40D
330
40C
100
AcDbEntity
  8
H1
 62
   250
420
  2301728
370
     9
100
AcDbVertex
100
AcDb2dVertex
 10
10.92730122351125
 20
11.08134293505265
 30
0.0
  0
VERTEX
  5
40E
330
40C
100
AcDbEntity
  8
H1
 62
   250
420
  2301728
370
     9
100
AcDbVertex
100
AcDb2dVertex
 10
10.90761627424788
 20
11.08109163730673
 30
0.0
  0
VERTEX
  5
40F
330
40C
100
AcDbEntity
  8
H1
 62
   250
420
  2301728
370
     9
100
AcDbVertex
100
AcDb2dVertex
 10
11.00005340084529
 20
11.01715743657323
 30
0.0
  0
VERTEX
  5
410
330
40C
100
AcDbEntity
  8
H1
 62
   250
420
  2301728
370
     9
100
AcDbVertex
100
AcDb2dVertex
 10
11.00034129818381
 20
11.03095449458629
 30
0.0
  0
VERTEX
  5
411
330
40C
100
AcDbEntity
  8
H1
 62
   250
420
  2301728
370
     9
100
AcDbVertex
100
AcDb2dVertex
 10
10.90789988282909
 20
11.09472241447837
 30
0.0
  0
SEQEND
  5
412
330
40C
100
AcDbEntity
  8
H1
 62
   250
420
  2301728
370
     9
  0
POLYLINE
  5
413
330
408
100
AcDbEntity
  8
H1
 62
   250
420
  2301728
370
     9
100
AcDb2dPolyline
 66
     1
 10
0.0
 20
0.0
 30
0.0
  0
VERTEX
  5
414
330
413
100
AcDbEntity
  8
H1
 62
   250
420
  2301728
370
     9
100
AcDbVertex
100
AcDb2dVertex
 10
10.81053554972179
 20
11.16189570498065
 30
0.0
  0
VERTEX
  5
415
330
413
100
AcDbEntity
  8
H1
 62
   250
420
  2301728
370
     9
100
AcDbVertex
100
AcDb2dVertex
 10
10.79142779929185
 20
11.16145017577919
 30
0.0
  0
VERTEX
  5
416
330
413
100
AcDbEntity
  8
H1
 62
   250
420
  2301728
370
     9
100
AcDbVertex
100
AcDb2dVertex
 10
10.8810397905259
 20
11.09947181694085
 30
0.0
  0
VERTEX
  5
417
330
413
100
AcDbEntity
  8
H1
 62
   250
420
  2301728
370
     9
100
AcDbVertex
100
AcDb2dVertex
 10
10.88133262010504
 20
11.11305192367763
 30
0.0
  0
VERTEX
  5
418
330
413
100
AcDbEntity
  8
H1
 62
   250
420
  2301728
370
     9
100
AcDbVertex
100
AcDb2dVertex
 10
10.7917163536991
 20
11.17486467450101
 30
0.0
  0
SEQEND
  5
419
330
413
100
AcDbEntity
  8
H1
 62
   250
420
  2301728
370
     9
  0
POLYLINE
  5
41A
330
408
100
AcDbEntity
  8
H1
 62
   250
420
  2301728
370
     9
100
AcDb2dPolyline
 66
     1
 10
0.0
 20
0.0
 30
0.0
  0
VERTEX
  5
41B
330
41A
100
AcDbEntity
  8
H1
 62
   250
420
  2301728
370
     9
100
AcDbVertex
100
AcDb2dVertex
 10
10.69726634421825
 20
11.24002535685276
 30
0.0
  0
VERTEX
  5
41C
330
41A
100
AcDbEntity
  8
H1
 62
   250
420
  2301728
370
     9
100
AcDbVertex
100
AcDb2dVertex
 10
10.67871937600762
 20
11.239402755931
 30
0.0
  0
VERTEX
  5
41D
330
41A
100
AcDbEntity
  8
H1
 62
   250
420
  2301728
370
     9
100
AcDbVertex
100
AcDb2dVertex
 10
10.76564119662847
 20
11.17928446294691
 30
0.0
  0
VERTEX
  5
41E
330
41A
100
AcDbEntity
  8
H1
 62
   250
420
  2301728
370
     9
100
AcDbVertex
100
AcDb2dVertex
 10
10.76593813998119
 20
11.19265320568873
 30
0.0
  0
VERTEX
  5
41F
330
41A
100
AcDbEntity
  8
H1
 62
   250
420
  2301728
370
     9
100
AcDbVertex
100
AcDb2dVertex
 10
10.67901303912607
 20
11.25260904318467
 30
0.0
  0
SEQEND
  5
420
330
41A
100
AcDbEntity
  8
H1
 62
   250
420
  2301728
370
     9
  0
POLYLINE
  5
421
330
408
100
AcDbEntity
  8
H1
 62
   250
420
  2301728
370
     9
100
AcDb2dPolyline
 66
     1
 10
0.0
 20
0.0
 30
0.0
  0
VERTEX
  5
422
330
421
100
AcDbEntity
  8
H1
 62
   250
420
  2301728
370
     9
100
AcDbVertex
100
AcDb2dVertex
 10
10.58738824641508
 20
11.31581791534393
 30
0.0
  0
VERTEX
  5
423
330
421
100
AcDbEntity
  8
H1
 62
   250
420
  2301728
370
     9
100
AcDbVertex
100
AcDb2dVertex
 10
10.56937450142098
 20
11.31503248148244
 30
0.0
  0
VERTEX
  5
424
330
421
100
AcDbEntity
  8
H1
 62
   250
420
  2301728
370
     9
100
AcDbVertex
100
AcDb2dVertex
 10
10.65373092605627
 20
11.25668570802945
 30
0.0
  0
VERTEX
  5
425
330
421
100
AcDbEntity
  8
H1
 62
   250
420
  2301728
370
     9
100
AcDbVertex
100
AcDb2dVertex
 10
10.65402381097776
 20
11.26985345463121
 30
0.0
  0
VERTEX
  5
426
330
421
100
AcDbEntity
  8
H1
 62
   250
420
  2301728
370
     9
100
AcDbVertex
100
AcDb2dVertex
 10
10.56968254330905
 20
11.32803299465436
 30
0.0
  0
SEQEND
  5
427
330
421
100
AcDbEntity
  8
H1
 62
   250
420
  2301728
370
     9
  0
POLYLINE
  5
428
330
408
100
AcDbEntity
  8
H1
 62
   250
420
  2301728
370
     9
100
AcDb2dPolyline
 66
     1
 10
0.0
 20
0.0
 30
0.0
  0
VERTEX
  5
429
330
428
100
AcDbEntity
  8
H1
 62
   250
420
  2301728
370
     9
100
AcDbVertex
100
AcDb2dVertex
 10
10.48073048240687
 20
11.38939445846732
 30
0.0
  0
VERTEX
  5
42A
330
428
100
AcDbEntity
  8
H1
 62
   250
420
  2301728
370
     9
100
AcDbVertex
100
AcDb2dVertex
 10
10.46323198131037
 20
11.38844119135597
 30
0.0
  0
VERTEX
  5
42B
330
428
100
AcDbEntity
  8
H1
 62
   250
420
  2301728
370
     9
100
AcDbVertex
100
AcDb2dVertex
 10
10.54512168407645
 20
11.33180862871279
 30
0.0
  0
VERTEX
  5
42C
330
428
100
AcDbEntity
  8
H1
 62
   250
420
  2301728
370
     9
100
AcDbVertex
100
AcDb2dVertex
 10
10.54542903934349
 20
11.3447705808443
 30
0.0
  0
VERTEX
  5
42D
330
428
100
AcDbEntity
  8
H1
 62
   250
420
  2301728
370
     9
100
AcDbVertex
100
AcDb2dVertex
 10
10.46353624188722
 20
11.40124987717417
 30
0.0
  0
SEQEND
  5
42E
330
428
100
AcDbEntity
  8
H1
 62
   250
420
  2301728
370
     9
  0
ENDBLK
  5
40B
330
408
100
AcDbEntity
  8
0
100
AcDbBlockEnd
  0
BLOCK
  5
431
330
42F
100
AcDbEntity
  8
0
100
AcDbBlockBegin
  2
block 34
 70
     0
 10
0.0
 20
0.0
 30
0.0
  3
block 34
  1

  0
POLYLINE
  5
433
330
42F
100
AcDbEntity
  8
H1
 62
   250
420
  2301728
370
     9
100
AcDb2dPolyline
 66
     1
 10
0.0
 20
0.0
 30
0.0
  0
VERTEX
  5
434
330
433
100
AcDbEntity
  8
H1
 62
   250
420
  2301728
370
     9
100
AcDbVertex
100
AcDb2dVertex
 10
10.8738501010849
 20
11.0821207240857
 30
0.0
  0
VERTEX
  5
435
330
433
100
AcDbEntity
  8
H1
 62
   250
420
  2301728
370
     9
100
AcDbVertex
100
AcDb2dVertex
 10
10.85441950303799
 20
11.0818749197745
 30
0.0
  0
VERTEX
  5
436
330
433
100
AcDbEntity
  8
H1
 62
   250
420
  2301728
370
     9
100
AcDbVertex
100
AcDb2dVertex
 10
10.94560172551519
 20
11.01837384237453
 30
0.0
  0
VERTEX
  5
437
330
433
100
AcDbEntity
  8
H1
 62
   250
420
  2301728
370
     9
100
AcDbVertex
100
AcDb2dVertex
 10
10.94587858264764
 20
11.03208535115723
 30
0.0
  0
VERTEX
  5
438
330
433
100
AcDbEntity
  8
H1
 62
   250
420
  2301728
370
     9
100
AcDbVertex
100
AcDb2dVertex
 10
10.85471146393216
 20
11.09541200438929
 30
0.0
  0
SEQEND
  5
439
330
433
100
AcDbEntity
  8
H1
 62
   250
420
  2301728
370
     9
  0
POLYLINE
  5
43A
330
42F
100
AcDbEntity
  8
H1
 62
   250
420
  2301728
370
     9
100
AcDb2dPolyline
 66
     1
 10
0.0
 20
0.0
 30
0.0
  0
VERTEX
  5
43B
330
43A
100
AcDbEntity
  8
H1
 62
   250
420
  2301728
370
     9
100
AcDbVertex
100
AcDb2dVertex
 10
10.75865579572413
 20
11.16213457581774
 30
0.0
  0
VERTEX
  5
43C
330
43A
100
AcDbEntity
  8
H1
 62
   250
420
  2301728
370
     9
100
AcDbVertex
100
AcDb2dVertex
 10
10.73980239651059
 20
11.161694540051
 30
0.0
  0
VERTEX
  5
43D
330
43A
100
AcDbEntity
  8
H1
 62
   250
420
  2301728
370
     9
100
AcDbVertex
100
AcDb2dVertex
 10
10.82821372479995
 20
11.1001194462662
 30
0.0
  0
VERTEX
  5
43E
330
43A
100
AcDbEntity
  8
H1
 62
   250
420
  2301728
370
     9
100
AcDbVertex
100
AcDb2dVertex
 10
10.82850378130827
 20
11.11360833740724
 30
0.0
  0
VERTEX
  5
43F
330
43A
100
AcDbEntity
  8
H1
 62
   250
420
  2301728
370
     9
100
AcDbVertex
100
AcDb2dVertex
 10
10.74009937562123
 20
11.17501893139282
 30
0.0
  0
SEQEND
  5
440
330
43A
100
AcDbEntity
  8
H1
 62
   250
420
  2301728
370
     9
  0
POLYLINE
  5
441
330
42F
100
AcDbEntity
  8
H1
 62
   250
420
  2301728
370
     9
100
AcDb2dPolyline
 66
     1
 10
0.0
 20
0.0
 30
0.0
  0
VERTEX
  5
442
330
441
100
AcDbEntity
  8
H1
 62
   250
420
  2301728
370
     9
100
AcDbVertex
100
AcDb2dVertex
 10
10.64690454790699
 20
11.23975520706801
 30
0.0
  0
VERTEX
  5
443
330
441
100
AcDbEntity
  8
H1
 62
   250
420
  2301728
370
     9
100
AcDbVertex
100
AcDb2dVertex
 10
10.62860255117403
 20
11.23913478595144
 30
0.0
  0
VERTEX
  5
444
330
441
100
AcDbEntity
  8
H1
 62
   250
420
  2301728
370
     9
100
AcDbVertex
100
AcDb2dVertex
 10
10.71436815609844
 20
11.17940716158113
 30
0.0
  0
VERTEX
  5
445
330
441
100
AcDbEntity
  8
H1
 62
   250
420
  2301728
370
     9
100
AcDbVertex
100
AcDb2dVertex
 10
10.71466332588026
 20
11.1926880672044
 30
0.0
  0
VERTEX
  5
446
330
441
100
AcDbEntity
  8
H1
 62
   250
420
  2301728
370
     9
100
AcDbVertex
100
AcDb2dVertex
 10
10.62890372997812
 20
11.25225206853054
 30
0.0
  0
SEQEND
  5
447
330
441
100
AcDbEntity
  8
H1
 62
   250
420
  2301728
370
     9
  0
POLYLINE
  5
448
330
42F
100
AcDbEntity
  8
H1
 62
   250
420
  2301728
370
     9
100
AcDb2dPolyline
 66
     1
 10
0.0
 20
0.0
 30
0.0
  0
VERTEX
  5
449
330
448
100
AcDbEntity
  8
H1
 62
   250
420
  2301728
370
     9
100
AcDbVertex
100
AcDb2dVertex
 10
10.53847234616761
 20
11.31506739358837
 30
0.0
  0
VERTEX
  5
44A
330
448
100
AcDbEntity
  8
H1
 62
   250
420
  2301728
370
     9
100
AcDbVertex
100
AcDb2dVertex
 10
10.52069413753164
 20
11.31428263887791
 30
0.0
  0
VERTEX
  5
44B
330
448
100
AcDbEntity
  8
H1
 62
   250
420
  2301728
370
     9
100
AcDbVertex
100
AcDb2dVertex
 10
10.6039304869525
 20
11.25631308547714
 30
0.0
  0
VERTEX
  5
44C
330
448
100
AcDbEntity
  8
H1
 62
   250
420
  2301728
370
     9
100
AcDbVertex
100
AcDb2dVertex
 10
10.60423085136441
 20
11.26939003481588
 30
0.0
  0
VERTEX
  5
44D
330
448
100
AcDbEntity
  8
H1
 62
   250
420
  2301728
370
     9
100
AcDbVertex
100
AcDb2dVertex
 10
10.52100076889458
 20
11.32720873924024
 30
0.0
  0
SEQEND
  5
44E
330
448
100
AcDbEntity
  8
H1
 62
   250
420
  2301728
370
     9
  0
ENDBLK
  5
432
330
42F
100
AcDbEntity
  8
0
100
AcDbBlockEnd
  0
BLOCK
  5
451
330
44F
100
AcDbEntity
  8
0
100
AcDbBlockBegin
  2
block 35
 70
     0
 10
0.0
 20
0.0
 30
0.0
  3
block 35
  1

  0
POLYLINE
  5
453
330
44F
100
AcDbEntity
  8
H1
 62
   250
420
  2301728
370
     9
100
AcDb2dPolyline
 66
     1
 10
0.0
 20
0.0
 30
0.0
  0
VERTEX
  5
454
330
453
100
AcDbEntity
  8
H1
 62
   250
420
  2301728
370
     9
100
AcDbVertex
100
AcDb2dVertex
 10
10.92579991403777
 20
11.00966481486341
 30
0.0
  0
VERTEX
  5
455
330
453
100
AcDbEntity
  8
H1
 62
   250
420
  2301728
370
     9
100
AcDbVertex
100
AcDb2dVertex
 10
10.90609995150064
 20
11.00959242275649
 30
0.0
  0
VERTEX
  5
456
330
453
100
AcDbEntity
  8
H1
 62
   250
420
  2301728
370
     9
100
AcDbVertex
100
AcDb2dVertex
 10
10.99857374817695
 20
10.94475311113265
 30
0.0
  0
VERTEX
  5
457
330
453
100
AcDbEntity
  8
H1
 62
   250
420
  2301728
370
     9
100
AcDbVertex
100
AcDb2dVertex
 10
10.99885281321695
 20
10.95857396780863
 30
0.0
  0
VERTEX
  5
458
330
453
100
AcDbEntity
  8
H1
 62
   250
420
  2301728
370
     9
100
AcDbVertex
100
AcDb2dVertex
 10
10.90639319318709
 20
11.02323906167797
 30
0.0
  0
SEQEND
  5
459
330
453
100
AcDbEntity
  8
H1
 62
   250
420
  2301728
370
     9
  0
POLYLINE
  5
45A
330
44F
100
AcDbEntity
  8
H1
 62
   250
420
  2301728
370
     9
100
AcDb2dPolyline
 66
     1
 10
0.0
 20
0.0
 30
0.0
  0
VERTEX
  5
45B
330
45A
100
AcDbEntity
  8
H1
 62
   250
420
  2301728
370
     9
100
AcDbVertex
100
AcDb2dVertex
 10
10.80899296368569
 20
11.09135578025379
 30
0.0
  0
VERTEX
  5
45C
330
45A
100
AcDbEntity
  8
H1
 62
   250
420
  2301728
370
     9
100
AcDbVertex
100
AcDb2dVertex
 10
10.78987948923277
 20
11.09108798885122
 30
0.0
  0
VERTEX
  5
45D
330
45A
100
AcDbEntity
  8
H1
 62
   250
420
  2301728
370
     9
100
AcDbVertex
100
AcDb2dVertex
 10
10.87952867988835
 20
11.02823073512229
 30
0.0
  0
VERTEX
  5
45E
330
45A
100
AcDbEntity
  8
H1
 62
   250
420
  2301728
370
     9
100
AcDbVertex
100
AcDb2dVertex
 10
10.8798126002664
 20
11.04183083187745
 30
0.0
  0
VERTEX
  5
45F
330
45A
100
AcDbEntity
  8
H1
 62
   250
420
  2301728
370
     9
100
AcDbVertex
100
AcDb2dVertex
 10
10.7901776653955
 20
11.10451294990905
 30
0.0
  0
SEQEND
  5
460
330
45A
100
AcDbEntity
  8
H1
 62
   250
420
  2301728
370
     9
  0
POLYLINE
  5
461
330
44F
100
AcDbEntity
  8
H1
 62
   250
420
  2301728
370
     9
100
AcDb2dPolyline
 66
     1
 10
0.0
 20
0.0
 30
0.0
  0
VERTEX
  5
462
330
461
100
AcDbEntity
  8
H1
 62
   250
420
  2301728
370
     9
100
AcDbVertex
100
AcDb2dVertex
 10
10.69570042211386
 20
11.17058969423365
 30
0.0
  0
VERTEX
  5
463
330
461
100
AcDbEntity
  8
H1
 62
   250
420
  2301728
370
     9
100
AcDbVertex
100
AcDb2dVertex
 10
10.67715672957178
 20
11.17012932268292
 30
0.0
  0
VERTEX
  5
464
330
461
100
AcDbEntity
  8
H1
 62
   250
420
  2301728
370
     9
100
AcDbVertex
100
AcDb2dVertex
 10
10.76410720695384
 20
11.10917027796854
 30
0.0
  0
VERTEX
  5
465
330
461
100
AcDbEntity
  8
H1
 62
   250
420
  2301728
370
     9
100
AcDbVertex
100
AcDb2dVertex
 10
10.76439503745696
 20
11.12254892492207
 30
0.0
  0
VERTEX
  5
466
330
461
100
AcDbEntity
  8
H1
 62
   250
420
  2301728
370
     9
100
AcDbVertex
100
AcDb2dVertex
 10
10.67745073653797
 20
11.18335263919275
 30
0.0
  0
SEQEND
  5
467
330
461
100
AcDbEntity
  8
H1
 62
   250
420
  2301728
370
     9
  0
POLYLINE
  5
468
330
44F
100
AcDbEntity
  8
H1
 62
   250
420
  2301728
370
     9
100
AcDb2dPolyline
 66
     1
 10
0.0
 20
0.0
 30
0.0
  0
VERTEX
  5
469
330
468
100
AcDbEntity
  8
H1
 62
   250
420
  2301728
370
     9
100
AcDbVertex
100
AcDb2dVertex
 10
10.58580747224831
 20
11.24744546677932
 30
0.0
  0
VERTEX
  5
46A
330
468
100
AcDbEntity
  8
H1
 62
   250
420
  2301728
370
     9
100
AcDbVertex
100
AcDb2dVertex
 10
10.5677792780559
 20
11.24682530812285
 30
0.0
  0
VERTEX
  5
46B
330
468
100
AcDbEntity
  8
H1
 62
   250
420
  2301728
370
     9
100
AcDbVertex
100
AcDb2dVertex
 10
10.65215562772611
 20
11.18766200676229
 30
0.0
  0
VERTEX
  5
46C
330
468
100
AcDbEntity
  8
H1
 62
   250
420
  2301728
370
     9
100
AcDbVertex
100
AcDb2dVertex
 10
10.65245803583652
 20
11.20083550887047
 30
0.0
  0
VERTEX
  5
46D
330
468
100
AcDbEntity
  8
H1
 62
   250
420
  2301728
370
     9
100
AcDbVertex
100
AcDb2dVertex
 10
10.56808761059354
 20
11.25983566014277
 30
0.0
  0
SEQEND
  5
46E
330
468
100
AcDbEntity
  8
H1
 62
   250
420
  2301728
370
     9
  0
POLYLINE
  5
46F
330
44F
100
AcDbEntity
  8
H1
 62
   250
420
  2301728
370
     9
100
AcDb2dPolyline
 66
     1
 10
0.0
 20
0.0
 30
0.0
  0
VERTEX
  5
470
330
46F
100
AcDbEntity
  8
H1
 62
   250
420
  2301728
370
     9
100
AcDbVertex
100
AcDb2dVertex
 10
10.4791167828055
 20
11.32206201148081
 30
0.0
  0
VERTEX
  5
471
330
46F
100
AcDbEntity
  8
H1
 62
   250
420
  2301728
370
     9
100
AcDbVertex
100
AcDb2dVertex
 10
10.46161201594347
 20
11.32126409469942
 30
0.0
  0
VERTEX
  5
472
330
46F
100
AcDbEntity
  8
H1
 62
   250
420
  2301728
370
     9
100
AcDbVertex
100
AcDb2dVertex
 10
10.54351289679746
 20
11.26384306095465
 30
0.0
  0
VERTEX
  5
473
330
46F
100
AcDbEntity
  8
H1
 62
   250
420
  2301728
370
     9
100
AcDbVertex
100
AcDb2dVertex
 10
10.54382032399139
 20
11.27681309998372
 30
0.0
  0
VERTEX
  5
474
330
46F
100
AcDbEntity
  8
H1
 62
   250
420
  2301728
370
     9
100
AcDbVertex
100
AcDb2dVertex
 10
10.46192489202225
 20
11.33408436721024
 30
0.0
  0
SEQEND
  5
475
330
46F
100
AcDbEntity
  8
H1
 62
   250
420
  2301728
370
     9
  0
ENDBLK
  5
452
330
44F
100
AcDbEntity
  8
0
100
AcDbBlockEnd
  0
BLOCK
  5
478
330
476
100
AcDbEntity
  8
0
100
AcDbBlockBegin
  2
block 36
 70
     0
 10
0.0
 20
0.0
 30
0.0
  3
block 36
  1

  0
POLYLINE
  5
47A
330
476
100
AcDbEntity
  8
H1
 62
   250
420
  2301728
370
     9
100
AcDb2dPolyline
 66
     1
 10
0.0
 20
0.0
 30
0.0
  0
VERTEX
  5
47B
330
47A
100
AcDbEntity
  8
H1
 62
   250
420
  2301728
370
     9
100
AcDbVertex
100
AcDb2dVertex
 10
10.87232226203888
 20
11.01092748253839
 30
0.0
  0
VERTEX
  5
47C
330
47A
100
AcDbEntity
  8
H1
 62
   250
420
  2301728
370
     9
100
AcDbVertex
100
AcDb2dVertex
 10
10.85289419351883
 20
11.01085307683421
 30
0.0
  0
VERTEX
  5
47D
330
47A
100
AcDbEntity
  8
H1
 62
   250
420
  2301728
370
     9
100
AcDbVertex
100
AcDb2dVertex
 10
10.94409470045881
 20
10.9464638109277
 30
0.0
  0
VERTEX
  5
47E
330
47A
100
AcDbEntity
  8
H1
 62
   250
420
  2301728
370
     9
100
AcDbVertex
100
AcDb2dVertex
 10
10.94438108211087
 20
10.96018580369504
 30
0.0
  0
VERTEX
  5
47F
330
47A
100
AcDbEntity
  8
H1
 62
   250
420
  2301728
370
     9
100
AcDbVertex
100
AcDb2dVertex
 10
10.85318649826748
 20
11.02440719103894
 30
0.0
  0
SEQEND
  5
480
330
47A
100
AcDbEntity
  8
H1
 62
   250
420
  2301728
370
     9
  0
POLYLINE
  5
481
330
476
100
AcDbEntity
  8
H1
 62
   250
420
  2301728
370
     9
100
AcDb2dPolyline
 66
     1
 10
0.0
 20
0.0
 30
0.0
  0
VERTEX
  5
482
330
481
100
AcDbEntity
  8
H1
 62
   250
420
  2301728
370
     9
100
AcDbVertex
100
AcDb2dVertex
 10
10.75710395145206
 20
11.09205857828778
 30
0.0
  0
VERTEX
  5
483
330
481
100
AcDbEntity
  8
H1
 62
   250
420
  2301728
370
     9
100
AcDbVertex
100
AcDb2dVertex
 10
10.73825491789843
 20
11.09178863200696
 30
0.0
  0
VERTEX
  5
484
330
481
100
AcDbEntity
  8
H1
 62
   250
420
  2301728
370
     9
100
AcDbVertex
100
AcDb2dVertex
 10
10.82668445442944
 20
11.02935777833031
 30
0.0
  0
VERTEX
  5
485
330
481
100
AcDbEntity
  8
H1
 62
   250
420
  2301728
370
     9
100
AcDbVertex
100
AcDb2dVertex
 10
10.82696642026657
 20
11.04286107531105
 30
0.0
  0
VERTEX
  5
486
330
481
100
AcDbEntity
  8
H1
 62
   250
420
  2301728
370
     9
100
AcDbVertex
100
AcDb2dVertex
 10
10.7385419702046
 20
11.10512873830961
 30
0.0
  0
SEQEND
  5
487
330
481
100
AcDbEntity
  8
H1
 62
   250
420
  2301728
370
     9
  0
POLYLINE
  5
488
330
476
100
AcDbEntity
  8
H1
 62
   250
420
  2301728
370
     9
100
AcDb2dPolyline
 66
     1
 10
0.0
 20
0.0
 30
0.0
  0
VERTEX
  5
489
330
488
100
AcDbEntity
  8
H1
 62
   250
420
  2301728
370
     9
100
AcDbVertex
100
AcDb2dVertex
 10
10.6453299508333
 20
11.17076623593118
 30
0.0
  0
VERTEX
  5
48A
330
488
100
AcDbEntity
  8
H1
 62
   250
420
  2301728
370
     9
100
AcDbVertex
100
AcDb2dVertex
 10
10.62701275985293
 20
11.17031575762958
 30
0.0
  0
VERTEX
  5
48B
330
488
100
AcDbEntity
  8
H1
 62
   250
420
  2301728
370
     9
100
AcDbVertex
100
AcDb2dVertex
 10
10.71280709392315
 20
11.10975096641842
 30
0.0
  0
VERTEX
  5
48C
330
488
100
AcDbEntity
  8
H1
 62
   250
420
  2301728
370
     9
100
AcDbVertex
100
AcDb2dVertex
 10
10.71310251703587
 20
11.12304441840039
 30
0.0
  0
VERTEX
  5
48D
330
488
100
AcDbEntity
  8
H1
 62
   250
420
  2301728
370
     9
100
AcDbVertex
100
AcDb2dVertex
 10
10.62731513722972
 20
11.18344627787676
 30
0.0
  0
SEQEND
  5
48E
330
488
100
AcDbEntity
  8
H1
 62
   250
420
  2301728
370
     9
  0
POLYLINE
  5
48F
330
476
100
AcDbEntity
  8
H1
 62
   250
420
  2301728
370
     9
100
AcDb2dPolyline
 66
     1
 10
0.0
 20
0.0
 30
0.0
  0
VERTEX
  5
490
330
48F
100
AcDbEntity
  8
H1
 62
   250
420
  2301728
370
     9
100
AcDbVertex
100
AcDb2dVertex
 10
10.5368725901719
 20
11.24713852901076
 30
0.0
  0
VERTEX
  5
491
330
48F
100
AcDbEntity
  8
H1
 62
   250
420
  2301728
370
     9
100
AcDbVertex
100
AcDb2dVertex
 10
10.5190893130224
 20
11.24651335969092
 30
0.0
  0
VERTEX
  5
492
330
48F
100
AcDbEntity
  8
H1
 62
   250
420
  2301728
370
     9
100
AcDbVertex
100
AcDb2dVertex
 10
10.60234547339271
 20
11.1877306785321
 30
0.0
  0
VERTEX
  5
493
330
48F
100
AcDbEntity
  8
H1
 62
   250
420
  2301728
370
     9
100
AcDbVertex
100
AcDb2dVertex
 10
10.60264610926197
 20
11.20082107195342
 30
0.0
  0
VERTEX
  5
494
330
48F
100
AcDbEntity
  8
H1
 62
   250
420
  2301728
370
     9
100
AcDbVertex
100
AcDb2dVertex
 10
10.51938667337403
 20
11.25944602577337
 30
0.0
  0
SEQEND
  5
495
330
48F
100
AcDbEntity
  8
H1
 62
   250
420
  2301728
370
     9
  0
ENDBLK
  5
479
330
476
100
AcDbEntity
  8
0
100
AcDbBlockEnd
  0
BLOCK
  5
49D
330
49B
100
AcDbEntity
  8
0
100
AcDbBlockBegin
  2
block 37
 70
     0
 10
0.0
 20
0.0
 30
0.0
  3
block 37
  1

  0
POLYLINE
  5
49F
330
49B
100
AcDbEntity
  8
Callouts
370
     0
100
AcDb2dPolyline
 66
     1
 10
0.0
 20
0.0
 30
0.0
  0
VERTEX
  5
4A0
330
49F
100
AcDbEntity
  8
Callouts
370
     0
100
AcDbVertex
100
AcDb2dVertex
 10
10.30625212752615
 20
11.10304005595025
 30
0.0
  0
VERTEX
  5
4A1
330
49F
100
AcDbEntity
  8
Callouts
370
     0
100
AcDbVertex
100
AcDb2dVertex
 10
10.29436197039669
 20
11.11202558644938
 30
0.0
  0
VERTEX
  5
4A2
330
49F
100
AcDbEntity
  8
Callouts
370
     0
100
AcDbVertex
100
AcDb2dVertex
 10
10.29436197039669
 20
11.23344030825177
 30
0.0
  0
VERTEX
  5
4A3
330
49F
100
AcDbEntity
  8
Callouts
370
     0
100
AcDbVertex
100
AcDb2dVertex
 10
10.35528634317292
 20
11.18739152905881
 30
0.0
  0
VERTEX
  5
4A4
330
49F
100
AcDbEntity
  8
Callouts
370
     0
100
AcDbVertex
100
AcDb2dVertex
 10
10.35528634317292
 20
11.17285133081377
 30
0.0
  0
VERTEX
  5
4A5
330
49F
100
AcDbEntity
  8
Callouts
370
     0
100
AcDbVertex
100
AcDb2dVertex
 10
10.30625212752615
 20
11.20991055331324
 30
0.0
  0
VERTEX
  5
4A6
330
49F
100
AcDbEntity
  8
Callouts
370
     0
100
AcDbVertex
100
AcDb2dVertex
 10
10.30625212752615
 20
11.17270771235853
 30
0.0
  0
VERTEX
  5
4A7
330
49F
100
AcDbEntity
  8
Callouts
370
     0
100
AcDbVertex
100
AcDb2dVertex
 10
10.34940407323991
 20
11.14009124771332
 30
0.0
  0
VERTEX
  5
4A8
330
49F
100
AcDbEntity
  8
Callouts
370
     0
100
AcDbVertex
100
AcDb2dVertex
 10
10.34940407323991
 20
11.12555199769239
 30
0.0
  0
VERTEX
  5
4A9
330
49F
100
AcDbEntity
  8
Callouts
370
     0
100
AcDbVertex
100
AcDb2dVertex
 10
10.30625212752615
 20
11.15816831935236
 30
0.0
  0
VERTEX
  5
4AA
330
49F
100
AcDbEntity
  8
Callouts
370
     0
100
AcDbVertex
100
AcDb2dVertex
 10
10.30625212752615
 20
11.10304005595025
 30
0.0
  0
SEQEND
  5
4AB
330
49F
100
AcDbEntity
  8
Callouts
370
     0
  0
HATCH
  5
4AC
330
49B
100
AcDbEntity
  8
Callouts
 62
   250
420
  2301728
100
AcDbHatch
 10
0.0
 20
0.0
 30
0.0
210
0.0
220
0.0
230
1.0
  2
SOLID
 70
     1
 71
     0
 91
        1
 92
        1
 93
       10
 72
     1
 10
10.30625212752615
 20
11.10304005595025
 11
10.29436197039669
 21
11.11202558644938
 72
     1
 10
10.29436197039669
 20
11.11202558644938
 11
10.29436197039669
 21
11.23344030825177
 72
     1
 10
10.29436197039669
 20
11.23344030825177
 11
10.35528634317292
 21
11.18739152905881
 72
     1
 10
10.35528634317292
 20
11.18739152905881
 11
10.35528634317292
 21
11.17285133081377
 72
     1
 10
10.35528634317292
 20
11.17285133081377
 11
10.30625212752615
 21
11.20991055331324
 72
     1
 10
10.30625212752615
 20
11.20991055331324
 11
10.30625212752615
 21
11.17270771235853
 72
     1
 10
10.30625212752615
 20
11.17270771235853
 11
10.34940407323991
 21
11.14009124771332
 72
     1
 10
10.34940407323991
 20
11.14009124771332
 11
10.34940407323991
 21
11.12555199769239
 72
     1
 10
10.34940407323991
 20
11.12555199769239
 11
10.30625212752615
 21
11.15816831935236
 72
     1
 10
10.30625212752615
 20
11.15816831935236
 11
10.30625212752615
 21
11.10304005595025
 97
        0
 75
     2
 76
     1
 98
        0
  0
SPLINE
  5
4AD
330
49B
100
AcDbEntity
  8
Callouts
370
     0
100
AcDbSpline
210
0.0
220
0.0
230
1.0
 70
    11
 71
     3
 72
    47
 73
    43
 74
     0
 42
0.0000000001
 43
0.0000000001
 12
1.0
 22
0.0
 32
0.0
 13
1.0
 23
0.0
 33
0.0
 40
0.0
 40
0.0
 40
0.0
 40
0.0
 40
1.0
 40
1.0
 40
1.0
 40
2.0
 40
2.0
 40
2.0
 40
3.0
 40
3.0
 40
3.0
 40
4.0
 40
4.0
 40
4.0
 40
5.0
 40
5.0
 40
5.0
 40
6.0
 40
6.0
 40
6.0
 40
7.0
 40
7.0
 40
7.0
 40
8.0
 40
8.0
 40
8.0
 40
9.0
 40
9.0
 40
9.0
 40
10.0
 40
10.0
 40
10.0
 40
11.0
 40
11.0
 40
11.0
 40
12.0
 40
12.0
 40
12.0
 40
13.0
 40
13.0
 40
13.0
 40
14.0
 40
14.0
 40
14.0
 40
14.0
 10
10.3627645965429
 20
11.09336943364123
 30
0.0
 10
10.3627645965429
 20
11.12240956818789
 30
0.0
 10
10.37811808604493
 20
11.11372345635153
 30
0.0
 10
10.38510514370523
 20
11.10844225165411
 30
0.0
 10
10.39632212114078
 20
11.09996449384597
 30
0.0
 10
10.40533443258472
 20
11.08313125546023
 30
0.0
 10
10.40533443258472
 20
11.06651515141268
 30
0.0
 10
10.40533443258472
 20
11.05053599130998
 30
0.0
 10
10.39770230056105
 20
11.04958525273879
 30
0.0
 10
10.38804990224665
 20
11.0497755976778
 30
0.0
 10
10.38804990224665
 20
11.0497755976778
 30
0.0
 10
10.38133831370295
 20
11.04977665498355
 30
0.0
 10
10.38133831370295
 20
11.04977665498355
 30
0.0
 10
10.37251120780489
 20
11.04972807418037
 30
0.0
 10
10.37058105023756
 20
11.04421240538477
 30
0.0
 10
10.370211445597
 20
11.04106579873477
 30
0.0
 10
10.370211445597
 20
11.04106579873477
 30
0.0
 10
10.40533443258472
 20
11.01451685149168
 30
0.0
 10
10.40533443258472
 20
11.01451685149168
 30
0.0
 10
10.40533443258472
 20
11.01451685149168
 30
0.0
 10
10.40533443258472
 20
11.00399171621623
 30
0.0
 10
10.40533443258472
 20
11.00399171621623
 30
0.0
 10
10.40533443258472
 20
11.00399171621623
 30
0.0
 10
10.36110902542964
 20
11.03742018651278
 30
0.0
 10
10.36110902542964
 20
11.03742018651278
 30
0.0
 10
10.36156881682344
 20
11.05559231079865
 30
0.0
 10
10.36763951265162
 20
11.06089309811388
 30
0.0
 10
10.37628214142518
 20
11.06133597661192
 30
0.0
 10
10.37628214142518
 20
11.06133597661192
 30
0.0
 10
10.38482975201226
 20
11.06172398636162
 30
0.0
 10
10.38482975201226
 20
11.06172398636162
 30
0.0
 10
10.39172589536654
 20
11.06196626739943
 30
0.0
 10
10.39669172578131
 20
11.06188917063985
 30
0.0
 10
10.39669172578131
 20
11.07355547136391
 30
0.0
 10
10.39669172578131
 20
11.08066023749005
 30
0.0
 10
10.39338138879372
 20
11.09216569914243
 30
0.0
 10
10.3839093639858
 20
11.09932760632898
 30
0.0
 10
10.37168181177054
 20
11.10856940381649
 30
0.0
 10
10.37113102838463
 20
11.09325875871256
 30
0.0
 10
10.37085644193053
 20
11.08724978210057
 30
0.0
 10
10.37085644193053
 20
11.08724978210057
 30
0.0
 10
10.3627645965429
 20
11.09336943364123
 30
0.0
 10
10.3627645965429
 20
11.09336943364123
 30
0.0
  0
HATCH
  5
4AE
330
49B
100
AcDbEntity
  8
Callouts
 62
   250
420
  2301728
100
AcDbHatch
 10
0.0
 20
0.0
 30
0.0
210
0.0
220
0.0
230
1.0
  2
SOLID
 70
     1
 71
     0
 91
        1
 92
        1
 93
        1
 72
     4
 94
        3
 73
     0
 74
     1
 95
       47
 96
       43
 40
0.0
 40
0.0
 40
0.0
 40
0.0
 40
1.0
 40
1.0
 40
1.0
 40
2.0
 40
2.0
 40
2.0
 40
3.0
 40
3.0
 40
3.0
 40
4.0
 40
4.0
 40
4.0
 40
5.0
 40
5.0
 40
5.0
 40
6.0
 40
6.0
 40
6.0
 40
7.0
 40
7.0
 40
7.0
 40
8.0
 40
8.0
 40
8.0
 40
9.0
 40
9.0
 40
9.0
 40
10.0
 40
10.0
 40
10.0
 40
11.0
 40
11.0
 40
11.0
 40
12.0
 40
12.0
 40
12.0
 40
13.0
 40
13.0
 40
13.0
 40
14.0
 40
14.0
 40
14.0
 40
14.0
 10
10.3627645965429
 20
11.09336943364123
 10
10.3627645965429
 20
11.12240956818789
 10
10.37811808604493
 20
11.11372345635153
 10
10.38510514370523
 20
11.10844225165411
 10
10.39632212114078
 20
11.09996449384597
 10
10.40533443258472
 20
11.08313125546023
 10
10.40533443258472
 20
11.06651515141268
 10
10.40533443258472
 20
11.05053599130998
 10
10.39770230056105
 20
11.04958525273879
 10
10.38804990224665
 20
11.0497755976778
 10
10.38804990224665
 20
11.0497755976778
 10
10.38133831370295
 20
11.04977665498355
 10
10.38133831370295
 20
11.04977665498355
 10
10.37251120780489
 20
11.04972807418037
 10
10.37058105023756
 20
11.04421240538477
 10
10.370211445597
 20
11.04106579873477
 10
10.370211445597
 20
11.04106579873477
 10
10.40533443258472
 20
11.01451685149168
 10
10.40533443258472
 20
11.01451685149168
 10
10.40533443258472
 20
11.01451685149168
 10
10.40533443258472
 20
11.00399171621623
 10
10.40533443258472
 20
11.00399171621623
 10
10.40533443258472
 20
11.00399171621623
 10
10.36110902542964
 20
11.03742018651278
 10
10.36110902542964
 20
11.03742018651278
 10
10.36156881682344
 20
11.05559231079865
 10
10.36763951265162
 20
11.06089309811388
 10
10.37628214142518
 20
11.06133597661192
 10
10.37628214142518
 20
11.06133597661192
 10
10.38482975201226
 20
11.06172398636162
 10
10.38482975201226
 20
11.06172398636162
 10
10.39172589536654
 20
11.06196626739943
 10
10.39669172578131
 20
11.06188917063985
 10
10.39669172578131
 20
11.07355547136391
 10
10.39669172578131
 20
11.08066023749005
 10
10.39338138879372
 20
11.09216569914243
 10
10.3839093639858
 20
11.09932760632898
 10
10.37168181177054
 20
11.10856940381649
 10
10.37113102838463
 20
11.09325875871256
 10
10.37085644193053
 20
11.08724978210057
 10
10.37085644193053
 20
11.08724978210057
 10
10.3627645965429
 20
11.09336943364123
 10
10.3627645965429
 20
11.09336943364123
 97
        0
 97
        0
 75
     2
 76
     1
 98
        0
  0
ENDBLK
  5
49E
330
49B
100
AcDbEntity
  8
0
100
AcDbBlockEnd
  0
BLOCK
  5
4B1
330
4AF
100
AcDbEntity
  8
0
100
AcDbBlockBegin
  2
block 38
 70
     0
 10
0.0
 20
0.0
 30
0.0
  3
block 38
  1

  0
POLYLINE
  5
4B3
330
4AF
100
AcDbEntity
  8
Callouts
370
     0
100
AcDb2dPolyline
 66
     1
 10
0.0
 20
0.0
 30
0.0
  0
VERTEX
  5
4B4
330
4B3
100
AcDbEntity
  8
Callouts
370
     0
100
AcDbVertex
100
AcDb2dVertex
 10
10.48288295516722
 20
10.49609027464673
 30
0.0
  0
VERTEX
  5
4B5
330
4B3
100
AcDbEntity
  8
Callouts
370
     0
100
AcDbVertex
100
AcDb2dVertex
 10
10.46922771443845
 20
10.49118195670821
 30
0.0
  0
VERTEX
  5
4B6
330
4B3
100
AcDbEntity
  8
Callouts
370
     0
100
AcDbVertex
100
AcDb2dVertex
 10
10.46922771443845
 20
10.61259345755511
 30
0.0
  0
VERTEX
  5
4B7
330
4B3
100
AcDbEntity
  8
Callouts
370
     0
100
AcDbVertex
100
AcDb2dVertex
 10
10.53918686731708
 20
10.63775749388019
 30
0.0
  0
VERTEX
  5
4B8
330
4B3
100
AcDbEntity
  8
Callouts
370
     0
100
AcDbVertex
100
AcDb2dVertex
 10
10.53918686731708
 20
10.62321407467968
 30
0.0
  0
VERTEX
  5
4B9
330
4B3
100
AcDbEntity
  8
Callouts
370
     0
100
AcDbVertex
100
AcDb2dVertex
 10
10.48288295516722
 20
10.60296157724859
 30
0.0
  0
VERTEX
  5
4BA
330
4B3
100
AcDbEntity
  8
Callouts
370
     0
100
AcDbVertex
100
AcDb2dVertex
 10
10.48288295516722
 20
10.56576276248822
 30
0.0
  0
VERTEX
  5
4BB
330
4B3
100
AcDbEntity
  8
Callouts
370
     0
100
AcDbVertex
100
AcDb2dVertex
 10
10.53243171845083
 20
10.58358392491148
 30
0.0
  0
VERTEX
  5
4BC
330
4B3
100
AcDbEntity
  8
Callouts
370
     0
100
AcDbVertex
100
AcDb2dVertex
 10
10.53243171845083
 20
10.56904050571097
 30
0.0
  0
VERTEX
  5
4BD
330
4B3
100
AcDbEntity
  8
Callouts
370
     0
100
AcDbVertex
100
AcDb2dVertex
 10
10.48288295516722
 20
10.55121866557699
 30
0.0
  0
VERTEX
  5
4BE
330
4B3
100
AcDbEntity
  8
Callouts
370
     0
100
AcDbVertex
100
AcDb2dVertex
 10
10.48288295516722
 20
10.49609027464673
 30
0.0
  0
SEQEND
  5
4BF
330
4B3
100
AcDbEntity
  8
Callouts
370
     0
  0
HATCH
  5
4C0
330
4AF
100
AcDbEntity
  8
Callouts
 62
   250
420
  2301728
100
AcDbHatch
 10
0.0
 20
0.0
 30
0.0
210
0.0
220
0.0
230
1.0
  2
SOLID
 70
     1
 71
     0
 91
        1
 92
        1
 93
       10
 72
     1
 10
10.48288295516722
 20
10.49609027464673
 11
10.46922771443845
 21
10.49118195670821
 72
     1
 10
10.46922771443845
 20
10.49118195670821
 11
10.46922771443845
 21
10.61259345755511
 72
     1
 10
10.46922771443845
 20
10.61259345755511
 11
10.53918686731708
 21
10.63775749388019
 72
     1
 10
10.53918686731708
 20
10.63775749388019
 11
10.53918686731708
 21
10.62321407467968
 72
     1
 10
10.53918686731708
 20
10.62321407467968
 11
10.48288295516722
 21
10.60296157724859
 72
     1
 10
10.48288295516722
 20
10.60296157724859
 11
10.48288295516722
 21
10.56576276248822
 72
     1
 10
10.48288295516722
 20
10.56576276248822
 11
10.53243171845083
 21
10.58358392491148
 72
     1
 10
10.53243171845083
 20
10.58358392491148
 11
10.53243171845083
 21
10.56904050571097
 72
     1
 10
10.53243171845083
 20
10.56904050571097
 11
10.48288295516722
 21
10.55121866557699
 72
     1
 10
10.48288295516722
 20
10.55121866557699
 11
10.48288295516722
 21
10.49609027464673
 97
        0
 75
     2
 76
     1
 98
        0
  0
SPLINE
  5
4C1
330
4AF
100
AcDbEntity
  8
Callouts
370
     0
100
AcDbSpline
210
0.0
220
0.0
230
1.0
 70
    11
 71
     3
 72
    26
 73
    22
 74
     0
 42
0.0000000001
 43
0.0000000001
 12
1.0
 22
0.0
 32
0.0
 13
1.0
 23
0.0
 33
0.0
 40
0.0
 40
0.0
 40
0.0
 40
0.0
 40
1.0
 40
1.0
 40
1.0
 40
2.0
 40
2.0
 40
2.0
 40
3.0
 40
3.0
 40
3.0
 40
4.0
 40
4.0
 40
4.0
 40
5.0
 40
5.0
 40
5.0
 40
6.0
 40
6.0
 40
6.0
 40
7.0
 40
7.0
 40
7.0
 40
7.0
 10
10.56895091160636
 20
10.50276203124281
 30
0.0
 10
10.56895091160636
 20
10.50276203124281
 30
0.0
 10
10.55902634255446
 20
10.49919349040998
 30
0.0
 10
10.55902634255446
 20
10.49919349040998
 30
0.0
 10
10.55902634255446
 20
10.49919349040998
 30
0.0
 10
10.55902634255446
 20
10.5624804340258
 30
0.0
 10
10.55902634255446
 20
10.5624804340258
 30
0.0
 10
10.55902634255446
 20
10.5624804340258
 30
0.0
 10
10.5417145121247
 20
10.55625227024474
 30
0.0
 10
10.5417145121247
 20
10.55625227024474
 30
0.0
 10
10.5417145121247
 20
10.55625227024474
 30
0.0
 10
10.5417145121247
 20
10.56513083400672
 30
0.0
 10
10.5417145121247
 20
10.56513083400672
 30
0.0
 10
10.5537504174893
 20
10.57047607938042
 30
0.0
 10
10.55870827320147
 20
10.57365069854432
 30
0.0
 10
10.5616651103259
 20
10.58930087744499
 30
0.0
 10
10.5616651103259
 20
10.58930087744499
 30
0.0
 10
10.56895091160636
 20
10.5919204944585
 30
0.0
 10
10.56895091160636
 20
10.5919204944585
 30
0.0
 10
10.56895091160636
 20
10.5919204944585
 30
0.0
 10
10.56895091160636
 20
10.50276203124281
 30
0.0
 10
10.56895091160636
 20
10.50276203124281
 30
0.0
  0
HATCH
  5
4C2
330
4AF
100
AcDbEntity
  8
Callouts
 62
   250
420
  2301728
100
AcDbHatch
 10
0.0
 20
0.0
 30
0.0
210
0.0
220
0.0
230
1.0
  2
SOLID
 70
     1
 71
     0
 91
        1
 92
        1
 93
        1
 72
     4
 94
        3
 73
     0
 74
     1
 95
       26
 96
       22
 40
0.0
 40
0.0
 40
0.0
 40
0.0
 40
1.0
 40
1.0
 40
1.0
 40
2.0
 40
2.0
 40
2.0
 40
3.0
 40
3.0
 40
3.0
 40
4.0
 40
4.0
 40
4.0
 40
5.0
 40
5.0
 40
5.0
 40
6.0
 40
6.0
 40
6.0
 40
7.0
 40
7.0
 40
7.0
 40
7.0
 10
10.56895091160636
 20
10.50276203124281
 10
10.56895091160636
 20
10.50276203124281
 10
10.55902634255446
 20
10.49919349040998
 10
10.55902634255446
 20
10.49919349040998
 10
10.55902634255446
 20
10.49919349040998
 10
10.55902634255446
 20
10.5624804340258
 10
10.55902634255446
 20
10.5624804340258
 10
10.55902634255446
 20
10.5624804340258
 10
10.5417145121247
 20
10.55625227024474
 10
10.5417145121247
 20
10.55625227024474
 10
10.5417145121247
 20
10.55625227024474
 10
10.5417145121247
 20
10.56513083400672
 10
10.5417145121247
 20
10.56513083400672
 10
10.5537504174893
 20
10.57047607938042
 10
10.55870827320147
 20
10.57365069854432
 10
10.5616651103259
 20
10.58930087744499
 10
10.5616651103259
 20
10.58930087744499
 10
10.56895091160636
 20
10.5919204944585
 10
10.56895091160636
 20
10.5919204944585
 10
10.56895091160636
 20
10.5919204944585
 10
10.56895091160636
 20
10.50276203124281
 10
10.56895091160636
 20
10.50276203124281
 97
        0
 97
        0
 75
     2
 76
     1
 98
        0
  0
ENDBLK
  5
4B2
330
4AF
100
AcDbEntity
  8
0
100
AcDbBlockEnd
  0
BLOCK
  5
4C5
330
4C3
100
AcDbEntity
  8
0
100
AcDbBlockBegin
  2
block 39
 70
     0
 10
0.0
 20
0.0
 30
0.0
  3
block 39
  1

  0
INSERT
  5
4C8
330
4C3
100
AcDbEntity
  8
Callouts
100
AcDbBlockReference
  2
block 40
 10
0.0
 20
0.0
 30
0.0
  0
ENDBLK
  5
4C6
330
4C3
100
AcDbEntity
  8
0
100
AcDbBlockEnd
  0
BLOCK
  5
4C9
330
4C7
100
AcDbEntity
  8
0
100
AcDbBlockBegin
  2
block 40
 70
     0
 10
0.0
 20
0.0
 30
0.0
  3
block 40
  1

  0
POLYLINE
  5
4CB
330
4C7
100
AcDbEntity
  8
Callouts
 62
   250
420
  2301728
370
    60
100
AcDb2dPolyline
 66
     1
 10
0.0
 20
0.0
 30
0.0
  0
VERTEX
  5
4CC
330
4CB
100
AcDbEntity
  8
Callouts
 62
   250
420
  2301728
370
    60
100
AcDbVertex
100
AcDb2dVertex
 10
10.47374335942454
 20
10.90860236774166
 30
0.0
  0
VERTEX
  5
4CD
330
4CB
100
AcDbEntity
  8
Callouts
 62
   250
420
  2301728
370
    60
100
AcDbVertex
100
AcDb2dVertex
 10
10.16632087475952
 20
11.12840184283385
 30
0.0
  0
SEQEND
  5
4CE
330
4CB
100
AcDbEntity
  8
Callouts
 62
   250
420
  2301728
370
    60
  0
POLYLINE
  5
4CF
330
4C7
100
AcDbEntity
  8
Callouts
370
     0
100
AcDb2dPolyline
 66
     1
 10
0.0
 20
0.0
 30
0.0
  0
VERTEX
  5
4D0
330
4CF
100
AcDbEntity
  8
Callouts
370
     0
100
AcDbVertex
100
AcDb2dVertex
 10
10.19719373297047
 20
11.06123445311165
 30
0.0
  0
VERTEX
  5
4D1
330
4CF
100
AcDbEntity
  8
Callouts
370
     0
100
AcDbVertex
100
AcDb2dVertex
 10
10.10790160010262
 20
11.16383557399488
 30
0.0
  0
VERTEX
  5
4D2
330
4CF
100
AcDbEntity
  8
Callouts
370
     0
100
AcDbVertex
100
AcDb2dVertex
 10
10.19853042949186
 20
11.15396254023056
 30
0.0
  0
VERTEX
  5
4D3
330
4CF
100
AcDbEntity
  8
Callouts
370
     0
100
AcDbVertex
100
AcDb2dVertex
 10
10.19719373297047
 20
11.06123445311165
 30
0.0
  0
SEQEND
  5
4D5
330
4CF
100
AcDbEntity
  8
Callouts
370
     0
  0
HATCH
  5
4D4
330
4C7
100
AcDbEntity
  8
Callouts
 62
   250
420
  2301728
100
AcDbHatch
 10
0.0
 20
0.0
 30
0.0
210
0.0
220
0.0
230
1.0
  2
SOLID
 70
     1
 71
     0
 91
        1
 92
        1
 93
        3
 72
     1
 10
10.19719373297047
 20
11.06123445311165
 11
10.10790160010262
 21
11.16383557399488
 72
     1
 10
10.10790160010262
 20
11.16383557399488
 11
10.19853042949186
 21
11.15396254023056
 72
     1
 10
10.19853042949186
 20
11.15396254023056
 11
10.19719373297047
 21
11.06123445311165
 97
        0
 75
     2
 76
     1
 98
        0
  0
POLYLINE
  5
4D6
330
4C7
100
AcDbEntity
  8
Callouts
370
     0
100
AcDb2dPolyline
 66
     1
 10
0.0
 20
0.0
 30
0.0
  0
VERTEX
  5
4D7
330
4D6
100
AcDbEntity
  8
Callouts
370
     0
100
AcDbVertex
100
AcDb2dVertex
 10
10.43214471948772
 20
10.9864406460677
 30
0.0
  0
VERTEX
  5
4D8
330
4D6
100
AcDbEntity
  8
Callouts
370
     0
100
AcDbVertex
100
AcDb2dVertex
 10
10.55379537627853
 20
10.859812002593
 30
0.0
  0
VERTEX
  5
4D9
330
4D6
100
AcDbEntity
  8
Callouts
370
     0
100
AcDbVertex
100
AcDb2dVertex
 10
10.43214471948772
 20
10.88843985483911
 30
0.0
  0
VERTEX
  5
4DA
330
4D6
100
AcDbEntity
  8
Callouts
370
     0
100
AcDbVertex
100
AcDb2dVertex
 10
10.43214471948772
 20
10.9864406460677
 30
0.0
  0
SEQEND
  5
4DC
330
4D6
100
AcDbEntity
  8
Callouts
370
     0
  0
HATCH
  5
4DB
330
4C7
100
AcDbEntity
  8
Callouts
 62
   250
420
  2301728
100
AcDbHatch
 10
0.0
 20
0.0
 30
0.0
210
0.0
220
0.0
230
1.0
  2
SOLID
 70
     1
 71
     0
 91
        1
 92
        1
 93
        3
 72
     1
 10
10.43214471948772
 20
10.9864406460677
 11
10.55379537627853
 21
10.859812002593
 72
     1
 10
10.55379537627853
 20
10.859812002593
 11
10.43214471948772
 21
10.88843985483911
 72
     1
 10
10.43214471948772
 20
10.88843985483911
 11
10.43214471948772
 21
10.9864406460677
 97
        0
 75
     2
 76
     1
 98
        0
  0
ENDBLK
  5
4CA
330
4C7
100
AcDbEntity
  8
0
100
AcDbBlockEnd
  0
BLOCK
  5
4DF
330
4DD
100
AcDbEntity
  8
0
100
AcDbBlockBegin
  2
block 41
 70
     0
 10
0.0
 20
0.0
 30
0.0
  3
block 41
  1

  0
INSERT
  5
4E2
330
4DD
100
AcDbEntity
  8
Callouts
100
AcDbBlockReference
  2
block 42
 10
0.0
 20
0.0
 30
0.0
  0
ENDBLK
  5
4E0
330
4DD
100
AcDbEntity
  8
0
100
AcDbBlockEnd
  0
BLOCK
  5
4E3
330
4E1
100
AcDbEntity
  8
0
100
AcDbBlockBegin
  2
block 42
 70
     0
 10
0.0
 20
0.0
 30
0.0
  3
block 42
  1

  0
POLYLINE
  5
4E5
330
4E1
100
AcDbEntity
  8
Callouts
 62
   250
420
  2301728
370
    60
100
AcDb2dPolyline
 66
     1
 10
0.0
 20
0.0
 30
0.0
  0
VERTEX
  5
4E6
330
4E5
100
AcDbEntity
  8
Callouts
 62
   250
420
  2301728
370
    60
100
AcDbVertex
100
AcDb2dVertex
 10
10.64737353694881
 20
10.7234480350643
 30
0.0
  0
VERTEX
  5
4E7
330
4E5
100
AcDbEntity
  8
Callouts
 62
   250
420
  2301728
370
    60
100
AcDbVertex
100
AcDb2dVertex
 10
10.33084848819057
 20
10.61823794024776
 30
0.0
  0
SEQEND
  5
4E8
330
4E5
100
AcDbEntity
  8
Callouts
 62
   250
420
  2301728
370
    60
  0
POLYLINE
  5
4E9
330
4E1
100
AcDbEntity
  8
Callouts
370
     0
100
AcDb2dPolyline
 66
     1
 10
0.0
 20
0.0
 30
0.0
  0
VERTEX
  5
4EA
330
4E9
100
AcDbEntity
  8
Callouts
370
     0
100
AcDbVertex
100
AcDb2dVertex
 10
10.35231615641967
 20
10.5833155357681
 30
0.0
  0
VERTEX
  5
4EB
330
4E9
100
AcDbEntity
  8
Callouts
370
     0
100
AcDbVertex
100
AcDb2dVertex
 10
10.22928129401425
 20
10.5845420422373
 30
0.0
  0
VERTEX
  5
4EC
330
4E9
100
AcDbEntity
  8
Callouts
370
     0
100
AcDbVertex
100
AcDb2dVertex
 10
10.35097945989827
 20
10.67326796450795
 30
0.0
  0
VERTEX
  5
4ED
330
4E9
100
AcDbEntity
  8
Callouts
370
     0
100
AcDbVertex
100
AcDb2dVertex
 10
10.35231615641967
 20
10.5833155357681
 30
0.0
  0
SEQEND
  5
4EF
330
4E9
100
AcDbEntity
  8
Callouts
370
     0
  0
HATCH
  5
4EE
330
4E1
100
AcDbEntity
  8
Callouts
 62
   250
420
  2301728
100
AcDbHatch
 10
0.0
 20
0.0
 30
0.0
210
0.0
220
0.0
230
1.0
  2
SOLID
 70
     1
 71
     0
 91
        1
 92
        1
 93
        3
 72
     1
 10
10.35231615641967
 20
10.5833155357681
 11
10.22928129401425
 21
10.5845420422373
 72
     1
 10
10.22928129401425
 20
10.5845420422373
 11
10.35097945989827
 21
10.67326796450795
 72
     1
 10
10.35097945989827
 20
10.67326796450795
 11
10.35231615641967
 21
10.5833155357681
 97
        0
 75
     2
 76
     1
 98
        0
  0
POLYLINE
  5
4F0
330
4E1
100
AcDbEntity
  8
Callouts
370
     0
100
AcDb2dPolyline
 66
     1
 10
0.0
 20
0.0
 30
0.0
  0
VERTEX
  5
4F1
330
4F0
100
AcDbEntity
  8
Callouts
370
     0
100
AcDbVertex
100
AcDb2dVertex
 10
10.62455306684445
 20
10.76367857416388
 30
0.0
  0
VERTEX
  5
4F2
330
4F0
100
AcDbEntity
  8
Callouts
370
     0
100
AcDbVertex
100
AcDb2dVertex
 10
10.74894058719926
 20
10.75714728170302
 30
0.0
  0
VERTEX
  5
4F3
330
4F0
100
AcDbEntity
  8
Callouts
370
     0
100
AcDbVertex
100
AcDb2dVertex
 10
10.6258978157885
 20
10.67108013050275
 30
0.0
  0
VERTEX
  5
4F4
330
4F0
100
AcDbEntity
  8
Callouts
370
     0
100
AcDbVertex
100
AcDb2dVertex
 10
10.62455306684445
 20
10.76367857416388
 30
0.0
  0
SEQEND
  5
4F6
330
4F0
100
AcDbEntity
  8
Callouts
370
     0
  0
HATCH
  5
4F5
330
4E1
100
AcDbEntity
  8
Callouts
 62
   250
420
  2301728
100
AcDbHatch
 10
0.0
 20
0.0
 30
0.0
210
0.0
220
0.0
230
1.0
  2
SOLID
 70
     1
 71
     0
 91
        1
 92
        1
 93
        3
 72
     1
 10
10.62455306684445
 20
10.76367857416388
 11
10.74894058719926
 21
10.75714728170302
 72
     1
 10
10.74894058719926
 20
10.75714728170302
 11
10.6258978157885
 21
10.67108013050275
 72
     1
 10
10.6258978157885
 20
10.67108013050275
 11
10.62455306684445
 21
10.76367857416388
 97
        0
 75
     2
 76
     1
 98
        0
  0
ENDBLK
  5
4E4
330
4E1
100
AcDbEntity
  8
0
100
AcDbBlockEnd
  0
ENDSEC
  0
SECTION
  2
ENTITIES
  0
INSERT
  5
42
330
1F
100
AcDbEntity
  8
H1
100
AcDbBlockReference
  2
block 2
 10
0.0
 20
0.0
 30
0.0
  0
INSERT
  5
138
330
1F
100
AcDbEntity
  8
H1
100
AcDbBlockReference
  2
block 3
 10
0.0
 20
0.0
 30
0.0
  0
INSERT
  5
17C
330
1F
100
AcDbEntity
  8
H1
100
AcDbBlockReference
  2
block 4
 10
0.0
 20
0.0
 30
0.0
  0
INSERT
  5
1B2
330
1F
100
AcDbEntity
  8
H1
100
AcDbBlockReference
  2
block 5
 10
0.0
 20
0.0
 30
0.0
  0
INSERT
  5
248
330
1F
100
AcDbEntity
  8
H1
100
AcDbBlockReference
  2
block 19
 10
0.0
 20
0.0
 30
0.0
  0
INSERT
  5
49C
330
1F
100
AcDbEntity
  8
Callouts
100
AcDbBlockReference
  2
block 37
 10
0.0
 20
0.0
 30
0.0
  0
INSERT
  5
4B0
330
1F
100
AcDbEntity
  8
Callouts
100
AcDbBlockReference
  2
block 38
 10
0.0
 20
0.0
 30
0.0
  0
INSERT
  5
4C4
330
1F
100
AcDbEntity
  8
Callouts
100
AcDbBlockReference
  2
block 39
 10
0.0
 20
0.0
 30
0.0
  0
INSERT
  5
4DE
330
1F
100
AcDbEntity
  8
Callouts
100
AcDbBlockReference
  2
block 41
 10
0.0
 20
0.0
 30
0.0
  0
MTEXT
  5
4F7
330
1F
100
AcDbEntity
  8
Callouts
 62
   250
420
  2301728
100
AcDbMText
 10
10.3768310546875
 20
9.209211985270182
 30
0.0
 40
0.118
 41
0.0
 46
0.0
 71
     7
 72
     1
  1
\fHelvetica Neue LT Std 55 Roman|b0|i0|c0|p34;\W1;SIMPSON Strong-Tie\H0.068794;®\H0.118; ^C
 73
     1
 44
1.0
  0
MTEXT
  5
4F8
330
1F
100
AcDbEntity
  8
Callouts
 62
   250
420
  2301728
100
AcDbMText
 10
9.856953938802082
 20
9.009220123291016
 30
0.0
 40
0.118
 41
0.0
 46
0.0
 71
     7
 72
     1
  1
\fHelvetica Neue LT Std 55 Roman|b0|i0|c0|p34;\W1;H1.81Z Truss-to-Top Plate Tie Down
 73
     1
 44
1.0
  0
MTEXT
  5
4F9
330
1F
100
AcDbEntity
  8
Callouts
 62
   250
420
  2301728
100
AcDbMText
 10
11.54775661892361
 20
12.42159271240234
 30
0.0
 40
0.118
 41
0.0
 46
0.0
 71
     7
 72
     1
  1
\fHelvetica LT Std Condensed|b0|i0|c0|p34;\W1;Truss
 73
     1
 44
1.0
  0
POLYLINE
  5
4FA
330
1F
100
AcDbEntity
  8
Callouts
 62
   250
420
  2301728
370
    30
100
AcDb2dPolyline
 66
     1
 10
0.0
 20
0.0
 30
0.0
  0
VERTEX
  5
4FB
330
4FA
100
AcDbEntity
  8
Callouts
 62
   250
420
  2301728
370
    30
100
AcDbVertex
100
AcDb2dVertex
 10
11.3022250450471
 20
10.32509530455064
 30
0.0
  0
VERTEX
  5
4FC
330
4FA
100
AcDbEntity
  8
Callouts
 62
   250
420
  2301728
370
    30
100
AcDbVertex
100
AcDb2dVertex
 10
11.36120754852194
 20
9.944619793778227
 30
0.0
  0
SEQEND
  5
4FD
330
4FA
100
AcDbEntity
  8
Callouts
 62
   250
420
  2301728
370
    30
  0
POLYLINE
  5
4FE
330
1F
100
AcDbEntity
  8
Callouts
 62
   250
420
  2301728
370
    30
100
AcDb2dPolyline
 66
     1
 10
0.0
 20
0.0
 30
0.0
  0
VERTEX
  5
4FF
330
4FE
100
AcDbEntity
  8
Callouts
 62
   250
420
  2301728
370
    30
100
AcDbVertex
100
AcDb2dVertex
 10
12.05158436208914
 20
11.27092817175746
 30
0.0
  0
VERTEX
  5
500
330
4FE
100
AcDbEntity
  8
Callouts
 62
   250
420
  2301728
370
    30
100
AcDbVertex
100
AcDb2dVertex
 10
12.17689978785221
 20
11.63498392858531
 30
0.0
  0
SEQEND
  5
501
330
4FE
100
AcDbEntity
  8
Callouts
 62
   250
420
  2301728
370
    30
  0
POLYLINE
  5
502
330
1F
100
AcDbEntity
  8
Callouts
 62
   250
420
  2301728
370
    30
100
AcDb2dPolyline
 66
     1
 10
0.0
 20
0.0
 30
0.0
  0
VERTEX
  5
503
330
502
100
AcDbEntity
  8
Callouts
 62
   250
420
  2301728
370
    30
100
AcDbVertex
100
AcDb2dVertex
 10
11.23956733216558
 20
12.13710320393317
 30
0.0
  0
VERTEX
  5
504
330
502
100
AcDbEntity
  8
Callouts
 62
   250
420
  2301728
370
    30
100
AcDbVertex
100
AcDb2dVertex
 10
11.49686379928317
 20
12.42159498207882
 30
0.0
  0
SEQEND
  5
505
330
502
100
AcDbEntity
  8
Callouts
 62
   250
420
  2301728
370
    30
  0
MTEXT
  5
506
330
1F
100
AcDbEntity
  8
Callouts
 62
   250
420
  2301728
100
AcDbMText
 10
11.13994428846571
 20
9.787018669976128
 30
0.0
 40
0.118
 41
0.0
 46
0.0
 71
     7
 72
     1
  1
\fHelvetica LT Std Condensed|b0|i0|c0|p34;\W1;H1.81Z
 73
     1
 44
1.0
  0
MTEXT
  5
507
330
1F
100
AcDbEntity
  8
Callouts
 62
   250
420
  2301728
100
AcDbMText
 10
11.90823957655165
 20
11.69949764675564
 30
0.0
 40
0.118
 41
0.0
 46
0.0
 71
     7
 72
     1
  1
\fHelvetica LT Std Condensed|b0|i0|c0|p34;\W1;Top Plate
 73
     1
 44
1.0
  0
ENDSEC
  0
SECTION
  2
OBJECTS
  0
DICTIONARY
  5
C
330
0
100
AcDbDictionary
281
     1
  3
ACAD_GROUP
350
D
  3
ACAD_LAYOUT
350
1A
  3
ACAD_MATERIAL
350
3B
  3
ACAD_MLEADERSTYLE
350
50B
  3
ACAD_MLINESTYLE
350
17
  3
ACAD_PLOTSETTINGS
350
19
  3
ACAD_PLOTSTYLENAME
350
E
  3
ACAD_TABLESTYLE
350
50A
  3
ACAD_VISUALSTYLE
350
2A
  0
SUN
  5
3F
330
29
100
AcDbSun
 90
        1
290
     0
 63
     7
421
 16777215
 40
1.0
291
     1
 91
  2455826
 92
 54000000
292
     0
 70
     2
 71
   256
280
     1
  0
DICTIONARY
  5
D
102
{ACAD_REACTORS
330
C
102
}
330
C
100
AcDbDictionary
281
     1
  0
DICTIONARY
  5
1A
102
{ACAD_REACTORS
330
C
102
}
330
C
100
AcDbDictionary
281
     1
  3
Layout1
350
1E
  3
Layout2
350
26
  3
Model
350
22
  0
DICTIONARY
  5
3B
102
{ACAD_REACTORS
330
C
102
}
330
C
100
AcDbDictionary
281
     1
  3
ByBlock
350
3D
  3
ByLayer
350
3C
  3
Global
350
3E
  0
DICTIONARY
  5
50B
102
{ACAD_REACTORS
330
C
102
}
330
C
100
AcDbDictionary
281
     1
  0
DICTIONARY
  5
17
102
{ACAD_REACTORS
330
C
102
}
330
C
100
AcDbDictionary
281
     1
  3
Standard
350
18
  0
DICTIONARY
  5
19
102
{ACAD_REACTORS
330
C
102
}
330
C
100
AcDbDictionary
281
     1
  0
ACDBDICTIONARYWDFLT
  5
E
102
{ACAD_REACTORS
330
C
102
}
330
C
100
AcDbDictionary
281
     1
  3
Normal
350
F
100
AcDbDictionaryWithDefault
340
F
  0
DICTIONARY
  5
50A
102
{ACAD_REACTORS
330
C
102
}
330
C
100
AcDbDictionary
281
     1
  0
DICTIONARY
  5
2A
102
{ACAD_REACTORS
330
C
102
}
330
C
100
AcDbDictionary
281
     1
  3
2dWireframe
350
2F
  3
3D Hidden
350
31
  3
3dWireframe
350
30
  3
Basic
350
32
  3
Brighten
350
36
  3
ColorChange
350
3A
  3
Conceptual
350
34
  3
Dim
350
35
  3
Facepattern
350
39
  3
Flat
350
2B
  3
FlatWithEdges
350
2C
  3
Gouraud
350
2D
  3
GouraudWithEdges
350
2E
  3
Linepattern
350
38
  3
Realistic
350
33
  3
Thicken
350
37
  0
LAYOUT
  5
1E
102
{ACAD_REACTORS
330
1A
102
}
330
1A
100
AcDbPlotSettings
  1

  2
none_device
  4

  6

 40
0.0
 41
0.0
 42
0.0
 43
0.0
 44
0.0
 45
0.0
 46
0.0
 47
0.0
 48
0.0
 49
0.0
140
0.0
141
0.0
142
1.0
143
1.0
 70
   688
 72
     0
 73
     0
 74
     5
  7

 75
    16
 76
     0
 77
     2
 78
   300
147
1.0
148
0.0
149
0.0
100
AcDbLayout
  1
Layout1
 70
     1
 71
     1
 10
0.0
 20
0.0
 11
12.0
 21
9.0
 12
0.0
 22
0.0
 32
0.0
 14
1.000000000000000E+20
 24
1.000000000000000E+20
 34
1.000000000000000E+20
 15
-1.000000000000000E+20
 25
-1.000000000000000E+20
 35
-1.000000000000000E+20
146
0.0
 13
0.0
 23
0.0
 33
0.0
 16
1.0
 26
0.0
 36
0.0
 17
0.0
 27
1.0
 37
0.0
 76
     0
330
1B
  0
LAYOUT
  5
26
102
{ACAD_REACTORS
330
1A
102
}
330
1A
100
AcDbPlotSettings
  1

  2
none_device
  4

  6

 40
0.0
 41
0.0
 42
0.0
 43
0.0
 44
0.0
 45
0.0
 46
0.0
 47
0.0
 48
0.0
 49
0.0
140
0.0
141
0.0
142
1.0
143
1.0
 70
   688
 72
     0
 73
     0
 74
     5
  7

 75
    16
 76
     0
 77
     2
 78
   300
147
1.0
148
0.0
149
0.0
100
AcDbLayout
  1
Layout2
 70
     1
 71
     2
 10
0.0
 20
0.0
 11
0.0
 21
0.0
 12
0.0
 22
0.0
 32
0.0
 14
0.0
 24
0.0
 34
0.0
 15
0.0
 25
0.0
 35
0.0
146
0.0
 13
0.0
 23
0.0
 33
0.0
 16
1.0
 26
0.0
 36
0.0
 17
0.0
 27
1.0
 37
0.0
 76
     0
330
23
  0
LAYOUT
  5
22
102
{ACAD_REACTORS
330
1A
102
}
330
1A
100
AcDbPlotSettings
  1

  2
none_device
  4

  6

 40
0.0
 41
0.0
 42
0.0
 43
0.0
 44
0.0
 45
0.0
 46
0.0
 47
0.0
 48
0.0
 49
0.0
140
0.0
141
0.0
142
1.0
143
1.0
 70
  1712
 72
     0
 73
     0
 74
     0
  7

 75
     0
 76
     0
 77
     2
 78
   300
147
1.0
148
0.0
149
0.0
100
AcDbLayout
  1
Model
 70
     1
 71
     0
 10
0.0
 20
0.0
 11
12.0
 21
9.0
 12
0.0
 22
0.0
 32
0.0
 14
1.000000000000000E+20
 24
1.000000000000000E+20
 34
1.000000000000000E+20
 15
-1.000000000000000E+20
 25
-1.000000000000000E+20
 35
-1.000000000000000E+20
146
0.0
 13
0.0
 23
0.0
 33
0.0
 16
1.0
 26
0.0
 36
0.0
 17
0.0
 27
1.0
 37
0.0
 76
     0
330
1F
331
29
  0
MATERIAL
  5
3D
102
{ACAD_REACTORS
330
3B
102
}
330
3B
100
AcDbMaterial
  1
ByBlock
 72
     1
 94
      127
  0
MATERIAL
  5
3C
102
{ACAD_REACTORS
330
3B
102
}
330
3B
100
AcDbMaterial
  1
ByLayer
 72
     1
 94
      127
  0
MATERIAL
  5
3E
102
{ACAD_REACTORS
330
3B
102
}
330
3B
100
AcDbMaterial
  1
Global
 72
     1
 94
      127
  0
MLINESTYLE
  5
18
102
{ACAD_REACTORS
330
17
102
}
330
17
100
AcDbMlineStyle
  2
Standard
 70
     0
  3

 62
   256
 51
90.0
 52
90.0
 71
     2
 49
0.5
 62
   256
  6
BYLAYER
 49
-0.5
 62
   256
  6
BYLAYER
  0
ACDBPLACEHOLDER
  5
F
102
{ACAD_REACTORS
330
E
102
}
330
E
  0
VISUALSTYLE
  5
2F
102
{ACAD_REACTORS
330
2A
102
}
330
2A
100
AcDbVisualStyle
  2
2dWireframe
 70
     4
177
     2
291
     0
 71
     0
176
     1
 72
     2
176
     1
 73
     0
176
     1
 90
        0
176
     1
 40
-0.6
176
     1
 41
-30.0
176
     1
 62
     5
 63
     7
421
 16777215
176
     1
 74
     1
176
     1
 91
        4
176
     1
 64
     7
176
     1
 65
   257
176
     1
 75
     1
176
     1
175
     1
176
     1
 42
1.0
176
     1
 92
        0
176
     1
 66
   257
176
     1
 43
1.0
176
     1
 76
     1
176
     1
 77
     6
176
     1
 78
     2
176
     1
 67
     7
176
     1
 79
     5
176
     1
170
     0
176
     1
171
     0
176
     1
290
     0
176
     1
 93
        1
176
     1
 44
0.0
176
     1
173
     0
176
     1
  0
VISUALSTYLE
  5
31
102
{ACAD_REACTORS
330
2A
102
}
330
2A
100
AcDbVisualStyle
  2
3D Hidden
 70
     6
177
     2
291
     0
 71
     1
176
     1
 72
     2
176
     1
 73
     2
176
     1
 90
        0
176
     1
 40
-0.6
176
     1
 41
-30.0
176
     1
 62
     5
 63
     7
421
 16777215
176
     1
 74
     2
176
     1
 91
        2
176
     1
 64
     7
176
     1
 65
   257
176
     1
 75
     2
176
     1
175
     1
176
     1
 42
40.0
176
     1
 92
        0
176
     1
 66
   257
176
     1
 43
1.0
176
     1
 76
     1
176
     1
 77
     6
176
     1
 78
     2
176
     1
 67
     7
176
     1
 79
     3
176
     1
170
     0
176
     1
171
     0
176
     1
290
     0
176
     1
 93
        1
176
     1
 44
0.0
176
     1
173
     0
176
     1
  0
VISUALSTYLE
  5
30
102
{ACAD_REACTORS
330
2A
102
}
330
2A
100
AcDbVisualStyle
  2
3dWireframe
 70
     5
177
     2
291
     0
 71
     0
176
     1
 72
     2
176
     1
 73
     0
176
     1
 90
        0
176
     1
 40
-0.6
176
     1
 41
-30.0
176
     1
 62
     5
 63
     7
421
 16777215
176
     1
 74
     1
176
     1
 91
        4
176
     1
 64
     7
176
     1
 65
   257
176
     1
 75
     1
176
     1
175
     1
176
     1
 42
1.0
176
     1
 92
        0
176
     1
 66
   257
176
     1
 43
1.0
176
     1
 76
     1
176
     1
 77
     6
176
     1
 78
     2
176
     1
 67
     7
176
     1
 79
     5
176
     1
170
     0
176
     1
171
     0
176
     1
290
     0
176
     1
 93
        1
176
     1
 44
0.0
176
     1
173
     0
176
     1
  0
VISUALSTYLE
  5
32
102
{ACAD_REACTORS
330
2A
102
}
330
2A
100
AcDbVisualStyle
  2
Basic
 70
     7
177
     2
291
     1
 71
     1
176
     1
 72
     0
176
     1
 73
     1
176
     1
 90
        0
176
     1
 40
-0.6
176
     1
 41
-30.0
176
     1
 62
     5
 63
     7
421
 16777215
176
     1
 74
     0
176
     1
 91
        4
176
     1
 64
     7
176
     1
 65
   257
176
     1
 75
     1
176
     1
175
     1
176
     1
 42
1.0
176
     1
 92
        8
176
     1
 66
     7
176
     1
 43
1.0
176
     1
 76
     1
176
     1
 77
     6
176
     1
 78
     2
176
     1
 67
     7
176
     1
 79
     5
176
     1
170
     0
176
     1
171
     0
176
     1
290
     0
176
     1
 93
        1
176
     1
 44
0.0
176
     1
173
     0
176
     1
  0
VISUALSTYLE
  5
36
102
{ACAD_REACTORS
330
2A
102
}
330
2A
100
AcDbVisualStyle
  2
Brighten
 70
    12
177
     2
291
     1
 71
     2
176
     1
 72
     2
176
     1
 73
     0
176
     1
 90
        0
176
     1
 40
-0.6
176
     1
 41
-30.0
176
     1
 62
     5
 63
     7
421
 16777215
176
     1
 74
     1
176
     1
 91
        4
176
     1
 64
     7
176
     1
 65
   257
176
     1
 75
     1
176
     1
175
     1
176
     1
 42
1.0
176
     1
 92
        8
176
     1
 66
     7
176
     1
 43
1.0
176
     1
 76
     1
176
     1
 77
     6
176
     1
 78
     2
176
     1
 67
     7
176
     1
 79
     5
176
     1
170
     0
176
     1
171
     0
176
     1
290
     0
176
     1
 93
        1
176
     1
 44
50.0
176
     1
173
     0
176
     1
  0
VISUALSTYLE
  5
3A
102
{ACAD_REACTORS
330
2A
102
}
330
2A
100
AcDbVisualStyle
  2
ColorChange
 70
    16
177
     2
291
     1
 71
     2
176
     1
 72
     2
176
     1
 73
     3
176
     1
 90
        0
176
     1
 40
-0.6
176
     1
 41
-30.0
176
     1
 62
     5
 63
     8
421
  8421504
176
     1
 74
     1
176
     1
 91
        4
176
     1
 64
     7
176
     1
 65
   257
176
     1
 75
     1
176
     1
175
     1
176
     1
 42
1.0
176
     1
 92
        8
176
     1
 66
     8
424
  8421504
176
     1
 43
1.0
176
     1
 76
     1
176
     1
 77
     6
176
     1
 78
     2
176
     1
 67
     7
176
     1
 79
     5
176
     1
170
     0
176
     1
171
     0
176
     1
290
     0
176
     1
 93
        1
176
     1
 44
0.0
176
     1
173
     0
176
     1
  0
VISUALSTYLE
  5
34
102
{ACAD_REACTORS
330
2A
102
}
330
2A
100
AcDbVisualStyle
  2
Conceptual
 70
     9
177
     2
291
     0
 71
     3
176
     1
 72
     2
176
     1
 73
     0
176
     1
 90
        0
176
     1
 40
-0.6
176
     1
 41
-30.0
176
     1
 62
     5
 63
     7
421
 16777215
176
     1
 74
     2
176
     1
 91
        2
176
     1
 64
     7
176
     1
 65
   257
176
     1
 75
     1
176
     1
175
     1
176
     1
 42
40.0
176
     1
 92
        8
176
     1
 66
     7
176
     1
 43
1.0
176
     1
 76
     1
176
     1
 77
     6
176
     1
 78
     2
176
     1
 67
     7
176
     1
 79
     3
176
     1
170
     0
176
     1
171
     0
176
     1
290
     0
176
     1
 93
        1
176
     1
 44
0.0
176
     1
173
     0
176
     1
  0
VISUALSTYLE
  5
35
102
{ACAD_REACTORS
330
2A
102
}
330
2A
100
AcDbVisualStyle
  2
Dim
 70
    11
177
     2
291
     1
 71
     2
176
     1
 72
     2
176
     1
 73
     0
176
     1
 90
        0
176
     1
 40
-0.6
176
     1
 41
-30.0
176
     1
 62
     5
 63
     7
421
 16777215
176
     1
 74
     1
176
     1
 91
        4
176
     1
 64
     7
176
     1
 65
   257
176
     1
 75
     1
176
     1
175
     1
176
     1
 42
1.0
176
     1
 92
        8
176
     1
 66
     7
176
     1
 43
1.0
176
     1
 76
     1
176
     1
 77
     6
176
     1
 78
     2
176
     1
 67
     7
176
     1
 79
     5
176
     1
170
     0
176
     1
171
     0
176
     1
290
     0
176
     1
 93
        1
176
     1
 44
-50.0
176
     1
173
     0
176
     1
  0
VISUALSTYLE
  5
39
102
{ACAD_REACTORS
330
2A
102
}
330
2A
100
AcDbVisualStyle
  2
Facepattern
 70
    15
177
     2
291
     1
 71
     2
176
     1
 72
     2
176
     1
 73
     0
176
     1
 90
        0
176
     1
 40
-0.6
176
     1
 41
-30.0
176
     1
 62
     5
 63
     7
421
 16777215
176
     1
 74
     1
176
     1
 91
        4
176
     1
 64
     7
176
     1
 65
   257
176
     1
 75
     1
176
     1
175
     1
176
     1
 42
1.0
176
     1
 92
        8
176
     1
 66
     7
176
     1
 43
1.0
176
     1
 76
     1
176
     1
 77
     6
176
     1
 78
     2
176
     1
 67
     7
176
     1
 79
     5
176
     1
170
     0
176
     1
171
     0
176
     1
290
     0
176
     1
 93
        1
176
     1
 44
0.0
176
     1
173
     0
176
     1
  0
VISUALSTYLE
  5
2B
102
{ACAD_REACTORS
330
2A
102
}
330
2A
100
AcDbVisualStyle
  2
Flat
 70
     0
177
     2
291
     1
 71
     2
176
     1
 72
     1
176
     1
 73
     1
176
     1
 90
        2
176
     1
 40
-0.6
176
     1
 41
30.0
176
     1
 62
     5
 63
     7
421
 16777215
176
     1
 74
     0
176
     1
 91
        4
176
     1
 64
     7
176
     1
 65
   257
176
     1
 75
     1
176
     1
175
     1
176
     1
 42
1.0
176
     1
 92
        8
176
     1
 66
     7
176
     1
 43
1.0
176
     1
 76
     1
176
     1
 77
     6
176
     1
 78
     2
176
     1
 67
     7
176
     1
 79
     5
176
     1
170
     0
176
     1
171
     0
176
     1
290
     0
176
     1
 93
       13
176
     1
 44
0.0
176
     1
173
     0
176
     1
  0
VISUALSTYLE
  5
2C
102
{ACAD_REACTORS
330
2A
102
}
330
2A
100
AcDbVisualStyle
  2
FlatWithEdges
 70
     1
177
     2
291
     1
 71
     2
176
     1
 72
     1
176
     1
 73
     1
176
     1
 90
        2
176
     1
 40
-0.6
176
     1
 41
30.0
176
     1
 62
     5
 63
     7
421
 16777215
176
     1
 74
     1
176
     1
 91
        4
176
     1
 64
     7
176
     1
 65
   257
176
     1
 75
     1
176
     1
175
     1
176
     1
 42
1.0
176
     1
 92
        0
176
     1
 66
   257
176
     1
 43
1.0
176
     1
 76
     1
176
     1
 77
     6
176
     1
 78
     2
176
     1
 67
     7
176
     1
 79
     5
176
     1
170
     0
176
     1
171
     0
176
     1
290
     0
176
     1
 93
       13
176
     1
 44
0.0
176
     1
173
     0
176
     1
  0
VISUALSTYLE
  5
2D
102
{ACAD_REACTORS
330
2A
102
}
330
2A
100
AcDbVisualStyle
  2
Gouraud
 70
     2
177
     2
291
     1
 71
     2
176
     1
 72
     2
176
     1
 73
     1
176
     1
 90
        2
176
     1
 40
-0.6
176
     1
 41
30.0
176
     1
 62
     5
 63
     7
421
 16777215
176
     1
 74
     0
176
     1
 91
        4
176
     1
 64
     7
176
     1
 65
   257
176
     1
 75
     1
176
     1
175
     1
176
     1
 42
1.0
176
     1
 92
        0
176
     1
 66
     7
176
     1
 43
1.0
176
     1
 76
     1
176
     1
 77
     6
176
     1
 78
     2
176
     1
 67
     7
176
     1
 79
     5
176
     1
170
     0
176
     1
171
     0
176
     1
290
     0
176
     1
 93
       13
176
     1
 44
0.0
176
     1
173
     0
176
     1
  0
VISUALSTYLE
  5
2E
102
{ACAD_REACTORS
330
2A
102
}
330
2A
100
AcDbVisualStyle
  2
GouraudWithEdges
 70
     3
177
     2
291
     1
 71
     2
176
     1
 72
     2
176
     1
 73
     1
176
     1
 90
        2
176
     1
 40
-0.6
176
     1
 41
30.0
176
     1
 62
     5
 63
     7
421
 16777215
176
     1
 74
     1
176
     1
 91
        4
176
     1
 64
     7
176
     1
 65
   257
176
     1
 75
     1
176
     1
175
     1
176
     1
 42
1.0
176
     1
 92
        0
176
     1
 66
   257
176
     1
 43
1.0
176
     1
 76
     1
176
     1
 77
     6
176
     1
 78
     2
176
     1
 67
     7
176
     1
 79
     5
176
     1
170
     0
176
     1
171
     0
176
     1
290
     0
176
     1
 93
       13
176
     1
 44
0.0
176
     1
173
     0
176
     1
  0
VISUALSTYLE
  5
38
102
{ACAD_REACTORS
330
2A
102
}
330
2A
100
AcDbVisualStyle
  2
Linepattern
 70
    14
177
     2
291
     1
 71
     2
176
     1
 72
     2
176
     1
 73
     0
176
     1
 90
        0
176
     1
 40
-0.6
176
     1
 41
-30.0
176
     1
 62
     5
 63
     7
421
 16777215
176
     1
 74
     1
176
     1
 91
        4
176
     1
 64
     7
176
     1
 65
   257
176
     1
 75
     7
176
     1
175
     7
176
     1
 42
1.0
176
     1
 92
        8
176
     1
 66
     7
176
     1
 43
1.0
176
     1
 76
     1
176
     1
 77
     6
176
     1
 78
     2
176
     1
 67
     7
176
     1
 79
     5
176
     1
170
     0
176
     1
171
     0
176
     1
290
     0
176
     1
 93
        1
176
     1
 44
0.0
176
     1
173
     0
176
     1
  0
VISUALSTYLE
  5
33
102
{ACAD_REACTORS
330
2A
102
}
330
2A
100
AcDbVisualStyle
  2
Realistic
 70
     8
177
     2
291
     0
 71
     2
176
     1
 72
     2
176
     1
 73
     0
176
     1
 90
        0
176
     1
 40
-0.6
176
     1
 41
-30.0
176
     1
 62
     5
 63
     7
421
 16777215
176
     1
 74
     1
176
     1
 91
        0
176
     1
 64
     7
176
     1
 65
   257
176
     1
 75
     1
176
     1
175
     1
176
     1
 42
1.0
176
     1
 92
        8
176
     1
 66
     8
424
  7895160
176
     1
 43
1.0
176
     1
 76
     1
176
     1
 77
     6
176
     1
 78
     2
176
     1
 67
     7
176
     1
 79
     5
176
     1
170
     0
176
     1
171
     0
176
     1
290
     0
176
     1
 93
       13
176
     1
 44
0.0
176
     1
173
     0
176
     1
  0
VISUALSTYLE
  5
37
102
{ACAD_REACTORS
330
2A
102
}
330
2A
100
AcDbVisualStyle
  2
Thicken
 70
    13
177
     2
291
     1
 71
     2
176
     1
 72
     2
176
     1
 73
     0
176
     1
 90
        0
176
     1
 40
-0.6
176
     1
 41
-30.0
176
     1
 62
     5
 63
     7
421
 16777215
176
     1
 74
     1
176
     1
 91
        4
176
     1
 64
     7
176
     1
 65
   257
176
     1
 75
     1
176
     1
175
     1
176
     1
 42
1.0
176
     1
 92
       12
176
     1
 66
     7
176
     1
 43
1.0
176
     1
 76
     1
176
     1
 77
     6
176
     1
 78
     2
176
     1
 67
     7
176
     1
 79
     5
176
     1
170
     0
176
     1
171
     0
176
     1
290
     0
176
     1
 93
        1
176
     1
 44
0.0
176
     1
173
     0
176
     1
  0
ENDSEC
  0
EOF
