  0
SECTION
  2
HEADER
  9
$ACADVER
  1
AC1024
  9
$ACADMAINTVER
 70
     6
  9
$DWGCODEPAGE
  3
ANSI_1252
  9
$INSBASE
 10
0.0
 20
0.0
 30
0.0
  9
$EXTMIN
 10
1.000000000000000E+20
 20
1.000000000000000E+20
 30
1.000000000000000E+20
  9
$EXTMAX
 10
-1.000000000000000E+20
 20
-1.000000000000000E+20
 30
-1.000000000000000E+20
  9
$LIMMIN
 10
0.0
 20
0.0
  9
$LIMMAX
 10
12.0
 20
9.0
  9
$ORTHOMODE
 70
     0
  9
$REGENMODE
 70
     1
  9
$FILLMODE
 70
     1
  9
$QTEXTMODE
 70
     0
  9
$MIRRTEXT
 70
     1
  9
$LTSCALE
 40
1.0
  9
$ATTMODE
 70
     1
  9
$TEXTSIZE
 40
0.2
  9
$TRACEWID
 40
0.05
  9
$TEXTSTYLE
  7
Standard
  9
$CLAYER
  8
0
  9
$CELTYPE
  6
ByLayer
  9
$CECOLOR
 62
   256
  9
$CELTSCALE
 40
1.0
  9
$DISPSILH
 70
     0
  9
$DIMSCALE
 40
1.0
  9
$DIMASZ
 40
0.18
  9
$DIMEXO
 40
0.0625
  9
$DIMDLI
 40
0.38
  9
$DIMRND
 40
0.0
  9
$DIMDLE
 40
0.0
  9
$DIMEXE
 40
0.18
  9
$DIMTP
 40
0.0
  9
$DIMTM
 40
0.0
  9
$DIMTXT
 40
0.18
  9
$DIMCEN
 40
0.09
  9
$DIMTSZ
 40
0.0
  9
$DIMTOL
 70
     0
  9
$DIMLIM
 70
     0
  9
$DIMTIH
 70
     1
  9
$DIMTOH
 70
     1
  9
$DIMSE1
 70
     0
  9
$DIMSE2
 70
     0
  9
$DIMTAD
 70
     0
  9
$DIMZIN
 70
     0
  9
$DIMBLK
  1

  9
$DIMASO
 70
     1
  9
$DIMSHO
 70
     1
  9
$DIMPOST
  1

  9
$DIMAPOST
  1

  9
$DIMALT
 70
     0
  9
$DIMALTD
 70
     2
  9
$DIMALTF
 40
25.4
  9
$DIMLFAC
 40
1.0
  9
$DIMTOFL
 70
     0
  9
$DIMTVP
 40
0.0
  9
$DIMTIX
 70
     0
  9
$DIMSOXD
 70
     0
  9
$DIMSAH
 70
     0
  9
$DIMBLK1
  1

  9
$DIMBLK2
  1

  9
$DIMSTYLE
  2
Standard
  9
$DIMCLRD
 70
     0
  9
$DIMCLRE
 70
     0
  9
$DIMCLRT
 70
     0
  9
$DIMTFAC
 40
1.0
  9
$DIMGAP
 40
0.09
  9
$DIMJUST
 70
     0
  9
$DIMSD1
 70
     0
  9
$DIMSD2
 70
     0
  9
$DIMTOLJ
 70
     1
  9
$DIMTZIN
 70
     0
  9
$DIMALTZ
 70
     0
  9
$DIMALTTZ
 70
     0
  9
$DIMUPT
 70
     0
  9
$DIMDEC
 70
     4
  9
$DIMTDEC
 70
     4
  9
$DIMALTU
 70
     2
  9
$DIMALTTD
 70
     2
  9
$DIMTXSTY
  7
Standard
  9
$DIMAUNIT
 70
     0
  9
$DIMADEC
 70
     0
  9
$DIMALTRND
 40
0.0
  9
$DIMAZIN
 70
     0
  9
$DIMDSEP
 70
    46
  9
$DIMATFIT
 70
     3
  9
$DIMFRAC
 70
     0
  9
$DIMLDRBLK
  1

  9
$DIMLUNIT
 70
     2
  9
$DIMLWD
 70
    -2
  9
$DIMLWE
 70
    -2
  9
$DIMTMOVE
 70
     0
  9
$DIMFXL
 40
1.0
  9
$DIMFXLON
 70
     0
  9
$DIMJOGANG
 40
0.7853981633974483
  9
$DIMTFILL
 70
     0
  9
$DIMTFILLCLR
 70
     0
  9
$DIMARCSYM
 70
     0
  9
$DIMLTYPE
  6

  9
$DIMLTEX1
  6

  9
$DIMLTEX2
  6

  9
$DIMTXTDIRECTION
 70
     0
  9
$LUNITS
 70
     2
  9
$LUPREC
 70
     4
  9
$SKETCHINC
 40
0.1
  9
$FILLETRAD
 40
0.5
  9
$AUNITS
 70
     0
  9
$AUPREC
 70
     0
  9
$MENU
  1
.
  9
$ELEVATION
 40
0.0
  9
$PELEVATION
 40
0.0
  9
$THICKNESS
 40
0.0
  9
$LIMCHECK
 70
     0
  9
$CHAMFERA
 40
0.5
  9
$CHAMFERB
 40
0.5
  9
$CHAMFERC
 40
1.0
  9
$CHAMFERD
 40
0.0
  9
$SKPOLY
 70
     0
  9
$TDCREATE
 40
2458775.665167384
  9
$TDUCREATE
 40
2458775.123500718
  9
$TDUPDATE
 40
2458775.665167558
  9
$TDUUPDATE
 40
2458775.123500891
  9
$TDINDWG
 40
0.0000000116
  9
$TDUSRTIMER
 40
0.0000000116
  9
$USRTIMER
 70
     1
  9
$ANGBASE
 50
0.0
  9
$ANGDIR
 70
     0
  9
$PDMODE
 70
     0
  9
$PDSIZE
 40
0.0
  9
$PLINEWID
 40
0.0
  9
$SPLFRAME
 70
     0
  9
$SPLINETYPE
 70
     6
  9
$SPLINESEGS
 70
     8
  9
$HANDSEED
  5
3A9
  9
$SURFTAB1
 70
     6
  9
$SURFTAB2
 70
     6
  9
$SURFTYPE
 70
     6
  9
$SURFU
 70
     6
  9
$SURFV
 70
     6
  9
$UCSBASE
  2

  9
$UCSNAME
  2

  9
$UCSORG
 10
0.0
 20
0.0
 30
0.0
  9
$UCSXDIR
 10
1.0
 20
0.0
 30
0.0
  9
$UCSYDIR
 10
0.0
 20
1.0
 30
0.0
  9
$UCSORTHOREF
  2

  9
$UCSORTHOVIEW
 70
     0
  9
$UCSORGTOP
 10
0.0
 20
0.0
 30
0.0
  9
$UCSORGBOTTOM
 10
0.0
 20
0.0
 30
0.0
  9
$UCSORGLEFT
 10
0.0
 20
0.0
 30
0.0
  9
$UCSORGRIGHT
 10
0.0
 20
0.0
 30
0.0
  9
$UCSORGFRONT
 10
0.0
 20
0.0
 30
0.0
  9
$UCSORGBACK
 10
0.0
 20
0.0
 30
0.0
  9
$PUCSBASE
  2

  9
$PUCSNAME
  2

  9
$PUCSORG
 10
0.0
 20
0.0
 30
0.0
  9
$PUCSXDIR
 10
1.0
 20
0.0
 30
0.0
  9
$PUCSYDIR
 10
0.0
 20
1.0
 30
0.0
  9
$PUCSORTHOREF
  2

  9
$PUCSORTHOVIEW
 70
     0
  9
$PUCSORGTOP
 10
0.0
 20
0.0
 30
0.0
  9
$PUCSORGBOTTOM
 10
0.0
 20
0.0
 30
0.0
  9
$PUCSORGLEFT
 10
0.0
 20
0.0
 30
0.0
  9
$PUCSORGRIGHT
 10
0.0
 20
0.0
 30
0.0
  9
$PUCSORGFRONT
 10
0.0
 20
0.0
 30
0.0
  9
$PUCSORGBACK
 10
0.0
 20
0.0
 30
0.0
  9
$USERI1
 70
     0
  9
$USERI2
 70
     0
  9
$USERI3
 70
     0
  9
$USERI4
 70
     0
  9
$USERI5
 70
     0
  9
$USERR1
 40
0.0
  9
$USERR2
 40
0.0
  9
$USERR3
 40
0.0
  9
$USERR4
 40
0.0
  9
$USERR5
 40
0.0
  9
$WORLDVIEW
 70
     1
  9
$SHADEDGE
 70
     3
  9
$SHADEDIF
 70
    70
  9
$TILEMODE
 70
     1
  9
$MAXACTVP
 70
    64
  9
$PINSBASE
 10
0.0
 20
0.0
 30
0.0
  9
$PLIMCHECK
 70
     0
  9
$PEXTMIN
 10
1.000000000000000E+20
 20
1.000000000000000E+20
 30
1.000000000000000E+20
  9
$PEXTMAX
 10
-1.000000000000000E+20
 20
-1.000000000000000E+20
 30
-1.000000000000000E+20
  9
$PLIMMIN
 10
0.0
 20
0.0
  9
$PLIMMAX
 10
12.0
 20
9.0
  9
$UNITMODE
 70
     0
  9
$VISRETAIN
 70
     1
  9
$PLINEGEN
 70
     0
  9
$PSLTSCALE
 70
     1
  9
$TREEDEPTH
 70
  3020
  9
$CMLSTYLE
  2
Standard
  9
$CMLJUST
 70
     0
  9
$CMLSCALE
 40
1.0
  9
$PROXYGRAPHICS
 70
     1
  9
$MEASUREMENT
 70
     0
  9
$CELWEIGHT
370
    -1
  9
$ENDCAPS
280
     0
  9
$JOINSTYLE
280
     0
  9
$LWDISPLAY
290
     1
  9
$INSUNITS
 70
     1
  9
$HYPERLINKBASE
  1

  9
$STYLESHEET
  1

  9
$XEDIT
290
     1
  9
$CEPSNTYPE
380
     0
  9
$PSTYLEMODE
290
     1
  9
$FINGERPRINTGUID
  2
{8CB36004-E0AA-4FAB-9FB4-0C159FA6EC70}
  9
$VERSIONGUID
  2
{FAEB1C32-E019-11D5-929B-00C0DF256EC4}
  9
$EXTNAMES
290
     1
  9
$PSVPSCALE
 40
0.0
  9
$OLESTARTUP
290
     0
  9
$SORTENTS
280
   127
  9
$INDEXCTL
280
     0
  9
$HIDETEXT
280
     1
  9
$XCLIPFRAME
280
     2
  9
$HALOGAP
280
     0
  9
$OBSCOLOR
 70
   257
  9
$OBSLTYPE
280
     0
  9
$INTERSECTIONDISPLAY
280
     0
  9
$INTERSECTIONCOLOR
 70
   257
  9
$DIMASSOC
280
     2
  9
$PROJECTNAME
  1

  9
$CAMERADISPLAY
290
     0
  9
$LENSLENGTH
 40
50.0
  9
$CAMERAHEIGHT
 40
0.0
  9
$STEPSPERSEC
 40
2.0
  9
$STEPSIZE
 40
6.0
  9
$3DDWFPREC
 40
2.0
  9
$PSOLWIDTH
 40
0.25
  9
$PSOLHEIGHT
 40
4.0
  9
$LOFTANG1
 40
1.570796326794897
  9
$LOFTANG2
 40
1.570796326794897
  9
$LOFTMAG1
 40
0.0
  9
$LOFTMAG2
 40
0.0
  9
$LOFTPARAM
 70
     7
  9
$LOFTNORMALS
280
     1
  9
$LATITUDE
 40
37.795
  9
$LONGITUDE
 40
-122.394
  9
$NORTHDIRECTION
 40
0.0
  9
$TIMEZONE
 70
 -8000
  9
$LIGHTGLYPHDISPLAY
280
     1
  9
$TILEMODELIGHTSYNCH
280
     1
  9
$CMATERIAL
347
3C
  9
$SOLIDHIST
280
     1
  9
$SHOWHIST
280
     1
  9
$DWFFRAME
280
     2
  9
$DGNFRAME
280
     2
  9
$REALWORLDSCALE
290
     1
  9
$INTERFERECOLOR
 62
   256
  9
$CSHADOW
280
     0
  9
$SHADOWPLANELOCATION
 40
0.0
  0
ENDSEC
  0
SECTION
  2
CLASSES
  0
CLASS
  1
ACDBDICTIONARYWDFLT
  2
AcDbDictionaryWithDefault
  3
ObjectDBX Classes
 90
        0
 91
        4
280
     0
281
     0
  0
CLASS
  1
VISUALSTYLE
  2
AcDbVisualStyle
  3
ObjectDBX Classes
 90
     4095
 91
        4
280
     0
281
     0
  0
CLASS
  1
MATERIAL
  2
AcDbMaterial
  3
ObjectDBX Classes
 90
     1153
 91
        4
280
     0
281
     0
  0
CLASS
  1
SUN
  2
AcDbSun
  3
SCENEOE
 90
     1024
 91
        4
280
     0
281
     0
  0
ENDSEC
  0
SECTION
  2
TABLES
  0
TABLE
  2
VPORT
  5
8
330
0
100
AcDbSymbolTable
 70
     1
  0
VPORT
  5
29
330
8
100
AcDbSymbolTableRecord
100
AcDbViewportTableRecord
  2
*Active
 70
     0
 10
0.0
 20
0.0
 11
1.0
 21
1.0
 12
0.0
 22
0.0
 13
0.0
 23
0.0
 14
0.5
 24
0.5
 15
0.5
 25
0.5
 16
0.0
 26
0.0
 36
1.0
 17
3.990399899194017
 27
9.623270947377888
 37
0.0
 40
11.69291338582673
 41
0.7070707070707087
 42
50.0
 43
0.0
 44
0.0
 50
0.0
 51
0.0
 71
     0
 72
   100
 73
     1
 74
     3
 75
     0
 76
     0
 77
     0
 78
     0
281
     0
 65
     1
110
0.0
120
0.0
130
0.0
111
1.0
121
0.0
131
0.0
112
0.0
122
1.0
132
0.0
 79
     0
146
0.0
 60
     3
 61
     5
292
     1
282
     1
141
0.0
142
0.0
 63
   250
361
3F
  0
ENDTAB
  0
TABLE
  2
LTYPE
  5
5
330
0
100
AcDbSymbolTable
 70
     1
  0
LTYPE
  5
14
330
5
100
AcDbSymbolTableRecord
100
AcDbLinetypeTableRecord
  2
ByBlock
 70
     0
  3

 72
    65
 73
     0
 40
0.0
  0
LTYPE
  5
15
330
5
100
AcDbSymbolTableRecord
100
AcDbLinetypeTableRecord
  2
ByLayer
 70
     0
  3

 72
    65
 73
     0
 40
0.0
  0
LTYPE
  5
16
330
5
100
AcDbSymbolTableRecord
100
AcDbLinetypeTableRecord
  2
Continuous
 70
     0
  3
Solid line
 72
    65
 73
     0
 40
0.0
  0
ENDTAB
  0
TABLE
  2
LAYER
  5
2
330
0
100
AcDbSymbolTable
 70
     3
  0
LAYER
  5
10
330
2
100
AcDbSymbolTableRecord
100
AcDbLayerTableRecord
  2
0
 70
     0
 62
     7
  6
Continuous
370
    -3
390
F
347
3E
  0
LAYER
  5
40
330
2
100
AcDbSymbolTableRecord
100
AcDbLayerTableRecord
  2
H1
 70
     0
 62
     7
  6
Continuous
370
    -3
390
F
347
3E
  0
LAYER
  5
331
330
2
100
AcDbSymbolTableRecord
100
AcDbLayerTableRecord
  2
Callout
 70
     0
 62
     7
  6
Continuous
370
    -3
390
F
347
3E
  0
ENDTAB
  0
TABLE
  2
STYLE
  5
3
330
0
100
AcDbSymbolTable
 70
     1
  0
STYLE
  5
11
330
3
100
AcDbSymbolTableRecord
100
AcDbTextStyleTableRecord
  2
Standard
 70
     0
 40
0.0
 41
1.0
 50
0.0
 71
     0
 42
0.2
  3
txt
  4

  0
ENDTAB
  0
TABLE
  2
VIEW
  5
6
330
0
100
AcDbSymbolTable
 70
     0
  0
ENDTAB
  0
TABLE
  2
UCS
  5
7
330
0
100
AcDbSymbolTable
 70
     0
  0
ENDTAB
  0
TABLE
  2
APPID
  5
9
330
0
100
AcDbSymbolTable
 70
     1
  0
APPID
  5
12
330
9
100
AcDbSymbolTableRecord
100
AcDbRegAppTableRecord
  2
ACAD
 70
     0
  0
ENDTAB
  0
TABLE
  2
DIMSTYLE
  5
A
330
0
100
AcDbSymbolTable
 70
     1
100
AcDbDimStyleTable
  0
DIMSTYLE
105
27
330
A
100
AcDbSymbolTableRecord
100
AcDbDimStyleTableRecord
  2
Standard
 70
     0
178
     0
340
11
  0
ENDTAB
  0
TABLE
  2
BLOCK_RECORD
  5
1
330
0
100
AcDbSymbolTable
 70
    28
  0
BLOCK_RECORD
  5
1F
330
1
100
AcDbSymbolTableRecord
100
AcDbBlockTableRecord
  2
*Model_Space
340
22
 70
     0
280
     1
281
     0
  0
BLOCK_RECORD
  5
1B
330
1
100
AcDbSymbolTableRecord
100
AcDbBlockTableRecord
  2
*Paper_Space
340
1E
 70
     0
280
     1
281
     0
  0
BLOCK_RECORD
  5
23
330
1
100
AcDbSymbolTableRecord
100
AcDbBlockTableRecord
  2
*Paper_Space0
340
26
 70
     0
280
     1
281
     0
  0
BLOCK_RECORD
  5
41
330
1
100
AcDbSymbolTableRecord
100
AcDbBlockTableRecord
  2
block 2
340
0
102
{BLKREFS
331
42
102
}
 70
     0
280
     1
281
     0
  0
BLOCK_RECORD
  5
DF
330
1
100
AcDbSymbolTableRecord
100
AcDbBlockTableRecord
  2
block 3
340
0
102
{BLKREFS
331
E0
102
}
 70
     0
280
     1
281
     0
  0
BLOCK_RECORD
  5
192
330
1
100
AcDbSymbolTableRecord
100
AcDbBlockTableRecord
  2
block 4
340
0
102
{BLKREFS
331
193
102
}
 70
     0
280
     1
281
     0
  0
BLOCK_RECORD
  5
1B4
330
1
100
AcDbSymbolTableRecord
100
AcDbBlockTableRecord
  2
block 5
340
0
102
{BLKREFS
331
1B5
102
}
 70
     0
280
     1
281
     0
  0
BLOCK_RECORD
  5
1CA
330
1
100
AcDbSymbolTableRecord
100
AcDbBlockTableRecord
  2
block 6
340
0
102
{BLKREFS
331
1CB
102
}
 70
     0
280
     1
281
     0
  0
BLOCK_RECORD
  5
1E9
330
1
100
AcDbSymbolTableRecord
100
AcDbBlockTableRecord
  2
block 7
340
0
102
{BLKREFS
331
1EA
102
}
 70
     0
280
     1
281
     0
  0
BLOCK_RECORD
  5
1EE
330
1
100
AcDbSymbolTableRecord
100
AcDbBlockTableRecord
  2
block 8
340
0
102
{BLKREFS
331
1EF
102
}
 70
     0
280
     1
281
     0
  0
BLOCK_RECORD
  5
1F3
330
1
100
AcDbSymbolTableRecord
100
AcDbBlockTableRecord
  2
block 9
340
0
102
{BLKREFS
331
1F4
102
}
 70
     0
280
     1
281
     0
  0
BLOCK_RECORD
  5
1F8
330
1
100
AcDbSymbolTableRecord
100
AcDbBlockTableRecord
  2
block 10
340
0
102
{BLKREFS
331
1F9
102
}
 70
     0
280
     1
281
     0
  0
BLOCK_RECORD
  5
1FF
330
1
100
AcDbSymbolTableRecord
100
AcDbBlockTableRecord
  2
block 11
340
0
102
{BLKREFS
331
200
102
}
 70
     0
280
     1
281
     0
  0
BLOCK_RECORD
  5
203
330
1
100
AcDbSymbolTableRecord
100
AcDbBlockTableRecord
  2
block 12
340
0
102
{BLKREFS
331
204
102
}
 70
     0
280
     1
281
     0
  0
BLOCK_RECORD
  5
20A
330
1
100
AcDbSymbolTableRecord
100
AcDbBlockTableRecord
  2
block 13
340
0
102
{BLKREFS
331
20B
102
}
 70
     0
280
     1
281
     0
  0
BLOCK_RECORD
  5
20E
330
1
100
AcDbSymbolTableRecord
100
AcDbBlockTableRecord
  2
block 14
340
0
102
{BLKREFS
331
20F
102
}
 70
     0
280
     1
281
     0
  0
BLOCK_RECORD
  5
215
330
1
100
AcDbSymbolTableRecord
100
AcDbBlockTableRecord
  2
block 15
340
0
102
{BLKREFS
331
216
102
}
 70
     0
280
     1
281
     0
  0
BLOCK_RECORD
  5
219
330
1
100
AcDbSymbolTableRecord
100
AcDbBlockTableRecord
  2
block 16
340
0
102
{BLKREFS
331
21A
102
}
 70
     0
280
     1
281
     0
  0
BLOCK_RECORD
  5
220
330
1
100
AcDbSymbolTableRecord
100
AcDbBlockTableRecord
  2
block 17
340
0
102
{BLKREFS
331
221
102
}
 70
     0
280
     1
281
     0
  0
BLOCK_RECORD
  5
311
330
1
100
AcDbSymbolTableRecord
100
AcDbBlockTableRecord
  2
block 18
340
0
102
{BLKREFS
331
312
102
}
 70
     0
280
     1
281
     0
  0
BLOCK_RECORD
  5
315
330
1
100
AcDbSymbolTableRecord
100
AcDbBlockTableRecord
  2
block 19
340
0
102
{BLKREFS
331
316
102
}
 70
     0
280
     1
281
     0
  0
BLOCK_RECORD
  5
31C
330
1
100
AcDbSymbolTableRecord
100
AcDbBlockTableRecord
  2
block 20
340
0
102
{BLKREFS
331
31D
102
}
 70
     0
280
     1
281
     0
  0
BLOCK_RECORD
  5
320
330
1
100
AcDbSymbolTableRecord
100
AcDbBlockTableRecord
  2
block 21
340
0
102
{BLKREFS
331
321
102
}
 70
     0
280
     1
281
     0
  0
BLOCK_RECORD
  5
324
330
1
100
AcDbSymbolTableRecord
100
AcDbBlockTableRecord
  2
block 22
340
0
102
{BLKREFS
331
325
102
}
 70
     0
280
     1
281
     0
  0
BLOCK_RECORD
  5
332
330
1
100
AcDbSymbolTableRecord
100
AcDbBlockTableRecord
  2
block 23
340
0
102
{BLKREFS
331
333
102
}
 70
     0
280
     1
281
     0
  0
BLOCK_RECORD
  5
336
330
1
100
AcDbSymbolTableRecord
100
AcDbBlockTableRecord
  2
block 24
340
0
102
{BLKREFS
331
337
102
}
 70
     0
280
     1
281
     0
  0
BLOCK_RECORD
  5
34C
330
1
100
AcDbSymbolTableRecord
100
AcDbBlockTableRecord
  2
block 25
340
0
102
{BLKREFS
331
34D
102
}
 70
     0
280
     1
281
     0
  0
BLOCK_RECORD
  5
360
330
1
100
AcDbSymbolTableRecord
100
AcDbBlockTableRecord
  2
block 26
340
0
102
{BLKREFS
331
361
102
}
 70
     0
280
     1
281
     0
  0
BLOCK_RECORD
  5
364
330
1
100
AcDbSymbolTableRecord
100
AcDbBlockTableRecord
  2
block 27
340
0
102
{BLKREFS
331
365
102
}
 70
     0
280
     1
281
     0
  0
BLOCK_RECORD
  5
37A
330
1
100
AcDbSymbolTableRecord
100
AcDbBlockTableRecord
  2
block 28
340
0
102
{BLKREFS
331
37B
102
}
 70
     0
280
     1
281
     0
  0
ENDTAB
  0
ENDSEC
  0
SECTION
  2
BLOCKS
  0
BLOCK
  5
20
330
1F
100
AcDbEntity
  8
0
100
AcDbBlockBegin
  2
*Model_Space
 70
     0
 10
0.0
 20
0.0
 30
0.0
  3
*Model_Space
  1

  0
ENDBLK
  5
21
330
1F
100
AcDbEntity
  8
0
100
AcDbBlockEnd
  0
BLOCK
  5
1C
330
1B
100
AcDbEntity
 67
     1
  8
0
100
AcDbBlockBegin
  2
*Paper_Space
 70
     0
 10
0.0
 20
0.0
 30
0.0
  3
*Paper_Space
  1

  0
ENDBLK
  5
1D
330
1B
100
AcDbEntity
 67
     1
  8
0
100
AcDbBlockEnd
  0
BLOCK
  5
24
330
23
100
AcDbEntity
  8
0
100
AcDbBlockBegin
  2
*Paper_Space0
 70
     0
 10
0.0
 20
0.0
 30
0.0
  3
*Paper_Space0
  1

  0
ENDBLK
  5
25
330
23
100
AcDbEntity
  8
0
100
AcDbBlockEnd
  0
BLOCK
  5
43
330
41
100
AcDbEntity
  8
0
100
AcDbBlockBegin
  2
block 2
 70
     0
 10
0.0
 20
0.0
 30
0.0
  3
block 2
  1

  0
POLYLINE
  5
45
330
41
100
AcDbEntity
  8
H1
 62
   250
420
  2301728
370
    25
100
AcDb2dPolyline
 66
     1
 10
0.0
 20
0.0
 30
0.0
  0
VERTEX
  5
46
330
45
100
AcDbEntity
  8
H1
 62
   250
420
  2301728
370
    25
100
AcDbVertex
100
AcDb2dVertex
 10
4.828465360125594
 20
11.40070393406338
 30
0.0
  0
VERTEX
  5
47
330
45
100
AcDbEntity
  8
H1
 62
   250
420
  2301728
370
    25
100
AcDbVertex
100
AcDb2dVertex
 10
4.859482287663417
 20
11.44111562243648
 30
0.0
  0
VERTEX
  5
48
330
45
100
AcDbEntity
  8
H1
 62
   250
420
  2301728
370
    25
100
AcDbVertex
100
AcDb2dVertex
 10
4.856858999345629
 20
12.05759714088957
 30
0.0
  0
VERTEX
  5
49
330
45
100
AcDbEntity
  8
H1
 62
   250
420
  2301728
370
    25
100
AcDbVertex
100
AcDb2dVertex
 10
4.629757599441038
 20
12.11956964957924
 30
0.0
  0
VERTEX
  5
4A
330
45
100
AcDbEntity
  8
H1
 62
   250
420
  2301728
370
    25
100
AcDbVertex
100
AcDb2dVertex
 10
3.055789058147752
 20
10.66118346069625
 30
0.0
  0
VERTEX
  5
4B
330
45
100
AcDbEntity
  8
H1
 62
   250
420
  2301728
370
    25
100
AcDbVertex
100
AcDb2dVertex
 10
2.863863481254422
 20
10.72943374955846
 30
0.0
  0
VERTEX
  5
4C
330
45
100
AcDbEntity
  8
H1
 62
   250
420
  2301728
370
    25
100
AcDbVertex
100
AcDb2dVertex
 10
2.738949580476376
 20
10.67689495179043
 30
0.0
  0
VERTEX
  5
4D
330
45
100
AcDbEntity
  8
H1
 62
   250
420
  2301728
370
    25
100
AcDbVertex
100
AcDb2dVertex
 10
2.738949580476376
 20
10.63291543550479
 30
0.0
  0
VERTEX
  5
4E
330
45
100
AcDbEntity
  8
H1
 62
   250
420
  2301728
370
    25
100
AcDbVertex
100
AcDb2dVertex
 10
2.532146080190538
 20
10.64493932717078
 30
0.0
  0
VERTEX
  5
4F
330
45
100
AcDbEntity
  8
H1
 62
   250
420
  2301728
370
    25
100
AcDbVertex
100
AcDb2dVertex
 10
2.532146080190538
 20
10.58992639732206
 30
0.0
  0
VERTEX
  5
50
330
45
100
AcDbEntity
  8
H1
 62
   250
420
  2301728
370
    25
100
AcDbVertex
100
AcDb2dVertex
 10
2.396490683487476
 20
10.53287213863357
 30
0.0
  0
VERTEX
  5
51
330
45
100
AcDbEntity
  8
H1
 62
   250
420
  2301728
370
    25
100
AcDbVertex
100
AcDb2dVertex
 10
2.396490683487476
 20
10.42367265020619
 30
0.0
  0
VERTEX
  5
52
330
45
100
AcDbEntity
  8
H1
 62
   250
420
  2301728
370
    25
100
AcDbVertex
100
AcDb2dVertex
 10
2.226141506945269
 20
10.35378840522026
 30
0.0
  0
VERTEX
  5
53
330
45
100
AcDbEntity
  8
H1
 62
   250
420
  2301728
370
    25
100
AcDbVertex
100
AcDb2dVertex
 10
2.226141506945269
 20
10.11355011493131
 30
0.0
  0
VERTEX
  5
54
330
45
100
AcDbEntity
  8
H1
 62
   250
420
  2301728
370
    25
100
AcDbVertex
100
AcDb2dVertex
 10
2.882647160411971
 20
9.86159466490662
 30
0.0
  0
VERTEX
  5
55
330
45
100
AcDbEntity
  8
H1
 62
   250
420
  2301728
370
    25
100
AcDbVertex
100
AcDb2dVertex
 10
2.882647160411971
 20
9.050089090188546
 30
0.0
  0
VERTEX
  5
56
330
45
100
AcDbEntity
  8
H1
 62
   250
420
  2301728
370
    25
100
AcDbVertex
100
AcDb2dVertex
 10
3.148806733187889
 20
8.924435137769224
 30
0.0
  0
VERTEX
  5
57
330
45
100
AcDbEntity
  8
H1
 62
   250
420
  2301728
370
    25
100
AcDbVertex
100
AcDb2dVertex
 10
3.713959021791766
 20
9.526829358854116
 30
0.0
  0
VERTEX
  5
58
330
45
100
AcDbEntity
  8
H1
 62
   250
420
  2301728
370
    25
100
AcDbVertex
100
AcDb2dVertex
 10
5.147829459705108
 20
8.95821752144017
 30
0.0
  0
VERTEX
  5
59
330
45
100
AcDbEntity
  8
H1
 62
   250
420
  2301728
370
    25
100
AcDbVertex
100
AcDb2dVertex
 10
5.334706029720362
 20
9.091682074239012
 30
0.0
  0
VERTEX
  5
5A
330
45
100
AcDbEntity
  8
H1
 62
   250
420
  2301728
370
    25
100
AcDbVertex
100
AcDb2dVertex
 10
5.334706029720362
 20
9.139925516923439
 30
0.0
  0
VERTEX
  5
5B
330
45
100
AcDbEntity
  8
H1
 62
   250
420
  2301728
370
    25
100
AcDbVertex
100
AcDb2dVertex
 10
5.487549089938359
 20
9.131745025031137
 30
0.0
  0
VERTEX
  5
5C
330
45
100
AcDbEntity
  8
H1
 62
   250
420
  2301728
370
    25
100
AcDbVertex
100
AcDb2dVertex
 10
5.487549089938359
 20
9.20084053076784
 30
0.0
  0
VERTEX
  5
5D
330
45
100
AcDbEntity
  8
H1
 62
   250
420
  2301728
370
    25
100
AcDbVertex
100
AcDb2dVertex
 10
5.595014325769625
 20
9.277591675982837
 30
0.0
  0
VERTEX
  5
5E
330
45
100
AcDbEntity
  8
H1
 62
   250
420
  2301728
370
    25
100
AcDbVertex
100
AcDb2dVertex
 10
5.595014325769625
 20
9.539668305953796
 30
0.0
  0
VERTEX
  5
5F
330
45
100
AcDbEntity
  8
H1
 62
   250
420
  2301728
370
    25
100
AcDbVertex
100
AcDb2dVertex
 10
5.385352827042374
 20
9.613926645640378
 30
0.0
  0
VERTEX
  5
60
330
45
100
AcDbEntity
  8
H1
 62
   250
420
  2301728
370
    25
100
AcDbVertex
100
AcDb2dVertex
 10
5.385352827042374
 20
9.867268718740268
 30
0.0
  0
VERTEX
  5
61
330
45
100
AcDbEntity
  8
H1
 62
   250
420
  2301728
370
    25
100
AcDbVertex
100
AcDb2dVertex
 10
4.370187961908515
 20
10.20993794619562
 30
0.0
  0
VERTEX
  5
62
330
45
100
AcDbEntity
  8
H1
 62
   250
420
  2301728
370
    25
100
AcDbVertex
100
AcDb2dVertex
 10
4.865094021358876
 20
10.7504234781526
 30
0.0
  0
VERTEX
  5
63
330
45
100
AcDbEntity
  8
H1
 62
   250
420
  2301728
370
    25
100
AcDbVertex
100
AcDb2dVertex
 10
4.860836776917343
 20
11.29908997495882
 30
0.0
  0
VERTEX
  5
64
330
45
100
AcDbEntity
  8
H1
 62
   250
420
  2301728
370
    25
100
AcDbVertex
100
AcDb2dVertex
 10
4.92086567629657
 20
11.37459198126101
 30
0.0
  0
VERTEX
  5
65
330
45
100
AcDbEntity
  8
H1
 62
   250
420
  2301728
370
    25
100
AcDbVertex
100
AcDb2dVertex
 10
4.828465360125594
 20
11.40070393406338
 30
0.0
  0
SEQEND
  5
67
330
45
100
AcDbEntity
  8
H1
 62
   250
420
  2301728
370
    25
  0
HATCH
  5
66
330
41
100
AcDbEntity
  8
H1
 62
    43
420
 15510365
100
AcDbHatch
 10
0.0
 20
0.0
 30
0.0
210
0.0
220
0.0
230
1.0
  2
SOLID
 70
     1
 71
     0
 91
        1
 92
        1
 93
       31
 72
     1
 10
4.828465360125594
 20
11.40070393406338
 11
4.859482287663417
 21
11.44111562243648
 72
     1
 10
4.859482287663417
 20
11.44111562243648
 11
4.856858999345629
 21
12.05759714088957
 72
     1
 10
4.856858999345629
 20
12.05759714088957
 11
4.629757599441038
 21
12.11956964957924
 72
     1
 10
4.629757599441038
 20
12.11956964957924
 11
3.055789058147752
 21
10.66118346069625
 72
     1
 10
3.055789058147752
 20
10.66118346069625
 11
2.863863481254422
 21
10.72943374955846
 72
     1
 10
2.863863481254422
 20
10.72943374955846
 11
2.738949580476376
 21
10.67689495179043
 72
     1
 10
2.738949580476376
 20
10.67689495179043
 11
2.738949580476376
 21
10.63291543550479
 72
     1
 10
2.738949580476376
 20
10.63291543550479
 11
2.532146080190538
 21
10.64493932717078
 72
     1
 10
2.532146080190538
 20
10.64493932717078
 11
2.532146080190538
 21
10.58992639732206
 72
     1
 10
2.532146080190538
 20
10.58992639732206
 11
2.396490683487476
 21
10.53287213863357
 72
     1
 10
2.396490683487476
 20
10.53287213863357
 11
2.396490683487476
 21
10.42367265020619
 72
     1
 10
2.396490683487476
 20
10.42367265020619
 11
2.226141506945269
 21
10.35378840522026
 72
     1
 10
2.226141506945269
 20
10.35378840522026
 11
2.226141506945269
 21
10.11355011493131
 72
     1
 10
2.226141506945269
 20
10.11355011493131
 11
2.882647160411971
 21
9.86159466490662
 72
     1
 10
2.882647160411971
 20
9.86159466490662
 11
2.882647160411971
 21
9.050089090188546
 72
     1
 10
2.882647160411971
 20
9.050089090188546
 11
3.148806733187889
 21
8.924435137769224
 72
     1
 10
3.148806733187889
 20
8.924435137769224
 11
3.713959021791766
 21
9.526829358854116
 72
     1
 10
3.713959021791766
 20
9.526829358854116
 11
5.147829459705108
 21
8.95821752144017
 72
     1
 10
5.147829459705108
 20
8.95821752144017
 11
5.334706029720362
 21
9.091682074239012
 72
     1
 10
5.334706029720362
 20
9.091682074239012
 11
5.334706029720362
 21
9.139925516923439
 72
     1
 10
5.334706029720362
 20
9.139925516923439
 11
5.487549089938359
 21
9.131745025031137
 72
     1
 10
5.487549089938359
 20
9.131745025031137
 11
5.487549089938359
 21
9.20084053076784
 72
     1
 10
5.487549089938359
 20
9.20084053076784
 11
5.595014325769625
 21
9.277591675982837
 72
     1
 10
5.595014325769625
 20
9.277591675982837
 11
5.595014325769625
 21
9.539668305953796
 72
     1
 10
5.595014325769625
 20
9.539668305953796
 11
5.385352827042374
 21
9.613926645640378
 72
     1
 10
5.385352827042374
 20
9.613926645640378
 11
5.385352827042374
 21
9.867268718740268
 72
     1
 10
5.385352827042374
 20
9.867268718740268
 11
4.370187961908515
 21
10.20993794619562
 72
     1
 10
4.370187961908515
 20
10.20993794619562
 11
4.865094021358876
 21
10.7504234781526
 72
     1
 10
4.865094021358876
 20
10.7504234781526
 11
4.860836776917343
 21
11.29908997495882
 72
     1
 10
4.860836776917343
 20
11.29908997495882
 11
4.92086567629657
 21
11.37459198126101
 72
     1
 10
4.92086567629657
 20
11.37459198126101
 11
4.828465360125594
 21
11.40070393406338
 97
        0
 75
     2
 76
     1
 98
        0
  0
POLYLINE
  5
68
330
41
100
AcDbEntity
  8
H1
 62
   250
420
  2301728
370
    18
100
AcDb2dPolyline
 66
     1
 10
0.0
 20
0.0
 30
0.0
  0
VERTEX
  5
69
330
68
100
AcDbEntity
  8
H1
 62
   250
420
  2301728
370
    18
100
AcDbVertex
100
AcDb2dVertex
 10
2.882647160411971
 20
10.10204620691852
 30
0.0
  0
VERTEX
  5
6A
330
68
100
AcDbEntity
  8
H1
 62
   250
420
  2301728
370
    18
100
AcDbVertex
100
AcDb2dVertex
 10
2.226141506945269
 20
10.35378840522026
 30
0.0
  0
SEQEND
  5
6B
330
68
100
AcDbEntity
  8
H1
 62
   250
420
  2301728
370
    18
  0
POLYLINE
  5
6C
330
41
100
AcDbEntity
  8
H1
 62
   250
420
  2301728
370
    18
100
AcDb2dPolyline
 66
     1
 10
0.0
 20
0.0
 30
0.0
  0
VERTEX
  5
6D
330
6C
100
AcDbEntity
  8
H1
 62
   250
420
  2301728
370
    18
100
AcDbVertex
100
AcDb2dVertex
 10
5.147829459705108
 20
9.23344662183005
 30
0.0
  0
VERTEX
  5
6E
330
6C
100
AcDbEntity
  8
H1
 62
   250
420
  2301728
370
    18
100
AcDbVertex
100
AcDb2dVertex
 10
3.90330600572151
 20
9.710993182159882
 30
0.0
  0
SEQEND
  5
6F
330
6C
100
AcDbEntity
  8
H1
 62
   250
420
  2301728
370
    18
  0
POLYLINE
  5
70
330
41
100
AcDbEntity
  8
H1
 62
   250
420
  2301728
370
    18
100
AcDb2dPolyline
 66
     1
 10
0.0
 20
0.0
 30
0.0
  0
VERTEX
  5
71
330
70
100
AcDbEntity
  8
H1
 62
   250
420
  2301728
370
    18
100
AcDbVertex
100
AcDb2dVertex
 10
5.595014325769625
 20
9.539668305953796
 30
0.0
  0
VERTEX
  5
72
330
70
100
AcDbEntity
  8
H1
 62
   250
420
  2301728
370
    18
100
AcDbVertex
100
AcDb2dVertex
 10
5.444775188258518
 20
9.436787495289675
 30
0.0
  0
VERTEX
  5
73
330
70
100
AcDbEntity
  8
H1
 62
   250
420
  2301728
370
    18
100
AcDbVertex
100
AcDb2dVertex
 10
5.487888929442053
 20
9.389565384312744
 30
0.0
  0
VERTEX
  5
74
330
70
100
AcDbEntity
  8
H1
 62
   250
420
  2301728
370
    18
100
AcDbVertex
100
AcDb2dVertex
 10
5.300326735975633
 20
9.396749727745853
 30
0.0
  0
VERTEX
  5
75
330
70
100
AcDbEntity
  8
H1
 62
   250
420
  2301728
370
    18
100
AcDbVertex
100
AcDb2dVertex
 10
5.334706029720362
 20
9.361415183132584
 30
0.0
  0
VERTEX
  5
76
330
70
100
AcDbEntity
  8
H1
 62
   250
420
  2301728
370
    18
100
AcDbVertex
100
AcDb2dVertex
 10
5.147829459705108
 20
9.23344662183005
 30
0.0
  0
SEQEND
  5
77
330
70
100
AcDbEntity
  8
H1
 62
   250
420
  2301728
370
    18
  0
POLYLINE
  5
78
330
41
100
AcDbEntity
  8
H1
 62
   250
420
  2301728
370
    18
100
AcDb2dPolyline
 66
     1
 10
0.0
 20
0.0
 30
0.0
  0
VERTEX
  5
79
330
78
100
AcDbEntity
  8
H1
 62
   250
420
  2301728
370
    18
100
AcDbVertex
100
AcDb2dVertex
 10
2.532146080190538
 20
10.58992639732206
 30
0.0
  0
VERTEX
  5
7A
330
78
100
AcDbEntity
  8
H1
 62
   250
420
  2301728
370
    18
100
AcDbVertex
100
AcDb2dVertex
 10
2.569211920290349
 20
10.60551616979017
 30
0.0
  0
SEQEND
  5
7B
330
78
100
AcDbEntity
  8
H1
 62
   250
420
  2301728
370
    18
  0
POLYLINE
  5
7C
330
41
100
AcDbEntity
  8
H1
 62
   250
420
  2301728
370
    18
100
AcDb2dPolyline
 66
     1
 10
0.0
 20
0.0
 30
0.0
  0
VERTEX
  5
7D
330
7C
100
AcDbEntity
  8
H1
 62
   250
420
  2301728
370
    18
100
AcDbVertex
100
AcDb2dVertex
 10
2.396459523418369
 20
10.2871204636173
 30
0.0
  0
VERTEX
  5
7E
330
7C
100
AcDbEntity
  8
H1
 62
   250
420
  2301728
370
    18
100
AcDbVertex
100
AcDb2dVertex
 10
2.396459523418369
 20
10.42367265020619
 30
0.0
  0
SEQEND
  5
7F
330
7C
100
AcDbEntity
  8
H1
 62
   250
420
  2301728
370
    18
  0
POLYLINE
  5
80
330
41
100
AcDbEntity
  8
H1
 62
   250
420
  2301728
370
    18
100
AcDb2dPolyline
 66
     1
 10
0.0
 20
0.0
 30
0.0
  0
VERTEX
  5
81
330
80
100
AcDbEntity
  8
H1
 62
   250
420
  2301728
370
    18
100
AcDbVertex
100
AcDb2dVertex
 10
2.738949580476376
 20
10.67689495179043
 30
0.0
  0
VERTEX
  5
82
330
80
100
AcDbEntity
  8
H1
 62
   250
420
  2301728
370
    18
100
AcDbVertex
100
AcDb2dVertex
 10
2.777944459457343
 20
10.6306487136628
 30
0.0
  0
VERTEX
  5
83
330
80
100
AcDbEntity
  8
H1
 62
   250
420
  2301728
370
    18
100
AcDbVertex
100
AcDb2dVertex
 10
2.738949580476376
 20
10.63291543550479
 30
0.0
  0
SEQEND
  5
84
330
80
100
AcDbEntity
  8
H1
 62
   250
420
  2301728
370
    18
  0
POLYLINE
  5
85
330
41
100
AcDbEntity
  8
H1
 62
   250
420
  2301728
370
    18
100
AcDb2dPolyline
 66
     1
 10
0.0
 20
0.0
 30
0.0
  0
VERTEX
  5
86
330
85
100
AcDbEntity
  8
H1
 62
   250
420
  2301728
370
    18
100
AcDbVertex
100
AcDb2dVertex
 10
2.532146080190538
 20
10.64493932717078
 30
0.0
  0
VERTEX
  5
87
330
85
100
AcDbEntity
  8
H1
 62
   250
420
  2301728
370
    18
100
AcDbVertex
100
AcDb2dVertex
 10
2.569211920290349
 20
10.60551616979017
 30
0.0
  0
SEQEND
  5
88
330
85
100
AcDbEntity
  8
H1
 62
   250
420
  2301728
370
    18
  0
POLYLINE
  5
89
330
41
100
AcDbEntity
  8
H1
 62
   250
420
  2301728
370
    18
100
AcDb2dPolyline
 66
     1
 10
0.0
 20
0.0
 30
0.0
  0
VERTEX
  5
8A
330
89
100
AcDbEntity
  8
H1
 62
   250
420
  2301728
370
    18
100
AcDbVertex
100
AcDb2dVertex
 10
4.947116641393222
 20
9.599146061610705
 30
0.0
  0
VERTEX
  5
8B
330
89
100
AcDbEntity
  8
H1
 62
   250
420
  2301728
370
    18
100
AcDbVertex
100
AcDb2dVertex
 10
5.147991000632727
 20
9.722045269170671
 30
0.0
  0
VERTEX
  5
8C
330
89
100
AcDbEntity
  8
H1
 62
   250
420
  2301728
370
    18
100
AcDbVertex
100
AcDb2dVertex
 10
5.102623887519712
 20
9.755276509119325
 30
0.0
  0
VERTEX
  5
8D
330
89
100
AcDbEntity
  8
H1
 62
   250
420
  2301728
370
    18
100
AcDbVertex
100
AcDb2dVertex
 10
5.300121274269966
 20
9.739279708642394
 30
0.0
  0
VERTEX
  5
8E
330
89
100
AcDbEntity
  8
H1
 62
   250
420
  2301728
370
    18
100
AcDbVertex
100
AcDb2dVertex
 10
5.250791963619778
 20
9.784940894907574
 30
0.0
  0
VERTEX
  5
8F
330
89
100
AcDbEntity
  8
H1
 62
   250
420
  2301728
370
    18
100
AcDbVertex
100
AcDb2dVertex
 10
5.385352827042374
 20
9.867268718740268
 30
0.0
  0
SEQEND
  5
90
330
89
100
AcDbEntity
  8
H1
 62
   250
420
  2301728
370
    18
  0
POLYLINE
  5
91
330
41
100
AcDbEntity
  8
H1
 62
   250
420
  2301728
370
    18
100
AcDb2dPolyline
 66
     1
 10
0.0
 20
0.0
 30
0.0
  0
VERTEX
  5
92
330
91
100
AcDbEntity
  8
H1
 62
   250
420
  2301728
370
    18
100
AcDbVertex
100
AcDb2dVertex
 10
3.925265993931943
 20
9.973080523404606
 30
0.0
  0
VERTEX
  5
93
330
91
100
AcDbEntity
  8
H1
 62
   250
420
  2301728
370
    18
100
AcDbVertex
100
AcDb2dVertex
 10
4.947116641393222
 20
9.599146061610705
 30
0.0
  0
SEQEND
  5
94
330
91
100
AcDbEntity
  8
H1
 62
   250
420
  2301728
370
    18
  0
POLYLINE
  5
95
330
41
100
AcDbEntity
  8
H1
 62
   250
420
  2301728
370
    18
100
AcDb2dPolyline
 66
     1
 10
0.0
 20
0.0
 30
0.0
  0
VERTEX
  5
96
330
95
100
AcDbEntity
  8
H1
 62
   250
420
  2301728
370
    18
100
AcDbVertex
100
AcDb2dVertex
 10
2.396490683487476
 20
10.53287213863357
 30
0.0
  0
VERTEX
  5
97
330
95
100
AcDbEntity
  8
H1
 62
   250
420
  2301728
370
    18
100
AcDbVertex
100
AcDb2dVertex
 10
2.882647160411971
 20
10.35490157015809
 30
0.0
  0
SEQEND
  5
98
330
95
100
AcDbEntity
  8
H1
 62
   250
420
  2301728
370
    18
  0
POLYLINE
  5
99
330
41
100
AcDbEntity
  8
H1
 62
   250
420
  2301728
370
    18
100
AcDb2dPolyline
 66
     1
 10
0.0
 20
0.0
 30
0.0
  0
VERTEX
  5
9A
330
99
100
AcDbEntity
  8
H1
 62
   250
420
  2301728
370
    18
100
AcDbVertex
100
AcDb2dVertex
 10
4.947116641393222
 20
9.599146061610705
 30
0.0
  0
VERTEX
  5
9B
330
99
100
AcDbEntity
  8
H1
 62
   250
420
  2301728
370
    18
100
AcDbVertex
100
AcDb2dVertex
 10
4.947116641393222
 20
9.311889174546183
 30
0.0
  0
SEQEND
  5
9C
330
99
100
AcDbEntity
  8
H1
 62
   250
420
  2301728
370
    18
  0
POLYLINE
  5
9D
330
41
100
AcDbEntity
  8
H1
 62
   250
420
  2301728
370
    18
100
AcDb2dPolyline
 66
     1
 10
0.0
 20
0.0
 30
0.0
  0
VERTEX
  5
9E
330
9D
100
AcDbEntity
  8
H1
 62
   250
420
  2301728
370
    18
100
AcDbVertex
100
AcDb2dVertex
 10
4.947116641393222
 20
9.310873690888885
 30
0.0
  0
VERTEX
  5
9F
330
9D
100
AcDbEntity
  8
H1
 62
   250
420
  2301728
370
    18
100
AcDbVertex
100
AcDb2dVertex
 10
5.147991000632727
 20
9.449784165363072
 30
0.0
  0
VERTEX
  5
A0
330
9D
100
AcDbEntity
  8
H1
 62
   250
420
  2301728
370
    18
100
AcDbVertex
100
AcDb2dVertex
 10
5.147991000632727
 20
9.49205279910441
 30
0.0
  0
VERTEX
  5
A1
330
9D
100
AcDbEntity
  8
H1
 62
   250
420
  2301728
370
    18
100
AcDbVertex
100
AcDb2dVertex
 10
5.300101799226771
 20
9.489598943662372
 30
0.0
  0
VERTEX
  5
A2
330
9D
100
AcDbEntity
  8
H1
 62
   250
420
  2301728
370
    18
100
AcDbVertex
100
AcDb2dVertex
 10
5.300121274269966
 20
9.555201600402798
 30
0.0
  0
VERTEX
  5
A3
330
9D
100
AcDbEntity
  8
H1
 62
   250
420
  2301728
370
    18
100
AcDbVertex
100
AcDb2dVertex
 10
5.385352827042374
 20
9.613926645640378
 30
0.0
  0
SEQEND
  5
A4
330
9D
100
AcDbEntity
  8
H1
 62
   250
420
  2301728
370
    18
  0
POLYLINE
  5
A5
330
41
100
AcDbEntity
  8
H1
 62
   250
420
  2301728
370
    18
100
AcDb2dPolyline
 66
     1
 10
0.0
 20
0.0
 30
0.0
  0
VERTEX
  5
A6
330
A5
100
AcDbEntity
  8
H1
 62
   250
420
  2301728
370
    18
100
AcDbVertex
100
AcDb2dVertex
 10
5.147829459705108
 20
9.23344662183005
 30
0.0
  0
VERTEX
  5
A7
330
A5
100
AcDbEntity
  8
H1
 62
   250
420
  2301728
370
    18
100
AcDbVertex
100
AcDb2dVertex
 10
5.147829459705108
 20
8.95821752144017
 30
0.0
  0
SEQEND
  5
A8
330
A5
100
AcDbEntity
  8
H1
 62
   250
420
  2301728
370
    18
  0
POLYLINE
  5
A9
330
41
100
AcDbEntity
  8
H1
 62
   250
420
  2301728
370
    18
100
AcDb2dPolyline
 66
     1
 10
0.0
 20
0.0
 30
0.0
  0
VERTEX
  5
AA
330
A9
100
AcDbEntity
  8
H1
 62
   250
420
  2301728
370
    18
100
AcDbVertex
100
AcDb2dVertex
 10
5.302536179625601
 20
9.39465810810715
 30
0.0
  0
VERTEX
  5
AB
330
A9
100
AcDbEntity
  8
H1
 62
   250
420
  2301728
370
    18
100
AcDbVertex
100
AcDb2dVertex
 10
5.334706029720362
 20
9.361415183132584
 30
0.0
  0
VERTEX
  5
AC
330
A9
100
AcDbEntity
  8
H1
 62
   250
420
  2301728
370
    18
100
AcDbVertex
100
AcDb2dVertex
 10
5.334706029720362
 20
9.091682074239012
 30
0.0
  0
SEQEND
  5
AD
330
A9
100
AcDbEntity
  8
H1
 62
   250
420
  2301728
370
    18
  0
POLYLINE
  5
AE
330
41
100
AcDbEntity
  8
H1
 62
   250
420
  2301728
370
    18
100
AcDb2dPolyline
 66
     1
 10
0.0
 20
0.0
 30
0.0
  0
VERTEX
  5
AF
330
AE
100
AcDbEntity
  8
H1
 62
   250
420
  2301728
370
    18
100
AcDbVertex
100
AcDb2dVertex
 10
5.487549089938359
 20
9.387354966910594
 30
0.0
  0
VERTEX
  5
B0
330
AE
100
AcDbEntity
  8
H1
 62
   250
420
  2301728
370
    18
100
AcDbVertex
100
AcDb2dVertex
 10
5.487549089938359
 20
9.131745025031137
 30
0.0
  0
SEQEND
  5
B1
330
AE
100
AcDbEntity
  8
H1
 62
   250
420
  2301728
370
    18
  0
POLYLINE
  5
B2
330
41
100
AcDbEntity
  8
H1
 62
   250
420
  2301728
370
    18
100
AcDb2dPolyline
 66
     1
 10
0.0
 20
0.0
 30
0.0
  0
VERTEX
  5
B3
330
B2
100
AcDbEntity
  8
H1
 62
   250
420
  2301728
370
    18
100
AcDbVertex
100
AcDb2dVertex
 10
3.148806733187889
 20
8.924435137769224
 30
0.0
  0
VERTEX
  5
B4
330
B2
100
AcDbEntity
  8
H1
 62
   250
420
  2301728
370
    18
100
AcDbVertex
100
AcDb2dVertex
 10
3.907601156005714
 20
9.733231960349686
 30
0.0
  0
SEQEND
  5
B5
330
B2
100
AcDbEntity
  8
H1
 62
   250
420
  2301728
370
    18
  0
POLYLINE
  5
B6
330
41
100
AcDbEntity
  8
H1
 62
   250
420
  2301728
370
    18
100
AcDb2dPolyline
 66
     1
 10
0.0
 20
0.0
 30
0.0
  0
VERTEX
  5
B7
330
B6
100
AcDbEntity
  8
H1
 62
   250
420
  2301728
370
    18
100
AcDbVertex
100
AcDb2dVertex
 10
2.882647160411971
 20
10.50295652478817
 30
0.0
  0
VERTEX
  5
B8
330
B6
100
AcDbEntity
  8
H1
 62
   250
420
  2301728
370
    18
100
AcDbVertex
100
AcDb2dVertex
 10
2.882647160411971
 20
9.86159466490662
 30
0.0
  0
SEQEND
  5
B9
330
B6
100
AcDbEntity
  8
H1
 62
   250
420
  2301728
370
    18
  0
POLYLINE
  5
BA
330
41
100
AcDbEntity
  8
H1
 62
   250
420
  2301728
370
    18
100
AcDb2dPolyline
 66
     1
 10
0.0
 20
0.0
 30
0.0
  0
VERTEX
  5
BB
330
BA
100
AcDbEntity
  8
H1
 62
   250
420
  2301728
370
    18
100
AcDbVertex
100
AcDb2dVertex
 10
3.055789058147752
 20
10.66118346069625
 30
0.0
  0
VERTEX
  5
BC
330
BA
100
AcDbEntity
  8
H1
 62
   250
420
  2301728
370
    18
100
AcDbVertex
100
AcDb2dVertex
 10
2.882647160411971
 20
10.50295652478817
 30
0.0
  0
SEQEND
  5
BD
330
BA
100
AcDbEntity
  8
H1
 62
   250
420
  2301728
370
    18
  0
POLYLINE
  5
BE
330
41
100
AcDbEntity
  8
H1
 62
   250
420
  2301728
370
    18
100
AcDb2dPolyline
 66
     1
 10
0.0
 20
0.0
 30
0.0
  0
VERTEX
  5
BF
330
BE
100
AcDbEntity
  8
H1
 62
   250
420
  2301728
370
    18
100
AcDbVertex
100
AcDb2dVertex
 10
2.882647160411971
 20
10.50295652478817
 30
0.0
  0
VERTEX
  5
C0
330
BE
100
AcDbEntity
  8
H1
 62
   250
420
  2301728
370
    18
100
AcDbVertex
100
AcDb2dVertex
 10
3.148806733187889
 20
10.39909125069073
 30
0.0
  0
VERTEX
  5
C1
330
BE
100
AcDbEntity
  8
H1
 62
   250
420
  2301728
370
    18
100
AcDbVertex
100
AcDb2dVertex
 10
3.148806733187889
 20
8.924435137769224
 30
0.0
  0
SEQEND
  5
C2
330
BE
100
AcDbEntity
  8
H1
 62
   250
420
  2301728
370
    18
  0
POLYLINE
  5
C3
330
41
100
AcDbEntity
  8
H1
 62
   250
420
  2301728
370
    18
100
AcDb2dPolyline
 66
     1
 10
0.0
 20
0.0
 30
0.0
  0
VERTEX
  5
C4
330
C3
100
AcDbEntity
  8
H1
 62
   250
420
  2301728
370
    18
100
AcDbVertex
100
AcDb2dVertex
 10
3.148806733187889
 20
10.39871343485284
 30
0.0
  0
VERTEX
  5
C5
330
C3
100
AcDbEntity
  8
H1
 62
   250
420
  2301728
370
    18
100
AcDbVertex
100
AcDb2dVertex
 10
4.856858999345629
 20
12.05759714088957
 30
0.0
  0
SEQEND
  5
C6
330
C3
100
AcDbEntity
  8
H1
 62
   250
420
  2301728
370
    18
  0
POLYLINE
  5
C7
330
41
100
AcDbEntity
  8
H1
 62
   250
420
  2301728
370
    18
100
AcDb2dPolyline
 66
     1
 10
0.0
 20
0.0
 30
0.0
  0
VERTEX
  5
C8
330
C7
100
AcDbEntity
  8
H1
 62
   250
420
  2301728
370
    18
100
AcDbVertex
100
AcDb2dVertex
 10
3.944963124159004
 20
9.981556062201244
 30
0.0
  0
VERTEX
  5
3A3
330
C7
100
AcDbEntity
  8
0
100
AcDbVertex
100
AcDb2dVertex
 10
3.944963124159004
 20
9.981556062201244
 30
0.0
  0
SEQEND
  5
C9
330
C7
100
AcDbEntity
  8
H1
 62
   250
420
  2301728
370
    18
  0
POLYLINE
  5
CA
330
41
100
AcDbEntity
  8
H1
 62
   250
420
  2301728
370
    18
100
AcDb2dPolyline
 66
     1
 10
0.0
 20
0.0
 30
0.0
  0
VERTEX
  5
CB
330
CA
100
AcDbEntity
  8
H1
 62
   250
420
  2301728
370
    18
100
AcDbVertex
100
AcDb2dVertex
 10
4.114879883198518
 20
10.07020159004504
 30
0.0
  0
VERTEX
  5
3A4
330
CA
100
AcDbEntity
  8
0
100
AcDbVertex
100
AcDb2dVertex
 10
4.114879883198518
 20
10.07020159004504
 30
0.0
  0
SEQEND
  5
CC
330
CA
100
AcDbEntity
  8
H1
 62
   250
420
  2301728
370
    18
  0
POLYLINE
  5
CD
330
41
100
AcDbEntity
  8
H1
 62
   250
420
  2301728
370
    18
100
AcDb2dPolyline
 66
     1
 10
0.0
 20
0.0
 30
0.0
  0
VERTEX
  5
CE
330
CD
100
AcDbEntity
  8
H1
 62
   250
420
  2301728
370
    18
100
AcDbVertex
100
AcDb2dVertex
 10
3.908333417629693
 20
9.716139612406044
 30
0.0
  0
VERTEX
  5
CF
330
CD
100
AcDbEntity
  8
H1
 62
   250
420
  2301728
370
    18
100
AcDbVertex
100
AcDb2dVertex
 10
3.908333417629693
 20
9.963992494499609
 30
0.0
  0
VERTEX
  5
D0
330
CD
100
AcDbEntity
  8
H1
 62
   250
420
  2301728
370
    18
100
AcDbVertex
100
AcDb2dVertex
 10
4.373505535516061
 20
10.21367033822313
 30
0.0
  0
SEQEND
  5
D1
330
CD
100
AcDbEntity
  8
H1
 62
   250
420
  2301728
370
    18
  0
POLYLINE
  5
D2
330
41
100
AcDbEntity
  8
H1
 62
   250
420
  2301728
370
    18
100
AcDb2dPolyline
 66
     1
 10
0.0
 20
0.0
 30
0.0
  0
VERTEX
  5
D3
330
D2
100
AcDbEntity
  8
H1
 62
   250
420
  2301728
370
    18
100
AcDbVertex
100
AcDb2dVertex
 10
5.147991000632727
 20
9.722045269170671
 30
0.0
  0
VERTEX
  5
D4
330
D2
100
AcDbEntity
  8
H1
 62
   250
420
  2301728
370
    18
100
AcDbVertex
100
AcDb2dVertex
 10
5.147991000632727
 20
9.49205279910441
 30
0.0
  0
SEQEND
  5
D5
330
D2
100
AcDbEntity
  8
H1
 62
   250
420
  2301728
370
    18
  0
POLYLINE
  5
D6
330
41
100
AcDbEntity
  8
H1
 62
   250
420
  2301728
370
    18
100
AcDb2dPolyline
 66
     1
 10
0.0
 20
0.0
 30
0.0
  0
VERTEX
  5
D7
330
D6
100
AcDbEntity
  8
H1
 62
   250
420
  2301728
370
    18
100
AcDbVertex
100
AcDb2dVertex
 10
5.300121274269966
 20
9.739279708642394
 30
0.0
  0
VERTEX
  5
D8
330
D6
100
AcDbEntity
  8
H1
 62
   250
420
  2301728
370
    18
100
AcDbVertex
100
AcDb2dVertex
 10
5.300121274269966
 20
9.489598943662372
 30
0.0
  0
SEQEND
  5
D9
330
D6
100
AcDbEntity
  8
H1
 62
   250
420
  2301728
370
    18
  0
POLYLINE
  5
DA
330
41
100
AcDbEntity
  8
H1
 62
   250
420
  2301728
370
    18
100
AcDb2dPolyline
 66
     1
 10
0.0
 20
0.0
 30
0.0
  0
VERTEX
  5
DB
330
DA
100
AcDbEntity
  8
H1
 62
   250
420
  2301728
370
    18
100
AcDbVertex
100
AcDb2dVertex
 10
4.92086567629657
 20
11.37459198126101
 30
0.0
  0
VERTEX
  5
DC
330
DA
100
AcDbEntity
  8
H1
 62
   250
420
  2301728
370
    18
100
AcDbVertex
100
AcDb2dVertex
 10
4.80406516528496
 20
11.36891189980652
 30
0.0
  0
VERTEX
  5
DD
330
DA
100
AcDbEntity
  8
H1
 62
   250
420
  2301728
370
    18
100
AcDbVertex
100
AcDb2dVertex
 10
4.828465360125594
 20
11.40070393406338
 30
0.0
  0
SEQEND
  5
DE
330
DA
100
AcDbEntity
  8
H1
 62
   250
420
  2301728
370
    18
  0
INSERT
  5
E0
330
41
100
AcDbEntity
  8
H1
100
AcDbBlockReference
  2
block 3
 10
0.0
 20
0.0
 30
0.0
  0
ENDBLK
  5
44
330
41
100
AcDbEntity
  8
0
100
AcDbBlockEnd
  0
BLOCK
  5
E1
330
DF
100
AcDbEntity
  8
0
100
AcDbBlockBegin
  2
block 3
 70
     0
 10
0.0
 20
0.0
 30
0.0
  3
block 3
  1

  0
POLYLINE
  5
E3
330
DF
100
AcDbEntity
  8
H1
 62
   250
420
  2301728
370
     9
100
AcDb2dPolyline
 66
     1
 10
0.0
 20
0.0
 30
0.0
  0
VERTEX
  5
E4
330
E3
100
AcDbEntity
  8
H1
 62
   250
420
  2301728
370
     9
100
AcDbVertex
100
AcDb2dVertex
 10
2.916399357765966
 20
9.034043602103615
 30
0.0
  0
VERTEX
  5
E5
330
E3
100
AcDbEntity
  8
H1
 62
   250
420
  2301728
370
     9
100
AcDbVertex
100
AcDb2dVertex
 10
2.916399357765966
 20
10.48903593352333
 30
0.0
  0
VERTEX
  5
E6
330
E3
100
AcDbEntity
  8
H1
 62
   250
420
  2301728
370
     9
100
AcDbVertex
100
AcDb2dVertex
 10
4.655442260153247
 20
12.11256058153486
 30
0.0
  0
SEQEND
  5
E7
330
E3
100
AcDbEntity
  8
H1
 62
   250
420
  2301728
370
     9
  0
POLYLINE
  5
E8
330
DF
100
AcDbEntity
  8
H1
 62
   250
420
  2301728
370
     9
100
AcDb2dPolyline
 66
     1
 10
0.0
 20
0.0
 30
0.0
  0
VERTEX
  5
E9
330
E8
100
AcDbEntity
  8
H1
 62
   250
420
  2301728
370
     9
100
AcDbVertex
100
AcDb2dVertex
 10
2.944773568219792
 20
9.02390002585768
 30
0.0
  0
VERTEX
  5
EA
330
E8
100
AcDbEntity
  8
H1
 62
   250
420
  2301728
370
     9
100
AcDbVertex
100
AcDb2dVertex
 10
2.944773568219792
 20
10.47889316142157
 30
0.0
  0
VERTEX
  5
EB
330
E8
100
AcDbEntity
  8
H1
 62
   250
420
  2301728
370
     9
100
AcDbVertex
100
AcDb2dVertex
 10
4.682425906246307
 20
12.1051970677044
 30
0.0
  0
SEQEND
  5
EC
330
E8
100
AcDbEntity
  8
H1
 62
   250
420
  2301728
370
     9
  0
POLYLINE
  5
ED
330
DF
100
AcDbEntity
  8
H1
 62
   250
420
  2301728
370
     9
100
AcDb2dPolyline
 66
     1
 10
0.0
 20
0.0
 30
0.0
  0
VERTEX
  5
EE
330
ED
100
AcDbEntity
  8
H1
 62
   250
420
  2301728
370
     9
100
AcDbVertex
100
AcDb2dVertex
 10
2.975176011868004
 20
9.00640559455937
 30
0.0
  0
VERTEX
  5
EF
330
ED
100
AcDbEntity
  8
H1
 62
   250
420
  2301728
370
     9
100
AcDbVertex
100
AcDb2dVertex
 10
2.975176011868004
 20
10.46814099007593
 30
0.0
  0
VERTEX
  5
F0
330
ED
100
AcDbEntity
  8
H1
 62
   250
420
  2301728
370
     9
100
AcDbVertex
100
AcDb2dVertex
 10
4.71654910317309
 20
12.09588507580272
 30
0.0
  0
SEQEND
  5
F1
330
ED
100
AcDbEntity
  8
H1
 62
   250
420
  2301728
370
     9
  0
POLYLINE
  5
F2
330
DF
100
AcDbEntity
  8
H1
 62
   250
420
  2301728
370
     9
100
AcDb2dPolyline
 66
     1
 10
0.0
 20
0.0
 30
0.0
  0
VERTEX
  5
F3
330
F2
100
AcDbEntity
  8
H1
 62
   250
420
  2301728
370
     9
100
AcDbVertex
100
AcDb2dVertex
 10
3.008396540542902
 20
8.9907223422778
 30
0.0
  0
VERTEX
  5
F4
330
F2
100
AcDbEntity
  8
H1
 62
   250
420
  2301728
370
     9
100
AcDbVertex
100
AcDb2dVertex
 10
3.008396540542902
 20
10.45434584323171
 30
0.0
  0
VERTEX
  5
F5
330
F2
100
AcDbEntity
  8
H1
 62
   250
420
  2301728
370
     9
100
AcDbVertex
100
AcDb2dVertex
 10
4.749300283307093
 20
12.08694797848247
 30
0.0
  0
SEQEND
  5
F6
330
F2
100
AcDbEntity
  8
H1
 62
   250
420
  2301728
370
     9
  0
POLYLINE
  5
F7
330
DF
100
AcDbEntity
  8
H1
 62
   250
420
  2301728
370
     9
100
AcDb2dPolyline
 66
     1
 10
0.0
 20
0.0
 30
0.0
  0
VERTEX
  5
F8
330
F7
100
AcDbEntity
  8
H1
 62
   250
420
  2301728
370
     9
100
AcDbVertex
100
AcDb2dVertex
 10
3.044555853235288
 20
8.974608691541725
 30
0.0
  0
VERTEX
  5
F9
330
F7
100
AcDbEntity
  8
H1
 62
   250
420
  2301728
370
     9
100
AcDbVertex
100
AcDb2dVertex
 10
3.044555853235288
 20
10.44116026523939
 30
0.0
  0
VERTEX
  5
FA
330
F7
100
AcDbEntity
  8
H1
 62
   250
420
  2301728
370
     9
100
AcDbVertex
100
AcDb2dVertex
 10
4.778273305062056
 20
12.07904208469914
 30
0.0
  0
SEQEND
  5
FB
330
F7
100
AcDbEntity
  8
H1
 62
   250
420
  2301728
370
     9
  0
POLYLINE
  5
FC
330
DF
100
AcDbEntity
  8
H1
 62
   250
420
  2301728
370
     9
100
AcDb2dPolyline
 66
     1
 10
0.0
 20
0.0
 30
0.0
  0
VERTEX
  5
FD
330
FC
100
AcDbEntity
  8
H1
 62
   250
420
  2301728
370
     9
100
AcDbVertex
100
AcDb2dVertex
 10
3.077041199029723
 20
8.957275060262191
 30
0.0
  0
VERTEX
  5
FE
330
FC
100
AcDbEntity
  8
H1
 62
   250
420
  2301728
370
     9
100
AcDbVertex
100
AcDb2dVertex
 10
3.077041199029723
 20
10.42675652329544
 30
0.0
  0
VERTEX
  5
FF
330
FC
100
AcDbEntity
  8
H1
 62
   250
420
  2301728
370
     9
100
AcDbVertex
100
AcDb2dVertex
 10
4.804219905105179
 20
12.07136035662222
 30
0.0
  0
SEQEND
  5
100
330
FC
100
AcDbEntity
  8
H1
 62
   250
420
  2301728
370
     9
  0
POLYLINE
  5
101
330
DF
100
AcDbEntity
  8
H1
 62
   250
420
  2301728
370
     9
100
AcDb2dPolyline
 66
     1
 10
0.0
 20
0.0
 30
0.0
  0
VERTEX
  5
102
330
101
100
AcDbEntity
  8
H1
 62
   250
420
  2301728
370
     9
100
AcDbVertex
100
AcDb2dVertex
 10
3.113935694602572
 20
8.940897391778408
 30
0.0
  0
VERTEX
  5
103
330
101
100
AcDbEntity
  8
H1
 62
   250
420
  2301728
370
     9
100
AcDbVertex
100
AcDb2dVertex
 10
3.113935694602572
 20
10.41179676886842
 30
0.0
  0
VERTEX
  5
104
330
101
100
AcDbEntity
  8
H1
 62
   250
420
  2301728
370
     9
100
AcDbVertex
100
AcDb2dVertex
 10
4.82997467597286
 20
12.0649335922069
 30
0.0
  0
SEQEND
  5
105
330
101
100
AcDbEntity
  8
H1
 62
   250
420
  2301728
370
     9
  0
POLYLINE
  5
106
330
DF
100
AcDbEntity
  8
H1
 62
   250
420
  2301728
370
     9
100
AcDb2dPolyline
 66
     1
 10
0.0
 20
0.0
 30
0.0
  0
VERTEX
  5
107
330
106
100
AcDbEntity
  8
H1
 62
   250
420
  2301728
370
     9
100
AcDbVertex
100
AcDb2dVertex
 10
4.947116641393222
 20
9.545810880356296
 30
0.0
  0
VERTEX
  5
108
330
106
100
AcDbEntity
  8
H1
 62
   250
420
  2301728
370
     9
100
AcDbVertex
100
AcDb2dVertex
 10
4.980524130482737
 20
9.590238176855236
 30
0.0
  0
VERTEX
  5
109
330
106
100
AcDbEntity
  8
H1
 62
   250
420
  2301728
370
     9
100
AcDbVertex
100
AcDb2dVertex
 10
4.993556829386054
 20
9.627559175873948
 30
0.0
  0
SEQEND
  5
10A
330
106
100
AcDbEntity
  8
H1
 62
   250
420
  2301728
370
     9
  0
SPLINE
  5
10B
330
DF
100
AcDbEntity
  8
H1
 62
   250
420
  2301728
370
     9
100
AcDbSpline
210
0.0
220
0.0
230
1.0
 70
     8
 71
     3
 72
    14
 73
    10
 74
     0
 42
0.0000000001
 43
0.0000000001
 12
1.0
 22
0.0
 32
0.0
 13
1.0
 23
0.0
 33
0.0
 40
0.0
 40
0.0
 40
0.0
 40
0.0
 40
1.0
 40
1.0
 40
1.0
 40
2.0
 40
2.0
 40
2.0
 40
3.0
 40
3.0
 40
3.0
 40
3.0
 10
5.038590919260514
 20
9.655112466980338
 30
0.0
 10
5.038590919260514
 20
9.655112466980338
 30
0.0
 10
5.029211738459808
 20
9.620667931840886
 30
0.0
 10
5.023125787462655
 20
9.603627269048918
 30
0.0
 10
5.017039836465553
 20
9.586586606256963
 30
0.0
 10
5.003042247445339
 20
9.565285924039092
 30
0.0
 10
4.998781983474146
 20
9.555548402197713
 30
0.0
 10
4.994521915834108
 20
9.545810880356296
 30
0.0
 10
4.947116641393222
 20
9.483125439305745
 30
0.0
 10
4.947116641393222
 20
9.483125439305745
 30
0.0
  0
POLYLINE
  5
10C
330
DF
100
AcDbEntity
  8
H1
 62
   250
420
  2301728
370
     9
100
AcDb2dPolyline
 66
     1
 10
0.0
 20
0.0
 30
0.0
  0
VERTEX
  5
10D
330
10C
100
AcDbEntity
  8
H1
 62
   250
420
  2301728
370
     9
100
AcDbVertex
100
AcDb2dVertex
 10
4.947116641393222
 20
9.4247003097333
 30
0.0
  0
VERTEX
  5
10E
330
10C
100
AcDbEntity
  8
H1
 62
   250
420
  2301728
370
     9
100
AcDbVertex
100
AcDb2dVertex
 10
4.992853780326842
 20
9.466693515394935
 30
0.0
  0
VERTEX
  5
10F
330
10C
100
AcDbEntity
  8
H1
 62
   250
420
  2301728
370
     9
100
AcDbVertex
100
AcDb2dVertex
 10
5.027386052048819
 20
9.513555194291408
 30
0.0
  0
VERTEX
  5
110
330
10C
100
AcDbEntity
  8
H1
 62
   250
420
  2301728
370
     9
100
AcDbVertex
100
AcDb2dVertex
 10
5.055381427342834
 20
9.569118466266962
 30
0.0
  0
VERTEX
  5
111
330
10C
100
AcDbEntity
  8
H1
 62
   250
420
  2301728
370
     9
100
AcDbVertex
100
AcDb2dVertex
 10
5.103511949489226
 20
9.694831817567989
 30
0.0
  0
SEQEND
  5
112
330
10C
100
AcDbEntity
  8
H1
 62
   250
420
  2301728
370
     9
  0
SPLINE
  5
113
330
DF
100
AcDbEntity
  8
H1
 62
   250
420
  2301728
370
     9
100
AcDbSpline
210
0.0
220
0.0
230
1.0
 70
     8
 71
     3
 72
    23
 73
    19
 74
     0
 42
0.0000000001
 43
0.0000000001
 12
1.0
 22
0.0
 32
0.0
 13
1.0
 23
0.0
 33
0.0
 40
0.0
 40
0.0
 40
0.0
 40
0.0
 40
1.0
 40
1.0
 40
1.0
 40
2.0
 40
2.0
 40
2.0
 40
3.0
 40
3.0
 40
3.0
 40
4.0
 40
4.0
 40
4.0
 40
5.0
 40
5.0
 40
5.0
 40
6.0
 40
6.0
 40
6.0
 40
6.0
 10
5.147026985994771
 20
9.67518247274063
 30
0.0
 10
5.147026985994771
 20
9.67518247274063
 30
0.0
 10
5.111980672020763
 20
9.599146061610705
 30
0.0
 10
5.111980672020763
 20
9.599146061610705
 30
0.0
 10
5.111980672020763
 20
9.599146061610705
 30
0.0
 10
5.078508041716153
 20
9.534247427681635
 30
0.0
 10
5.078508041716153
 20
9.534247427681635
 30
0.0
 10
5.078508041716153
 20
9.534247427681635
 30
0.0
 10
5.049903971850047
 20
9.478256678508046
 30
0.0
 10
5.049903971850047
 20
9.478256678508046
 30
0.0
 10
5.049903971850047
 20
9.478256678508046
 30
0.0
 10
5.049295476191976
 20
9.472170727510905
 30
0.0
 10
5.035906383660049
 20
9.451478494120666
 30
0.0
 10
5.022517291128123
 20
9.430786260730429
 30
0.0
 10
4.993556829386054
 20
9.38940179394995
 30
0.0
 10
4.993556829386054
 20
9.38940179394995
 30
0.0
 10
4.993556829386054
 20
9.38940179394995
 30
0.0
 10
4.947116641393222
 20
9.354103278166601
 30
0.0
 10
4.947116641393222
 20
9.354103278166601
 30
0.0
  0
POLYLINE
  5
114
330
DF
100
AcDbEntity
  8
H1
 62
   250
420
  2301728
370
     9
100
AcDb2dPolyline
 66
     1
 10
0.0
 20
0.0
 30
0.0
  0
VERTEX
  5
115
330
114
100
AcDbEntity
  8
H1
 62
   250
420
  2301728
370
     9
100
AcDbVertex
100
AcDb2dVertex
 10
4.989155469624923
 20
9.339944921766875
 30
0.0
  0
VERTEX
  5
116
330
114
100
AcDbEntity
  8
H1
 62
   250
420
  2301728
370
     9
100
AcDbVertex
100
AcDb2dVertex
 10
5.056598617573045
 20
9.407659646941333
 30
0.0
  0
VERTEX
  5
117
330
114
100
AcDbEntity
  8
H1
 62
   250
420
  2301728
370
     9
100
AcDbVertex
100
AcDb2dVertex
 10
5.08033372683571
 20
9.467301966713206
 30
0.0
  0
VERTEX
  5
118
330
114
100
AcDbEntity
  8
H1
 62
   250
420
  2301728
370
     9
100
AcDbVertex
100
AcDb2dVertex
 10
5.099808770026508
 20
9.506860792990715
 30
0.0
  0
VERTEX
  5
119
330
114
100
AcDbEntity
  8
H1
 62
   250
420
  2301728
370
     9
100
AcDbVertex
100
AcDb2dVertex
 10
5.147829459705108
 20
9.595106937652934
 30
0.0
  0
SEQEND
  5
11A
330
114
100
AcDbEntity
  8
H1
 62
   250
420
  2301728
370
     9
  0
POLYLINE
  5
11B
330
DF
100
AcDbEntity
  8
H1
 62
   250
420
  2301728
370
     9
100
AcDb2dPolyline
 66
     1
 10
0.0
 20
0.0
 30
0.0
  0
VERTEX
  5
11C
330
11B
100
AcDbEntity
  8
H1
 62
   250
420
  2301728
370
     9
100
AcDbVertex
100
AcDb2dVertex
 10
5.081757352492938
 20
9.403981785034754
 30
0.0
  0
VERTEX
  5
11D
330
11B
100
AcDbEntity
  8
H1
 62
   250
420
  2301728
370
     9
100
AcDbVertex
100
AcDb2dVertex
 10
5.107720607240379
 20
9.439306592126412
 30
0.0
  0
VERTEX
  5
11E
330
11B
100
AcDbEntity
  8
H1
 62
   250
420
  2301728
370
     9
100
AcDbVertex
100
AcDb2dVertex
 10
5.124761270462841
 20
9.467525929709899
 30
0.0
  0
VERTEX
  5
11F
330
11B
100
AcDbEntity
  8
H1
 62
   250
420
  2301728
370
     9
100
AcDbVertex
100
AcDb2dVertex
 10
5.146428128416674
 20
9.536340994824652
 30
0.0
  0
SEQEND
  5
120
330
11B
100
AcDbEntity
  8
H1
 62
   250
420
  2301728
370
     9
  0
POLYLINE
  5
121
330
DF
100
AcDbEntity
  8
H1
 62
   250
420
  2301728
370
     9
100
AcDb2dPolyline
 66
     1
 10
0.0
 20
0.0
 30
0.0
  0
VERTEX
  5
122
330
121
100
AcDbEntity
  8
H1
 62
   250
420
  2301728
370
     9
100
AcDbVertex
100
AcDb2dVertex
 10
5.311942625486759
 20
9.82094732851091
 30
0.0
  0
VERTEX
  5
123
330
121
100
AcDbEntity
  8
H1
 62
   250
420
  2301728
370
     9
100
AcDbVertex
100
AcDb2dVertex
 10
5.302536179625601
 20
9.791693866133983
 30
0.0
  0
VERTEX
  5
124
330
121
100
AcDbEntity
  8
H1
 62
   250
420
  2301728
370
     9
100
AcDbVertex
100
AcDb2dVertex
 10
5.288473250937537
 20
9.771599516569696
 30
0.0
  0
VERTEX
  5
125
330
121
100
AcDbEntity
  8
H1
 62
   250
420
  2301728
370
     9
100
AcDbVertex
100
AcDb2dVertex
 10
5.275100712530578
 20
9.762439430004898
 30
0.0
  0
SEQEND
  5
126
330
121
100
AcDbEntity
  8
H1
 62
   250
420
  2301728
370
     9
  0
POLYLINE
  5
127
330
DF
100
AcDbEntity
  8
H1
 62
   250
420
  2301728
370
     9
100
AcDb2dPolyline
 66
     1
 10
0.0
 20
0.0
 30
0.0
  0
VERTEX
  5
128
330
127
100
AcDbEntity
  8
H1
 62
   250
420
  2301728
370
     9
100
AcDbVertex
100
AcDb2dVertex
 10
5.350664853863084
 20
9.846045790423078
 30
0.0
  0
VERTEX
  5
129
330
127
100
AcDbEntity
  8
H1
 62
   250
420
  2301728
370
     9
100
AcDbVertex
100
AcDb2dVertex
 10
5.318620617796922
 20
9.756384790176538
 30
0.0
  0
VERTEX
  5
12A
330
127
100
AcDbEntity
  8
H1
 62
   250
420
  2301728
370
     9
100
AcDbVertex
100
AcDb2dVertex
 10
5.302536179625601
 20
9.725955034422162
 30
0.0
  0
SEQEND
  5
12B
330
127
100
AcDbEntity
  8
H1
 62
   250
420
  2301728
370
     9
  0
SPLINE
  5
12C
330
DF
100
AcDbEntity
  8
H1
 62
   250
420
  2301728
370
     9
100
AcDbSpline
210
0.0
220
0.0
230
1.0
 70
     8
 71
     3
 72
    17
 73
    13
 74
     0
 42
0.0000000001
 43
0.0000000001
 12
1.0
 22
0.0
 32
0.0
 13
1.0
 23
0.0
 33
0.0
 40
0.0
 40
0.0
 40
0.0
 40
0.0
 40
1.0
 40
1.0
 40
1.0
 40
2.0
 40
2.0
 40
2.0
 40
3.0
 40
3.0
 40
3.0
 40
4.0
 40
4.0
 40
4.0
 40
4.0
 10
5.300121274269966
 20
9.6809189959057
 30
0.0
 10
5.300121274269966
 20
9.6809189959057
 30
0.0
 10
5.311774166363193
 20
9.699785294803569
 30
0.0
 10
5.322946024889612
 20
9.708914371199727
 30
0.0
 10
5.334117990052871
 20
9.718043147794976
 30
0.0
 10
5.342638321664102
 20
9.726563479190935
 30
0.0
 10
5.351767141307694
 20
9.744212887874784
 30
0.0
 10
5.360896175116724
 20
9.76186199497431
 30
0.0
 10
5.371421354895826
 20
9.779511404549856
 30
0.0
 10
5.371421354895826
 20
9.779511404549856
 30
0.0
 10
5.371421354895826
 20
9.779511404549856
 30
0.0
 10
5.385352827042374
 20
9.825764633296494
 30
0.0
 10
5.385352827042374
 20
9.825764633296494
 30
0.0
  0
SPLINE
  5
12D
330
DF
100
AcDbEntity
  8
H1
 62
   250
420
  2301728
370
     9
100
AcDbSpline
210
0.0
220
0.0
230
1.0
 70
     8
 71
     3
 72
    17
 73
    13
 74
     0
 42
0.0000000001
 43
0.0000000001
 12
1.0
 22
0.0
 32
0.0
 13
1.0
 23
0.0
 33
0.0
 40
0.0
 40
0.0
 40
0.0
 40
0.0
 40
1.0
 40
1.0
 40
1.0
 40
2.0
 40
2.0
 40
2.0
 40
3.0
 40
3.0
 40
3.0
 40
4.0
 40
4.0
 40
4.0
 40
4.0
 10
5.300121274269966
 20
9.622493864857308
 30
0.0
 10
5.300121274269966
 20
9.622493864857308
 30
0.0
 10
5.318620617796922
 20
9.64866330642768
 30
0.0
 10
5.318620617796922
 20
9.64866330642768
 30
0.0
 10
5.318620617796922
 20
9.64866330642768
 30
0.0
 10
5.333706960004696
 20
9.66813834961849
 30
0.0
 10
5.34273656378011
 20
9.6809189959057
 30
0.0
 10
5.351767141307694
 20
9.693699343806442
 30
0.0
 10
5.362721853102508
 20
9.70769718096954
 30
0.0
 10
5.362721853102508
 20
9.70769718096954
 30
0.0
 10
5.362721853102508
 20
9.70769718096954
 30
0.0
 10
5.385352827042374
 20
9.759427614575442
 30
0.0
 10
5.385352827042374
 20
9.759427614575442
 30
0.0
  0
POLYLINE
  5
12E
330
DF
100
AcDbEntity
  8
H1
 62
   250
420
  2301728
370
     9
100
AcDb2dPolyline
 66
     1
 10
0.0
 20
0.0
 30
0.0
  0
VERTEX
  5
12F
330
12E
100
AcDbEntity
  8
H1
 62
   250
420
  2301728
370
     9
100
AcDbVertex
100
AcDb2dVertex
 10
5.302536179625601
 20
9.569118466266962
 30
0.0
  0
VERTEX
  5
130
330
12E
100
AcDbEntity
  8
H1
 62
   250
420
  2301728
370
     9
100
AcDbVertex
100
AcDb2dVertex
 10
5.322946024889612
 20
9.58668495522507
 30
0.0
  0
VERTEX
  5
131
330
12E
100
AcDbEntity
  8
H1
 62
   250
420
  2301728
370
     9
100
AcDbVertex
100
AcDb2dVertex
 10
5.350549951108253
 20
9.622493864857308
 30
0.0
  0
VERTEX
  5
132
330
12E
100
AcDbEntity
  8
H1
 62
   250
420
  2301728
370
     9
100
AcDbVertex
100
AcDb2dVertex
 10
5.388891550410739
 20
9.690961152733822
 30
0.0
  0
SEQEND
  5
133
330
12E
100
AcDbEntity
  8
H1
 62
   250
420
  2301728
370
     9
  0
POLYLINE
  5
134
330
DF
100
AcDbEntity
  8
H1
 62
   250
420
  2301728
370
     9
100
AcDb2dPolyline
 66
     1
 10
0.0
 20
0.0
 30
0.0
  0
VERTEX
  5
135
330
134
100
AcDbEntity
  8
H1
 62
   250
420
  2301728
370
     9
100
AcDbVertex
100
AcDb2dVertex
 10
5.361241749819984
 20
9.597314433798614
 30
0.0
  0
VERTEX
  5
136
330
134
100
AcDbEntity
  8
H1
 62
   250
420
  2301728
370
     9
100
AcDbVertex
100
AcDb2dVertex
 10
5.371421354895826
 20
9.610930410245475
 30
0.0
  0
VERTEX
  5
137
330
134
100
AcDbEntity
  8
H1
 62
   250
420
  2301728
370
     9
100
AcDbVertex
100
AcDb2dVertex
 10
5.385352827042374
 20
9.640142975031695
 30
0.0
  0
SEQEND
  5
138
330
134
100
AcDbEntity
  8
H1
 62
   250
420
  2301728
370
     9
  0
POLYLINE
  5
139
330
DF
100
AcDbEntity
  8
H1
 62
   250
420
  2301728
370
     9
100
AcDb2dPolyline
 66
     1
 10
0.0
 20
0.0
 30
0.0
  0
VERTEX
  5
13A
330
139
100
AcDbEntity
  8
H1
 62
   250
420
  2301728
370
     9
100
AcDbVertex
100
AcDb2dVertex
 10
5.237953041396243
 20
9.490601908386704
 30
0.0
  0
VERTEX
  5
13B
330
139
100
AcDbEntity
  8
H1
 62
   250
420
  2301728
370
     9
100
AcDbVertex
100
AcDb2dVertex
 10
5.265346637148418
 20
9.506860792990715
 30
0.0
  0
VERTEX
  5
13C
330
139
100
AcDbEntity
  8
H1
 62
   250
420
  2301728
370
     9
100
AcDbVertex
100
AcDb2dVertex
 10
5.300118353013456
 20
9.545810880356296
 30
0.0
  0
SEQEND
  5
13D
330
139
100
AcDbEntity
  8
H1
 62
   250
420
  2301728
370
     9
  0
SPLINE
  5
13E
330
DF
100
AcDbEntity
  8
H1
 62
   250
420
  2301728
370
     9
100
AcDbSpline
210
0.0
220
0.0
230
1.0
 70
     8
 71
     3
 72
    14
 73
    10
 74
     0
 42
0.0000000001
 43
0.0000000001
 12
1.0
 22
0.0
 32
0.0
 13
1.0
 23
0.0
 33
0.0
 40
0.0
 40
0.0
 40
0.0
 40
0.0
 40
1.0
 40
1.0
 40
1.0
 40
2.0
 40
2.0
 40
2.0
 40
3.0
 40
3.0
 40
3.0
 40
3.0
 10
5.194141113582797
 20
9.49205279910441
 30
0.0
 10
5.194141113582797
 20
9.49205279910441
 30
0.0
 10
5.227613740966212
 20
9.511294141776943
 30
0.0
 10
5.234916882162805
 20
9.518205834605357
 30
0.0
 10
5.242220023359348
 20
9.525118646443312
 30
0.0
 10
5.245263103250131
 20
9.52747985017283
 30
0.0
 10
5.253174735154162
 20
9.536340994824652
 30
0.0
 10
5.26108657624238
 20
9.545202139476475
 30
0.0
 10
5.300118353013456
 20
9.60704903413754
 30
0.0
 10
5.300118353013456
 20
9.60704903413754
 30
0.0
  0
SPLINE
  5
13F
330
DF
100
AcDbEntity
  8
H1
 62
   250
420
  2301728
370
     9
100
AcDbSpline
210
0.0
220
0.0
230
1.0
 70
     8
 71
     3
 72
    17
 73
    13
 74
     0
 42
0.0000000001
 43
0.0000000001
 12
1.0
 22
0.0
 32
0.0
 13
1.0
 23
0.0
 33
0.0
 40
0.0
 40
0.0
 40
0.0
 40
0.0
 40
1.0
 40
1.0
 40
1.0
 40
2.0
 40
2.0
 40
2.0
 40
3.0
 40
3.0
 40
3.0
 40
4.0
 40
4.0
 40
4.0
 40
4.0
 10
5.147991000632727
 20
9.501992032070019
 30
0.0
 10
5.147991000632727
 20
9.501992032070019
 30
0.0
 10
5.191098034983447
 20
9.539668305953796
 30
0.0
 10
5.191098034983447
 20
9.539668305953796
 30
0.0
 10
5.191098034983447
 20
9.539668305953796
 30
0.0
 10
5.216050537725904
 20
9.565894372866712
 30
0.0
 10
5.226396550766822
 20
9.579283465060396
 30
0.0
 10
5.2367427716389
 20
9.592672557254078
 30
0.0
 10
5.259260686151316
 20
9.613926645640378
 30
0.0
 10
5.259260686151316
 20
9.613926645640378
 30
0.0
 10
5.259260686151316
 20
9.613926645640378
 30
0.0
 10
5.302536179625601
 20
9.668747093603946
 30
0.0
 10
5.302536179625601
 20
9.668747093603946
 30
0.0
  0
POLYLINE
  5
140
330
DF
100
AcDbEntity
  8
H1
 62
   250
420
  2301728
370
     9
100
AcDb2dPolyline
 66
     1
 10
0.0
 20
0.0
 30
0.0
  0
VERTEX
  5
141
330
140
100
AcDbEntity
  8
H1
 62
   250
420
  2301728
370
     9
100
AcDbVertex
100
AcDb2dVertex
 10
5.147991000632727
 20
9.569118466266962
 30
0.0
  0
VERTEX
  5
142
330
140
100
AcDbEntity
  8
H1
 62
   250
420
  2301728
370
     9
100
AcDbVertex
100
AcDb2dVertex
 10
5.189272352662101
 20
9.60704903413754
 30
0.0
  0
VERTEX
  5
143
330
140
100
AcDbEntity
  8
H1
 62
   250
420
  2301728
370
     9
100
AcDbVertex
100
AcDb2dVertex
 10
5.247129681747739
 20
9.655112466980338
 30
0.0
  0
VERTEX
  5
144
330
140
100
AcDbEntity
  8
H1
 62
   250
420
  2301728
370
     9
100
AcDbVertex
100
AcDb2dVertex
 10
5.293522261496087
 20
9.739279708642394
 30
0.0
  0
SEQEND
  5
145
330
140
100
AcDbEntity
  8
H1
 62
   250
420
  2301728
370
     9
  0
SPLINE
  5
146
330
DF
100
AcDbEntity
  8
H1
 62
   250
420
  2301728
370
     9
100
AcDbSpline
210
0.0
220
0.0
230
1.0
 70
     8
 71
     3
 72
    14
 73
    10
 74
     0
 42
0.0000000001
 43
0.0000000001
 12
1.0
 22
0.0
 32
0.0
 13
1.0
 23
0.0
 33
0.0
 40
0.0
 40
0.0
 40
0.0
 40
0.0
 40
1.0
 40
1.0
 40
1.0
 40
2.0
 40
2.0
 40
2.0
 40
3.0
 40
3.0
 40
3.0
 40
3.0
 10
5.147026985994771
 20
9.627559175873948
 30
0.0
 10
5.147026985994771
 20
9.627559175873948
 30
0.0
 10
5.166754230994936
 20
9.64075171830993
 30
0.0
 10
5.172840181992038
 20
9.649880496627107
 30
0.0
 10
5.178926132989191
 20
9.659009571762555
 30
0.0
 10
5.185012083986344
 20
9.66275057891975
 30
0.0
 10
5.194141113582797
 20
9.67518247274063
 30
0.0
 10
5.203269936977701
 20
9.687613392809313
 30
0.0
 10
5.233179708310167
 20
9.744701560666714
 30
0.0
 10
5.233179708310167
 20
9.744701560666714
 30
0.0
  0
POLYLINE
  5
147
330
DF
100
AcDbEntity
  8
H1
 62
   250
420
  2301728
370
     9
100
AcDb2dPolyline
 66
     1
 10
0.0
 20
0.0
 30
0.0
  0
VERTEX
  5
148
330
147
100
AcDbEntity
  8
H1
 62
   250
420
  2301728
370
     9
100
AcDbVertex
100
AcDb2dVertex
 10
5.147026985994771
 20
9.694831817567989
 30
0.0
  0
VERTEX
  5
149
330
147
100
AcDbEntity
  8
H1
 62
   250
420
  2301728
370
     9
100
AcDbVertex
100
AcDb2dVertex
 10
5.168181751660793
 20
9.721006275616446
 30
0.0
  0
VERTEX
  5
14A
330
147
100
AcDbEntity
  8
H1
 62
   250
420
  2301728
370
     9
100
AcDbVertex
100
AcDb2dVertex
 10
5.178926132989191
 20
9.747898389006473
 30
0.0
  0
SEQEND
  5
14B
330
147
100
AcDbEntity
  8
H1
 62
   250
420
  2301728
370
     9
  0
POLYLINE
  5
14C
330
DF
100
AcDbEntity
  8
H1
 62
   250
420
  2301728
370
     9
100
AcDb2dPolyline
 66
     1
 10
0.0
 20
0.0
 30
0.0
  0
VERTEX
  5
14D
330
14C
100
AcDbEntity
  8
H1
 62
   250
420
  2301728
370
     9
100
AcDbVertex
100
AcDb2dVertex
 10
5.14994629496909
 20
9.184950843028446
 30
0.0
  0
VERTEX
  5
14E
330
14C
100
AcDbEntity
  8
H1
 62
   250
420
  2301728
370
     9
100
AcDbVertex
100
AcDb2dVertex
 10
5.182715976394118
 20
9.231409532312302
 30
0.0
  0
VERTEX
  5
14F
330
14C
100
AcDbEntity
  8
H1
 62
   250
420
  2301728
370
     9
100
AcDbVertex
100
AcDb2dVertex
 10
5.20091540425594
 20
9.269798737450047
 30
0.0
  0
SEQEND
  5
150
330
14C
100
AcDbEntity
  8
H1
 62
   250
420
  2301728
370
     9
  0
SPLINE
  5
151
330
DF
100
AcDbEntity
  8
H1
 62
   250
420
  2301728
370
     9
100
AcDbSpline
210
0.0
220
0.0
230
1.0
 70
     8
 71
     3
 72
    14
 73
    10
 74
     0
 42
0.0000000001
 43
0.0000000001
 12
1.0
 22
0.0
 32
0.0
 13
1.0
 23
0.0
 33
0.0
 40
0.0
 40
0.0
 40
0.0
 40
0.0
 40
1.0
 40
1.0
 40
1.0
 40
2.0
 40
2.0
 40
2.0
 40
3.0
 40
3.0
 40
3.0
 40
3.0
 10
5.251132776875642
 20
9.304185821212059
 30
0.0
 10
5.251132776875642
 20
9.304185821212059
 30
0.0
 10
5.23061192386548
 20
9.264328336486995
 30
0.0
 10
5.224677982077385
 20
9.24679481643304
 30
0.0
 10
5.218743832544988
 20
9.229260461296183
 30
0.0
 10
5.205024638369196
 20
9.207071708059578
 30
0.0
 10
5.200862821639324
 20
9.197018553541637
 30
0.0
 10
5.196700031157282
 20
9.186965536246538
 30
0.0
 10
5.150198496778406
 20
9.12140280334467
 30
0.0
 10
5.150198496778406
 20
9.12140280334467
 30
0.0
  0
POLYLINE
  5
152
330
DF
100
AcDbEntity
  8
H1
 62
   250
420
  2301728
370
     9
100
AcDb2dPolyline
 66
     1
 10
0.0
 20
0.0
 30
0.0
  0
VERTEX
  5
153
330
152
100
AcDbEntity
  8
H1
 62
   250
420
  2301728
370
     9
100
AcDbVertex
100
AcDb2dVertex
 10
5.150434144801036
 20
9.062172380736266
 30
0.0
  0
VERTEX
  5
154
330
152
100
AcDbEntity
  8
H1
 62
   250
420
  2301728
370
     9
100
AcDbVertex
100
AcDb2dVertex
 10
5.195372806963809
 20
9.10668843446183
 30
0.0
  0
VERTEX
  5
155
330
152
100
AcDbEntity
  8
H1
 62
   250
420
  2301728
370
     9
100
AcDbVertex
100
AcDb2dVertex
 10
5.229241854576988
 20
9.155663299325939
 30
0.0
  0
VERTEX
  5
156
330
152
100
AcDbEntity
  8
H1
 62
   250
420
  2301728
370
     9
100
AcDbVertex
100
AcDb2dVertex
 10
5.256628634064074
 20
9.213181865637857
 30
0.0
  0
VERTEX
  5
157
330
152
100
AcDbEntity
  8
H1
 62
   250
420
  2301728
370
     9
100
AcDbVertex
100
AcDb2dVertex
 10
5.303591726966563
 20
9.34267240156574
 30
0.0
  0
SEQEND
  5
158
330
152
100
AcDbEntity
  8
H1
 62
   250
420
  2301728
370
     9
  0
SPLINE
  5
159
330
DF
100
AcDbEntity
  8
H1
 62
   250
420
  2301728
370
     9
100
AcDbSpline
210
0.0
220
0.0
230
1.0
 70
     8
 71
     3
 72
    23
 73
    19
 74
     0
 42
0.0000000001
 43
0.0000000001
 12
1.0
 22
0.0
 32
0.0
 13
1.0
 23
0.0
 33
0.0
 40
0.0
 40
0.0
 40
0.0
 40
0.0
 40
1.0
 40
1.0
 40
1.0
 40
2.0
 40
2.0
 40
2.0
 40
3.0
 40
3.0
 40
3.0
 40
4.0
 40
4.0
 40
4.0
 40
5.0
 40
5.0
 40
5.0
 40
6.0
 40
6.0
 40
6.0
 40
6.0
 10
5.335919431593538
 20
9.316878680611667
 30
0.0
 10
5.335919431593538
 20
9.316878680611667
 30
0.0
 10
5.312329205094102
 20
9.246028473483483
 30
0.0
 10
5.312329205094102
 20
9.246028473483483
 30
0.0
 10
5.312329205094102
 20
9.246028473483483
 30
0.0
 10
5.279578130219205
 20
9.178813419675835
 30
0.0
 10
5.279578130219205
 20
9.178813419675835
 30
0.0
 10
5.279578130219205
 20
9.178813419675835
 30
0.0
 10
5.25159249244704
 20
9.120836214632163
 30
0.0
 10
5.25159249244704
 20
9.120836214632163
 30
0.0
 10
5.25159249244704
 20
9.120836214632163
 30
0.0
 10
5.251016900368641
 20
9.114640094596654
 30
0.0
 10
5.237894616266658
 20
9.093094014906013
 30
0.0
 10
5.224773305916844
 20
9.07154766652833
 30
0.0
 10
5.196377719192494
 20
9.028362732004881
 30
0.0
 10
5.196377719192494
 20
9.028362732004881
 30
0.0
 10
5.196377719192494
 20
9.028362732004881
 30
0.0
 10
5.150717506679434
 20
8.990603544514341
 30
0.0
 10
5.150717506679434
 20
8.990603544514341
 30
0.0
  0
POLYLINE
  5
15A
330
DF
100
AcDbEntity
  8
H1
 62
   250
420
  2301728
370
     9
100
AcDb2dPolyline
 66
     1
 10
0.0
 20
0.0
 30
0.0
  0
VERTEX
  5
15B
330
15A
100
AcDbEntity
  8
H1
 62
   250
420
  2301728
370
     9
100
AcDbVertex
100
AcDb2dVertex
 10
5.192235377505818
 20
8.989931655524261
 30
0.0
  0
VERTEX
  5
15C
330
15A
100
AcDbEntity
  8
H1
 62
   250
420
  2301728
370
     9
100
AcDbVertex
100
AcDb2dVertex
 10
5.258478763167204
 20
9.049551578996468
 30
0.0
  0
VERTEX
  5
15D
330
15A
100
AcDbEntity
  8
H1
 62
   250
420
  2301728
370
     9
100
AcDbVertex
100
AcDb2dVertex
 10
5.281648222051293
 20
9.111023579076118
 30
0.0
  0
VERTEX
  5
15E
330
15A
100
AcDbEntity
  8
H1
 62
   250
420
  2301728
370
     9
100
AcDbVertex
100
AcDb2dVertex
 10
5.300695788044069
 20
9.15195525110241
 30
0.0
  0
VERTEX
  5
15F
330
15A
100
AcDbEntity
  8
H1
 62
   250
420
  2301728
370
     9
100
AcDbVertex
100
AcDb2dVertex
 10
5.337032323629501
 20
9.23573493940498
 30
0.0
  0
SEQEND
  5
160
330
15A
100
AcDbEntity
  8
H1
 62
   250
420
  2301728
370
     9
  0
POLYLINE
  5
161
330
DF
100
AcDbEntity
  8
H1
 62
   250
420
  2301728
370
     9
100
AcDb2dPolyline
 66
     1
 10
0.0
 20
0.0
 30
0.0
  0
VERTEX
  5
162
330
161
100
AcDbEntity
  8
H1
 62
   250
420
  2301728
370
     9
100
AcDbVertex
100
AcDb2dVertex
 10
5.286009657973914
 20
9.056904381553155
 30
0.0
  0
VERTEX
  5
163
330
161
100
AcDbEntity
  8
H1
 62
   250
420
  2301728
370
     9
100
AcDbVertex
100
AcDb2dVertex
 10
5.308771220699732
 20
9.083807206216962
 30
0.0
  0
VERTEX
  5
164
330
161
100
AcDbEntity
  8
H1
 62
   250
420
  2301728
370
     9
100
AcDbVertex
100
AcDb2dVertex
 10
5.325463174222023
 20
9.11313954251879
 30
0.0
  0
VERTEX
  5
165
330
161
100
AcDbEntity
  8
H1
 62
   250
420
  2301728
370
     9
100
AcDbVertex
100
AcDb2dVertex
 10
5.335887191089872
 20
9.176100409650378
 30
0.0
  0
SEQEND
  5
166
330
161
100
AcDbEntity
  8
H1
 62
   250
420
  2301728
370
     9
  0
POLYLINE
  5
167
330
DF
100
AcDbEntity
  8
H1
 62
   250
420
  2301728
370
     9
100
AcDb2dPolyline
 66
     1
 10
0.0
 20
0.0
 30
0.0
  0
VERTEX
  5
168
330
167
100
AcDbEntity
  8
H1
 62
   250
420
  2301728
370
     9
100
AcDbVertex
100
AcDb2dVertex
 10
5.508649325483475
 20
9.479383309756637
 30
0.0
  0
VERTEX
  5
169
330
167
100
AcDbEntity
  8
H1
 62
   250
420
  2301728
370
     9
100
AcDbVertex
100
AcDb2dVertex
 10
5.499489238918664
 20
9.449327475600246
 30
0.0
  0
VERTEX
  5
16A
330
167
100
AcDbEntity
  8
H1
 62
   250
420
  2301728
370
     9
100
AcDbVertex
100
AcDb2dVertex
 10
5.485700908339569
 20
9.428358696596698
 30
0.0
  0
VERTEX
  5
16B
330
167
100
AcDbEntity
  8
H1
 62
   250
420
  2301728
370
     9
100
AcDbVertex
100
AcDb2dVertex
 10
5.467911540153687
 20
9.411447542841945
 30
0.0
  0
SEQEND
  5
16C
330
167
100
AcDbEntity
  8
H1
 62
   250
420
  2301728
370
     9
  0
POLYLINE
  5
16D
330
DF
100
AcDbEntity
  8
H1
 62
   250
420
  2301728
370
     9
100
AcDb2dPolyline
 66
     1
 10
0.0
 20
0.0
 30
0.0
  0
VERTEX
  5
16E
330
16D
100
AcDbEntity
  8
H1
 62
   250
420
  2301728
370
     9
100
AcDbVertex
100
AcDb2dVertex
 10
5.572395149511875
 20
9.52359263155194
 30
0.0
  0
VERTEX
  5
16F
330
16D
100
AcDbEntity
  8
H1
 62
   250
420
  2301728
370
     9
100
AcDbVertex
100
AcDb2dVertex
 10
5.527062978820342
 20
9.421551195249346
 30
0.0
  0
VERTEX
  5
170
330
16D
100
AcDbEntity
  8
H1
 62
   250
420
  2301728
370
     9
100
AcDbVertex
100
AcDb2dVertex
 10
5.489309633842822
 20
9.376926081281908
 30
0.0
  0
SEQEND
  5
171
330
16D
100
AcDbEntity
  8
H1
 62
   250
420
  2301728
370
     9
  0
SPLINE
  5
172
330
DF
100
AcDbEntity
  8
H1
 62
   250
420
  2301728
370
     9
100
AcDbSpline
210
0.0
220
0.0
230
1.0
 70
     8
 71
     3
 72
    17
 73
    13
 74
     0
 42
0.0000000001
 43
0.0000000001
 12
1.0
 22
0.0
 32
0.0
 13
1.0
 23
0.0
 33
0.0
 40
0.0
 40
0.0
 40
0.0
 40
0.0
 40
1.0
 40
1.0
 40
1.0
 40
2.0
 40
2.0
 40
2.0
 40
3.0
 40
3.0
 40
3.0
 40
4.0
 40
4.0
 40
4.0
 40
4.0
 10
5.48626676882471
 20
9.328238473304875
 30
0.0
 10
5.48626676882471
 20
9.328238473304875
 30
0.0
 10
5.508970663696092
 20
9.356546422334885
 30
0.0
 10
5.519951666799241
 20
9.366276153913013
 30
0.0
 10
5.530933643654558
 20
9.376005885491141
 30
0.0
 10
5.53930206971361
 20
9.38500544466745
 30
0.0
 10
5.548235272025269
 20
9.40328555224068
 30
0.0
 10
5.557167500584708
 20
9.421565801531743
 30
0.0
 10
5.567476614697776
 20
9.439905592809255
 30
0.0
 10
5.567476614697776
 20
9.439905592809255
 30
0.0
 10
5.567476614697776
 20
9.439905592809255
 30
0.0
 10
5.592997685047167
 20
9.50320922230018
 30
0.0
 10
5.592997685047167
 20
9.50320922230018
 30
0.0
  0
SPLINE
  5
173
330
DF
100
AcDbEntity
  8
H1
 62
   250
420
  2301728
370
     9
100
AcDbSpline
210
0.0
220
0.0
230
1.0
 70
     8
 71
     3
 72
    17
 73
    13
 74
     0
 42
0.0000000001
 43
0.0000000001
 12
1.0
 22
0.0
 32
0.0
 13
1.0
 23
0.0
 33
0.0
 40
0.0
 40
0.0
 40
0.0
 40
0.0
 40
1.0
 40
1.0
 40
1.0
 40
2.0
 40
2.0
 40
2.0
 40
3.0
 40
3.0
 40
3.0
 40
4.0
 40
4.0
 40
4.0
 40
4.0
 10
5.488280377810193
 20
9.26981334373243
 30
0.0
 10
5.488280377810193
 20
9.26981334373243
 30
0.0
 10
5.515929096628193
 20
9.305011702740355
 30
0.0
 10
5.515929096628193
 20
9.305011702740355
 30
0.0
 10
5.515929096628193
 20
9.305011702740355
 30
0.0
 10
5.530729155701061
 20
9.325396090751168
 30
0.0
 10
5.539583484087719
 20
9.338736495336889
 30
0.0
 10
5.548437812474427
 20
9.352076899922595
 30
0.0
 10
5.559186088811455
 20
9.36673284367584
 30
0.0
 10
5.559186088811455
 20
9.36673284367584
 30
0.0
 10
5.559186088811455
 20
9.36673284367584
 30
0.0
 10
5.59326449313893
 20
9.435958832201903
 30
0.0
 10
5.59326449313893
 20
9.435958832201903
 30
0.0
  0
POLYLINE
  5
174
330
DF
100
AcDbEntity
  8
H1
 62
   250
420
  2301728
370
     9
100
AcDb2dPolyline
 66
     1
 10
0.0
 20
0.0
 30
0.0
  0
VERTEX
  5
175
330
174
100
AcDbEntity
  8
H1
 62
   250
420
  2301728
370
     9
100
AcDbVertex
100
AcDb2dVertex
 10
5.489309633842822
 20
9.217118745618878
 30
0.0
  0
VERTEX
  5
176
330
174
100
AcDbEntity
  8
H1
 62
   250
420
  2301728
370
     9
100
AcDbVertex
100
AcDb2dVertex
 10
5.520443411639816
 20
9.24236424410713
 30
0.0
  0
VERTEX
  5
177
330
174
100
AcDbEntity
  8
H1
 62
   250
420
  2301728
370
     9
100
AcDbVertex
100
AcDb2dVertex
 10
5.5475244329488
 20
9.279839095967064
 30
0.0
  0
VERTEX
  5
178
330
174
100
AcDbEntity
  8
H1
 62
   250
420
  2301728
370
     9
100
AcDbVertex
100
AcDb2dVertex
 10
5.597029992739863
 20
9.366699736102419
 30
0.0
  0
SEQEND
  5
179
330
174
100
AcDbEntity
  8
H1
 62
   250
420
  2301728
370
     9
  0
POLYLINE
  5
17A
330
DF
100
AcDbEntity
  8
H1
 62
   250
420
  2301728
370
     9
100
AcDb2dPolyline
 66
     1
 10
0.0
 20
0.0
 30
0.0
  0
VERTEX
  5
17B
330
17A
100
AcDbEntity
  8
H1
 62
   250
420
  2301728
370
     9
100
AcDbVertex
100
AcDb2dVertex
 10
5.558170465309053
 20
9.254766925363203
 30
0.0
  0
VERTEX
  5
17C
330
17A
100
AcDbEntity
  8
H1
 62
   250
420
  2301728
370
     9
100
AcDbVertex
100
AcDb2dVertex
 10
5.568155319952994
 20
9.269004155687854
 30
0.0
  0
VERTEX
  5
17D
330
17A
100
AcDbEntity
  8
H1
 62
   250
420
  2301728
370
     9
100
AcDbVertex
100
AcDb2dVertex
 10
5.593744552953567
 20
9.315031612715162
 30
0.0
  0
SEQEND
  5
17E
330
17A
100
AcDbEntity
  8
H1
 62
   250
420
  2301728
370
     9
  0
POLYLINE
  5
17F
330
DF
100
AcDbEntity
  8
H1
 62
   250
420
  2301728
370
     9
100
AcDb2dPolyline
 66
     1
 10
0.0
 20
0.0
 30
0.0
  0
VERTEX
  5
180
330
17F
100
AcDbEntity
  8
H1
 62
   250
420
  2301728
370
     9
100
AcDbVertex
100
AcDb2dVertex
 10
5.422345671583368
 20
9.131745025031137
 30
0.0
  0
VERTEX
  5
181
330
17F
100
AcDbEntity
  8
H1
 62
   250
420
  2301728
370
     9
100
AcDbVertex
100
AcDb2dVertex
 10
5.4639581062861
 20
9.158991584207254
 30
0.0
  0
VERTEX
  5
182
330
17F
100
AcDbEntity
  8
H1
 62
   250
420
  2301728
370
     9
100
AcDbVertex
100
AcDb2dVertex
 10
5.487549089938359
 20
9.187301480741578
 30
0.0
  0
SEQEND
  5
183
330
17F
100
AcDbEntity
  8
H1
 62
   250
420
  2301728
370
     9
  0
SPLINE
  5
184
330
DF
100
AcDbEntity
  8
H1
 62
   250
420
  2301728
370
     9
100
AcDbSpline
210
0.0
220
0.0
230
1.0
 70
     8
 71
     3
 72
    14
 73
    10
 74
     0
 42
0.0000000001
 43
0.0000000001
 12
1.0
 22
0.0
 32
0.0
 13
1.0
 23
0.0
 33
0.0
 40
0.0
 40
0.0
 40
0.0
 40
0.0
 40
1.0
 40
1.0
 40
1.0
 40
2.0
 40
2.0
 40
2.0
 40
3.0
 40
3.0
 40
3.0
 40
3.0
 10
5.385920524551389
 20
9.137184404594336
 30
0.0
 10
5.385920524551389
 20
9.137184404594336
 30
0.0
 10
5.426725608796965
 20
9.161881680616766
 30
0.0
 10
5.433900214708451
 20
9.169200401847876
 30
0.0
 10
5.441075794372106
 20
9.17651814932684
 30
0.0
 10
5.444067161006235
 20
9.179041141172194
 30
0.0
 10
5.451834891593535
 20
9.188360923091155
 30
0.0
 10
5.459601429207396
 20
9.197680705010118
 30
0.0
 10
5.487212171691175
 20
9.253574078967757
 30
0.0
 10
5.487212171691175
 20
9.253574078967757
 30
0.0
  0
SPLINE
  5
185
330
DF
100
AcDbEntity
  8
H1
 62
   250
420
  2301728
370
     9
100
AcDbSpline
210
0.0
220
0.0
230
1.0
 70
     8
 71
     3
 72
    17
 73
    13
 74
     0
 42
0.0000000001
 43
0.0000000001
 12
1.0
 22
0.0
 32
0.0
 13
1.0
 23
0.0
 33
0.0
 40
0.0
 40
0.0
 40
0.0
 40
0.0
 40
1.0
 40
1.0
 40
1.0
 40
2.0
 40
2.0
 40
2.0
 40
3.0
 40
3.0
 40
3.0
 40
4.0
 40
4.0
 40
4.0
 40
4.0
 10
5.337566913565094
 20
9.141344273819893
 30
0.0
 10
5.337566913565094
 20
9.141344273819893
 30
0.0
 10
5.390598429925831
 20
9.18909513221945
 30
0.0
 10
5.390598429925831
 20
9.18909513221945
 30
0.0
 10
5.390598429925831
 20
9.18909513221945
 30
0.0
 10
5.415101929268531
 20
9.216742877285292
 30
0.0
 10
5.425251456966533
 20
9.230756144613249
 30
0.0
 10
5.435401740538459
 20
9.244769411941194
 30
0.0
 10
5.457524415851063
 20
9.267272824348185
 30
0.0
 10
5.457524415851063
 20
9.267272824348185
 30
0.0
 10
5.457524415851063
 20
9.267272824348185
 30
0.0
 10
5.489348583929212
 20
9.316224319160456
 30
0.0
 10
5.489348583929212
 20
9.316224319160456
 30
0.0
  0
POLYLINE
  5
186
330
DF
100
AcDbEntity
  8
H1
 62
   250
420
  2301728
370
     9
100
AcDb2dPolyline
 66
     1
 10
0.0
 20
0.0
 30
0.0
  0
VERTEX
  5
187
330
186
100
AcDbEntity
  8
H1
 62
   250
420
  2301728
370
     9
100
AcDbVertex
100
AcDb2dVertex
 10
5.337296210464753
 20
9.20939591724156
 30
0.0
  0
VERTEX
  5
188
330
186
100
AcDbEntity
  8
H1
 62
   250
420
  2301728
370
     9
100
AcDbVertex
100
AcDb2dVertex
 10
5.388526285330347
 20
9.257325946038476
 30
0.0
  0
VERTEX
  5
189
330
186
100
AcDbEntity
  8
H1
 62
   250
420
  2301728
370
     9
100
AcDbVertex
100
AcDb2dVertex
 10
5.445394385199657
 20
9.308510254552578
 30
0.0
  0
VERTEX
  5
18A
330
186
100
AcDbEntity
  8
H1
 62
   250
420
  2301728
370
     9
100
AcDbVertex
100
AcDb2dVertex
 10
5.48369303138659
 20
9.389706578375922
 30
0.0
  0
SEQEND
  5
18B
330
186
100
AcDbEntity
  8
H1
 62
   250
420
  2301728
370
     9
  0
SPLINE
  5
18C
330
DF
100
AcDbEntity
  8
H1
 62
   250
420
  2301728
370
     9
100
AcDbSpline
210
0.0
220
0.0
230
1.0
 70
     8
 71
     3
 72
    14
 73
    10
 74
     0
 42
0.0000000001
 43
0.0000000001
 12
1.0
 22
0.0
 32
0.0
 13
1.0
 23
0.0
 33
0.0
 40
0.0
 40
0.0
 40
0.0
 40
0.0
 40
1.0
 40
1.0
 40
1.0
 40
2.0
 40
2.0
 40
2.0
 40
3.0
 40
3.0
 40
3.0
 40
3.0
 10
5.336110180334445
 20
9.26860004854163
 30
0.0
 10
5.336110180334445
 20
9.26860004854163
 30
0.0
 10
5.366182568277509
 20
9.29053576343962
 30
0.0
 10
5.372147774006862
 20
9.30004834828618
 30
0.0
 10
5.378112979736215
 20
9.309561906884886
 30
0.0
 10
5.384100689664794
 20
9.313613689620725
 30
0.0
 10
5.393054232872196
 20
9.326604517181169
 30
0.0
 10
5.402006910227
 20
9.33959437098944
 30
0.0
 10
5.435730868768385
 20
9.391563523744127
 30
0.0
 10
5.435730868768385
 20
9.391563523744127
 30
0.0
  0
POLYLINE
  5
18D
330
DF
100
AcDbEntity
  8
H1
 62
   250
420
  2301728
370
     9
100
AcDb2dPolyline
 66
     1
 10
0.0
 20
0.0
 30
0.0
  0
VERTEX
  5
18E
330
18D
100
AcDbEntity
  8
H1
 62
   250
420
  2301728
370
     9
100
AcDbVertex
100
AcDb2dVertex
 10
5.334706029720362
 20
9.34710492139599
 30
0.0
  0
VERTEX
  5
18F
330
18D
100
AcDbEntity
  8
H1
 62
   250
420
  2301728
370
     9
100
AcDbVertex
100
AcDb2dVertex
 10
5.367266354431093
 20
9.371956050259616
 30
0.0
  0
VERTEX
  5
190
330
18D
100
AcDbEntity
  8
H1
 62
   250
420
  2301728
370
     9
100
AcDbVertex
100
AcDb2dVertex
 10
5.380360399720454
 20
9.39368435594761
 30
0.0
  0
SEQEND
  5
191
330
18D
100
AcDbEntity
  8
H1
 62
   250
420
  2301728
370
     9
  0
ENDBLK
  5
E2
330
DF
100
AcDbEntity
  8
0
100
AcDbBlockEnd
  0
BLOCK
  5
194
330
192
100
AcDbEntity
  8
0
100
AcDbBlockBegin
  2
block 4
 70
     0
 10
0.0
 20
0.0
 30
0.0
  3
block 4
  1

  0
POLYLINE
  5
196
330
192
100
AcDbEntity
  8
H1
 62
   250
420
  2301728
370
    18
100
AcDb2dPolyline
 66
     1
 10
0.0
 20
0.0
 30
0.0
  0
VERTEX
  5
197
330
196
100
AcDbEntity
  8
H1
 62
   250
420
  2301728
370
    18
100
AcDbVertex
100
AcDb2dVertex
 10
3.78948112404478
 20
10.40793876281231
 30
0.0
  0
VERTEX
  5
198
330
196
100
AcDbEntity
  8
H1
 62
   250
420
  2301728
370
    18
100
AcDbVertex
100
AcDb2dVertex
 10
3.78948112404478
 20
9.928199312619212
 30
0.0
  0
VERTEX
  5
199
330
196
100
AcDbEntity
  8
H1
 62
   250
420
  2301728
370
    18
100
AcDbVertex
100
AcDb2dVertex
 10
3.799884692117303
 20
9.925598420601078
 30
0.0
  0
VERTEX
  5
19A
330
196
100
AcDbEntity
  8
H1
 62
   250
420
  2301728
370
    18
100
AcDbVertex
100
AcDb2dVertex
 10
3.909855392255054
 20
9.98522710784271
 30
0.0
  0
VERTEX
  5
19B
330
196
100
AcDbEntity
  8
H1
 62
   250
420
  2301728
370
    18
100
AcDbVertex
100
AcDb2dVertex
 10
3.925098579602554
 20
9.979844205904783
 30
0.0
  0
VERTEX
  5
19C
330
196
100
AcDbEntity
  8
H1
 62
   250
420
  2301728
370
    18
100
AcDbVertex
100
AcDb2dVertex
 10
3.927770484486283
 20
9.974467146479784
 30
0.0
  0
VERTEX
  5
19D
330
196
100
AcDbEntity
  8
H1
 62
   250
420
  2301728
370
    18
100
AcDbVertex
100
AcDb2dVertex
 10
3.907601156005714
 20
9.981720035231218
 30
0.0
  0
VERTEX
  5
19E
330
196
100
AcDbEntity
  8
H1
 62
   250
420
  2301728
370
    18
100
AcDbVertex
100
AcDb2dVertex
 10
3.907601156005714
 20
9.733231960349686
 30
0.0
  0
VERTEX
  5
19F
330
196
100
AcDbEntity
  8
H1
 62
   250
420
  2301728
370
    18
100
AcDbVertex
100
AcDb2dVertex
 10
3.768124305198436
 20
9.583338034318064
 30
0.0
  0
VERTEX
  5
1A0
330
196
100
AcDbEntity
  8
H1
 62
   250
420
  2301728
370
    18
100
AcDbVertex
100
AcDb2dVertex
 10
3.828498399325415
 20
9.55881519466685
 30
0.0
  0
VERTEX
  5
1A1
330
196
100
AcDbEntity
  8
H1
 62
   250
420
  2301728
370
    18
100
AcDbVertex
100
AcDb2dVertex
 10
3.83758927168502
 20
9.561411217924185
 30
0.0
  0
VERTEX
  5
1A2
330
196
100
AcDbEntity
  8
H1
 62
   250
420
  2301728
370
    18
100
AcDbVertex
100
AcDb2dVertex
 10
4.193969981100736
 20
9.863165327139956
 30
0.0
  0
VERTEX
  5
1A3
330
196
100
AcDbEntity
  8
H1
 62
   250
420
  2301728
370
    18
100
AcDbVertex
100
AcDb2dVertex
 10
4.193969981100736
 20
9.946409451754777
 30
0.0
  0
VERTEX
  5
1A4
330
196
100
AcDbEntity
  8
H1
 62
   250
420
  2301728
370
    18
100
AcDbVertex
100
AcDb2dVertex
 10
3.928622517625879
 20
10.36891272376225
 30
0.0
  0
VERTEX
  5
1A5
330
196
100
AcDbEntity
  8
H1
 62
   250
420
  2301728
370
    18
100
AcDbVertex
100
AcDb2dVertex
 10
3.916944307976501
 20
10.37822666316826
 30
0.0
  0
VERTEX
  5
1A6
330
196
100
AcDbEntity
  8
H1
 62
   250
420
  2301728
370
    18
100
AcDbVertex
100
AcDb2dVertex
 10
3.844107646442858
 20
10.42505067750351
 30
0.0
  0
VERTEX
  5
1A7
330
196
100
AcDbEntity
  8
H1
 62
   250
420
  2301728
370
    18
100
AcDbVertex
100
AcDb2dVertex
 10
3.822321889377463
 20
10.42977223373354
 30
0.0
  0
VERTEX
  5
1A8
330
196
100
AcDbEntity
  8
H1
 62
   250
420
  2301728
370
    18
100
AcDbVertex
100
AcDb2dVertex
 10
3.78948112404478
 20
10.40867102443629
 30
0.0
  0
VERTEX
  5
1A9
330
196
100
AcDbEntity
  8
H1
 62
   250
420
  2301728
370
    18
100
AcDbVertex
100
AcDb2dVertex
 10
3.78948112404478
 20
10.40793876281231
 30
0.0
  0
SEQEND
  5
1AB
330
196
100
AcDbEntity
  8
H1
 62
   250
420
  2301728
370
    18
  0
HATCH
  5
1AA
330
192
100
AcDbEntity
  8
H1
 62
   254
420
 13358815
100
AcDbHatch
 10
0.0
 20
0.0
 30
0.0
210
0.0
220
0.0
230
1.0
  2
SOLID
 70
     1
 71
     0
 91
        1
 92
        1
 93
       18
 72
     1
 10
3.78948112404478
 20
10.40793876281231
 11
3.78948112404478
 21
9.928199312619212
 72
     1
 10
3.78948112404478
 20
9.928199312619212
 11
3.799884692117303
 21
9.925598420601078
 72
     1
 10
3.799884692117303
 20
9.925598420601078
 11
3.909855392255054
 21
9.98522710784271
 72
     1
 10
3.909855392255054
 20
9.98522710784271
 11
3.925098579602554
 21
9.979844205904783
 72
     1
 10
3.925098579602554
 20
9.979844205904783
 11
3.927770484486283
 21
9.974467146479784
 72
     1
 10
3.927770484486283
 20
9.974467146479784
 11
3.907601156005714
 21
9.981720035231218
 72
     1
 10
3.907601156005714
 20
9.981720035231218
 11
3.907601156005714
 21
9.733231960349686
 72
     1
 10
3.907601156005714
 20
9.733231960349686
 11
3.768124305198436
 21
9.583338034318064
 72
     1
 10
3.768124305198436
 20
9.583338034318064
 11
3.828498399325415
 21
9.55881519466685
 72
     1
 10
3.828498399325415
 20
9.55881519466685
 11
3.83758927168502
 21
9.561411217924185
 72
     1
 10
3.83758927168502
 20
9.561411217924185
 11
4.193969981100736
 21
9.863165327139956
 72
     1
 10
4.193969981100736
 20
9.863165327139956
 11
4.193969981100736
 21
9.946409451754777
 72
     1
 10
4.193969981100736
 20
9.946409451754777
 11
3.928622517625879
 21
10.36891272376225
 72
     1
 10
3.928622517625879
 20
10.36891272376225
 11
3.916944307976501
 21
10.37822666316826
 72
     1
 10
3.916944307976501
 20
10.37822666316826
 11
3.844107646442858
 21
10.42505067750351
 72
     1
 10
3.844107646442858
 20
10.42505067750351
 11
3.822321889377463
 21
10.42977223373354
 72
     1
 10
3.822321889377463
 20
10.42977223373354
 11
3.78948112404478
 21
10.40867102443629
 72
     1
 10
3.78948112404478
 20
10.40867102443629
 11
3.78948112404478
 21
10.40793876281231
 97
        0
 75
     2
 76
     1
 98
        0
  0
SPLINE
  5
1AC
330
192
100
AcDbEntity
  8
H1
 62
   250
420
  2301728
370
    13
100
AcDbSpline
210
0.0
220
0.0
230
1.0
 70
     8
 71
     3
 72
    14
 73
    10
 74
     0
 42
0.0000000001
 43
0.0000000001
 12
1.0
 22
0.0
 32
0.0
 13
1.0
 23
0.0
 33
0.0
 40
0.0
 40
0.0
 40
0.0
 40
0.0
 40
1.0
 40
1.0
 40
1.0
 40
2.0
 40
2.0
 40
2.0
 40
3.0
 40
3.0
 40
3.0
 40
3.0
 10
3.9091416319221
 20
9.985426727035435
 30
0.0
 10
3.9091416319221
 20
9.985426727035435
 30
0.0
 10
3.924114045127201
 20
9.980477144808471
 30
0.0
 10
3.924114045127201
 20
9.980477144808471
 30
0.0
 10
3.924114045127201
 20
9.980477144808471
 30
0.0
 10
3.930675187178192
 20
9.977851908986343
 30
0.0
 10
3.928926328299654
 20
9.966916672234712
 30
0.0
 10
3.928926328299654
 20
9.966916672234712
 30
0.0
 10
3.928488139827866
 20
9.962105362814414
 30
0.0
 10
3.922801427216149
 20
9.95991734171193
 30
0.0
  0
SPLINE
  5
1AD
330
192
100
AcDbEntity
  8
H1
 62
   250
420
  2301728
370
    13
100
AcDbSpline
210
0.0
220
0.0
230
1.0
 70
     8
 71
     3
 72
     8
 73
     4
 74
     0
 42
0.0000000001
 43
0.0000000001
 12
1.0
 22
0.0
 32
0.0
 13
1.0
 23
0.0
 33
0.0
 40
0.0
 40
0.0
 40
0.0
 40
0.0
 40
1.0
 40
1.0
 40
1.0
 40
1.0
 10
3.908062714529327
 20
9.961015734147887
 30
0.0
 10
3.913413168855262
 20
9.957787182421093
 30
0.0
 10
3.916866743181117
 20
9.957128925961241
 30
0.0
 10
3.922801427216149
 20
9.95991734171193
 30
0.0
  0
SPLINE
  5
1AE
330
192
100
AcDbEntity
  8
H1
 62
   250
420
  2301728
370
    13
100
AcDbSpline
210
0.0
220
0.0
230
1.0
 70
    11
 71
     3
 72
    14
 73
    10
 74
     0
 42
0.0000000001
 43
0.0000000001
 12
1.0
 22
0.0
 32
0.0
 13
1.0
 23
0.0
 33
0.0
 40
0.0
 40
0.0
 40
0.0
 40
0.0
 40
1.0
 40
1.0
 40
1.0
 40
2.0
 40
2.0
 40
2.0
 40
3.0
 40
3.0
 40
3.0
 40
3.0
 10
3.926491947900811
 20
9.965699482035296
 30
0.0
 10
3.926491947900811
 20
9.965699482035296
 30
0.0
 10
3.917029998166552
 20
9.969085218294
 30
0.0
 10
3.917029998166552
 20
9.969085218294
 30
0.0
 10
3.917029998166552
 20
9.969085218294
 30
0.0
 10
3.92778509076868
 20
9.975361050962254
 30
0.0
 10
3.92778509076868
 20
9.975361050962254
 30
0.0
 10
3.92778509076868
 20
9.975361050962254
 30
0.0
 10
3.93047556798548
 20
9.972674625317671
 30
0.0
 10
3.926491947900811
 20
9.965699482035296
 30
0.0
  0
POLYLINE
  5
1AF
330
192
100
AcDbEntity
  8
H1
 62
   250
420
  2301728
370
    13
100
AcDb2dPolyline
 66
     1
 10
0.0
 20
0.0
 30
0.0
  0
VERTEX
  5
1B0
330
1AF
100
AcDbEntity
  8
H1
 62
   250
420
  2301728
370
    13
100
AcDbVertex
100
AcDb2dVertex
 10
3.844107646442858
 20
10.42667684365103
 30
0.0
  0
VERTEX
  5
1B1
330
1AF
100
AcDbEntity
  8
H1
 62
   250
420
  2301728
370
    13
100
AcDbVertex
100
AcDb2dVertex
 10
3.804469117284434
 20
10.40218583505375
 30
0.0
  0
VERTEX
  5
1B2
330
1AF
100
AcDbEntity
  8
H1
 62
   250
420
  2301728
370
    13
100
AcDbVertex
100
AcDb2dVertex
 10
3.804469117284434
 20
9.925598420601078
 30
0.0
  0
SEQEND
  5
1B3
330
1AF
100
AcDbEntity
  8
H1
 62
   250
420
  2301728
370
    13
  0
INSERT
  5
1B5
330
192
100
AcDbEntity
  8
H1
100
AcDbBlockReference
  2
block 5
 10
0.0
 20
0.0
 30
0.0
  0
POLYLINE
  5
1C4
330
192
100
AcDbEntity
  8
H1
 62
   250
420
  2301728
370
     5
100
AcDb2dPolyline
 66
     1
 10
0.0
 20
0.0
 30
0.0
  0
VERTEX
  5
1C5
330
1C4
100
AcDbEntity
  8
H1
 62
   250
420
  2301728
370
     5
100
AcDbVertex
100
AcDb2dVertex
 10
4.000316967876389
 20
10.01271807881087
 30
0.0
  0
VERTEX
  5
1C6
330
1C4
100
AcDbEntity
  8
H1
 62
   250
420
  2301728
370
     5
100
AcDbVertex
100
AcDb2dVertex
 10
3.975080233157566
 20
10.05600915231973
 30
0.0
  0
SEQEND
  5
1C7
330
1C4
100
AcDbEntity
  8
H1
 62
   250
420
  2301728
370
     5
  0
SPLINE
  5
1C8
330
192
100
AcDbEntity
  8
H1
 62
   250
420
  2301728
370
     5
100
AcDbSpline
210
0.0
220
0.0
230
1.0
 70
     8
 71
     3
 72
     8
 73
     4
 74
     0
 42
0.0000000001
 43
0.0000000001
 12
1.0
 22
0.0
 32
0.0
 13
1.0
 23
0.0
 33
0.0
 40
0.0
 40
0.0
 40
0.0
 40
0.0
 40
1.0
 40
1.0
 40
1.0
 40
1.0
 10
4.006935561304797
 20
9.984618512743003
 30
0.0
 10
4.009056393508268
 20
9.98874040563434
 30
0.0
 10
4.010435226566175
 20
9.994679320055372
 30
0.0
 10
4.006916086261577
 20
10.00140697372564
 30
0.0
  0
SPLINE
  5
1C9
330
192
100
AcDbEntity
  8
H1
 62
   250
420
  2301728
370
    13
100
AcDbSpline
210
0.0
220
0.0
230
1.0
 70
     8
 71
     3
 72
    17
 73
    13
 74
     0
 42
0.0000000001
 43
0.0000000001
 12
1.0
 22
0.0
 32
0.0
 13
1.0
 23
0.0
 33
0.0
 40
0.0
 40
0.0
 40
0.0
 40
0.0
 40
1.0
 40
1.0
 40
1.0
 40
2.0
 40
2.0
 40
2.0
 40
3.0
 40
3.0
 40
3.0
 40
4.0
 40
4.0
 40
4.0
 40
4.0
 10
3.966796523536358
 20
10.06559979625014
 30
0.0
 10
3.966796523536358
 20
10.06559979625014
 30
0.0
 10
3.957934405132379
 20
10.07045379185436
 30
0.0
 10
3.948975885264606
 20
10.06365505427645
 30
0.0
 10
3.948975885264606
 20
10.06365505427645
 30
0.0
 10
3.935824388597843
 20
10.05663235370184
 30
0.0
 10
3.944545312938696
 20
10.03922556009789
 30
0.0
 10
3.944545312938696
 20
10.03922556009789
 30
0.0
 10
3.974698522311023
 20
9.987831894869487
 30
0.0
 10
3.974698522311023
 20
9.987831894869487
 30
0.0
 10
3.974698522311023
 20
9.987831894869487
 30
0.0
 10
3.986385495729842
 20
9.97018750573861
 30
0.0
 10
4.002466038892496
 20
9.978598776892719
 30
0.0
  0
INSERT
  5
1CB
330
192
100
AcDbEntity
  8
H1
100
AcDbBlockReference
  2
block 6
 10
0.0
 20
0.0
 30
0.0
  0
SPLINE
  5
1DC
330
192
100
AcDbEntity
  8
H1
 62
   250
420
  2301728
370
    13
100
AcDbSpline
210
0.0
220
0.0
230
1.0
 70
     8
 71
     3
 72
    17
 73
    13
 74
     0
 42
0.0000000001
 43
0.0000000001
 12
1.0
 22
0.0
 32
0.0
 13
1.0
 23
0.0
 33
0.0
 40
0.0
 40
0.0
 40
0.0
 40
0.0
 40
1.0
 40
1.0
 40
1.0
 40
2.0
 40
2.0
 40
2.0
 40
3.0
 40
3.0
 40
3.0
 40
4.0
 40
4.0
 40
4.0
 40
4.0
 10
3.928622517625879
 20
10.36891272376225
 30
0.0
 10
3.928622517625879
 20
10.36891272376225
 30
0.0
 10
3.928622517625879
 20
10.34213453937488
 30
0.0
 10
3.933491278423578
 20
10.33483139817832
 30
0.0
 10
3.933491278423578
 20
10.33483139817832
 30
0.0
 10
4.18179807910648
 20
9.93802739316546
 30
0.0
 10
4.18179807910648
 20
9.93802739316546
 30
0.0
 10
4.18179807910648
 20
9.93802739316546
 30
0.0
 10
4.18179807910648
 20
9.862561600801047
 30
0.0
 10
4.18179807910648
 20
9.862561600801047
 30
0.0
 10
4.18179807910648
 20
9.862561600801047
 30
0.0
 10
3.825564484068726
 20
9.5606984313434
 30
0.0
 10
3.825564484068726
 20
9.5606984313434
 30
0.0
  0
POLYLINE
  5
1DD
330
192
100
AcDbEntity
  8
H1
 62
   250
420
  2301728
370
    13
100
AcDb2dPolyline
 66
     1
 10
0.0
 20
0.0
 30
0.0
  0
VERTEX
  5
1DE
330
1DD
100
AcDbEntity
  8
H1
 62
   250
420
  2301728
370
    13
100
AcDbVertex
100
AcDb2dVertex
 10
4.18179807910648
 20
9.93802739316546
 30
0.0
  0
VERTEX
  5
1DF
330
1DD
100
AcDbEntity
  8
H1
 62
   250
420
  2301728
370
    13
100
AcDbVertex
100
AcDb2dVertex
 10
4.193969981100736
 20
9.946409451754777
 30
0.0
  0
SEQEND
  5
1E0
330
1DD
100
AcDbEntity
  8
H1
 62
   250
420
  2301728
370
    13
  0
POLYLINE
  5
1E1
330
192
100
AcDbEntity
  8
H1
 62
   250
420
  2301728
370
    13
100
AcDb2dPolyline
 66
     1
 10
0.0
 20
0.0
 30
0.0
  0
VERTEX
  5
1E2
330
1E1
100
AcDbEntity
  8
H1
 62
   250
420
  2301728
370
    13
100
AcDbVertex
100
AcDb2dVertex
 10
4.18179807910648
 20
9.862561600801047
 30
0.0
  0
VERTEX
  5
1E3
330
1E1
100
AcDbEntity
  8
H1
 62
   250
420
  2301728
370
    13
100
AcDbVertex
100
AcDb2dVertex
 10
4.192685679804185
 20
9.863165327139956
 30
0.0
  0
SEQEND
  5
1E4
330
1E1
100
AcDbEntity
  8
H1
 62
   250
420
  2301728
370
    13
  0
POLYLINE
  5
1E5
330
192
100
AcDbEntity
  8
H1
 62
   250
420
  2301728
370
    13
100
AcDb2dPolyline
 66
     1
 10
0.0
 20
0.0
 30
0.0
  0
VERTEX
  5
1E6
330
1E5
100
AcDbEntity
  8
H1
 62
   250
420
  2301728
370
    13
100
AcDbVertex
100
AcDb2dVertex
 10
3.788825788841412
 20
10.4074820730495
 30
0.0
  0
VERTEX
  5
1E7
330
1E5
100
AcDbEntity
  8
H1
 62
   250
420
  2301728
370
    13
100
AcDbVertex
100
AcDb2dVertex
 10
3.804469117284434
 20
10.40218583505375
 30
0.0
  0
SEQEND
  5
1E8
330
1E5
100
AcDbEntity
  8
H1
 62
   250
420
  2301728
370
    13
  0
INSERT
  5
1EA
330
192
100
AcDbEntity
  8
H1
100
AcDbBlockReference
  2
block 7
 10
0.0
 20
0.0
 30
0.0
  0
INSERT
  5
1EF
330
192
100
AcDbEntity
  8
H1
100
AcDbBlockReference
  2
block 8
 10
0.0
 20
0.0
 30
0.0
  0
INSERT
  5
1F4
330
192
100
AcDbEntity
  8
H1
100
AcDbBlockReference
  2
block 9
 10
0.0
 20
0.0
 30
0.0
  0
INSERT
  5
1F9
330
192
100
AcDbEntity
  8
H1
100
AcDbBlockReference
  2
block 10
 10
0.0
 20
0.0
 30
0.0
  0
INSERT
  5
200
330
192
100
AcDbEntity
  8
H1
100
AcDbBlockReference
  2
block 11
 10
0.0
 20
0.0
 30
0.0
  0
INSERT
  5
20B
330
192
100
AcDbEntity
  8
H1
100
AcDbBlockReference
  2
block 13
 10
0.0
 20
0.0
 30
0.0
  0
INSERT
  5
216
330
192
100
AcDbEntity
  8
H1
100
AcDbBlockReference
  2
block 15
 10
0.0
 20
0.0
 30
0.0
  0
ENDBLK
  5
195
330
192
100
AcDbEntity
  8
0
100
AcDbBlockEnd
  0
BLOCK
  5
1B6
330
1B4
100
AcDbEntity
  8
0
100
AcDbBlockBegin
  2
block 5
 70
     0
 10
0.0
 20
0.0
 30
0.0
  3
block 5
  1

  0
POLYLINE
  5
1B8
330
1B4
100
AcDbEntity
  8
H1
 62
   250
420
  2301728
370
     5
100
AcDb2dPolyline
 66
     1
 10
0.0
 20
0.0
 30
0.0
  0
VERTEX
  5
1B9
330
1B8
100
AcDbEntity
  8
H1
 62
   250
420
  2301728
370
     5
100
AcDbVertex
100
AcDb2dVertex
 10
3.916450615631624
 20
10.02839938358812
 30
0.0
  0
VERTEX
  5
1BA
330
1B8
100
AcDbEntity
  8
H1
 62
   250
420
  2301728
370
     5
100
AcDbVertex
100
AcDb2dVertex
 10
3.916450615631624
 20
9.994826356631467
 30
0.0
  0
SEQEND
  5
1BB
330
1B8
100
AcDbEntity
  8
H1
 62
   250
420
  2301728
370
     5
  0
POLYLINE
  5
1BC
330
1B4
100
AcDbEntity
  8
H1
 62
   250
420
  2301728
370
     5
100
AcDb2dPolyline
 66
     1
 10
0.0
 20
0.0
 30
0.0
  0
VERTEX
  5
1BD
330
1BC
100
AcDbEntity
  8
H1
 62
   250
420
  2301728
370
     5
100
AcDbVertex
100
AcDb2dVertex
 10
3.916450615631624
 20
10.31791537566278
 30
0.0
  0
VERTEX
  5
1BE
330
1BC
100
AcDbEntity
  8
H1
 62
   250
420
  2301728
370
     5
100
AcDbVertex
100
AcDb2dVertex
 10
3.916450615631624
 20
10.05174119660448
 30
0.0
  0
SEQEND
  5
1BF
330
1BC
100
AcDbEntity
  8
H1
 62
   250
420
  2301728
370
     5
  0
POLYLINE
  5
1C0
330
1B4
100
AcDbEntity
  8
H1
 62
   250
420
  2301728
370
     5
100
AcDb2dPolyline
 66
     1
 10
0.0
 20
0.0
 30
0.0
  0
VERTEX
  5
1C1
330
1C0
100
AcDbEntity
  8
H1
 62
   250
420
  2301728
370
     5
100
AcDbVertex
100
AcDb2dVertex
 10
3.916450615631624
 20
10.36160958256568
 30
0.0
  0
VERTEX
  5
1C2
330
1C0
100
AcDbEntity
  8
H1
 62
   250
420
  2301728
370
     5
100
AcDbVertex
100
AcDb2dVertex
 10
3.916450615631624
 20
10.33153524711827
 30
0.0
  0
SEQEND
  5
1C3
330
1C0
100
AcDbEntity
  8
H1
 62
   250
420
  2301728
370
     5
  0
ENDBLK
  5
1B7
330
1B4
100
AcDbEntity
  8
0
100
AcDbBlockEnd
  0
BLOCK
  5
1CC
330
1CA
100
AcDbEntity
  8
0
100
AcDbBlockBegin
  2
block 6
 70
     0
 10
0.0
 20
0.0
 30
0.0
  3
block 6
  1

  0
POLYLINE
  5
1CE
330
1CA
100
AcDbEntity
  8
H1
 62
   250
420
  2301728
370
     5
100
AcDb2dPolyline
 66
     1
 10
0.0
 20
0.0
 30
0.0
  0
VERTEX
  5
1CF
330
1CE
100
AcDbEntity
  8
H1
 62
   250
420
  2301728
370
     5
100
AcDbVertex
100
AcDb2dVertex
 10
4.005728108626954
 20
10.13769429972712
 30
0.0
  0
VERTEX
  5
1D0
330
1CE
100
AcDbEntity
  8
H1
 62
   250
420
  2301728
370
     5
100
AcDbVertex
100
AcDb2dVertex
 10
3.967566761494557
 20
10.20093560748066
 30
0.0
  0
SEQEND
  5
1D1
330
1CE
100
AcDbEntity
  8
H1
 62
   250
420
  2301728
370
     5
  0
POLYLINE
  5
1D2
330
1CA
100
AcDbEntity
  8
H1
 62
   250
420
  2301728
370
     5
100
AcDb2dPolyline
 66
     1
 10
0.0
 20
0.0
 30
0.0
  0
VERTEX
  5
1D3
330
1D2
100
AcDbEntity
  8
H1
 62
   250
420
  2301728
370
     5
100
AcDbVertex
100
AcDb2dVertex
 10
4.052651277690908
 20
10.06535717305132
 30
0.0
  0
VERTEX
  5
1D4
330
1D2
100
AcDbEntity
  8
H1
 62
   250
420
  2301728
370
     5
100
AcDbVertex
100
AcDb2dVertex
 10
4.011148013146971
 20
10.12905517056768
 30
0.0
  0
SEQEND
  5
1D5
330
1D2
100
AcDbEntity
  8
H1
 62
   250
420
  2301728
370
     5
  0
POLYLINE
  5
1D6
330
1CA
100
AcDbEntity
  8
H1
 62
   250
420
  2301728
370
     5
100
AcDb2dPolyline
 66
     1
 10
0.0
 20
0.0
 30
0.0
  0
VERTEX
  5
1D7
330
1D6
100
AcDbEntity
  8
H1
 62
   250
420
  2301728
370
     5
100
AcDbVertex
100
AcDb2dVertex
 10
4.103992360302692
 20
9.983538621598074
 30
0.0
  0
VERTEX
  5
1D8
330
1D6
100
AcDbEntity
  8
H1
 62
   250
420
  2301728
370
     5
100
AcDbVertex
100
AcDb2dVertex
 10
4.06079094646245
 20
10.05239571663321
 30
0.0
  0
SEQEND
  5
1D9
330
1D6
100
AcDbEntity
  8
H1
 62
   250
420
  2301728
370
     5
  0
SPLINE
  5
1DA
330
1CA
100
AcDbEntity
  8
H1
 62
   250
420
  2301728
370
     5
100
AcDbSpline
210
0.0
220
0.0
230
1.0
 70
     8
 71
     3
 72
     8
 73
     4
 74
     0
 42
0.0000000001
 43
0.0000000001
 12
1.0
 22
0.0
 32
0.0
 13
1.0
 23
0.0
 33
0.0
 40
0.0
 40
0.0
 40
0.0
 40
0.0
 40
1.0
 40
1.0
 40
1.0
 40
1.0
 10
4.110106550112454
 20
9.955320257766743
 30
0.0
 10
4.112303334984378
 20
9.959404174323847
 30
0.0
 10
4.113786359523361
 20
9.9653138761801
 30
0.0
 10
4.110383095725764
 20
9.972108718749395
 30
0.0
  0
SPLINE
  5
1DB
330
1CA
100
AcDbEntity
  8
H1
 62
   250
420
  2301728
370
    13
100
AcDbSpline
210
0.0
220
0.0
230
1.0
 70
     8
 71
     3
 72
    17
 73
    13
 74
     0
 42
0.0000000001
 43
0.0000000001
 12
1.0
 22
0.0
 32
0.0
 13
1.0
 23
0.0
 33
0.0
 40
0.0
 40
0.0
 40
0.0
 40
0.0
 40
1.0
 40
1.0
 40
1.0
 40
2.0
 40
2.0
 40
2.0
 40
3.0
 40
3.0
 40
3.0
 40
4.0
 40
4.0
 40
4.0
 40
4.0
 10
3.959455406005582
 20
10.21067312907607
 30
0.0
 10
3.959455406005582
 20
10.21067312907607
 30
0.0
 10
3.950687741561069
 20
10.21568503144123
 30
0.0
 10
3.941606528921195
 20
10.20905183173044
 30
0.0
 10
3.941606528921195
 20
10.20905183173044
 30
0.0
 10
3.928331436853897
 20
10.20227159544356
 30
0.0
 10
3.936737768123496
 20
10.18470802774191
 30
0.0
 10
3.936737768123496
 20
10.18470802774191
 30
0.0
 10
4.077937673769863
 20
9.95912373370192
 30
0.0
 10
4.077937673769863
 20
9.95912373370192
 30
0.0
 10
4.077937673769863
 20
9.95912373370192
 30
0.0
 10
4.089291623950102
 20
9.941269987856723
 30
0.0
 10
4.105524072449649
 20
9.949386212106496
 30
0.0
  0
ENDBLK
  5
1CD
330
1CA
100
AcDbEntity
  8
0
100
AcDbBlockEnd
  0
BLOCK
  5
1EB
330
1E9
100
AcDbEntity
  8
0
100
AcDbBlockBegin
  2
block 7
 70
     0
 10
0.0
 20
0.0
 30
0.0
  3
block 7
  1

  0
SPLINE
  5
1ED
330
1E9
100
AcDbEntity
  8
H1
 62
   250
420
  2301728
370
    13
100
AcDbSpline
210
0.0
220
0.0
230
1.0
 70
    11
 71
     3
 72
    17
 73
    13
 74
     0
 42
0.0000000001
 43
0.0000000001
 12
1.0
 22
0.0
 32
0.0
 13
1.0
 23
0.0
 33
0.0
 40
0.0
 40
0.0
 40
0.0
 40
0.0
 40
1.0
 40
1.0
 40
1.0
 40
2.0
 40
2.0
 40
2.0
 40
3.0
 40
3.0
 40
3.0
 40
4.0
 40
4.0
 40
4.0
 40
4.0
 10
3.838326479871663
 20
10.30979330890005
 30
0.0
 10
3.837266132593135
 20
10.30268978689619
 30
0.0
 10
3.840228217839252
 20
10.29629028770369
 30
0.0
 10
3.84493533577846
 20
10.29549570594151
 30
0.0
 10
3.849646348726322
 20
10.29470696669227
 30
0.0
 10
3.85432522785292
 20
10.29982306053852
 30
0.0
 10
3.855390512715454
 20
10.30691197625996
 30
0.0
 10
3.856446060056403
 20
10.31401549826382
 30
0.0
 10
3.853483905987079
 20
10.32041499745632
 30
0.0
 10
3.84877191928706
 20
10.32120974458684
 30
0.0
 10
3.84405993258704
 20
10.321998483856
 30
0.0
 10
3.839378132203971
 20
10.31687832961287
 30
0.0
 10
3.838326479871663
 20
10.30979330890005
 30
0.0
  0
ENDBLK
  5
1EC
330
1E9
100
AcDbEntity
  8
0
100
AcDbBlockEnd
  0
BLOCK
  5
1F0
330
1EE
100
AcDbEntity
  8
0
100
AcDbBlockBegin
  2
block 8
 70
     0
 10
0.0
 20
0.0
 30
0.0
  3
block 8
  1

  0
SPLINE
  5
1F2
330
1EE
100
AcDbEntity
  8
H1
 62
   250
420
  2301728
370
    13
100
AcDbSpline
210
0.0
220
0.0
230
1.0
 70
    11
 71
     3
 72
    17
 73
    13
 74
     0
 42
0.0000000001
 43
0.0000000001
 12
1.0
 22
0.0
 32
0.0
 13
1.0
 23
0.0
 33
0.0
 40
0.0
 40
0.0
 40
0.0
 40
0.0
 40
1.0
 40
1.0
 40
1.0
 40
2.0
 40
2.0
 40
2.0
 40
3.0
 40
3.0
 40
3.0
 40
4.0
 40
4.0
 40
4.0
 40
4.0
 10
3.838326479871663
 20
10.18221635782272
 30
0.0
 10
3.837266132593135
 20
10.17511364771397
 30
0.0
 10
3.840228217839252
 20
10.16871317476928
 30
0.0
 10
3.84493533577846
 20
10.16791956675927
 30
0.0
 10
3.849646348726322
 20
10.16712985375789
 30
0.0
 10
3.85432522785292
 20
10.17224594760411
 30
0.0
 10
3.855390512715454
 20
10.17933583707773
 30
0.0
 10
3.856446060056403
 20
10.18643838532943
 30
0.0
 10
3.853483905987079
 20
10.19283885827408
 30
0.0
 10
3.84877191928706
 20
10.19363246628411
 30
0.0
 10
3.84405993258704
 20
10.1944221792855
 30
0.0
 10
3.839378132203971
 20
10.18930121667847
 30
0.0
 10
3.838326479871663
 20
10.18221635782272
 30
0.0
  0
ENDBLK
  5
1F1
330
1EE
100
AcDbEntity
  8
0
100
AcDbBlockEnd
  0
BLOCK
  5
1F5
330
1F3
100
AcDbEntity
  8
0
100
AcDbBlockBegin
  2
block 9
 70
     0
 10
0.0
 20
0.0
 30
0.0
  3
block 9
  1

  0
SPLINE
  5
1F7
330
1F3
100
AcDbEntity
  8
H1
 62
   250
420
  2301728
370
    13
100
AcDbSpline
210
0.0
220
0.0
230
1.0
 70
    11
 71
     3
 72
    17
 73
    13
 74
     0
 42
0.0000000001
 43
0.0000000001
 12
1.0
 22
0.0
 32
0.0
 13
1.0
 23
0.0
 33
0.0
 40
0.0
 40
0.0
 40
0.0
 40
0.0
 40
1.0
 40
1.0
 40
1.0
 40
2.0
 40
2.0
 40
2.0
 40
3.0
 40
3.0
 40
3.0
 40
4.0
 40
4.0
 40
4.0
 40
4.0
 10
3.838326479871663
 20
10.0531941934242
 30
0.0
 10
3.837266132593135
 20
10.04609148657481
 30
0.0
 10
3.840228217839252
 20
10.03969101363014
 30
0.0
 10
3.84493533577846
 20
10.03889740562013
 30
0.0
 10
3.849646348726322
 20
10.03810769261874
 30
0.0
 10
3.85432522785292
 20
10.04322378646498
 30
0.0
 10
3.855390512715454
 20
10.05031367593858
 30
0.0
 10
3.856446060056403
 20
10.05741622419027
 30
0.0
 10
3.853483905987079
 20
10.06381669713493
 30
0.0
 10
3.84877191928706
 20
10.06461030514495
 30
0.0
 10
3.84405993258704
 20
10.06540001814634
 30
0.0
 10
3.839378132203971
 20
10.06027905553931
 30
0.0
 10
3.838326479871663
 20
10.0531941934242
 30
0.0
  0
ENDBLK
  5
1F6
330
1F3
100
AcDbEntity
  8
0
100
AcDbBlockEnd
  0
BLOCK
  5
1FA
330
1F8
100
AcDbEntity
  8
0
100
AcDbBlockBegin
  2
block 10
 70
     0
 10
0.0
 20
0.0
 30
0.0
  3
block 10
  1

  0
SPLINE
  5
1FC
330
1F8
100
AcDbEntity
  8
H1
 62
   250
420
  2301728
370
     5
100
AcDbSpline
210
0.0
220
0.0
230
1.0
 70
    11
 71
     3
 72
    17
 73
    13
 74
     0
 42
0.0000000001
 43
0.0000000001
 12
1.0
 22
0.0
 32
0.0
 13
1.0
 23
0.0
 33
0.0
 40
0.0
 40
0.0
 40
0.0
 40
0.0
 40
1.0
 40
1.0
 40
1.0
 40
2.0
 40
2.0
 40
2.0
 40
3.0
 40
3.0
 40
3.0
 40
4.0
 40
4.0
 40
4.0
 40
4.0
 10
4.084859104119876
 20
9.842853984128157
 30
0.0
 10
4.090355935060466
 20
9.831937095383484
 30
0.0
 10
4.08790207961844
 20
9.819613288052336
 30
0.0
 10
4.079372010700859
 20
9.815333647311162
 30
0.0
 10
4.070861416826473
 20
9.811054006569975
 30
0.0
 10
4.059507466646235
 20
9.816417433464721
 30
0.0
 10
4.054030110748815
 20
9.82729619259112
 30
0.0
 10
4.048524516038772
 20
9.838212928051727
 30
0.0
 10
4.050987135250251
 20
9.850531866622077
 30
0.0
 10
4.059507466646235
 20
9.854821398471232
 30
0.0
 10
4.068018060520621
 20
9.859091148104463
 30
0.0
 10
4.079363246931431
 20
9.853737458731276
 30
0.0
 10
4.084859104119876
 20
9.842853984128157
 30
0.0
  0
SPLINE
  5
1FD
330
1F8
100
AcDbEntity
  8
H1
 62
   250
420
  2301728
370
    13
100
AcDbSpline
210
0.0
220
0.0
230
1.0
 70
     8
 71
     3
 72
    11
 73
     7
 74
     0
 42
0.0000000001
 43
0.0000000001
 12
1.0
 22
0.0
 32
0.0
 13
1.0
 23
0.0
 33
0.0
 40
0.0
 40
0.0
 40
0.0
 40
0.0
 40
1.0
 40
1.0
 40
1.0
 40
2.0
 40
2.0
 40
2.0
 40
2.0
 10
4.093864364091309
 20
9.827525024348612
 30
0.0
 10
4.095813815914728
 20
9.833002380246018
 30
0.0
 10
4.095358099904047
 20
9.839982235725603
 30
0.0
 10
4.092086292647991
 20
9.846467425108155
 30
0.0
 10
4.089366602866385
 20
9.851854222054726
 30
0.0
 10
4.085201864880029
 20
9.855895293516824
 30
0.0
 10
4.080684703584413
 20
9.858063993244413
 30
0.0
  0
SPLINE
  5
1FE
330
1F8
100
AcDbEntity
  8
H1
 62
   250
420
  2301728
370
    13
100
AcDbSpline
210
0.0
220
0.0
230
1.0
 70
     8
 71
     3
 72
    23
 73
    19
 74
     0
 42
0.0000000001
 43
0.0000000001
 12
1.0
 22
0.0
 32
0.0
 13
1.0
 23
0.0
 33
0.0
 40
0.0
 40
0.0
 40
0.0
 40
0.0
 40
1.0
 40
1.0
 40
1.0
 40
2.0
 40
2.0
 40
2.0
 40
3.0
 40
3.0
 40
3.0
 40
4.0
 40
4.0
 40
4.0
 40
5.0
 40
5.0
 40
5.0
 40
6.0
 40
6.0
 40
6.0
 40
6.0
 10
4.087388912230381
 20
9.85308114977575
 30
0.0
 10
4.081436365279097
 20
9.859290920996449
 30
0.0
 10
4.073257820891109
 20
9.861715563934947
 30
0.0
 10
4.06673465517435
 20
9.858434839148913
 30
0.0
 10
4.065489226162287
 20
9.85780676900601
 30
0.0
 10
4.060762633179883
 20
9.855448341275594
 30
0.0
 10
4.059507466646235
 20
9.854821398471232
 30
0.0
 10
4.050987135250251
 20
9.850531866622077
 30
0.0
 10
4.048524516038772
 20
9.838212928051727
 30
0.0
 10
4.054030110748815
 20
9.82729619259112
 30
0.0
 10
4.059507466646235
 20
9.816417433464721
 30
0.0
 10
4.070861416826473
 20
9.811054006569975
 30
0.0
 10
4.079372010700859
 20
9.815333647311162
 30
0.0
 10
4.080618413465079
 20
9.815961717454051
 30
0.0
 10
4.085353770216923
 20
9.818319171432309
 30
0.0
 10
4.086608936750571
 20
9.818947241575213
 30
0.0
 10
4.093379435515859
 20
9.822351479124967
 30
0.0
 10
4.096232529343309
 20
9.83083383418673
 30
0.0
 10
4.094406744044186
 20
9.839639474965452
 30
0.0
  0
ENDBLK
  5
1FB
330
1F8
100
AcDbEntity
  8
0
100
AcDbBlockEnd
  0
BLOCK
  5
201
330
1FF
100
AcDbEntity
  8
0
100
AcDbBlockBegin
  2
block 11
 70
     0
 10
0.0
 20
0.0
 30
0.0
  3
block 11
  1

  0
INSERT
  5
204
330
1FF
100
AcDbEntity
  8
H1
100
AcDbBlockReference
  2
block 12
 10
0.0
 20
0.0
 30
0.0
  0
ENDBLK
  5
202
330
1FF
100
AcDbEntity
  8
0
100
AcDbBlockEnd
  0
BLOCK
  5
205
330
203
100
AcDbEntity
  8
0
100
AcDbBlockBegin
  2
block 12
 70
     0
 10
0.0
 20
0.0
 30
0.0
  3
block 12
  1

  0
SPLINE
  5
207
330
203
100
AcDbEntity
  8
H1
 62
   250
420
  2301728
370
    13
100
AcDbSpline
210
0.0
220
0.0
230
1.0
 70
    11
 71
     3
 72
    35
 73
    31
 74
     0
 42
0.0000000001
 43
0.0000000001
 12
1.0
 22
0.0
 32
0.0
 13
1.0
 23
0.0
 33
0.0
 40
0.0
 40
0.0
 40
0.0
 40
0.0
 40
1.0
 40
1.0
 40
1.0
 40
2.0
 40
2.0
 40
2.0
 40
3.0
 40
3.0
 40
3.0
 40
4.0
 40
4.0
 40
4.0
 40
5.0
 40
5.0
 40
5.0
 40
6.0
 40
6.0
 40
6.0
 40
7.0
 40
7.0
 40
7.0
 40
8.0
 40
8.0
 40
8.0
 40
9.0
 40
9.0
 40
9.0
 40
10.0
 40
10.0
 40
10.0
 40
10.0
 10
3.832791672596828
 20
10.30556332951902
 30
0.0
 10
3.832705008654632
 20
10.30780490699026
 30
0.0
 10
3.832862756504483
 20
10.31015359719908
 30
0.0
 10
3.833292181206831
 20
10.31254415875075
 30
0.0
 10
3.833771267269336
 20
10.31517718459016
 30
0.0
 10
3.834542478979693
 20
10.31764175130594
 30
0.0
 10
3.835541548695371
 20
10.3198667749905
 30
0.0
 10
3.835541548695371
 20
10.3198667749905
 30
0.0
 10
3.835595105064133
 20
10.31984340493866
 30
0.0
 10
3.835595105064133
 20
10.31984340493866
 30
0.0
 10
3.839113271616586
 20
10.32767724106217
 30
0.0
 10
3.845420264353922
 20
10.33256645065522
 30
0.0
 10
3.85162111810588
 20
10.33135023420798
 30
0.0
 10
3.853311551854833
 20
10.33102110597804
 30
0.0
 10
3.857387678394679
 20
10.32920213694402
 30
0.0
 10
3.858018669794054
 20
10.32910687480022
 30
0.0
 10
3.866039466332192
 20
10.3277561149871
 30
0.0
 10
3.871068896236225
 20
10.31692604346869
 30
0.0
 10
3.869286929784266
 20
10.3048943617854
 30
0.0
 10
3.867459196980803
 20
10.29287923388882
 30
0.0
 10
3.859518248119747
 20
10.28420716158953
 30
0.0
 10
3.851498425333766
 20
10.28554493262316
 30
0.0
 10
3.849665823769517
 20
10.28583997952751
 30
0.0
 10
3.844744549367331
 20
10.28782253892432
 30
0.0
 10
3.843816494547152
 20
10.288003656826
 30
0.0
 10
3.837449129175916
 20
10.28926563962477
 30
0.0
 10
3.833219149794874
 20
10.29656407680626
 30
0.0
 10
3.832874510242668
 20
10.30556722452764
 30
0.0
 10
3.832874510242668
 20
10.30556722452764
 30
0.0
 10
3.832791672596828
 20
10.30556332951902
 30
0.0
 10
3.832791672596828
 20
10.30556332951902
 30
0.0
  0
HATCH
  5
208
330
203
100
AcDbEntity
  8
H1
 62
   254
420
 13358815
100
AcDbHatch
 10
0.0
 20
0.0
 30
0.0
210
0.0
220
0.0
230
1.0
  2
SOLID
 70
     1
 71
     0
 91
        1
 92
        1
 93
        1
 72
     4
 94
        3
 73
     0
 74
     1
 95
       35
 96
       31
 40
0.0
 40
0.0
 40
0.0
 40
0.0
 40
1.0
 40
1.0
 40
1.0
 40
2.0
 40
2.0
 40
2.0
 40
3.0
 40
3.0
 40
3.0
 40
4.0
 40
4.0
 40
4.0
 40
5.0
 40
5.0
 40
5.0
 40
6.0
 40
6.0
 40
6.0
 40
7.0
 40
7.0
 40
7.0
 40
8.0
 40
8.0
 40
8.0
 40
9.0
 40
9.0
 40
9.0
 40
10.0
 40
10.0
 40
10.0
 40
10.0
 10
3.832791672596828
 20
10.30556332951902
 10
3.832705008654632
 20
10.30780490699026
 10
3.832862756504483
 20
10.31015359719908
 10
3.833292181206831
 20
10.31254415875075
 10
3.833771267269336
 20
10.31517718459016
 10
3.834542478979693
 20
10.31764175130594
 10
3.835541548695371
 20
10.3198667749905
 10
3.835541548695371
 20
10.3198667749905
 10
3.835595105064133
 20
10.31984340493866
 10
3.835595105064133
 20
10.31984340493866
 10
3.839113271616586
 20
10.32767724106217
 10
3.845420264353922
 20
10.33256645065522
 10
3.85162111810588
 20
10.33135023420798
 10
3.853311551854833
 20
10.33102110597804
 10
3.857387678394679
 20
10.32920213694402
 10
3.858018669794054
 20
10.32910687480022
 10
3.866039466332192
 20
10.3277561149871
 10
3.871068896236225
 20
10.31692604346869
 10
3.869286929784266
 20
10.3048943617854
 10
3.867459196980803
 20
10.29287923388882
 10
3.859518248119747
 20
10.28420716158953
 10
3.851498425333766
 20
10.28554493262316
 10
3.849665823769517
 20
10.28583997952751
 10
3.844744549367331
 20
10.28782253892432
 10
3.843816494547152
 20
10.288003656826
 10
3.837449129175916
 20
10.28926563962477
 10
3.833219149794874
 20
10.29656407680626
 10
3.832874510242668
 20
10.30556722452764
 10
3.832874510242668
 20
10.30556722452764
 10
3.832791672596828
 20
10.30556332951902
 10
3.832791672596828
 20
10.30556332951902
 97
        0
 97
        0
 75
     2
 76
     1
 98
        0
  0
SPLINE
  5
209
330
203
100
AcDbEntity
  8
H1
 62
   250
420
  2301728
370
     5
100
AcDbSpline
210
0.0
220
0.0
230
1.0
 70
    11
 71
     3
 72
    17
 73
    13
 74
     0
 42
0.0000000001
 43
0.0000000001
 12
1.0
 22
0.0
 32
0.0
 13
1.0
 23
0.0
 33
0.0
 40
0.0
 40
0.0
 40
0.0
 40
0.0
 40
1.0
 40
1.0
 40
1.0
 40
2.0
 40
2.0
 40
2.0
 40
3.0
 40
3.0
 40
3.0
 40
4.0
 40
4.0
 40
4.0
 40
4.0
 10
3.840418099510366
 20
10.31071837345161
 30
0.0
 10
3.83755332065698
 20
10.29889020596967
 30
0.0
 10
3.841600234632033
 20
10.28765505355289
 30
0.0
 10
3.849458414559548
 20
10.28560725276138
 30
0.0
 10
3.857323410752138
 20
10.28357308450009
 30
0.0
 10
3.866008306263097
 20
10.29151111210467
 30
0.0
 10
3.868894507663968
 20
10.30330519826103
 30
0.0
 10
3.87175928651733
 20
10.31513823450377
 30
0.0
 10
3.867712372542289
 20
10.32637630817703
 30
0.0
 10
3.859846402597516
 20
10.32842410896855
 30
0.0
 10
3.851970695131159
 20
10.33044951346039
 30
0.0
 10
3.843269245833489
 20
10.32250077458206
 30
0.0
 10
3.840418099510366
 20
10.31071837345161
 30
0.0
  0
ENDBLK
  5
206
330
203
100
AcDbEntity
  8
0
100
AcDbBlockEnd
  0
BLOCK
  5
20C
330
20A
100
AcDbEntity
  8
0
100
AcDbBlockBegin
  2
block 13
 70
     0
 10
0.0
 20
0.0
 30
0.0
  3
block 13
  1

  0
INSERT
  5
20F
330
20A
100
AcDbEntity
  8
H1
100
AcDbBlockReference
  2
block 14
 10
0.0
 20
0.0
 30
0.0
  0
ENDBLK
  5
20D
330
20A
100
AcDbEntity
  8
0
100
AcDbBlockEnd
  0
BLOCK
  5
210
330
20E
100
AcDbEntity
  8
0
100
AcDbBlockBegin
  2
block 14
 70
     0
 10
0.0
 20
0.0
 30
0.0
  3
block 14
  1

  0
SPLINE
  5
212
330
20E
100
AcDbEntity
  8
H1
 62
   250
420
  2301728
370
    13
100
AcDbSpline
210
0.0
220
0.0
230
1.0
 70
    11
 71
     3
 72
    35
 73
    31
 74
     0
 42
0.0000000001
 43
0.0000000001
 12
1.0
 22
0.0
 32
0.0
 13
1.0
 23
0.0
 33
0.0
 40
0.0
 40
0.0
 40
0.0
 40
0.0
 40
1.0
 40
1.0
 40
1.0
 40
2.0
 40
2.0
 40
2.0
 40
3.0
 40
3.0
 40
3.0
 40
4.0
 40
4.0
 40
4.0
 40
5.0
 40
5.0
 40
5.0
 40
6.0
 40
6.0
 40
6.0
 40
7.0
 40
7.0
 40
7.0
 40
8.0
 40
8.0
 40
8.0
 40
9.0
 40
9.0
 40
9.0
 40
10.0
 40
10.0
 40
10.0
 40
10.0
 10
3.832791672596828
 20
10.17792681770288
 30
0.0
 10
3.832705008654632
 20
10.18016839517415
 30
0.0
 10
3.832862756504483
 20
10.18251708538294
 30
0.0
 10
3.833292181206831
 20
10.18490764693462
 30
0.0
 10
3.833771267269336
 20
10.18754067277402
 30
0.0
 10
3.834542478979693
 20
10.19000637529585
 30
0.0
 10
3.835541548695371
 20
10.19223026317438
 30
0.0
 10
3.835541548695371
 20
10.19223026317438
 30
0.0
 10
3.835595105064133
 20
10.192207055232
 30
0.0
 10
3.835595105064133
 20
10.192207055232
 30
0.0
 10
3.839113271616586
 20
10.2000417029982
 30
0.0
 10
3.845420264353922
 20
10.2049299388391
 30
0.0
 10
3.85162111810588
 20
10.20371372239184
 30
0.0
 10
3.853311551854833
 20
10.20338459416191
 30
0.0
 10
3.857387678394679
 20
10.20156562512789
 30
0.0
 10
3.858018669794054
 20
10.20147117116841
 30
0.0
 10
3.866039466332192
 20
10.20011960317097
 30
0.0
 10
3.871068896236225
 20
10.18929050540472
 30
0.0
 10
3.869286929784266
 20
10.17725784996927
 30
0.0
 10
3.867459196980803
 20
10.16524272207269
 30
0.0
 10
3.859518248119747
 20
10.15657048533982
 30
0.0
 10
3.851498425333766
 20
10.15790842080704
 30
0.0
 10
3.849665823769517
 20
10.15820362896185
 30
0.0
 10
3.844744549367331
 20
10.16018602710821
 30
0.0
 10
3.843816494547152
 20
10.16036714500987
 30
0.0
 10
3.837449129175916
 20
10.16162912780864
 30
0.0
 10
3.833219149794874
 20
10.1689274002444
 30
0.0
 10
3.832874510242668
 20
10.17793071271151
 30
0.0
 10
3.832874510242668
 20
10.17793071271151
 30
0.0
 10
3.832791672596828
 20
10.17792681770288
 30
0.0
 10
3.832791672596828
 20
10.17792681770288
 30
0.0
  0
HATCH
  5
213
330
20E
100
AcDbEntity
  8
H1
 62
   254
420
 13358815
100
AcDbHatch
 10
0.0
 20
0.0
 30
0.0
210
0.0
220
0.0
230
1.0
  2
SOLID
 70
     1
 71
     0
 91
        1
 92
        1
 93
        1
 72
     4
 94
        3
 73
     0
 74
     1
 95
       35
 96
       31
 40
0.0
 40
0.0
 40
0.0
 40
0.0
 40
1.0
 40
1.0
 40
1.0
 40
2.0
 40
2.0
 40
2.0
 40
3.0
 40
3.0
 40
3.0
 40
4.0
 40
4.0
 40
4.0
 40
5.0
 40
5.0
 40
5.0
 40
6.0
 40
6.0
 40
6.0
 40
7.0
 40
7.0
 40
7.0
 40
8.0
 40
8.0
 40
8.0
 40
9.0
 40
9.0
 40
9.0
 40
10.0
 40
10.0
 40
10.0
 40
10.0
 10
3.832791672596828
 20
10.17792681770288
 10
3.832705008654632
 20
10.18016839517415
 10
3.832862756504483
 20
10.18251708538294
 10
3.833292181206831
 20
10.18490764693462
 10
3.833771267269336
 20
10.18754067277402
 10
3.834542478979693
 20
10.19000637529585
 10
3.835541548695371
 20
10.19223026317438
 10
3.835541548695371
 20
10.19223026317438
 10
3.835595105064133
 20
10.192207055232
 10
3.835595105064133
 20
10.192207055232
 10
3.839113271616586
 20
10.2000417029982
 10
3.845420264353922
 20
10.2049299388391
 10
3.85162111810588
 20
10.20371372239184
 10
3.853311551854833
 20
10.20338459416191
 10
3.857387678394679
 20
10.20156562512789
 10
3.858018669794054
 20
10.20147117116841
 10
3.866039466332192
 20
10.20011960317097
 10
3.871068896236225
 20
10.18929050540472
 10
3.869286929784266
 20
10.17725784996927
 10
3.867459196980803
 20
10.16524272207269
 10
3.859518248119747
 20
10.15657048533982
 10
3.851498425333766
 20
10.15790842080704
 10
3.849665823769517
 20
10.15820362896185
 10
3.844744549367331
 20
10.16018602710821
 10
3.843816494547152
 20
10.16036714500987
 10
3.837449129175916
 20
10.16162912780864
 10
3.833219149794874
 20
10.1689274002444
 10
3.832874510242668
 20
10.17793071271151
 10
3.832874510242668
 20
10.17793071271151
 10
3.832791672596828
 20
10.17792681770288
 10
3.832791672596828
 20
10.17792681770288
 97
        0
 97
        0
 75
     2
 76
     1
 98
        0
  0
SPLINE
  5
214
330
20E
100
AcDbEntity
  8
H1
 62
   250
420
  2301728
370
     5
100
AcDbSpline
210
0.0
220
0.0
230
1.0
 70
    11
 71
     3
 72
    17
 73
    13
 74
     0
 42
0.0000000001
 43
0.0000000001
 12
1.0
 22
0.0
 32
0.0
 13
1.0
 23
0.0
 33
0.0
 40
0.0
 40
0.0
 40
0.0
 40
0.0
 40
1.0
 40
1.0
 40
1.0
 40
2.0
 40
2.0
 40
2.0
 40
3.0
 40
3.0
 40
3.0
 40
4.0
 40
4.0
 40
4.0
 40
4.0
 10
3.840418099510366
 20
10.18308186163548
 30
0.0
 10
3.83755332065698
 20
10.17125369415354
 30
0.0
 10
3.841600234632033
 20
10.16001854173676
 30
0.0
 10
3.849458414559548
 20
10.15797074094525
 30
0.0
 10
3.857323410752138
 20
10.15593657268396
 30
0.0
 10
3.866008306263097
 20
10.16387460028854
 30
0.0
 10
3.868894507663968
 20
10.1756686864449
 30
0.0
 10
3.87175928651733
 20
10.18750172268763
 30
0.0
 10
3.867712372542289
 20
10.19873979636091
 30
0.0
 10
3.859846402597516
 20
10.20078759715241
 30
0.0
 10
3.851970695131159
 20
10.20281300164427
 30
0.0
 10
3.843269245833489
 20
10.19486426276593
 30
0.0
 10
3.840418099510366
 20
10.18308186163548
 30
0.0
  0
ENDBLK
  5
211
330
20E
100
AcDbEntity
  8
0
100
AcDbBlockEnd
  0
BLOCK
  5
217
330
215
100
AcDbEntity
  8
0
100
AcDbBlockBegin
  2
block 15
 70
     0
 10
0.0
 20
0.0
 30
0.0
  3
block 15
  1

  0
INSERT
  5
21A
330
215
100
AcDbEntity
  8
H1
100
AcDbBlockReference
  2
block 16
 10
0.0
 20
0.0
 30
0.0
  0
ENDBLK
  5
218
330
215
100
AcDbEntity
  8
0
100
AcDbBlockEnd
  0
BLOCK
  5
21B
330
219
100
AcDbEntity
  8
0
100
AcDbBlockBegin
  2
block 16
 70
     0
 10
0.0
 20
0.0
 30
0.0
  3
block 16
  1

  0
SPLINE
  5
21D
330
219
100
AcDbEntity
  8
H1
 62
   250
420
  2301728
370
    13
100
AcDbSpline
210
0.0
220
0.0
230
1.0
 70
    11
 71
     3
 72
    35
 73
    31
 74
     0
 42
0.0000000001
 43
0.0000000001
 12
1.0
 22
0.0
 32
0.0
 13
1.0
 23
0.0
 33
0.0
 40
0.0
 40
0.0
 40
0.0
 40
0.0
 40
1.0
 40
1.0
 40
1.0
 40
2.0
 40
2.0
 40
2.0
 40
3.0
 40
3.0
 40
3.0
 40
4.0
 40
4.0
 40
4.0
 40
5.0
 40
5.0
 40
5.0
 40
6.0
 40
6.0
 40
6.0
 40
7.0
 40
7.0
 40
7.0
 40
8.0
 40
8.0
 40
8.0
 40
9.0
 40
9.0
 40
9.0
 40
10.0
 40
10.0
 40
10.0
 40
10.0
 10
3.832791672596828
 20
10.05029127963891
 30
0.0
 10
3.832705008654632
 20
10.05253204193899
 30
0.0
 10
3.832862756504483
 20
10.05488057356682
 30
0.0
 10
3.833292181206831
 20
10.0572711351185
 30
0.0
 10
3.833771267269336
 20
10.0599041609579
 30
0.0
 10
3.834542478979693
 20
10.06236970142585
 30
0.0
 10
3.835541548695371
 20
10.06459472511041
 30
0.0
 10
3.835541548695371
 20
10.06459472511041
 30
0.0
 10
3.835595105064133
 20
10.06457038130641
 30
0.0
 10
3.835595105064133
 20
10.06457038130641
 30
0.0
 10
3.839113271616586
 20
10.07240519118208
 30
0.0
 10
3.845420264353922
 20
10.07729342702297
 30
0.0
 10
3.85162111810588
 20
10.07607736975149
 30
0.0
 10
3.853311551854833
 20
10.07574905609795
 30
0.0
 10
3.857387678394679
 20
10.07392911331175
 30
0.0
 10
3.858018669794054
 20
10.07383465935229
 30
0.0
 10
3.866039466332192
 20
10.07248309135485
 30
0.0
 10
3.871068896236225
 20
10.06165399358859
 30
0.0
 10
3.869286929784266
 20
10.04962133815315
 30
0.0
 10
3.867459196980803
 20
10.03760718400873
 30
0.0
 10
3.859518248119747
 20
10.0289339735237
 30
0.0
 10
3.851498425333766
 20
10.03027206700954
 30
0.0
 10
3.849665823769517
 20
10.03056695589525
 30
0.0
 10
3.844744549367331
 20
10.03254951529208
 30
0.0
 10
3.843816494547152
 20
10.03273063319375
 30
0.0
 10
3.837449129175916
 20
10.03399261599251
 30
0.0
 10
3.833219149794874
 20
10.04129088842827
 30
0.0
 10
3.832874510242668
 20
10.05029420089539
 30
0.0
 10
3.832874510242668
 20
10.05029420089539
 30
0.0
 10
3.832791672596828
 20
10.05029127963891
 30
0.0
 10
3.832791672596828
 20
10.05029127963891
 30
0.0
  0
HATCH
  5
21E
330
219
100
AcDbEntity
  8
H1
 62
   254
420
 13358815
100
AcDbHatch
 10
0.0
 20
0.0
 30
0.0
210
0.0
220
0.0
230
1.0
  2
SOLID
 70
     1
 71
     0
 91
        1
 92
        1
 93
        1
 72
     4
 94
        3
 73
     0
 74
     1
 95
       35
 96
       31
 40
0.0
 40
0.0
 40
0.0
 40
0.0
 40
1.0
 40
1.0
 40
1.0
 40
2.0
 40
2.0
 40
2.0
 40
3.0
 40
3.0
 40
3.0
 40
4.0
 40
4.0
 40
4.0
 40
5.0
 40
5.0
 40
5.0
 40
6.0
 40
6.0
 40
6.0
 40
7.0
 40
7.0
 40
7.0
 40
8.0
 40
8.0
 40
8.0
 40
9.0
 40
9.0
 40
9.0
 40
10.0
 40
10.0
 40
10.0
 40
10.0
 10
3.832791672596828
 20
10.05029127963891
 10
3.832705008654632
 20
10.05253204193899
 10
3.832862756504483
 20
10.05488057356682
 10
3.833292181206831
 20
10.0572711351185
 10
3.833771267269336
 20
10.0599041609579
 10
3.834542478979693
 20
10.06236970142585
 10
3.835541548695371
 20
10.06459472511041
 10
3.835541548695371
 20
10.06459472511041
 10
3.835595105064133
 20
10.06457038130641
 10
3.835595105064133
 20
10.06457038130641
 10
3.839113271616586
 20
10.07240519118208
 10
3.845420264353922
 20
10.07729342702297
 10
3.85162111810588
 20
10.07607736975149
 10
3.853311551854833
 20
10.07574905609795
 10
3.857387678394679
 20
10.07392911331175
 10
3.858018669794054
 20
10.07383465935229
 10
3.866039466332192
 20
10.07248309135485
 10
3.871068896236225
 20
10.06165399358859
 10
3.869286929784266
 20
10.04962133815315
 10
3.867459196980803
 20
10.03760718400873
 10
3.859518248119747
 20
10.0289339735237
 10
3.851498425333766
 20
10.03027206700954
 10
3.849665823769517
 20
10.03056695589525
 10
3.844744549367331
 20
10.03254951529208
 10
3.843816494547152
 20
10.03273063319375
 10
3.837449129175916
 20
10.03399261599251
 10
3.833219149794874
 20
10.04129088842827
 10
3.832874510242668
 20
10.05029420089539
 10
3.832874510242668
 20
10.05029420089539
 10
3.832791672596828
 20
10.05029127963891
 10
3.832791672596828
 20
10.05029127963891
 97
        0
 97
        0
 75
     2
 76
     1
 98
        0
  0
SPLINE
  5
21F
330
219
100
AcDbEntity
  8
H1
 62
   250
420
  2301728
370
     5
100
AcDbSpline
210
0.0
220
0.0
230
1.0
 70
    11
 71
     3
 72
    17
 73
    13
 74
     0
 42
0.0000000001
 43
0.0000000001
 12
1.0
 22
0.0
 32
0.0
 13
1.0
 23
0.0
 33
0.0
 40
0.0
 40
0.0
 40
0.0
 40
0.0
 40
1.0
 40
1.0
 40
1.0
 40
2.0
 40
2.0
 40
2.0
 40
3.0
 40
3.0
 40
3.0
 40
4.0
 40
4.0
 40
4.0
 40
4.0
 10
3.840418099510366
 20
10.05544534981937
 30
0.0
 10
3.83755332065698
 20
10.04361718233742
 30
0.0
 10
3.841600234632033
 20
10.03238202992063
 30
0.0
 10
3.849458414559548
 20
10.03033422912911
 30
0.0
 10
3.857323410752138
 20
10.02830006086785
 30
0.0
 10
3.866008306263097
 20
10.03623808847241
 30
0.0
 10
3.868894507663968
 20
10.04803217462879
 30
0.0
 10
3.87175928651733
 20
10.05986521087151
 30
0.0
 10
3.867712372542289
 20
10.0711032845448
 30
0.0
 10
3.859846402597516
 20
10.07315108533631
 30
0.0
 10
3.851970695131159
 20
10.07517648982813
 30
0.0
 10
3.843269245833489
 20
10.06722775094979
 30
0.0
 10
3.840418099510366
 20
10.05544534981937
 30
0.0
  0
ENDBLK
  5
21C
330
219
100
AcDbEntity
  8
0
100
AcDbBlockEnd
  0
BLOCK
  5
222
330
220
100
AcDbEntity
  8
0
100
AcDbBlockBegin
  2
block 17
 70
     0
 10
0.0
 20
0.0
 30
0.0
  3
block 17
  1

  0
SPLINE
  5
224
330
220
100
AcDbEntity
  8
H1
 62
   250
420
  2301728
370
    18
100
AcDbSpline
210
0.0
220
0.0
230
1.0
 70
    11
 71
     3
 72
    38
 73
    34
 74
     0
 42
0.0000000001
 43
0.0000000001
 12
1.0
 22
0.0
 32
0.0
 13
1.0
 23
0.0
 33
0.0
 40
0.0
 40
0.0
 40
0.0
 40
0.0
 40
1.0
 40
1.0
 40
1.0
 40
2.0
 40
2.0
 40
2.0
 40
3.0
 40
3.0
 40
3.0
 40
4.0
 40
4.0
 40
4.0
 40
5.0
 40
5.0
 40
5.0
 40
6.0
 40
6.0
 40
6.0
 40
7.0
 40
7.0
 40
7.0
 40
8.0
 40
8.0
 40
8.0
 40
9.0
 40
9.0
 40
9.0
 40
10.0
 40
10.0
 40
10.0
 40
11.0
 40
11.0
 40
11.0
 40
11.0
 10
4.658128484210364
 20
10.11168605594067
 30
0.0
 10
4.658128484210364
 20
10.11168605594067
 30
0.0
 10
4.658617385732971
 20
10.18302691380705
 30
0.0
 10
4.658617385732971
 20
10.18302691380705
 30
0.0
 10
4.658617385732971
 20
10.18302691380705
 30
0.0
 10
4.495939644007497
 20
10.42533577002032
 30
0.0
 10
4.495939644007497
 20
10.42533577002032
 30
0.0
 10
4.495932835867026
 20
10.42533124325345
 30
0.0
 10
4.497078979524177
 20
10.77951759823703
 30
0.0
 10
4.497078979524177
 20
10.77951759823703
 30
0.0
 10
4.497078979524177
 20
10.77951759823703
 30
0.0
 10
4.488272212600602
 20
10.78450480459749
 30
0.0
 10
4.488272212600602
 20
10.78450480459749
 30
0.0
 10
4.488272212600602
 20
10.78450480459749
 30
0.0
 10
4.468272101780914
 20
10.77380185576931
 30
0.0
 10
4.468272101780914
 20
10.77380185576931
 30
0.0
 10
4.468272101780914
 20
10.77380185576931
 30
0.0
 10
4.381718525498425
 20
10.60239071167133
 30
0.0
 10
4.381718525498425
 20
10.60239071167133
 30
0.0
 10
4.379080589637953
 20
10.59642619904029
 30
0.0
 10
4.379398164413967
 20
10.5915936909576
 30
0.0
 10
4.379398164413967
 20
10.58445539193798
 30
0.0
 10
4.379398164413967
 20
10.58445539193798
 30
0.0
 10
4.379311952702513
 20
10.58445539193798
 30
0.0
 10
4.379311952702513
 20
10.58445539193798
 30
0.0
 10
4.379311952702513
 20
10.58445539193798
 30
0.0
 10
4.379485297084354
 20
10.22850735553714
 30
0.0
 10
4.379485297084354
 20
10.22850735553714
 30
0.0
 10
4.379485297084354
 20
10.22153522996158
 30
0.0
 10
4.390548543650135
 20
10.21863306658925
 30
0.0
 10
4.394381975166147
 20
10.20250894016575
 30
0.0
 10
4.394381975166147
 20
10.20250894016575
 30
0.0
 10
4.658128484210364
 20
10.11168605594067
 30
0.0
 10
4.658128484210364
 20
10.11168605594067
 30
0.0
  0
HATCH
  5
225
330
220
100
AcDbEntity
  8
H1
 62
   254
420
 13358815
100
AcDbHatch
 10
0.0
 20
0.0
 30
0.0
210
0.0
220
0.0
230
1.0
  2
SOLID
 70
     1
 71
     0
 91
        1
 92
        1
 93
        1
 72
     4
 94
        3
 73
     0
 74
     1
 95
       38
 96
       34
 40
0.0
 40
0.0
 40
0.0
 40
0.0
 40
1.0
 40
1.0
 40
1.0
 40
2.0
 40
2.0
 40
2.0
 40
3.0
 40
3.0
 40
3.0
 40
4.0
 40
4.0
 40
4.0
 40
5.0
 40
5.0
 40
5.0
 40
6.0
 40
6.0
 40
6.0
 40
7.0
 40
7.0
 40
7.0
 40
8.0
 40
8.0
 40
8.0
 40
9.0
 40
9.0
 40
9.0
 40
10.0
 40
10.0
 40
10.0
 40
11.0
 40
11.0
 40
11.0
 40
11.0
 10
4.658128484210364
 20
10.11168605594067
 10
4.658128484210364
 20
10.11168605594067
 10
4.658617385732971
 20
10.18302691380705
 10
4.658617385732971
 20
10.18302691380705
 10
4.658617385732971
 20
10.18302691380705
 10
4.495939644007497
 20
10.42533577002032
 10
4.495939644007497
 20
10.42533577002032
 10
4.495932835867026
 20
10.42533124325345
 10
4.497078979524177
 20
10.77951759823703
 10
4.497078979524177
 20
10.77951759823703
 10
4.497078979524177
 20
10.77951759823703
 10
4.488272212600602
 20
10.78450480459749
 10
4.488272212600602
 20
10.78450480459749
 10
4.488272212600602
 20
10.78450480459749
 10
4.468272101780914
 20
10.77380185576931
 10
4.468272101780914
 20
10.77380185576931
 10
4.468272101780914
 20
10.77380185576931
 10
4.381718525498425
 20
10.60239071167133
 10
4.381718525498425
 20
10.60239071167133
 10
4.379080589637953
 20
10.59642619904029
 10
4.379398164413967
 20
10.5915936909576
 10
4.379398164413967
 20
10.58445539193798
 10
4.379398164413967
 20
10.58445539193798
 10
4.379311952702513
 20
10.58445539193798
 10
4.379311952702513
 20
10.58445539193798
 10
4.379311952702513
 20
10.58445539193798
 10
4.379485297084354
 20
10.22850735553714
 10
4.379485297084354
 20
10.22850735553714
 10
4.379485297084354
 20
10.22153522996158
 10
4.390548543650135
 20
10.21863306658925
 10
4.394381975166147
 20
10.20250894016575
 10
4.394381975166147
 20
10.20250894016575
 10
4.658128484210364
 20
10.11168605594067
 10
4.658128484210364
 20
10.11168605594067
 97
        0
 97
        0
 75
     2
 76
     1
 98
        0
  0
POLYLINE
  5
226
330
220
100
AcDbEntity
  8
H1
 62
   250
420
  2301728
370
    13
100
AcDb2dPolyline
 66
     1
 10
0.0
 20
0.0
 30
0.0
  0
VERTEX
  5
227
330
226
100
AcDbEntity
  8
H1
 62
   250
420
  2301728
370
    13
100
AcDbVertex
100
AcDb2dVertex
 10
4.645974570416229
 20
10.17633433099115
 30
0.0
  0
VERTEX
  5
228
330
226
100
AcDbEntity
  8
H1
 62
   250
420
  2301728
370
    13
100
AcDbVertex
100
AcDb2dVertex
 10
4.657704493060337
 20
10.18120112846181
 30
0.0
  0
SEQEND
  5
229
330
226
100
AcDbEntity
  8
H1
 62
   250
420
  2301728
370
    13
  0
SPLINE
  5
22A
330
220
100
AcDbEntity
  8
H1
 62
   250
420
  2301728
370
    13
100
AcDbSpline
210
0.0
220
0.0
230
1.0
 70
     8
 71
     3
 72
     8
 73
     4
 74
     0
 42
0.0000000001
 43
0.0000000001
 12
1.0
 22
0.0
 32
0.0
 13
1.0
 23
0.0
 33
0.0
 40
0.0
 40
0.0
 40
0.0
 40
0.0
 40
1.0
 40
1.0
 40
1.0
 40
1.0
 10
4.609220191560275
 20
10.19059060404129
 30
0.0
 10
4.618700451185153
 20
10.17471570010859
 30
0.0
 10
4.616427053079304
 20
10.16163112268494
 30
0.0
 10
4.599854280625423
 20
10.15561922488522
 30
0.0
  0
SPLINE
  5
22B
330
220
100
AcDbEntity
  8
H1
 62
   250
420
  2301728
370
    13
100
AcDbSpline
210
0.0
220
0.0
230
1.0
 70
     8
 71
     3
 72
     8
 73
     4
 74
     0
 42
0.0000000001
 43
0.0000000001
 12
1.0
 22
0.0
 32
0.0
 13
1.0
 23
0.0
 33
0.0
 40
0.0
 40
0.0
 40
0.0
 40
0.0
 40
1.0
 40
1.0
 40
1.0
 40
1.0
 10
4.409959832683676
 20
10.4489364104564
 30
0.0
 10
4.421236365566048
 20
10.45743733451857
 30
0.0
 10
4.432162104233561
 20
10.45440042327844
 30
0.0
 10
4.440487189603472
 20
10.4422519003182
 30
0.0
  0
POLYLINE
  5
22C
330
220
100
AcDbEntity
  8
H1
 62
   250
420
  2301728
370
    13
100
AcDb2dPolyline
 66
     1
 10
0.0
 20
0.0
 30
0.0
  0
VERTEX
  5
22D
330
22C
100
AcDbEntity
  8
H1
 62
   250
420
  2301728
370
    13
100
AcDbVertex
100
AcDb2dVertex
 10
4.440487189603472
 20
10.4422519003182
 30
0.0
  0
VERTEX
  5
22E
330
22C
100
AcDbEntity
  8
H1
 62
   250
420
  2301728
370
    13
100
AcDbVertex
100
AcDb2dVertex
 10
4.609220191560275
 20
10.19059060404129
 30
0.0
  0
SEQEND
  5
22F
330
22C
100
AcDbEntity
  8
H1
 62
   250
420
  2301728
370
    13
  0
SPLINE
  5
230
330
220
100
AcDbEntity
  8
H1
 62
   250
420
  2301728
370
    13
100
AcDbSpline
210
0.0
220
0.0
230
1.0
 70
     8
 71
     3
 72
    14
 73
    10
 74
     0
 42
0.0000000001
 43
0.0000000001
 12
1.0
 22
0.0
 32
0.0
 13
1.0
 23
0.0
 33
0.0
 40
0.0
 40
0.0
 40
0.0
 40
0.0
 40
1.0
 40
1.0
 40
1.0
 40
2.0
 40
2.0
 40
2.0
 40
3.0
 40
3.0
 40
3.0
 40
3.0
 10
4.645532329524788
 20
10.11834911605888
 30
0.0
 10
4.645532329524788
 20
10.11834911605888
 30
0.0
 10
4.645974570416229
 20
10.17633433099115
 30
0.0
 10
4.645974570416229
 20
10.17633433099115
 30
0.0
 10
4.645974570416229
 20
10.17633433099115
 30
0.0
 10
4.39052995574179
 20
10.5571991934009
 30
0.0
 10
4.39052995574179
 20
10.5571991934009
 30
0.0
 10
4.381666552365181
 20
10.57038075660593
 30
0.0
 10
4.377102171577968
 20
10.58255265890767
 30
0.0
 10
4.382605661404897
 20
10.60414760014703
 30
0.0
  0
POLYLINE
  5
231
330
220
100
AcDbEntity
  8
H1
 62
   250
420
  2301728
370
    13
100
AcDb2dPolyline
 66
     1
 10
0.0
 20
0.0
 30
0.0
  0
VERTEX
  5
232
330
231
100
AcDbEntity
  8
H1
 62
   250
420
  2301728
370
    13
100
AcDbVertex
100
AcDb2dVertex
 10
4.475841332269889
 20
10.76678211407974
 30
0.0
  0
VERTEX
  5
233
330
231
100
AcDbEntity
  8
H1
 62
   250
420
  2301728
370
    13
100
AcDbVertex
100
AcDb2dVertex
 10
4.496166086851543
 20
10.77769181289177
 30
0.0
  0
SEQEND
  5
234
330
231
100
AcDbEntity
  8
H1
 62
   250
420
  2301728
370
    13
  0
POLYLINE
  5
235
330
220
100
AcDbEntity
  8
H1
 62
   250
420
  2301728
370
    13
100
AcDb2dPolyline
 66
     1
 10
0.0
 20
0.0
 30
0.0
  0
VERTEX
  5
236
330
235
100
AcDbEntity
  8
H1
 62
   250
420
  2301728
370
    13
100
AcDbVertex
100
AcDb2dVertex
 10
4.467359209108306
 20
10.77197607042405
 30
0.0
  0
VERTEX
  5
237
330
235
100
AcDbEntity
  8
H1
 62
   250
420
  2301728
370
    13
100
AcDbVertex
100
AcDb2dVertex
 10
4.475841332269889
 20
10.76678211407974
 30
0.0
  0
SEQEND
  5
238
330
235
100
AcDbEntity
  8
H1
 62
   250
420
  2301728
370
    13
  0
POLYLINE
  5
239
330
220
100
AcDbEntity
  8
H1
 62
   250
420
  2301728
370
    13
100
AcDb2dPolyline
 66
     1
 10
0.0
 20
0.0
 30
0.0
  0
VERTEX
  5
23A
330
239
100
AcDbEntity
  8
H1
 62
   250
420
  2301728
370
    13
100
AcDbVertex
100
AcDb2dVertex
 10
4.451735918468304
 20
10.61304717816862
 30
0.0
  0
VERTEX
  5
23B
330
239
100
AcDbEntity
  8
H1
 62
   250
420
  2301728
370
    13
100
AcDbVertex
100
AcDb2dVertex
 10
4.451951407729211
 20
10.61314657773821
 30
0.0
  0
VERTEX
  5
23C
330
239
100
AcDbEntity
  8
H1
 62
   250
420
  2301728
370
    13
100
AcDbVertex
100
AcDb2dVertex
 10
4.452166808482312
 20
10.61325378823098
 30
0.0
  0
VERTEX
  5
23D
330
239
100
AcDbEntity
  8
H1
 62
   250
420
  2301728
370
    13
100
AcDbVertex
100
AcDb2dVertex
 10
4.452382002457853
 20
10.61336875036761
 30
0.0
  0
VERTEX
  5
23E
330
239
100
AcDbEntity
  8
H1
 62
   250
420
  2301728
370
    13
100
AcDbVertex
100
AcDb2dVertex
 10
4.452596871511838
 20
10.61349140062504
 30
0.0
  0
VERTEX
  5
23F
330
239
100
AcDbEntity
  8
H1
 62
   250
420
  2301728
370
    13
100
AcDbVertex
100
AcDb2dVertex
 10
4.452811297690687
 20
10.61362167127207
 30
0.0
  0
VERTEX
  5
240
330
239
100
AcDbEntity
  8
H1
 62
   250
420
  2301728
370
    13
100
AcDbVertex
100
AcDb2dVertex
 10
4.453025163295327
 20
10.61375949040716
 30
0.0
  0
VERTEX
  5
241
330
239
100
AcDbEntity
  8
H1
 62
   250
420
  2301728
370
    13
100
AcDbVertex
100
AcDb2dVertex
 10
4.453238350945841
 20
10.61390478199852
 30
0.0
  0
VERTEX
  5
242
330
239
100
AcDbEntity
  8
H1
 62
   250
420
  2301728
370
    13
100
AcDbVertex
100
AcDb2dVertex
 10
4.453450743645135
 20
10.61405746592663
 30
0.0
  0
VERTEX
  5
243
330
239
100
AcDbEntity
  8
H1
 62
   250
420
  2301728
370
    13
100
AcDbVertex
100
AcDb2dVertex
 10
4.453662224843103
 20
10.61421745802871
 30
0.0
  0
VERTEX
  5
244
330
239
100
AcDbEntity
  8
H1
 62
   250
420
  2301728
370
    13
100
AcDbVertex
100
AcDb2dVertex
 10
4.45387267850002
 20
10.6143846701453
 30
0.0
  0
VERTEX
  5
245
330
239
100
AcDbEntity
  8
H1
 62
   250
420
  2301728
370
    13
100
AcDbVertex
100
AcDb2dVertex
 10
4.454081989149724
 20
10.61455901016939
 30
0.0
  0
VERTEX
  5
246
330
239
100
AcDbEntity
  8
H1
 62
   250
420
  2301728
370
    13
100
AcDbVertex
100
AcDb2dVertex
 10
4.454290041962799
 20
10.61474038209714
 30
0.0
  0
VERTEX
  5
247
330
239
100
AcDbEntity
  8
H1
 62
   250
420
  2301728
370
    13
100
AcDbVertex
100
AcDb2dVertex
 10
4.454496722808774
 20
10.61492868608131
 30
0.0
  0
VERTEX
  5
248
330
239
100
AcDbEntity
  8
H1
 62
   250
420
  2301728
370
    13
100
AcDbVertex
100
AcDb2dVertex
 10
4.454701918318733
 20
10.61512381848605
 30
0.0
  0
VERTEX
  5
249
330
239
100
AcDbEntity
  8
H1
 62
   250
420
  2301728
370
    13
100
AcDbVertex
100
AcDb2dVertex
 10
4.454905515946444
 20
10.61532567194435
 30
0.0
  0
VERTEX
  5
24A
330
239
100
AcDbEntity
  8
H1
 62
   250
420
  2301728
370
    13
100
AcDbVertex
100
AcDb2dVertex
 10
4.45510740403021
 20
10.61553413541712
 30
0.0
  0
VERTEX
  5
24B
330
239
100
AcDbEntity
  8
H1
 62
   250
420
  2301728
370
    13
100
AcDbVertex
100
AcDb2dVertex
 10
4.455307471853252
 20
10.61574909425427
 30
0.0
  0
VERTEX
  5
24C
330
239
100
AcDbEntity
  8
H1
 62
   250
420
  2301728
370
    13
100
AcDbVertex
100
AcDb2dVertex
 10
4.455505609704081
 20
10.61597043025802
 30
0.0
  0
VERTEX
  5
24D
330
239
100
AcDbEntity
  8
H1
 62
   250
420
  2301728
370
    13
100
AcDbVertex
100
AcDb2dVertex
 10
4.455701708936127
 20
10.6161980217476
 30
0.0
  0
VERTEX
  5
24E
330
239
100
AcDbEntity
  8
H1
 62
   250
420
  2301728
370
    13
100
AcDbVertex
100
AcDb2dVertex
 10
4.455895662026655
 20
10.61643174362635
 30
0.0
  0
VERTEX
  5
24F
330
239
100
AcDbEntity
  8
H1
 62
   250
420
  2301728
370
    13
100
AcDbVertex
100
AcDb2dVertex
 10
4.456087362635698
 20
10.61667146745017
 30
0.0
  0
VERTEX
  5
250
330
239
100
AcDbEntity
  8
H1
 62
   250
420
  2301728
370
    13
100
AcDbVertex
100
AcDb2dVertex
 10
4.456276705663084
 20
10.61691706149816
 30
0.0
  0
VERTEX
  5
251
330
239
100
AcDbEntity
  8
H1
 62
   250
420
  2301728
370
    13
100
AcDbVertex
100
AcDb2dVertex
 10
4.45646358730634
 20
10.61716839084476
 30
0.0
  0
VERTEX
  5
252
330
239
100
AcDbEntity
  8
H1
 62
   250
420
  2301728
370
    13
100
AcDbVertex
100
AcDb2dVertex
 10
4.45664790511647
 20
10.61742531743361
 30
0.0
  0
VERTEX
  5
253
330
239
100
AcDbEntity
  8
H1
 62
   250
420
  2301728
370
    13
100
AcDbVertex
100
AcDb2dVertex
 10
4.45682955805402
 20
10.61768770015323
 30
0.0
  0
VERTEX
  5
254
330
239
100
AcDbEntity
  8
H1
 62
   250
420
  2301728
370
    13
100
AcDbVertex
100
AcDb2dVertex
 10
4.457008446543669
 20
10.61795539491432
 30
0.0
  0
VERTEX
  5
255
330
239
100
AcDbEntity
  8
H1
 62
   250
420
  2301728
370
    13
100
AcDbVertex
100
AcDb2dVertex
 10
4.457184472528297
 20
10.61822825472835
 30
0.0
  0
VERTEX
  5
256
330
239
100
AcDbEntity
  8
H1
 62
   250
420
  2301728
370
    13
100
AcDbVertex
100
AcDb2dVertex
 10
4.457357539522541
 20
10.61850612978808
 30
0.0
  0
VERTEX
  5
257
330
239
100
AcDbEntity
  8
H1
 62
   250
420
  2301728
370
    13
100
AcDbVertex
100
AcDb2dVertex
 10
4.45752755266479
 20
10.61878886754937
 30
0.0
  0
VERTEX
  5
258
330
239
100
AcDbEntity
  8
H1
 62
   250
420
  2301728
370
    13
100
AcDbVertex
100
AcDb2dVertex
 10
4.45769441876895
 20
10.61907631281456
 30
0.0
  0
VERTEX
  5
259
330
239
100
AcDbEntity
  8
H1
 62
   250
420
  2301728
370
    13
100
AcDbVertex
100
AcDb2dVertex
 10
4.457858046374869
 20
10.61936830781713
 30
0.0
  0
VERTEX
  5
25A
330
239
100
AcDbEntity
  8
H1
 62
   250
420
  2301728
370
    13
100
AcDbVertex
100
AcDb2dVertex
 10
4.458018345797982
 20
10.61966469230781
 30
0.0
  0
VERTEX
  5
25B
330
239
100
AcDbEntity
  8
H1
 62
   250
420
  2301728
370
    13
100
AcDbVertex
100
AcDb2dVertex
 10
4.458175229178121
 20
10.61996530364205
 30
0.0
  0
VERTEX
  5
25C
330
239
100
AcDbEntity
  8
H1
 62
   250
420
  2301728
370
    13
100
AcDbVertex
100
AcDb2dVertex
 10
4.458328610527031
 20
10.62026997686876
 30
0.0
  0
VERTEX
  5
25D
330
239
100
AcDbEntity
  8
H1
 62
   250
420
  2301728
370
    13
100
AcDbVertex
100
AcDb2dVertex
 10
4.458478405775218
 20
10.62057854482012
 30
0.0
  0
VERTEX
  5
25E
330
239
100
AcDbEntity
  8
H1
 62
   250
420
  2301728
370
    13
100
AcDbVertex
100
AcDb2dVertex
 10
4.458624532817288
 20
10.62089083820275
 30
0.0
  0
VERTEX
  5
25F
330
239
100
AcDbEntity
  8
H1
 62
   250
420
  2301728
370
    13
100
AcDbVertex
100
AcDb2dVertex
 10
4.458766911556975
 20
10.6212066856901
 30
0.0
  0
VERTEX
  5
260
330
239
100
AcDbEntity
  8
H1
 62
   250
420
  2301728
370
    13
100
AcDbVertex
100
AcDb2dVertex
 10
4.458905463950183
 20
10.6215259140155
 30
0.0
  0
VERTEX
  5
261
330
239
100
AcDbEntity
  8
H1
 62
   250
420
  2301728
370
    13
100
AcDbVertex
100
AcDb2dVertex
 10
4.459040114047588
 20
10.62184834806683
 30
0.0
  0
VERTEX
  5
262
330
239
100
AcDbEntity
  8
H1
 62
   250
420
  2301728
370
    13
100
AcDbVertex
100
AcDb2dVertex
 10
4.459170788035711
 20
10.62217381098167
 30
0.0
  0
VERTEX
  5
263
330
239
100
AcDbEntity
  8
H1
 62
   250
420
  2301728
370
    13
100
AcDbVertex
100
AcDb2dVertex
 10
4.459297414277317
 20
10.62250212424364
 30
0.0
  0
VERTEX
  5
264
330
239
100
AcDbEntity
  8
H1
 62
   250
420
  2301728
370
    13
100
AcDbVertex
100
AcDb2dVertex
 10
4.459419923349893
 20
10.6228331077797
 30
0.0
  0
VERTEX
  5
265
330
239
100
AcDbEntity
  8
H1
 62
   250
420
  2301728
370
    13
100
AcDbVertex
100
AcDb2dVertex
 10
4.459538248083819
 20
10.62316658005789
 30
0.0
  0
VERTEX
  5
266
330
239
100
AcDbEntity
  8
H1
 62
   250
420
  2301728
370
    13
100
AcDbVertex
100
AcDb2dVertex
 10
4.459652323598523
 20
10.62350235818639
 30
0.0
  0
VERTEX
  5
267
330
239
100
AcDbEntity
  8
H1
 62
   250
420
  2301728
370
    13
100
AcDbVertex
100
AcDb2dVertex
 10
4.459762087337872
 20
10.62384025801286
 30
0.0
  0
VERTEX
  5
268
330
239
100
AcDbEntity
  8
H1
 62
   250
420
  2301728
370
    13
100
AcDbVertex
100
AcDb2dVertex
 10
4.459867479104332
 20
10.62418009422477
 30
0.0
  0
VERTEX
  5
269
330
239
100
AcDbEntity
  8
H1
 62
   250
420
  2301728
370
    13
100
AcDbVertex
100
AcDb2dVertex
 10
4.45996844109143
 20
10.62452168045007
 30
0.0
  0
VERTEX
  5
26A
330
239
100
AcDbEntity
  8
H1
 62
   250
420
  2301728
370
    13
100
AcDbVertex
100
AcDb2dVertex
 10
4.460064917915461
 20
10.6248648293587
 30
0.0
  0
VERTEX
  5
26B
330
239
100
AcDbEntity
  8
H1
 62
   250
420
  2301728
370
    13
100
AcDbVertex
100
AcDb2dVertex
 10
4.460156856645603
 20
10.62520935276441
 30
0.0
  0
VERTEX
  5
26C
330
239
100
AcDbEntity
  8
H1
 62
   250
420
  2301728
370
    13
100
AcDbVertex
100
AcDb2dVertex
 10
4.460244206832638
 20
10.62555506172725
 30
0.0
  0
VERTEX
  5
26D
330
239
100
AcDbEntity
  8
H1
 62
   250
420
  2301728
370
    13
100
AcDbVertex
100
AcDb2dVertex
 10
4.46032692053657
 20
10.62590176665618
 30
0.0
  0
VERTEX
  5
26E
330
239
100
AcDbEntity
  8
H1
 62
   250
420
  2301728
370
    13
100
AcDbVertex
100
AcDb2dVertex
 10
4.460404952352948
 20
10.62624927741232
 30
0.0
  0
VERTEX
  5
26F
330
239
100
AcDbEntity
  8
H1
 62
   250
420
  2301728
370
    13
100
AcDbVertex
100
AcDb2dVertex
 10
4.460478259437094
 20
10.62659740341243
 30
0.0
  0
VERTEX
  5
270
330
239
100
AcDbEntity
  8
H1
 62
   250
420
  2301728
370
    13
100
AcDbVertex
100
AcDb2dVertex
 10
4.460546801528229
 20
10.62694595373241
 30
0.0
  0
VERTEX
  5
271
330
239
100
AcDbEntity
  8
H1
 62
   250
420
  2301728
370
    13
100
AcDbVertex
100
AcDb2dVertex
 10
4.460610540971047
 20
10.62729473721141
 30
0.0
  0
VERTEX
  5
272
330
239
100
AcDbEntity
  8
H1
 62
   250
420
  2301728
370
    13
100
AcDbVertex
100
AcDb2dVertex
 10
4.460669442736414
 20
10.62764356255569
 30
0.0
  0
VERTEX
  5
273
330
239
100
AcDbEntity
  8
H1
 62
   250
420
  2301728
370
    13
100
AcDbVertex
100
AcDb2dVertex
 10
4.460723474440733
 20
10.62799223844273
 30
0.0
  0
VERTEX
  5
274
330
239
100
AcDbEntity
  8
H1
 62
   250
420
  2301728
370
    13
100
AcDbVertex
100
AcDb2dVertex
 10
4.460772606363662
 20
10.62834057362542
 30
0.0
  0
VERTEX
  5
275
330
239
100
AcDbEntity
  8
H1
 62
   250
420
  2301728
370
    13
100
AcDbVertex
100
AcDb2dVertex
 10
4.460816811464333
 20
10.62868837703614
 30
0.0
  0
VERTEX
  5
276
330
239
100
AcDbEntity
  8
H1
 62
   250
420
  2301728
370
    13
100
AcDbVertex
100
AcDb2dVertex
 10
4.460856065396556
 20
10.6290354578907
 30
0.0
  0
VERTEX
  5
277
330
239
100
AcDbEntity
  8
H1
 62
   250
420
  2301728
370
    13
100
AcDbVertex
100
AcDb2dVertex
 10
4.460890346522117
 20
10.62938162579242
 30
0.0
  0
VERTEX
  5
278
330
239
100
AcDbEntity
  8
H1
 62
   250
420
  2301728
370
    13
100
AcDbVertex
100
AcDb2dVertex
 10
4.460919635922588
 20
10.62972669083554
 30
0.0
  0
VERTEX
  5
279
330
239
100
AcDbEntity
  8
H1
 62
   250
420
  2301728
370
    13
100
AcDbVertex
100
AcDb2dVertex
 10
4.460943917410481
 20
10.63007046370896
 30
0.0
  0
VERTEX
  5
27A
330
239
100
AcDbEntity
  8
H1
 62
   250
420
  2301728
370
    13
100
AcDbVertex
100
AcDb2dVertex
 10
4.460963177537526
 20
10.63041275579912
 30
0.0
  0
VERTEX
  5
27B
330
239
100
AcDbEntity
  8
H1
 62
   250
420
  2301728
370
    13
100
AcDbVertex
100
AcDb2dVertex
 10
4.46097740560309
 20
10.63075337929294
 30
0.0
  0
VERTEX
  5
27C
330
239
100
AcDbEntity
  8
H1
 62
   250
420
  2301728
370
    13
100
AcDbVertex
100
AcDb2dVertex
 10
4.460986593659678
 20
10.63109214728027
 30
0.0
  0
VERTEX
  5
27D
330
239
100
AcDbEntity
  8
H1
 62
   250
420
  2301728
370
    13
100
AcDbVertex
100
AcDb2dVertex
 10
4.460990736517841
 20
10.63142887385552
 30
0.0
  0
VERTEX
  5
27E
330
239
100
AcDbEntity
  8
H1
 62
   250
420
  2301728
370
    13
100
AcDbVertex
100
AcDb2dVertex
 10
4.460989831749379
 20
10.63176337421943
 30
0.0
  0
VERTEX
  5
27F
330
239
100
AcDbEntity
  8
H1
 62
   250
420
  2301728
370
    13
100
AcDbVertex
100
AcDb2dVertex
 10
4.460983879688784
 20
10.63209546477958
 30
0.0
  0
VERTEX
  5
280
330
239
100
AcDbEntity
  8
H1
 62
   250
420
  2301728
370
    13
100
AcDbVertex
100
AcDb2dVertex
 10
4.460972883433745
 20
10.63242496325077
 30
0.0
  0
VERTEX
  5
281
330
239
100
AcDbEntity
  8
H1
 62
   250
420
  2301728
370
    13
100
AcDbVertex
100
AcDb2dVertex
 10
4.460956848843428
 20
10.63275168875444
 30
0.0
  0
VERTEX
  5
282
330
239
100
AcDbEntity
  8
H1
 62
   250
420
  2301728
370
    13
100
AcDbVertex
100
AcDb2dVertex
 10
4.460935784536003
 20
10.63307546191749
 30
0.0
  0
VERTEX
  5
283
330
239
100
AcDbEntity
  8
H1
 62
   250
420
  2301728
370
    13
100
AcDbVertex
100
AcDb2dVertex
 10
4.460909701884171
 20
10.63339610497038
 30
0.0
  0
VERTEX
  5
284
330
239
100
AcDbEntity
  8
H1
 62
   250
420
  2301728
370
    13
100
AcDbVertex
100
AcDb2dVertex
 10
4.460878615009429
 20
10.63371344184409
 30
0.0
  0
VERTEX
  5
285
330
239
100
AcDbEntity
  8
H1
 62
   250
420
  2301728
370
    13
100
AcDbVertex
100
AcDb2dVertex
 10
4.460842540774693
 20
10.63402729826655
 30
0.0
  0
VERTEX
  5
286
330
239
100
AcDbEntity
  8
H1
 62
   250
420
  2301728
370
    13
100
AcDbVertex
100
AcDb2dVertex
 10
4.460801498775759
 20
10.63433750185795
 30
0.0
  0
VERTEX
  5
287
330
239
100
AcDbEntity
  8
H1
 62
   250
420
  2301728
370
    13
100
AcDbVertex
100
AcDb2dVertex
 10
4.460755511330768
 20
10.63464388222496
 30
0.0
  0
VERTEX
  5
288
330
239
100
AcDbEntity
  8
H1
 62
   250
420
  2301728
370
    13
100
AcDbVertex
100
AcDb2dVertex
 10
4.460704603468709
 20
10.63494627105423
 30
0.0
  0
VERTEX
  5
289
330
239
100
AcDbEntity
  8
H1
 62
   250
420
  2301728
370
    13
100
AcDbVertex
100
AcDb2dVertex
 10
4.460648802916037
 20
10.63524450220439
 30
0.0
  0
VERTEX
  5
28A
330
239
100
AcDbEntity
  8
H1
 62
   250
420
  2301728
370
    13
100
AcDbVertex
100
AcDb2dVertex
 10
4.46058814008216
 20
10.6355384117972
 30
0.0
  0
VERTEX
  5
28B
330
239
100
AcDbEntity
  8
H1
 62
   250
420
  2301728
370
    13
100
AcDbVertex
100
AcDb2dVertex
 10
4.460522648043403
 20
10.6358278383074
 30
0.0
  0
VERTEX
  5
28C
330
239
100
AcDbEntity
  8
H1
 62
   250
420
  2301728
370
    13
100
AcDbVertex
100
AcDb2dVertex
 10
4.4604523625251
 20
10.63611262265139
 30
0.0
  0
VERTEX
  5
28D
330
239
100
AcDbEntity
  8
H1
 62
   250
420
  2301728
370
    13
100
AcDbVertex
100
AcDb2dVertex
 10
4.460377321882914
 20
10.63639260827439
 30
0.0
  0
VERTEX
  5
28E
330
239
100
AcDbEntity
  8
H1
 62
   250
420
  2301728
370
    13
100
AcDbVertex
100
AcDb2dVertex
 10
4.46029756708218
 20
10.63666764123657
 30
0.0
  0
VERTEX
  5
28F
330
239
100
AcDbEntity
  8
H1
 62
   250
420
  2301728
370
    13
100
AcDbVertex
100
AcDb2dVertex
 10
4.460213141676149
 20
10.63693757029767
 30
0.0
  0
VERTEX
  5
290
330
239
100
AcDbEntity
  8
H1
 62
   250
420
  2301728
370
    13
100
AcDbVertex
100
AcDb2dVertex
 10
4.460124091782695
 20
10.63720224700002
 30
0.0
  0
VERTEX
  5
291
330
239
100
AcDbEntity
  8
H1
 62
   250
420
  2301728
370
    13
100
AcDbVertex
100
AcDb2dVertex
 10
4.460030466059581
 20
10.63746152575041
 30
0.0
  0
VERTEX
  5
292
330
239
100
AcDbEntity
  8
H1
 62
   250
420
  2301728
370
    13
100
AcDbVertex
100
AcDb2dVertex
 10
4.459932315678391
 20
10.63771526390016
 30
0.0
  0
VERTEX
  5
293
330
239
100
AcDbEntity
  8
H1
 62
   250
420
  2301728
370
    13
100
AcDbVertex
100
AcDb2dVertex
 10
4.459829694297089
 20
10.63796332182377
 30
0.0
  0
VERTEX
  5
294
330
239
100
AcDbEntity
  8
H1
 62
   250
420
  2301728
370
    13
100
AcDbVertex
100
AcDb2dVertex
 10
4.459722658031246
 20
10.63820556299576
 30
0.0
  0
VERTEX
  5
295
330
239
100
AcDbEntity
  8
H1
 62
   250
420
  2301728
370
    13
100
AcDbVertex
100
AcDb2dVertex
 10
4.459611265423746
 20
10.63844185406632
 30
0.0
  0
VERTEX
  5
296
330
239
100
AcDbEntity
  8
H1
 62
   250
420
  2301728
370
    13
100
AcDbVertex
100
AcDb2dVertex
 10
4.459495577413437
 20
10.63867206493464
 30
0.0
  0
VERTEX
  5
297
330
239
100
AcDbEntity
  8
H1
 62
   250
420
  2301728
370
    13
100
AcDbVertex
100
AcDb2dVertex
 10
4.459375657302189
 20
10.63889606882102
 30
0.0
  0
VERTEX
  5
298
330
239
100
AcDbEntity
  8
H1
 62
   250
420
  2301728
370
    13
100
AcDbVertex
100
AcDb2dVertex
 10
4.459251570720956
 20
10.63911374233685
 30
0.0
  0
VERTEX
  5
299
330
239
100
AcDbEntity
  8
H1
 62
   250
420
  2301728
370
    13
100
AcDbVertex
100
AcDb2dVertex
 10
4.459123385594012
 20
10.63932496555311
 30
0.0
  0
SEQEND
  5
29A
330
239
100
AcDbEntity
  8
H1
 62
   250
420
  2301728
370
    13
  0
POLYLINE
  5
29B
330
220
100
AcDbEntity
  8
H1
 62
   250
420
  2301728
370
    13
100
AcDb2dPolyline
 66
     1
 10
0.0
 20
0.0
 30
0.0
  0
VERTEX
  5
29C
330
29B
100
AcDbEntity
  8
H1
 62
   250
420
  2301728
370
    13
100
AcDbVertex
100
AcDb2dVertex
 10
4.44987431639816
 20
10.62086562876038
 30
0.0
  0
VERTEX
  5
29D
330
29B
100
AcDbEntity
  8
H1
 62
   250
420
  2301728
370
    13
100
AcDbVertex
100
AcDb2dVertex
 10
4.449896100812414
 20
10.62182096324273
 30
0.0
  0
VERTEX
  5
29E
330
29B
100
AcDbEntity
  8
H1
 62
   250
420
  2301728
370
    13
100
AcDbVertex
100
AcDb2dVertex
 10
4.449958045726817
 20
10.62279026205898
 30
0.0
  0
VERTEX
  5
29F
330
29B
100
AcDbEntity
  8
H1
 62
   250
420
  2301728
370
    13
100
AcDbVertex
100
AcDb2dVertex
 10
4.450059882577837
 20
10.62376927737751
 30
0.0
  0
VERTEX
  5
2A0
330
29B
100
AcDbEntity
  8
H1
 62
   250
420
  2301728
370
    13
100
AcDbVertex
100
AcDb2dVertex
 10
4.450201167463395
 20
10.62475371808638
 30
0.0
  0
VERTEX
  5
2A1
330
29B
100
AcDbEntity
  8
H1
 62
   250
420
  2301728
370
    13
100
AcDbVertex
100
AcDb2dVertex
 10
4.450381283059262
 20
10.62573926873433
 30
0.0
  0
VERTEX
  5
2A2
330
29B
100
AcDbEntity
  8
H1
 62
   250
420
  2301728
370
    13
100
AcDbVertex
100
AcDb2dVertex
 10
4.450599441310007
 20
10.62672160858935
 30
0.0
  0
VERTEX
  5
2A3
330
29B
100
AcDbEntity
  8
H1
 62
   250
420
  2301728
370
    13
100
AcDbVertex
100
AcDb2dVertex
 10
4.450854686882823
 20
10.62769643072765
 30
0.0
  0
VERTEX
  5
2A4
330
29B
100
AcDbEntity
  8
H1
 62
   250
420
  2301728
370
    13
100
AcDbVertex
100
AcDb2dVertex
 10
4.451145901369096
 20
10.62865946106634
 30
0.0
  0
VERTEX
  5
2A5
330
29B
100
AcDbEntity
  8
H1
 62
   250
420
  2301728
370
    13
100
AcDbVertex
100
AcDb2dVertex
 10
4.451471808215147
 20
10.62960647725299
 30
0.0
  0
VERTEX
  5
2A6
330
29B
100
AcDbEntity
  8
H1
 62
   250
420
  2301728
370
    13
100
AcDbVertex
100
AcDb2dVertex
 10
4.451830978358885
 20
10.63053332732654
 30
0.0
  0
VERTEX
  5
2A7
330
29B
100
AcDbEntity
  8
H1
 62
   250
420
  2301728
370
    13
100
AcDbVertex
100
AcDb2dVertex
 10
4.452221836548536
 20
10.6314359480632
 30
0.0
  0
VERTEX
  5
2A8
330
29B
100
AcDbEntity
  8
H1
 62
   250
420
  2301728
370
    13
100
AcDbVertex
100
AcDb2dVertex
 10
4.452642668312516
 20
10.6323103829253
 30
0.0
  0
VERTEX
  5
2A9
330
29B
100
AcDbEntity
  8
H1
 62
   250
420
  2301728
370
    13
100
AcDbVertex
100
AcDb2dVertex
 10
4.453091627550444
 20
10.63315279953032
 30
0.0
  0
VERTEX
  5
2AA
330
29B
100
AcDbEntity
  8
H1
 62
   250
420
  2301728
370
    13
100
AcDbVertex
100
AcDb2dVertex
 10
4.4535667447089
 20
10.63395950656112
 30
0.0
  0
VERTEX
  5
2AB
330
29B
100
AcDbEntity
  8
H1
 62
   250
420
  2301728
370
    13
100
AcDbVertex
100
AcDb2dVertex
 10
4.454065935505443
 20
10.63472697004108
 30
0.0
  0
VERTEX
  5
2AC
330
29B
100
AcDbEntity
  8
H1
 62
   250
420
  2301728
370
    13
100
AcDbVertex
100
AcDb2dVertex
 10
4.45458701016024
 20
10.63545182889982
 30
0.0
  0
VERTEX
  5
2AD
330
29B
100
AcDbEntity
  8
H1
 62
   250
420
  2301728
370
    13
100
AcDbVertex
100
AcDb2dVertex
 10
4.455127683093147
 20
10.63613090976054
 30
0.0
  0
VERTEX
  5
2AE
330
29B
100
AcDbEntity
  8
H1
 62
   250
420
  2301728
370
    13
100
AcDbVertex
100
AcDb2dVertex
 10
4.455685583041233
 20
10.63676124088173
 30
0.0
  0
VERTEX
  5
2AF
330
29B
100
AcDbEntity
  8
H1
 62
   250
420
  2301728
370
    13
100
AcDbVertex
100
AcDb2dVertex
 10
4.45625826355101
 20
10.63734006519189
 30
0.0
  0
VERTEX
  5
2B0
330
29B
100
AcDbEntity
  8
H1
 62
   250
420
  2301728
370
    13
100
AcDbVertex
100
AcDb2dVertex
 10
4.456843213796977
 20
10.63786485235903
 30
0.0
  0
VERTEX
  5
2B1
330
29B
100
AcDbEntity
  8
H1
 62
   250
420
  2301728
370
    13
100
AcDbVertex
100
AcDb2dVertex
 10
4.457437869676697
 20
10.63833330984222
 30
0.0
  0
VERTEX
  5
2B2
330
29B
100
AcDbEntity
  8
H1
 62
   250
420
  2301728
370
    13
100
AcDbVertex
100
AcDb2dVertex
 10
4.458039625132693
 20
10.63874339287746
 30
0.0
  0
VERTEX
  5
2B3
330
29B
100
AcDbEntity
  8
H1
 62
   250
420
  2301728
370
    13
100
AcDbVertex
100
AcDb2dVertex
 10
4.458645843649062
 20
10.63909331335385
 30
0.0
  0
VERTEX
  5
2B4
330
29B
100
AcDbEntity
  8
H1
 62
   250
420
  2301728
370
    13
100
AcDbVertex
100
AcDb2dVertex
 10
4.459253869870963
 20
10.63938154754362
 30
0.0
  0
VERTEX
  5
2B5
330
29B
100
AcDbEntity
  8
H1
 62
   250
420
  2301728
370
    13
100
AcDbVertex
100
AcDb2dVertex
 10
4.459861041294567
 20
10.63960684265279
 30
0.0
  0
VERTEX
  5
2B6
330
29B
100
AcDbEntity
  8
H1
 62
   250
420
  2301728
370
    13
100
AcDbVertex
100
AcDb2dVertex
 10
4.460464699975142
 20
10.63976822216671
 30
0.0
  0
VERTEX
  5
2B7
330
29B
100
AcDbEntity
  8
H1
 62
   250
420
  2301728
370
    13
100
AcDbVertex
100
AcDb2dVertex
 10
4.46106220420087
 20
10.63986498996841
 30
0.0
  0
VERTEX
  5
2B8
330
29B
100
AcDbEntity
  8
H1
 62
   250
420
  2301728
370
    13
100
AcDbVertex
100
AcDb2dVertex
 10
4.461650940079886
 20
10.63989673321545
 30
0.0
  0
VERTEX
  5
2B9
330
29B
100
AcDbEntity
  8
H1
 62
   250
420
  2301728
370
    13
100
AcDbVertex
100
AcDb2dVertex
 10
4.462228332990738
 20
10.63986332396473
 30
0.0
  0
VERTEX
  5
2BA
330
29B
100
AcDbEntity
  8
H1
 62
   250
420
  2301728
370
    13
100
AcDbVertex
100
AcDb2dVertex
 10
4.462791858843653
 20
10.63976491954208
 30
0.0
  0
VERTEX
  5
2BB
330
29B
100
AcDbEntity
  8
H1
 62
   250
420
  2301728
370
    13
100
AcDbVertex
100
AcDb2dVertex
 10
4.463339055105785
 20
10.6396019616578
 30
0.0
  0
VERTEX
  5
2BC
330
29B
100
AcDbEntity
  8
H1
 62
   250
420
  2301728
370
    13
100
AcDbVertex
100
AcDb2dVertex
 10
4.46386753154027
 20
10.63937517427564
 30
0.0
  0
VERTEX
  5
2BD
330
29B
100
AcDbEntity
  8
H1
 62
   250
420
  2301728
370
    13
100
AcDbVertex
100
AcDb2dVertex
 10
4.464374980613911
 20
10.63908556024806
 30
0.0
  0
VERTEX
  5
2BE
330
29B
100
AcDbEntity
  8
H1
 62
   250
420
  2301728
370
    13
100
AcDbVertex
100
AcDb2dVertex
 10
4.464859187528772
 20
10.63873439673605
 30
0.0
  0
VERTEX
  5
2BF
330
29B
100
AcDbEntity
  8
H1
 62
   250
420
  2301728
370
    13
100
AcDbVertex
100
AcDb2dVertex
 10
4.465318039834124
 20
10.63832322943656
 30
0.0
  0
VERTEX
  5
2C0
330
29B
100
AcDbEntity
  8
H1
 62
   250
420
  2301728
370
    13
100
AcDbVertex
100
AcDb2dVertex
 10
4.465749536578439
 20
10.63785386564675
 30
0.0
  0
VERTEX
  5
2C1
330
29B
100
AcDbEntity
  8
H1
 62
   250
420
  2301728
370
    13
100
AcDbVertex
100
AcDb2dVertex
 10
4.466151796962928
 20
10.63732836619756
 30
0.0
  0
VERTEX
  5
2C2
330
29B
100
AcDbEntity
  8
H1
 62
   250
420
  2301728
370
    13
100
AcDbVertex
100
AcDb2dVertex
 10
4.466523068460573
 20
10.6367490362955
 30
0.0
  0
VERTEX
  5
2C3
330
29B
100
AcDbEntity
  8
H1
 62
   250
420
  2301728
370
    13
100
AcDbVertex
100
AcDb2dVertex
 10
4.466861734366526
 20
10.63611841531499
 30
0.0
  0
VERTEX
  5
2C4
330
29B
100
AcDbEntity
  8
H1
 62
   250
420
  2301728
370
    13
100
AcDbVertex
100
AcDb2dVertex
 10
4.467166320749331
 20
10.63543926558773
 30
0.0
  0
VERTEX
  5
2C5
330
29B
100
AcDbEntity
  8
H1
 62
   250
420
  2301728
370
    13
100
AcDbVertex
100
AcDb2dVertex
 10
4.467435502774505
 20
10.63471456024081
 30
0.0
  0
VERTEX
  5
2C6
330
29B
100
AcDbEntity
  8
H1
 62
   250
420
  2301728
370
    13
100
AcDbVertex
100
AcDb2dVertex
 10
4.467668110374334
 20
10.63394747013719
 30
0.0
  0
VERTEX
  5
2C7
330
29B
100
AcDbEntity
  8
H1
 62
   250
420
  2301728
370
    13
100
AcDbVertex
100
AcDb2dVertex
 10
4.467863133242796
 20
10.6331413499774
 30
0.0
  0
VERTEX
  5
2C8
330
29B
100
AcDbEntity
  8
H1
 62
   250
420
  2301728
370
    13
100
AcDbVertex
100
AcDb2dVertex
 10
4.468019725133849
 20
10.63229972362353
 30
0.0
  0
VERTEX
  5
2C9
330
29B
100
AcDbEntity
  8
H1
 62
   250
420
  2301728
370
    13
100
AcDbVertex
100
AcDb2dVertex
 10
4.468137207447954
 20
10.63142626870964
 30
0.0
  0
VERTEX
  5
2CA
330
29B
100
AcDbEntity
  8
H1
 62
   250
420
  2301728
370
    13
100
AcDbVertex
100
AcDb2dVertex
 10
4.468215072092486
 20
10.63052480060585
 30
0.0
  0
VERTEX
  5
2CB
330
29B
100
AcDbEntity
  8
H1
 62
   250
420
  2301728
370
    13
100
AcDbVertex
100
AcDb2dVertex
 10
4.468252983605453
 20
10.62959925580517
 30
0.0
  0
VERTEX
  5
2CC
330
29B
100
AcDbEntity
  8
H1
 62
   250
420
  2301728
370
    13
100
AcDbVertex
100
AcDb2dVertex
 10
4.468250780534971
 20
10.62865367480458
 30
0.0
  0
VERTEX
  5
2CD
330
29B
100
AcDbEntity
  8
H1
 62
   250
420
  2301728
370
    13
100
AcDbVertex
100
AcDb2dVertex
 10
4.468208476069675
 20
10.62769218455369
 30
0.0
  0
VERTEX
  5
2CE
330
29B
100
AcDbEntity
  8
H1
 62
   250
420
  2301728
370
    13
100
AcDbVertex
100
AcDb2dVertex
 10
4.46812625791967
 20
10.62671898054521
 30
0.0
  0
VERTEX
  5
2CF
330
29B
100
AcDbEntity
  8
H1
 62
   250
420
  2301728
370
    13
100
AcDbVertex
100
AcDb2dVertex
 10
4.468004487447716
 20
10.62573830862402
 30
0.0
  0
VERTEX
  5
2D0
330
29B
100
AcDbEntity
  8
H1
 62
   250
420
  2301728
370
    13
100
AcDbVertex
100
AcDb2dVertex
 10
4.46784369805765
 20
10.62475444659071
 30
0.0
  0
VERTEX
  5
2D1
330
29B
100
AcDbEntity
  8
H1
 62
   250
420
  2301728
370
    13
100
AcDbVertex
100
AcDb2dVertex
 10
4.467644592845368
 20
10.62377168567775
 30
0.0
  0
VERTEX
  5
2D2
330
29B
100
AcDbEntity
  8
H1
 62
   250
420
  2301728
370
    13
100
AcDbVertex
100
AcDb2dVertex
 10
4.467408041524398
 20
10.62279431197597
 30
0.0
  0
VERTEX
  5
2D3
330
29B
100
AcDbEntity
  8
H1
 62
   250
420
  2301728
370
    13
100
AcDbVertex
100
AcDb2dVertex
 10
4.46713507663925
 20
10.62182658788903
 30
0.0
  0
VERTEX
  5
2D4
330
29B
100
AcDbEntity
  8
H1
 62
   250
420
  2301728
370
    13
100
AcDbVertex
100
AcDb2dVertex
 10
4.46682688908211
 20
10.62087273369385
 30
0.0
  0
VERTEX
  5
2D5
330
29B
100
AcDbEntity
  8
H1
 62
   250
420
  2301728
370
    13
100
AcDbVertex
100
AcDb2dVertex
 10
4.466484822932822
 20
10.61993690928402
 30
0.0
  0
VERTEX
  5
2D6
330
29B
100
AcDbEntity
  8
H1
 62
   250
420
  2301728
370
    13
100
AcDbVertex
100
AcDb2dVertex
 10
4.466110369643375
 20
10.61902319617255
 30
0.0
  0
VERTEX
  5
2D7
330
29B
100
AcDbEntity
  8
H1
 62
   250
420
  2301728
370
    13
100
AcDbVertex
100
AcDb2dVertex
 10
4.465705161591359
 20
10.61813557982946
 30
0.0
  0
VERTEX
  5
2D8
330
29B
100
AcDbEntity
  8
H1
 62
   250
420
  2301728
370
    13
100
AcDbVertex
100
AcDb2dVertex
 10
4.465270965029402
 20
10.61727793242808
 30
0.0
  0
VERTEX
  5
2D9
330
29B
100
AcDbEntity
  8
H1
 62
   250
420
  2301728
370
    13
100
AcDbVertex
100
AcDb2dVertex
 10
4.464809672459674
 20
10.61645399607259
 30
0.0
  0
VERTEX
  5
2DA
330
29B
100
AcDbEntity
  8
H1
 62
   250
420
  2301728
370
    13
100
AcDbVertex
100
AcDb2dVertex
 10
4.464323294465278
 20
10.61566736657707
 30
0.0
  0
VERTEX
  5
2DB
330
29B
100
AcDbEntity
  8
H1
 62
   250
420
  2301728
370
    13
100
AcDbVertex
100
AcDb2dVertex
 10
4.463813951032408
 20
10.61492147786518
 30
0.0
  0
VERTEX
  5
2DC
330
29B
100
AcDbEntity
  8
H1
 62
   250
420
  2301728
370
    13
100
AcDbVertex
100
AcDb2dVertex
 10
4.463283862399041
 20
10.61421958705581
 30
0.0
  0
VERTEX
  5
2DD
330
29B
100
AcDbEntity
  8
H1
 62
   250
420
  2301728
370
    13
100
AcDbVertex
100
AcDb2dVertex
 10
4.462735339468231
 20
10.61356476029848
 30
0.0
  0
VERTEX
  5
2DE
330
29B
100
AcDbEntity
  8
H1
 62
   250
420
  2301728
370
    13
100
AcDbVertex
100
AcDb2dVertex
 10
4.462170773826023
 20
10.61295985941909
 30
0.0
  0
VERTEX
  5
2DF
330
29B
100
AcDbEntity
  8
H1
 62
   250
420
  2301728
370
    13
100
AcDbVertex
100
AcDb2dVertex
 10
4.461592627405025
 20
10.61240752943344
 30
0.0
  0
VERTEX
  5
2E0
330
29B
100
AcDbEntity
  8
H1
 62
   250
420
  2301728
370
    13
100
AcDbVertex
100
AcDb2dVertex
 10
4.461003421837201
 20
10.61191018698261
 30
0.0
  0
VERTEX
  5
2E1
330
29B
100
AcDbEntity
  8
H1
 62
   250
420
  2301728
370
    13
100
AcDbVertex
100
AcDb2dVertex
 10
4.460405727540092
 20
10.61147000974069
 30
0.0
  0
VERTEX
  5
2E2
330
29B
100
AcDbEntity
  8
H1
 62
   250
420
  2301728
370
    13
100
AcDbVertex
100
AcDb2dVertex
 10
4.459802152582092
 20
10.6110889268417
 30
0.0
  0
VERTEX
  5
2E3
330
29B
100
AcDbEntity
  8
H1
 62
   250
420
  2301728
370
    13
100
AcDbVertex
100
AcDb2dVertex
 10
4.459195331374404
 20
10.61076861036841
 30
0.0
  0
VERTEX
  5
2E4
330
29B
100
AcDbEntity
  8
H1
 62
   250
420
  2301728
370
    13
100
AcDbVertex
100
AcDb2dVertex
 10
4.458587913236341
 20
10.61051046794144
 30
0.0
  0
VERTEX
  5
2E5
330
29B
100
AcDbEntity
  8
H1
 62
   250
420
  2301728
370
    13
100
AcDbVertex
100
AcDb2dVertex
 10
4.457982550883116
 20
10.61031563644307
 30
0.0
  0
VERTEX
  5
2E6
330
29B
100
AcDbEntity
  8
H1
 62
   250
420
  2301728
370
    13
100
AcDbVertex
100
AcDb2dVertex
 10
4.457381888885417
 20
10.61018497690492
 30
0.0
  0
VERTEX
  5
2E7
330
29B
100
AcDbEntity
  8
H1
 62
   250
420
  2301728
370
    13
100
AcDbVertex
100
AcDb2dVertex
 10
4.456788552149596
 20
10.61011907058453
 30
0.0
  0
VERTEX
  5
2E8
330
29B
100
AcDbEntity
  8
H1
 62
   250
420
  2301728
370
    13
100
AcDbVertex
100
AcDb2dVertex
 10
4.456205134468316
 20
10.61011821625097
 30
0.0
  0
VERTEX
  5
2E9
330
29B
100
AcDbEntity
  8
H1
 62
   250
420
  2301728
370
    13
100
AcDbVertex
100
AcDb2dVertex
 10
4.455634187191612
 20
10.61018242869348
 30
0.0
  0
VERTEX
  5
2EA
330
29B
100
AcDbEntity
  8
H1
 62
   250
420
  2301728
370
    13
100
AcDbVertex
100
AcDb2dVertex
 10
4.455078208066677
 20
10.61031143846436
 30
0.0
  0
VERTEX
  5
2EB
330
29B
100
AcDbEntity
  8
H1
 62
   250
420
  2301728
370
    13
100
AcDbVertex
100
AcDb2dVertex
 10
4.454539630296495
 20
10.6105046928589
 30
0.0
  0
VERTEX
  5
2EC
330
29B
100
AcDbEntity
  8
H1
 62
   250
420
  2301728
370
    13
100
AcDbVertex
100
AcDb2dVertex
 10
4.454020811864413
 20
10.6107613581328
 30
0.0
  0
VERTEX
  5
2ED
330
29B
100
AcDbEntity
  8
H1
 62
   250
420
  2301728
370
    13
100
AcDbVertex
100
AcDb2dVertex
 10
4.453524025172555
 20
10.61108032295042
 30
0.0
  0
VERTEX
  5
2EE
330
29B
100
AcDbEntity
  8
H1
 62
   250
420
  2301728
370
    13
100
AcDbVertex
100
AcDb2dVertex
 10
4.45305144704005
 20
10.61146020305192
 30
0.0
  0
VERTEX
  5
2EF
330
29B
100
AcDbEntity
  8
H1
 62
   250
420
  2301728
370
    13
100
AcDbVertex
100
AcDb2dVertex
 10
4.452605149105946
 20
10.61189934712294
 30
0.0
  0
VERTEX
  5
2F0
330
29B
100
AcDbEntity
  8
H1
 62
   250
420
  2301728
370
    13
100
AcDbVertex
100
AcDb2dVertex
 10
4.452187088680199
 20
10.6123958438437
 30
0.0
  0
VERTEX
  5
2F1
330
29B
100
AcDbEntity
  8
H1
 62
   250
420
  2301728
370
    13
100
AcDbVertex
100
AcDb2dVertex
 10
4.451799100084322
 20
10.61294753009011
 30
0.0
  0
VERTEX
  5
2F2
330
29B
100
AcDbEntity
  8
H1
 62
   250
420
  2301728
370
    13
100
AcDbVertex
100
AcDb2dVertex
 10
4.451442886521312
 20
10.61355200025351
 30
0.0
  0
VERTEX
  5
2F3
330
29B
100
AcDbEntity
  8
H1
 62
   250
420
  2301728
370
    13
100
AcDbVertex
100
AcDb2dVertex
 10
4.451120012511788
 20
10.61420661664124
 30
0.0
  0
VERTEX
  5
2F4
330
29B
100
AcDbEntity
  8
H1
 62
   250
420
  2301728
370
    13
100
AcDbVertex
100
AcDb2dVertex
 10
4.450831896932843
 20
10.61490852091379
 30
0.0
  0
VERTEX
  5
2F5
330
29B
100
AcDbEntity
  8
H1
 62
   250
420
  2301728
370
    13
100
AcDbVertex
100
AcDb2dVertex
 10
4.450579806690357
 20
10.61565464651111
 30
0.0
  0
VERTEX
  5
2F6
330
29B
100
AcDbEntity
  8
H1
 62
   250
420
  2301728
370
    13
100
AcDbVertex
100
AcDb2dVertex
 10
4.450364851056015
 20
10.61644173201449
 30
0.0
  0
VERTEX
  5
2F7
330
29B
100
AcDbEntity
  8
H1
 62
   250
420
  2301728
370
    13
100
AcDbVertex
100
AcDb2dVertex
 10
4.450187976694957
 20
10.61726633538648
 30
0.0
  0
VERTEX
  5
2F8
330
29B
100
AcDbEntity
  8
H1
 62
   250
420
  2301728
370
    13
100
AcDbVertex
100
AcDb2dVertex
 10
4.450049963408926
 20
10.61812484902735
 30
0.0
  0
VERTEX
  5
2F9
330
29B
100
AcDbEntity
  8
H1
 62
   250
420
  2301728
370
    13
100
AcDbVertex
100
AcDb2dVertex
 10
4.449951420614576
 20
10.61901351558155
 30
0.0
  0
VERTEX
  5
2FA
330
29B
100
AcDbEntity
  8
H1
 62
   250
420
  2301728
370
    13
100
AcDbVertex
100
AcDb2dVertex
 10
4.449892784574987
 20
10.61992844442505
 30
0.0
  0
VERTEX
  5
2FB
330
29B
100
AcDbEntity
  8
H1
 62
   250
420
  2301728
370
    13
100
AcDbVertex
100
AcDb2dVertex
 10
4.44987431639816
 20
10.62086562876038
 30
0.0
  0
SEQEND
  5
2FC
330
29B
100
AcDbEntity
  8
H1
 62
   250
420
  2301728
370
    13
  0
SPLINE
  5
2FD
330
220
100
AcDbEntity
  8
H1
 62
   250
420
  2301728
370
    13
100
AcDbSpline
210
0.0
220
0.0
230
1.0
 70
     8
 71
     3
 72
    14
 73
    10
 74
     0
 42
0.0000000001
 43
0.0000000001
 12
1.0
 22
0.0
 32
0.0
 13
1.0
 23
0.0
 33
0.0
 40
0.0
 40
0.0
 40
0.0
 40
0.0
 40
1.0
 40
1.0
 40
1.0
 40
2.0
 40
2.0
 40
2.0
 40
3.0
 40
3.0
 40
3.0
 40
3.0
 10
4.475841332269889
 20
10.76678211407974
 30
0.0
 10
4.475841332269889
 20
10.76678211407974
 30
0.0
 10
4.393838454359436
 20
10.59807166197993
 30
0.0
 10
4.393838454359436
 20
10.59807166197993
 30
0.0
 10
4.390571658166613
 20
10.59028092807974
 30
0.0
 10
4.391633930832768
 20
10.58273918352858
 30
0.0
 10
4.395664322588143
 20
10.57555381508416
 30
0.0
 10
4.395664322588143
 20
10.57555381508416
 30
0.0
 10
4.495026751334863
 20
10.42350998467507
 30
0.0
 10
4.495026751334863
 20
10.42350998467507
 30
0.0
  0
POLYLINE
  5
2FE
330
220
100
AcDbEntity
  8
H1
 62
   250
420
  2301728
370
     5
100
AcDb2dPolyline
 66
     1
 10
0.0
 20
0.0
 30
0.0
  0
VERTEX
  5
2FF
330
2FE
100
AcDbEntity
  8
H1
 62
   250
420
  2301728
370
     5
100
AcDbVertex
100
AcDb2dVertex
 10
4.456083816043802
 20
10.22253756842677
 30
0.0
  0
VERTEX
  5
300
330
2FE
100
AcDbEntity
  8
H1
 62
   250
420
  2301728
370
     5
100
AcDbVertex
100
AcDb2dVertex
 10
4.420707155407298
 20
10.27537054834314
 30
0.0
  0
SEQEND
  5
301
330
2FE
100
AcDbEntity
  8
H1
 62
   250
420
  2301728
370
     5
  0
SPLINE
  5
302
330
220
100
AcDbEntity
  8
H1
 62
   250
420
  2301728
370
    13
100
AcDbSpline
210
0.0
220
0.0
230
1.0
 70
     8
 71
     3
 72
    20
 73
    16
 74
     0
 42
0.0000000001
 43
0.0000000001
 12
1.0
 22
0.0
 32
0.0
 13
1.0
 23
0.0
 33
0.0
 40
0.0
 40
0.0
 40
0.0
 40
0.0
 40
1.0
 40
1.0
 40
1.0
 40
2.0
 40
2.0
 40
2.0
 40
3.0
 40
3.0
 40
3.0
 40
4.0
 40
4.0
 40
4.0
 40
5.0
 40
5.0
 40
5.0
 40
5.0
 10
4.410654334648876
 20
10.29038384295312
 30
0.0
 10
4.40487880251395
 20
10.29900926271417
 30
0.0
 10
4.402663166411634
 20
10.31416221315413
 30
0.0
 10
4.409804415579325
 20
10.31981093272249
 30
0.0
 10
4.421068649319093
 20
10.32831614102645
 30
0.0
 10
4.431983901145688
 20
10.32524876462599
 30
0.0
 10
4.440298058404652
 20
10.3130850066024
 30
0.0
 10
4.440298058404652
 20
10.3130850066024
 30
0.0
 10
4.496435380918531
 20
10.22928480976277
 30
0.0
 10
4.496435380918531
 20
10.22928480976277
 30
0.0
 10
4.505884437003159
 20
10.21350354853896
 30
0.0
 10
4.503678574744602
 20
10.20045554662732
 30
0.0
 10
4.487228231489754
 20
10.19443599345654
 30
0.0
 10
4.478837268114906
 20
10.1948692159062
 30
0.0
 10
4.471271420182145
 20
10.19985576775662
 30
0.0
 10
4.466672333525417
 20
10.20672423493948
 30
0.0
  0
POLYLINE
  5
303
330
220
100
AcDbEntity
  8
H1
 62
   250
420
  2301728
370
     5
100
AcDb2dPolyline
 66
     1
 10
0.0
 20
0.0
 30
0.0
  0
VERTEX
  5
304
330
303
100
AcDbEntity
  8
H1
 62
   250
420
  2301728
370
     5
100
AcDbVertex
100
AcDb2dVertex
 10
4.459817212128706
 20
10.34596196463576
 30
0.0
  0
VERTEX
  5
305
330
303
100
AcDbEntity
  8
H1
 62
   250
420
  2301728
370
     5
100
AcDbVertex
100
AcDb2dVertex
 10
4.418588072391407
 20
10.4074820730495
 30
0.0
  0
SEQEND
  5
306
330
303
100
AcDbEntity
  8
H1
 62
   250
420
  2301728
370
     5
  0
POLYLINE
  5
307
330
220
100
AcDbEntity
  8
H1
 62
   250
420
  2301728
370
     5
100
AcDb2dPolyline
 66
     1
 10
0.0
 20
0.0
 30
0.0
  0
VERTEX
  5
308
330
307
100
AcDbEntity
  8
H1
 62
   250
420
  2301728
370
     5
100
AcDbVertex
100
AcDb2dVertex
 10
4.518051451315968
 20
10.2590676774636
 30
0.0
  0
VERTEX
  5
309
330
307
100
AcDbEntity
  8
H1
 62
   250
420
  2301728
370
     5
100
AcDbVertex
100
AcDb2dVertex
 10
4.471359394733907
 20
10.32873928354837
 30
0.0
  0
SEQEND
  5
30A
330
307
100
AcDbEntity
  8
H1
 62
   250
420
  2301728
370
     5
  0
POLYLINE
  5
30B
330
220
100
AcDbEntity
  8
H1
 62
   250
420
  2301728
370
     5
100
AcDb2dPolyline
 66
     1
 10
0.0
 20
0.0
 30
0.0
  0
VERTEX
  5
30C
330
30B
100
AcDbEntity
  8
H1
 62
   250
420
  2301728
370
     5
100
AcDbVertex
100
AcDb2dVertex
 10
4.567804716039821
 20
10.18482828613363
 30
0.0
  0
VERTEX
  5
30D
330
30B
100
AcDbEntity
  8
H1
 62
   250
420
  2301728
370
     5
100
AcDbVertex
100
AcDb2dVertex
 10
4.529675821571547
 20
10.24172235998229
 30
0.0
  0
SEQEND
  5
30E
330
30B
100
AcDbEntity
  8
H1
 62
   250
420
  2301728
370
     5
  0
SPLINE
  5
30F
330
220
100
AcDbEntity
  8
H1
 62
   250
420
  2301728
370
    13
100
AcDbSpline
210
0.0
220
0.0
230
1.0
 70
     8
 71
     3
 72
     8
 73
     4
 74
     0
 42
0.0000000001
 43
0.0000000001
 12
1.0
 22
0.0
 32
0.0
 13
1.0
 23
0.0
 33
0.0
 40
0.0
 40
0.0
 40
0.0
 40
0.0
 40
1.0
 40
1.0
 40
1.0
 40
1.0
 10
4.599854280625423
 20
10.15561922488522
 30
0.0
 10
4.591388954073156
 20
10.15603245145573
 30
0.0
 10
4.583741494126216
 20
10.16104819352557
 30
0.0
 10
4.579099170034421
 20
10.16797524306151
 30
0.0
  0
SPLINE
  5
310
330
220
100
AcDbEntity
  8
H1
 62
   250
420
  2301728
370
    13
100
AcDbSpline
210
0.0
220
0.0
230
1.0
 70
     8
 71
     3
 72
     8
 73
     4
 74
     0
 42
0.0000000001
 43
0.0000000001
 12
1.0
 22
0.0
 32
0.0
 13
1.0
 23
0.0
 33
0.0
 40
0.0
 40
0.0
 40
0.0
 40
0.0
 40
1.0
 40
1.0
 40
1.0
 40
1.0
 10
4.410727693305337
 20
10.41921094673805
 30
0.0
 10
4.404886225721031
 20
10.42792729969493
 30
0.0
 10
4.403674981775465
 20
10.44011103949116
 30
0.0
 10
4.409959832683676
 20
10.4489364104564
 30
0.0
  0
INSERT
  5
312
330
220
100
AcDbEntity
  8
H1
100
AcDbBlockReference
  2
block 18
 10
0.0
 20
0.0
 30
0.0
  0
INSERT
  5
31D
330
220
100
AcDbEntity
  8
H1
100
AcDbBlockReference
  2
block 20
 10
0.0
 20
0.0
 30
0.0
  0
ENDBLK
  5
223
330
220
100
AcDbEntity
  8
0
100
AcDbBlockEnd
  0
BLOCK
  5
313
330
311
100
AcDbEntity
  8
0
100
AcDbBlockBegin
  2
block 18
 70
     0
 10
0.0
 20
0.0
 30
0.0
  3
block 18
  1

  0
INSERT
  5
316
330
311
100
AcDbEntity
  8
H1
100
AcDbBlockReference
  2
block 19
 10
0.0
 20
0.0
 30
0.0
  0
ENDBLK
  5
314
330
311
100
AcDbEntity
  8
0
100
AcDbBlockEnd
  0
BLOCK
  5
317
330
315
100
AcDbEntity
  8
0
100
AcDbBlockBegin
  2
block 19
 70
     0
 10
0.0
 20
0.0
 30
0.0
  3
block 19
  1

  0
SPLINE
  5
319
330
315
100
AcDbEntity
  8
H1
 62
   250
420
  2301728
370
    13
100
AcDbSpline
210
0.0
220
0.0
230
1.0
 70
    11
 71
     3
 72
    35
 73
    31
 74
     0
 42
0.0000000001
 43
0.0000000001
 12
1.0
 22
0.0
 32
0.0
 13
1.0
 23
0.0
 33
0.0
 40
0.0
 40
0.0
 40
0.0
 40
0.0
 40
1.0
 40
1.0
 40
1.0
 40
2.0
 40
2.0
 40
2.0
 40
3.0
 40
3.0
 40
3.0
 40
4.0
 40
4.0
 40
4.0
 40
5.0
 40
5.0
 40
5.0
 40
6.0
 40
6.0
 40
6.0
 40
7.0
 40
7.0
 40
7.0
 40
8.0
 40
8.0
 40
8.0
 40
9.0
 40
9.0
 40
9.0
 40
10.0
 40
10.0
 40
10.0
 40
10.0
 10
4.442307881389246
 20
10.62169366163761
 30
0.0
 10
4.442120607042954
 20
10.62392908296653
 30
0.0
 10
4.442172685943685
 20
10.62628248855612
 30
0.0
 10
4.442494286451721
 20
10.62868992769774
 30
0.0
 10
4.44285460601471
 20
10.63134181727666
 30
0.0
 10
4.443514323966054
 20
10.6338385408944
 30
0.0
 10
4.444412430830703
 20
10.63610619932399
 30
0.0
 10
4.444412430830703
 20
10.63610619932399
 30
0.0
 10
4.444466982980026
 20
10.63608525876617
 30
0.0
 10
4.444466982980026
 20
10.63608525876617
 30
0.0
 10
4.447629680103319
 20
10.64406923216335
 30
0.0
 10
4.453710668800037
 20
10.64923683357056
 30
0.0
 10
4.459959898381738
 20
10.64830040453698
 30
0.0
 10
4.461663410929557
 20
10.64804754756008
 30
0.0
 10
4.465817135614088
 20
10.6464135257852
 30
0.0
 10
4.466451769444322
 20
10.64634670570081
 30
0.0
 10
4.474525148573472
 20
10.64535762601978
 30
0.0
 10
4.480036018013076
 20
10.63476442384702
 30
0.0
 10
4.478796347128966
 20
10.622664837711
 30
0.0
 10
4.477510212454086
 20
10.61057973269821
 30
0.0
 10
4.469966853888208
 20
10.60155968567369
 30
0.0
 10
4.461895031020251
 20
10.60253583343154
 30
0.0
 10
4.460051025208839
 20
10.60274825691556
 30
0.0
 10
4.455045656936514
 20
10.60450773750994
 30
0.0
 10
4.454110402702806
 20
10.6046469817625
 30
0.0
 10
4.44769277364978
 20
10.60562165077969
 30
0.0
 10
4.443139198494817
 20
10.6127226974747
 30
0.0
 10
4.442390460432711
 20
10.62170127401153
 30
0.0
 10
4.442390460432711
 20
10.62170127401153
 30
0.0
 10
4.442307881389246
 20
10.62169366163761
 30
0.0
 10
4.442307881389246
 20
10.62169366163761
 30
0.0
  0
HATCH
  5
31A
330
315
100
AcDbEntity
  8
H1
 62
   254
420
 13358815
100
AcDbHatch
 10
0.0
 20
0.0
 30
0.0
210
0.0
220
0.0
230
1.0
  2
SOLID
 70
     1
 71
     0
 91
        1
 92
        1
 93
        1
 72
     4
 94
        3
 73
     0
 74
     1
 95
       35
 96
       31
 40
0.0
 40
0.0
 40
0.0
 40
0.0
 40
1.0
 40
1.0
 40
1.0
 40
2.0
 40
2.0
 40
2.0
 40
3.0
 40
3.0
 40
3.0
 40
4.0
 40
4.0
 40
4.0
 40
5.0
 40
5.0
 40
5.0
 40
6.0
 40
6.0
 40
6.0
 40
7.0
 40
7.0
 40
7.0
 40
8.0
 40
8.0
 40
8.0
 40
9.0
 40
9.0
 40
9.0
 40
10.0
 40
10.0
 40
10.0
 40
10.0
 10
4.442307881389246
 20
10.62169366163761
 10
4.442120607042954
 20
10.62392908296653
 10
4.442172685943685
 20
10.62628248855612
 10
4.442494286451721
 20
10.62868992769774
 10
4.44285460601471
 20
10.63134181727666
 10
4.443514323966054
 20
10.6338385408944
 10
4.444412430830703
 20
10.63610619932399
 10
4.444412430830703
 20
10.63610619932399
 10
4.444466982980026
 20
10.63608525876617
 10
4.444466982980026
 20
10.63608525876617
 10
4.447629680103319
 20
10.64406923216335
 10
4.453710668800037
 20
10.64923683357056
 10
4.459959898381738
 20
10.64830040453698
 10
4.461663410929557
 20
10.64804754756008
 10
4.465817135614088
 20
10.6464135257852
 10
4.466451769444322
 20
10.64634670570081
 10
4.474525148573472
 20
10.64535762601978
 10
4.480036018013076
 20
10.63476442384702
 10
4.478796347128966
 20
10.622664837711
 10
4.477510212454086
 20
10.61057973269821
 10
4.469966853888208
 20
10.60155968567369
 10
4.461895031020251
 20
10.60253583343154
 10
4.460051025208839
 20
10.60274825691556
 10
4.455045656936514
 20
10.60450773750994
 10
4.454110402702806
 20
10.6046469817625
 10
4.44769277364978
 20
10.60562165077969
 10
4.443139198494817
 20
10.6127226974747
 10
4.442390460432711
 20
10.62170127401153
 10
4.442390460432711
 20
10.62170127401153
 10
4.442307881389246
 20
10.62169366163761
 10
4.442307881389246
 20
10.62169366163761
 97
        0
 97
        0
 75
     2
 76
     1
 98
        0
  0
SPLINE
  5
31B
330
315
100
AcDbEntity
  8
H1
 62
   250
420
  2301728
370
     5
100
AcDbSpline
210
0.0
220
0.0
230
1.0
 70
    11
 71
     3
 72
    17
 73
    13
 74
     0
 42
0.0000000001
 43
0.0000000001
 12
1.0
 22
0.0
 32
0.0
 13
1.0
 23
0.0
 33
0.0
 40
0.0
 40
0.0
 40
0.0
 40
0.0
 40
1.0
 40
1.0
 40
1.0
 40
2.0
 40
2.0
 40
2.0
 40
3.0
 40
3.0
 40
3.0
 40
4.0
 40
4.0
 40
4.0
 40
4.0
 10
4.449695030225686
 20
10.62718610166759
 30
0.0
 10
4.447364497656154
 20
10.6152411813329
 30
0.0
 10
4.4519120404143
 20
10.60419916985796
 30
0.0
 10
4.459854280119897
 20
10.60250644769727
 30
0.0
 10
4.467802716798158
 20
10.60082765050983
 30
0.0
 10
4.476122246301075
 20
10.60914781403815
 30
0.0
 10
4.478475710819136
 20
10.62105964981405
 30
0.0
 10
4.480806024670376
 20
10.63300943399433
 30
0.0
 10
4.476258350681292
 20
10.64405436377663
 30
0.0
 10
4.468308328822685
 20
10.64574673598808
 30
0.0
 10
4.460349585377015
 20
10.64741629707323
 30
0.0
 10
4.452013999979297
 20
10.63908468944246
 30
0.0
 10
4.449695030225686
 20
10.62718610166759
 30
0.0
  0
ENDBLK
  5
318
330
315
100
AcDbEntity
  8
0
100
AcDbBlockEnd
  0
BLOCK
  5
31E
330
31C
100
AcDbEntity
  8
0
100
AcDbBlockBegin
  2
block 20
 70
     0
 10
0.0
 20
0.0
 30
0.0
  3
block 20
  1

  0
INSERT
  5
321
330
31C
100
AcDbEntity
  8
H1
100
AcDbBlockReference
  2
block 21
 10
0.0
 20
0.0
 30
0.0
  0
POLYLINE
  5
32B
330
31C
100
AcDbEntity
  8
H1
370
     0
100
AcDb2dPolyline
 66
     1
 10
0.0
 20
0.0
 30
0.0
  0
VERTEX
  5
32C
330
32B
100
AcDbEntity
  8
H1
370
     0
100
AcDbVertex
100
AcDb2dVertex
 10
4.424510043894164
 20
10.53530038419146
 30
0.0
  0
VERTEX
  5
32D
330
32B
100
AcDbEntity
  8
H1
370
     0
100
AcDbVertex
100
AcDb2dVertex
 10
4.491527105979054
 20
10.43525212056612
 30
0.0
  0
VERTEX
  5
32E
330
32B
100
AcDbEntity
  8
H1
370
     0
100
AcDbVertex
100
AcDb2dVertex
 10
4.537466897891691
 20
10.54816686380347
 30
0.0
  0
VERTEX
  5
32F
330
32B
100
AcDbEntity
  8
H1
370
     0
100
AcDbVertex
100
AcDb2dVertex
 10
4.424510043894164
 20
10.53530038419146
 30
0.0
  0
SEQEND
  5
330
330
32B
100
AcDbEntity
  8
H1
370
     0
  0
ENDBLK
  5
31F
330
31C
100
AcDbEntity
  8
0
100
AcDbBlockEnd
  0
BLOCK
  5
322
330
320
100
AcDbEntity
  8
0
100
AcDbBlockBegin
  2
block 21
 70
     0
 10
0.0
 20
0.0
 30
0.0
  3
block 21
  1

  0
INSERT
  5
325
330
320
100
AcDbEntity
  8
H1
100
AcDbBlockReference
  2
block 22
 10
0.0
 20
0.0
 30
0.0
  0
ENDBLK
  5
323
330
320
100
AcDbEntity
  8
0
100
AcDbBlockEnd
  0
BLOCK
  5
326
330
324
100
AcDbEntity
  8
0
100
AcDbBlockBegin
  2
block 22
 70
     0
 10
0.0
 20
0.0
 30
0.0
  3
block 22
  1

  0
SPLINE
  5
328
330
324
100
AcDbEntity
  8
H1
 62
   250
420
  2301728
370
    13
100
AcDbSpline
210
0.0
220
0.0
230
1.0
 70
    11
 71
     3
 72
    35
 73
    31
 74
     0
 42
0.0000000001
 43
0.0000000001
 12
1.0
 22
0.0
 32
0.0
 13
1.0
 23
0.0
 33
0.0
 40
0.0
 40
0.0
 40
0.0
 40
0.0
 40
1.0
 40
1.0
 40
1.0
 40
2.0
 40
2.0
 40
2.0
 40
3.0
 40
3.0
 40
3.0
 40
4.0
 40
4.0
 40
4.0
 40
5.0
 40
5.0
 40
5.0
 40
6.0
 40
6.0
 40
6.0
 40
7.0
 40
7.0
 40
7.0
 40
8.0
 40
8.0
 40
8.0
 40
9.0
 40
9.0
 40
9.0
 40
10.0
 40
10.0
 40
10.0
 40
10.0
 10
4.441482258323352
 20
10.49692741311958
 30
0.0
 10
4.441294983977059
 20
10.4991628344485
 30
0.0
 10
4.441347062877816
 20
10.50151624003809
 30
0.0
 10
4.441668663385826
 20
10.50392367917971
 30
0.0
 10
4.442028982948815
 20
10.50657556875861
 30
0.0
 10
4.44268870090016
 20
10.50907229237637
 30
0.0
 10
4.443586807764809
 20
10.51133995080595
 30
0.0
 10
4.443586807764809
 20
10.51133995080595
 30
0.0
 10
4.443641359914156
 20
10.51131901024814
 30
0.0
 10
4.443641359914156
 20
10.51131901024814
 30
0.0
 10
4.446804057037449
 20
10.51930298364534
 30
0.0
 10
4.452885045734168
 20
10.52447058505254
 30
0.0
 10
4.459134275315844
 20
10.52353415601892
 30
0.0
 10
4.460837787863688
 20
10.52328129904203
 30
0.0
 10
4.464991512548194
 20
10.52164727726717
 30
0.0
 10
4.465626146378427
 20
10.52158045718276
 30
0.0
 10
4.473699525507603
 20
10.52059137750175
 30
0.0
 10
4.479210394947182
 20
10.50999817532897
 30
0.0
 10
4.477970724063097
 20
10.49789858919295
 30
0.0
 10
4.476684589388191
 20
10.48581348418019
 30
0.0
 10
4.469141230822313
 20
10.47679343715566
 30
0.0
 10
4.461069407954356
 20
10.4777695849135
 30
0.0
 10
4.459225402142945
 20
10.4779820083975
 30
0.0
 10
4.454220033870645
 20
10.4797414889919
 30
0.0
 10
4.453284779636911
 20
10.47988073324446
 30
0.0
 10
4.446867150583911
 20
10.48085540226166
 30
0.0
 10
4.442313575428923
 20
10.48795644895664
 30
0.0
 10
4.441564837366842
 20
10.4969350254935
 30
0.0
 10
4.441564837366842
 20
10.4969350254935
 30
0.0
 10
4.441482258323352
 20
10.49692741311958
 30
0.0
 10
4.441482258323352
 20
10.49692741311958
 30
0.0
  0
HATCH
  5
329
330
324
100
AcDbEntity
  8
H1
 62
   254
420
 13358815
100
AcDbHatch
 10
0.0
 20
0.0
 30
0.0
210
0.0
220
0.0
230
1.0
  2
SOLID
 70
     1
 71
     0
 91
        1
 92
        1
 93
        1
 72
     4
 94
        3
 73
     0
 74
     1
 95
       35
 96
       31
 40
0.0
 40
0.0
 40
0.0
 40
0.0
 40
1.0
 40
1.0
 40
1.0
 40
2.0
 40
2.0
 40
2.0
 40
3.0
 40
3.0
 40
3.0
 40
4.0
 40
4.0
 40
4.0
 40
5.0
 40
5.0
 40
5.0
 40
6.0
 40
6.0
 40
6.0
 40
7.0
 40
7.0
 40
7.0
 40
8.0
 40
8.0
 40
8.0
 40
9.0
 40
9.0
 40
9.0
 40
10.0
 40
10.0
 40
10.0
 40
10.0
 10
4.441482258323352
 20
10.49692741311958
 10
4.441294983977059
 20
10.4991628344485
 10
4.441347062877816
 20
10.50151624003809
 10
4.441668663385826
 20
10.50392367917971
 10
4.442028982948815
 20
10.50657556875861
 10
4.44268870090016
 20
10.50907229237637
 10
4.443586807764809
 20
10.51133995080595
 10
4.443586807764809
 20
10.51133995080595
 10
4.443641359914156
 20
10.51131901024814
 10
4.443641359914156
 20
10.51131901024814
 10
4.446804057037449
 20
10.51930298364534
 10
4.452885045734168
 20
10.52447058505254
 10
4.459134275315844
 20
10.52353415601892
 10
4.460837787863688
 20
10.52328129904203
 10
4.464991512548194
 20
10.52164727726717
 10
4.465626146378427
 20
10.52158045718276
 10
4.473699525507603
 20
10.52059137750175
 10
4.479210394947182
 20
10.50999817532897
 10
4.477970724063097
 20
10.49789858919295
 10
4.476684589388191
 20
10.48581348418019
 10
4.469141230822313
 20
10.47679343715566
 10
4.461069407954356
 20
10.4777695849135
 10
4.459225402142945
 20
10.4779820083975
 10
4.454220033870645
 20
10.4797414889919
 10
4.453284779636911
 20
10.47988073324446
 10
4.446867150583911
 20
10.48085540226166
 10
4.442313575428923
 20
10.48795644895664
 10
4.441564837366842
 20
10.4969350254935
 10
4.441564837366842
 20
10.4969350254935
 10
4.441482258323352
 20
10.49692741311958
 10
4.441482258323352
 20
10.49692741311958
 97
        0
 97
        0
 75
     2
 76
     1
 98
        0
  0
SPLINE
  5
32A
330
324
100
AcDbEntity
  8
H1
 62
   250
420
  2301728
370
     5
100
AcDbSpline
210
0.0
220
0.0
230
1.0
 70
    11
 71
     3
 72
    17
 73
    13
 74
     0
 42
0.0000000001
 43
0.0000000001
 12
1.0
 22
0.0
 32
0.0
 13
1.0
 23
0.0
 33
0.0
 40
0.0
 40
0.0
 40
0.0
 40
0.0
 40
1.0
 40
1.0
 40
1.0
 40
2.0
 40
2.0
 40
2.0
 40
3.0
 40
3.0
 40
3.0
 40
4.0
 40
4.0
 40
4.0
 40
4.0
 10
4.448869407159791
 20
10.50241985314954
 30
0.0
 10
4.44653887459026
 20
10.49047493281485
 30
0.0
 10
4.451086417348405
 20
10.47943292133992
 30
0.0
 10
4.459028657054002
 20
10.47774019917923
 30
0.0
 10
4.466977093732289
 20
10.4760614019918
 30
0.0
 10
4.475296623235206
 20
10.4843815655201
 30
0.0
 10
4.477650087753267
 20
10.49629340129602
 30
0.0
 10
4.479980401604482
 20
10.50824318547629
 30
0.0
 10
4.475432727615397
 20
10.51928811525859
 30
0.0
 10
4.467482705756816
 20
10.52098048747004
 30
0.0
 10
4.45952396231112
 20
10.52265004855519
 30
0.0
 10
4.451188376913402
 20
10.51431844092442
 30
0.0
 10
4.448869407159791
 20
10.50241985314954
 30
0.0
  0
ENDBLK
  5
327
330
324
100
AcDbEntity
  8
0
100
AcDbBlockEnd
  0
BLOCK
  5
334
330
332
100
AcDbEntity
  8
0
100
AcDbBlockBegin
  2
block 23
 70
     0
 10
0.0
 20
0.0
 30
0.0
  3
block 23
  1

  0
INSERT
  5
337
330
332
100
AcDbEntity
  8
Callout
100
AcDbBlockReference
  2
block 24
 10
0.0
 20
0.0
 30
0.0
  0
INSERT
  5
34D
330
332
100
AcDbEntity
  8
Callout
100
AcDbBlockReference
  2
block 25
 10
0.0
 20
0.0
 30
0.0
  0
ENDBLK
  5
335
330
332
100
AcDbEntity
  8
0
100
AcDbBlockEnd
  0
BLOCK
  5
338
330
336
100
AcDbEntity
  8
0
100
AcDbBlockBegin
  2
block 24
 70
     0
 10
0.0
 20
0.0
 30
0.0
  3
block 24
  1

  0
POLYLINE
  5
33A
330
336
100
AcDbEntity
  8
Callout
 62
   250
420
  2301728
370
    70
100
AcDb2dPolyline
 66
     1
 10
0.0
 20
0.0
 30
0.0
  0
VERTEX
  5
33B
330
33A
100
AcDbEntity
  8
Callout
 62
   250
420
  2301728
370
    70
100
AcDbVertex
100
AcDb2dVertex
 10
4.973629478317131
 20
10.49619367745373
 30
0.0
  0
VERTEX
  5
33C
330
33A
100
AcDbEntity
  8
Callout
 62
   250
420
  2301728
370
    70
100
AcDbVertex
100
AcDb2dVertex
 10
5.345386630282266
 20
10.74602311127089
 30
0.0
  0
SEQEND
  5
33D
330
33A
100
AcDbEntity
  8
Callout
 62
   250
420
  2301728
370
    70
  0
POLYLINE
  5
33E
330
336
100
AcDbEntity
  8
Callout
370
     0
100
AcDb2dPolyline
 66
     1
 10
0.0
 20
0.0
 30
0.0
  0
VERTEX
  5
33F
330
33E
100
AcDbEntity
  8
Callout
370
     0
100
AcDbVertex
100
AcDb2dVertex
 10
5.300976481197166
 20
10.65790354890866
 30
0.0
  0
VERTEX
  5
340
330
33E
100
AcDbEntity
  8
Callout
370
     0
100
AcDbVertex
100
AcDb2dVertex
 10
5.416031375704834
 20
10.78583776354955
 30
0.0
  0
VERTEX
  5
341
330
33E
100
AcDbEntity
  8
Callout
370
     0
100
AcDbVertex
100
AcDb2dVertex
 10
5.299360052612327
 20
10.77010638153956
 30
0.0
  0
VERTEX
  5
342
330
33E
100
AcDbEntity
  8
Callout
370
     0
100
AcDbVertex
100
AcDb2dVertex
 10
5.300976481197166
 20
10.65790354890866
 30
0.0
  0
SEQEND
  5
344
330
33E
100
AcDbEntity
  8
Callout
370
     0
  0
HATCH
  5
343
330
336
100
AcDbEntity
  8
Callout
 62
   250
420
  2301728
100
AcDbHatch
 10
0.0
 20
0.0
 30
0.0
210
0.0
220
0.0
230
1.0
  2
SOLID
 70
     1
 71
     0
 91
        1
 92
        1
 93
        3
 72
     1
 10
5.300976481197166
 20
10.65790354890866
 11
5.416031375704834
 21
10.78583776354955
 72
     1
 10
5.416031375704834
 20
10.78583776354955
 11
5.299360052612327
 21
10.77010638153956
 72
     1
 10
5.299360052612327
 20
10.77010638153956
 11
5.300976481197166
 21
10.65790354890866
 97
        0
 75
     2
 76
     1
 98
        0
  0
POLYLINE
  5
345
330
336
100
AcDbEntity
  8
Callout
370
     0
100
AcDb2dPolyline
 66
     1
 10
0.0
 20
0.0
 30
0.0
  0
VERTEX
  5
346
330
345
100
AcDbEntity
  8
Callout
370
     0
100
AcDbVertex
100
AcDb2dVertex
 10
5.017054051100937
 20
10.57767120931564
 30
0.0
  0
VERTEX
  5
347
330
345
100
AcDbEntity
  8
Callout
370
     0
100
AcDbVertex
100
AcDb2dVertex
 10
4.87682488112854
 20
10.44135085225385
 30
0.0
  0
VERTEX
  5
348
330
345
100
AcDbEntity
  8
Callout
370
     0
100
AcDbVertex
100
AcDb2dVertex
 10
5.017054051100937
 20
10.47603565377906
 30
0.0
  0
VERTEX
  5
349
330
345
100
AcDbEntity
  8
Callout
370
     0
100
AcDbVertex
100
AcDb2dVertex
 10
5.017054051100937
 20
10.57767120931564
 30
0.0
  0
SEQEND
  5
34B
330
345
100
AcDbEntity
  8
Callout
370
     0
  0
HATCH
  5
34A
330
336
100
AcDbEntity
  8
Callout
 62
   250
420
  2301728
100
AcDbHatch
 10
0.0
 20
0.0
 30
0.0
210
0.0
220
0.0
230
1.0
  2
SOLID
 70
     1
 71
     0
 91
        1
 92
        1
 93
        3
 72
     1
 10
5.017054051100937
 20
10.57767120931564
 11
4.87682488112854
 21
10.44135085225385
 72
     1
 10
4.87682488112854
 20
10.44135085225385
 11
5.017054051100937
 21
10.47603565377906
 72
     1
 10
5.017054051100937
 20
10.47603565377906
 11
5.017054051100937
 21
10.57767120931564
 97
        0
 75
     2
 76
     1
 98
        0
  0
ENDBLK
  5
339
330
336
100
AcDbEntity
  8
0
100
AcDbBlockEnd
  0
BLOCK
  5
34E
330
34C
100
AcDbEntity
  8
0
100
AcDbBlockBegin
  2
block 25
 70
     0
 10
0.0
 20
0.0
 30
0.0
  3
block 25
  1

  0
POLYLINE
  5
350
330
34C
100
AcDbEntity
  8
Callout
370
     0
100
AcDb2dPolyline
 66
     1
 10
0.0
 20
0.0
 30
0.0
  0
VERTEX
  5
351
330
350
100
AcDbEntity
  8
Callout
370
     0
100
AcDbVertex
100
AcDb2dVertex
 10
5.08761106360003
 20
10.68037511921203
 30
0.0
  0
VERTEX
  5
352
330
350
100
AcDbEntity
  8
Callout
370
     0
100
AcDbVertex
100
AcDb2dVertex
 10
5.073232639212216
 20
10.67091728864684
 30
0.0
  0
VERTEX
  5
353
330
350
100
AcDbEntity
  8
Callout
370
     0
100
AcDbVertex
100
AcDb2dVertex
 10
5.073232639212216
 20
10.81774061301456
 30
0.0
  0
VERTEX
  5
354
330
350
100
AcDbEntity
  8
Callout
370
     0
100
AcDbVertex
100
AcDb2dVertex
 10
5.146906727603082
 20
10.8661928131994
 30
0.0
  0
VERTEX
  5
355
330
350
100
AcDbEntity
  8
Callout
370
     0
100
AcDbVertex
100
AcDb2dVertex
 10
5.146906727603082
 20
10.84860977045457
 30
0.0
  0
VERTEX
  5
356
330
350
100
AcDbEntity
  8
Callout
370
     0
100
AcDbVertex
100
AcDb2dVertex
 10
5.08761106360003
 20
10.80961053207414
 30
0.0
  0
VERTEX
  5
357
330
350
100
AcDbEntity
  8
Callout
370
     0
100
AcDbVertex
100
AcDb2dVertex
 10
5.08761106360003
 20
10.76462220855118
 30
0.0
  0
VERTEX
  5
358
330
350
100
AcDbEntity
  8
Callout
370
     0
100
AcDbVertex
100
AcDb2dVertex
 10
5.139793468077642
 20
10.79893941756124
 30
0.0
  0
VERTEX
  5
359
330
350
100
AcDbEntity
  8
Callout
370
     0
100
AcDbVertex
100
AcDb2dVertex
 10
5.139793468077642
 20
10.78135752147654
 30
0.0
  0
VERTEX
  5
35A
330
350
100
AcDbEntity
  8
Callout
370
     0
100
AcDbVertex
100
AcDb2dVertex
 10
5.08761106360003
 20
10.74704013955852
 30
0.0
  0
VERTEX
  5
35B
330
350
100
AcDbEntity
  8
Callout
370
     0
100
AcDbVertex
100
AcDb2dVertex
 10
5.08761106360003
 20
10.68037511921203
 30
0.0
  0
SEQEND
  5
35C
330
350
100
AcDbEntity
  8
Callout
370
     0
  0
HATCH
  5
35D
330
34C
100
AcDbEntity
  8
Callout
 62
   250
420
  2301728
100
AcDbHatch
 10
0.0
 20
0.0
 30
0.0
210
0.0
220
0.0
230
1.0
  2
SOLID
 70
     1
 71
     0
 91
        1
 92
        1
 93
       10
 72
     1
 10
5.08761106360003
 20
10.68037511921203
 11
5.073232639212216
 21
10.67091728864684
 72
     1
 10
5.073232639212216
 20
10.67091728864684
 11
5.073232639212216
 21
10.81774061301456
 72
     1
 10
5.073232639212216
 20
10.81774061301456
 11
5.146906727603082
 21
10.8661928131994
 72
     1
 10
5.146906727603082
 20
10.8661928131994
 11
5.146906727603082
 21
10.84860977045457
 72
     1
 10
5.146906727603082
 20
10.84860977045457
 11
5.08761106360003
 21
10.80961053207414
 72
     1
 10
5.08761106360003
 20
10.80961053207414
 11
5.08761106360003
 21
10.76462220855118
 72
     1
 10
5.08761106360003
 20
10.76462220855118
 11
5.139793468077642
 21
10.79893941756124
 72
     1
 10
5.139793468077642
 20
10.79893941756124
 11
5.139793468077642
 21
10.78135752147654
 72
     1
 10
5.139793468077642
 20
10.78135752147654
 11
5.08761106360003
 21
10.74704013955852
 72
     1
 10
5.08761106360003
 20
10.74704013955852
 11
5.08761106360003
 21
10.68037511921203
 97
        0
 75
     2
 76
     1
 98
        0
  0
SPLINE
  5
35E
330
34C
100
AcDbEntity
  8
Callout
370
     0
100
AcDbSpline
210
0.0
220
0.0
230
1.0
 70
    11
 71
     3
 72
    47
 73
    43
 74
     0
 42
0.0000000001
 43
0.0000000001
 12
1.0
 22
0.0
 32
0.0
 13
1.0
 23
0.0
 33
0.0
 40
0.0
 40
0.0
 40
0.0
 40
0.0
 40
1.0
 40
1.0
 40
1.0
 40
2.0
 40
2.0
 40
2.0
 40
3.0
 40
3.0
 40
3.0
 40
4.0
 40
4.0
 40
4.0
 40
5.0
 40
5.0
 40
5.0
 40
6.0
 40
6.0
 40
6.0
 40
7.0
 40
7.0
 40
7.0
 40
8.0
 40
8.0
 40
8.0
 40
9.0
 40
9.0
 40
9.0
 40
10.0
 40
10.0
 40
10.0
 40
11.0
 40
11.0
 40
11.0
 40
12.0
 40
12.0
 40
12.0
 40
13.0
 40
13.0
 40
13.0
 40
14.0
 40
14.0
 40
14.0
 40
14.0
 10
5.155949963908723
 20
10.76527713582456
 30
0.0
 10
5.155949963908723
 20
10.80039453370621
 30
0.0
 10
5.174516496334692
 20
10.81613429571034
 30
0.0
 10
5.182965743823034
 20
10.8216908224546
 30
0.0
 10
5.196530111405435
 20
10.83061202592354
 30
0.0
 10
5.207428439934271
 20
10.82566076525755
 30
0.0
 10
5.207428439934271
 20
10.80556738944544
 30
0.0
 10
5.207428439934271
 20
10.78624425159151
 30
0.0
 10
5.198199122606891
 20
10.77204899372542
 30
0.0
 10
5.186526755470468
 20
10.7557803863144
 30
0.0
 10
5.186526755470468
 20
10.7557803863144
 30
0.0
 10
5.178410624846896
 20
10.74430958717802
 30
0.0
 10
5.178410624846896
 20
10.74430958717802
 30
0.0
 10
5.167736260047806
 20
10.72916272108785
 30
0.0
 10
5.16540217612141
 20
10.71919357509762
 30
0.0
 10
5.164955223880193
 20
10.71475671137227
 30
0.0
 10
5.164955223880193
 20
10.71475671137227
 30
0.0
 10
5.207428439934271
 20
10.74268734374309
 30
0.0
 10
5.207428439934271
 20
10.74268734374309
 30
0.0
 10
5.207428439934271
 20
10.74268734374309
 30
0.0
 10
5.207428439934271
 20
10.72995960094867
 30
0.0
 10
5.207428439934271
 20
10.72995960094867
 30
0.0
 10
5.207428439934271
 20
10.72995960094867
 30
0.0
 10
5.153947929468712
 20
10.69478946582456
 30
0.0
 10
5.153947929468712
 20
10.69478946582456
 30
0.0
 10
5.154503941951841
 20
10.71755041072092
 30
0.0
 10
5.161845059482604
 20
10.73433710373615
 30
0.0
 10
5.172296341410957
 20
10.74964545703335
 30
0.0
 10
5.172296341410957
 20
10.74964545703335
 30
0.0
 10
5.182632720584479
 20
10.76472504512294
 30
0.0
 10
5.182632720584479
 20
10.76472504512294
 30
0.0
 10
5.190972028022315
 20
10.7768055647276
 30
0.0
 10
5.196977063646702
 20
10.78520039773235
 30
0.0
 10
5.196977063646702
 20
10.79930811901977
 30
0.0
 10
5.196977063646702
 20
10.80789970796392
 30
0.0
 10
5.1929739685188
 20
10.81615459220485
 30
0.0
 10
5.181519721866152
 20
10.8086248054698
 30
0.0
 10
5.166733295323511
 20
10.79890016380942
 30
0.0
 10
5.166067248846351
 20
10.7794439911691
 30
0.0
 10
5.165735199359966
 20
10.77170815994267
 30
0.0
 10
5.165735199359966
 20
10.77170815994267
 30
0.0
 10
5.155949963908723
 20
10.76527713582456
 30
0.0
 10
5.155949963908723
 20
10.76527713582456
 30
0.0
  0
HATCH
  5
35F
330
34C
100
AcDbEntity
  8
Callout
 62
   250
420
  2301728
100
AcDbHatch
 10
0.0
 20
0.0
 30
0.0
210
0.0
220
0.0
230
1.0
  2
SOLID
 70
     1
 71
     0
 91
        1
 92
        1
 93
        1
 72
     4
 94
        3
 73
     0
 74
     1
 95
       47
 96
       43
 40
0.0
 40
0.0
 40
0.0
 40
0.0
 40
1.0
 40
1.0
 40
1.0
 40
2.0
 40
2.0
 40
2.0
 40
3.0
 40
3.0
 40
3.0
 40
4.0
 40
4.0
 40
4.0
 40
5.0
 40
5.0
 40
5.0
 40
6.0
 40
6.0
 40
6.0
 40
7.0
 40
7.0
 40
7.0
 40
8.0
 40
8.0
 40
8.0
 40
9.0
 40
9.0
 40
9.0
 40
10.0
 40
10.0
 40
10.0
 40
11.0
 40
11.0
 40
11.0
 40
12.0
 40
12.0
 40
12.0
 40
13.0
 40
13.0
 40
13.0
 40
14.0
 40
14.0
 40
14.0
 40
14.0
 10
5.155949963908723
 20
10.76527713582456
 10
5.155949963908723
 20
10.80039453370621
 10
5.174516496334692
 20
10.81613429571034
 10
5.182965743823034
 20
10.8216908224546
 10
5.196530111405435
 20
10.83061202592354
 10
5.207428439934271
 20
10.82566076525755
 10
5.207428439934271
 20
10.80556738944544
 10
5.207428439934271
 20
10.78624425159151
 10
5.198199122606891
 20
10.77204899372542
 10
5.186526755470468
 20
10.7557803863144
 10
5.186526755470468
 20
10.7557803863144
 10
5.178410624846896
 20
10.74430958717802
 10
5.178410624846896
 20
10.74430958717802
 10
5.167736260047806
 20
10.72916272108785
 10
5.16540217612141
 20
10.71919357509762
 10
5.164955223880193
 20
10.71475671137227
 10
5.164955223880193
 20
10.71475671137227
 10
5.207428439934271
 20
10.74268734374309
 10
5.207428439934271
 20
10.74268734374309
 10
5.207428439934271
 20
10.74268734374309
 10
5.207428439934271
 20
10.72995960094867
 10
5.207428439934271
 20
10.72995960094867
 10
5.207428439934271
 20
10.72995960094867
 10
5.153947929468712
 20
10.69478946582456
 10
5.153947929468712
 20
10.69478946582456
 10
5.154503941951841
 20
10.71755041072092
 10
5.161845059482604
 20
10.73433710373615
 10
5.172296341410957
 20
10.74964545703335
 10
5.172296341410957
 20
10.74964545703335
 10
5.182632720584479
 20
10.76472504512294
 10
5.182632720584479
 20
10.76472504512294
 10
5.190972028022315
 20
10.7768055647276
 10
5.196977063646702
 20
10.78520039773235
 10
5.196977063646702
 20
10.79930811901977
 10
5.196977063646702
 20
10.80789970796392
 10
5.1929739685188
 20
10.81615459220485
 10
5.181519721866152
 20
10.8086248054698
 10
5.166733295323511
 20
10.79890016380942
 10
5.166067248846351
 20
10.7794439911691
 10
5.165735199359966
 20
10.77170815994267
 10
5.165735199359966
 20
10.77170815994267
 10
5.155949963908723
 20
10.76527713582456
 10
5.155949963908723
 20
10.76527713582456
 97
        0
 97
        0
 75
     2
 76
     1
 98
        0
  0
ENDBLK
  5
34F
330
34C
100
AcDbEntity
  8
0
100
AcDbBlockEnd
  0
BLOCK
  5
362
330
360
100
AcDbEntity
  8
0
100
AcDbBlockBegin
  2
block 26
 70
     0
 10
0.0
 20
0.0
 30
0.0
  3
block 26
  1

  0
INSERT
  5
365
330
360
100
AcDbEntity
  8
Callout
100
AcDbBlockReference
  2
block 27
 10
0.0
 20
0.0
 30
0.0
  0
INSERT
  5
37B
330
360
100
AcDbEntity
  8
Callout
100
AcDbBlockReference
  2
block 28
 10
0.0
 20
0.0
 30
0.0
  0
ENDBLK
  5
363
330
360
100
AcDbEntity
  8
0
100
AcDbBlockEnd
  0
BLOCK
  5
366
330
364
100
AcDbEntity
  8
0
100
AcDbBlockBegin
  2
block 27
 70
     0
 10
0.0
 20
0.0
 30
0.0
  3
block 27
  1

  0
POLYLINE
  5
368
330
364
100
AcDbEntity
  8
Callout
 62
   250
420
  2301728
370
    70
100
AcDb2dPolyline
 66
     1
 10
0.0
 20
0.0
 30
0.0
  0
VERTEX
  5
369
330
368
100
AcDbEntity
  8
Callout
 62
   250
420
  2301728
370
    70
100
AcDbVertex
100
AcDb2dVertex
 10
4.580719021314204
 20
10.05464784680069
 30
0.0
  0
VERTEX
  5
36A
330
368
100
AcDbEntity
  8
Callout
 62
   250
420
  2301728
370
    70
100
AcDbVertex
100
AcDb2dVertex
 10
4.963483467690771
 20
9.927420310891572
 30
0.0
  0
SEQEND
  5
36B
330
368
100
AcDbEntity
  8
Callout
 62
   250
420
  2301728
370
    70
  0
POLYLINE
  5
36C
330
364
100
AcDbEntity
  8
Callout
370
     0
100
AcDb2dPolyline
 66
     1
 10
0.0
 20
0.0
 30
0.0
  0
VERTEX
  5
36D
330
36C
100
AcDbEntity
  8
Callout
370
     0
100
AcDbVertex
100
AcDb2dVertex
 10
4.937523235117421
 20
9.885189653484455
 30
0.0
  0
VERTEX
  5
36E
330
36C
100
AcDbEntity
  8
Callout
370
     0
100
AcDbVertex
100
AcDb2dVertex
 10
5.086305748830151
 20
9.886672832414446
 30
0.0
  0
VERTEX
  5
36F
330
36C
100
AcDbEntity
  8
Callout
370
     0
100
AcDbVertex
100
AcDb2dVertex
 10
4.93913966370226
 20
9.993966533474602
 30
0.0
  0
VERTEX
  5
370
330
36C
100
AcDbEntity
  8
Callout
370
     0
100
AcDbVertex
100
AcDb2dVertex
 10
4.937523235117421
 20
9.885189653484455
 30
0.0
  0
SEQEND
  5
372
330
36C
100
AcDbEntity
  8
Callout
370
     0
  0
HATCH
  5
371
330
364
100
AcDbEntity
  8
Callout
 62
   250
420
  2301728
100
AcDbHatch
 10
0.0
 20
0.0
 30
0.0
210
0.0
220
0.0
230
1.0
  2
SOLID
 70
     1
 71
     0
 91
        1
 92
        1
 93
        3
 72
     1
 10
4.937523235117421
 20
9.885189653484455
 11
5.086305748830151
 21
9.886672832414446
 72
     1
 10
5.086305748830151
 20
9.886672832414446
 11
4.93913966370226
 21
9.993966533474602
 72
     1
 10
4.93913966370226
 20
9.993966533474602
 11
4.937523235117421
 21
9.885189653484455
 97
        0
 75
     2
 76
     1
 98
        0
  0
POLYLINE
  5
373
330
364
100
AcDbEntity
  8
Callout
370
     0
100
AcDb2dPolyline
 66
     1
 10
0.0
 20
0.0
 30
0.0
  0
VERTEX
  5
374
330
373
100
AcDbEntity
  8
Callout
370
     0
100
AcDbVertex
100
AcDb2dVertex
 10
4.608315157515587
 20
10.10329747844351
 30
0.0
  0
VERTEX
  5
375
330
373
100
AcDbEntity
  8
Callout
370
     0
100
AcDbVertex
100
AcDb2dVertex
 10
4.457896824676482
 20
10.09539937467748
 30
0.0
  0
VERTEX
  5
376
330
373
100
AcDbEntity
  8
Callout
370
     0
100
AcDbVertex
100
AcDb2dVertex
 10
4.606688991409151
 20
9.991320848857121
 30
0.0
  0
VERTEX
  5
377
330
373
100
AcDbEntity
  8
Callout
370
     0
100
AcDbVertex
100
AcDb2dVertex
 10
4.608315157515587
 20
10.10329747844351
 30
0.0
  0
SEQEND
  5
379
330
373
100
AcDbEntity
  8
Callout
370
     0
  0
HATCH
  5
378
330
364
100
AcDbEntity
  8
Callout
 62
   250
420
  2301728
100
AcDbHatch
 10
0.0
 20
0.0
 30
0.0
210
0.0
220
0.0
230
1.0
  2
SOLID
 70
     1
 71
     0
 91
        1
 92
        1
 93
        3
 72
     1
 10
4.608315157515587
 20
10.10329747844351
 11
4.457896824676482
 21
10.09539937467748
 72
     1
 10
4.457896824676482
 20
10.09539937467748
 11
4.606688991409151
 21
9.991320848857121
 72
     1
 10
4.606688991409151
 20
9.991320848857121
 11
4.608315157515587
 21
10.10329747844351
 97
        0
 75
     2
 76
     1
 98
        0
  0
ENDBLK
  5
367
330
364
100
AcDbEntity
  8
0
100
AcDbBlockEnd
  0
BLOCK
  5
37C
330
37A
100
AcDbEntity
  8
0
100
AcDbBlockBegin
  2
block 28
 70
     0
 10
0.0
 20
0.0
 30
0.0
  3
block 28
  1

  0
POLYLINE
  5
37E
330
37A
100
AcDbEntity
  8
Callout
370
     0
100
AcDb2dPolyline
 66
     1
 10
0.0
 20
0.0
 30
0.0
  0
VERTEX
  5
37F
330
37E
100
AcDbEntity
  8
Callout
370
     0
100
AcDbVertex
100
AcDb2dVertex
 10
4.717986915740312
 20
9.81308427982262
 30
0.0
  0
VERTEX
  5
380
330
37E
100
AcDbEntity
  8
Callout
370
     0
100
AcDbVertex
100
AcDb2dVertex
 10
4.70147402661885
 20
9.818770992434338
 30
0.0
  0
VERTEX
  5
381
330
37E
100
AcDbEntity
  8
Callout
370
     0
100
AcDbVertex
100
AcDb2dVertex
 10
4.70147402661885
 20
9.965590421793422
 30
0.0
  0
VERTEX
  5
382
330
37E
100
AcDbEntity
  8
Callout
370
     0
100
AcDbVertex
100
AcDb2dVertex
 10
4.78607361423974
 20
9.936477179727477
 30
0.0
  0
VERTEX
  5
383
330
37E
100
AcDbEntity
  8
Callout
370
     0
100
AcDbVertex
100
AcDb2dVertex
 10
4.78607361423974
 20
9.91889024197399
 30
0.0
  0
VERTEX
  5
384
330
37E
100
AcDbEntity
  8
Callout
370
     0
100
AcDbVertex
100
AcDb2dVertex
 10
4.717986915740312
 20
9.942320666436872
 30
0.0
  0
VERTEX
  5
385
330
37E
100
AcDbEntity
  8
Callout
370
     0
100
AcDbVertex
100
AcDb2dVertex
 10
4.717986915740312
 20
9.897337211674715
 30
0.0
  0
VERTEX
  5
386
330
37E
100
AcDbEntity
  8
Callout
370
     0
100
AcDbVertex
100
AcDb2dVertex
 10
4.777904807373337
 20
9.876716062192145
 30
0.0
  0
VERTEX
  5
387
330
37E
100
AcDbEntity
  8
Callout
370
     0
100
AcDbVertex
100
AcDb2dVertex
 10
4.777904807373337
 20
9.859129124438645
 30
0.0
  0
VERTEX
  5
388
330
37E
100
AcDbEntity
  8
Callout
370
     0
100
AcDbVertex
100
AcDb2dVertex
 10
4.717986915740312
 20
9.879749454385205
 30
0.0
  0
VERTEX
  5
389
330
37E
100
AcDbEntity
  8
Callout
370
     0
100
AcDbVertex
100
AcDb2dVertex
 10
4.717986915740312
 20
9.81308427982262
 30
0.0
  0
SEQEND
  5
38A
330
37E
100
AcDbEntity
  8
Callout
370
     0
  0
HATCH
  5
38B
330
37A
100
AcDbEntity
  8
Callout
 62
   250
420
  2301728
100
AcDbHatch
 10
0.0
 20
0.0
 30
0.0
210
0.0
220
0.0
230
1.0
  2
SOLID
 70
     1
 71
     0
 91
        1
 92
        1
 93
       10
 72
     1
 10
4.717986915740312
 20
9.81308427982262
 11
4.70147402661885
 21
9.818770992434338
 72
     1
 10
4.70147402661885
 20
9.818770992434338
 11
4.70147402661885
 21
9.965590421793422
 72
     1
 10
4.70147402661885
 20
9.965590421793422
 11
4.78607361423974
 21
9.936477179727477
 72
     1
 10
4.78607361423974
 20
9.936477179727477
 11
4.78607361423974
 21
9.91889024197399
 72
     1
 10
4.78607361423974
 20
9.91889024197399
 11
4.717986915740312
 21
9.942320666436872
 72
     1
 10
4.717986915740312
 20
9.942320666436872
 11
4.717986915740312
 21
9.897337211674715
 72
     1
 10
4.717986915740312
 20
9.897337211674715
 11
4.777904807373337
 21
9.876716062192145
 72
     1
 10
4.777904807373337
 20
9.876716062192145
 11
4.777904807373337
 21
9.859129124438645
 72
     1
 10
4.777904807373337
 20
9.859129124438645
 11
4.717986915740312
 21
9.879749454385205
 72
     1
 10
4.717986915740312
 20
9.879749454385205
 11
4.717986915740312
 21
9.81308427982262
 97
        0
 75
     2
 76
     1
 98
        0
  0
SPLINE
  5
38C
330
37A
100
AcDbEntity
  8
Callout
370
     0
100
AcDbSpline
210
0.0
220
0.0
230
1.0
 70
    11
 71
     3
 72
    26
 73
    22
 74
     0
 42
0.0000000001
 43
0.0000000001
 12
1.0
 22
0.0
 32
0.0
 13
1.0
 23
0.0
 33
0.0
 40
0.0
 40
0.0
 40
0.0
 40
0.0
 40
1.0
 40
1.0
 40
1.0
 40
2.0
 40
2.0
 40
2.0
 40
3.0
 40
3.0
 40
3.0
 40
4.0
 40
4.0
 40
4.0
 40
5.0
 40
5.0
 40
5.0
 40
6.0
 40
6.0
 40
6.0
 40
7.0
 40
7.0
 40
7.0
 40
7.0
 10
4.822066415312848
 20
9.747898389006473
 30
0.0
 10
4.822066415312848
 20
9.747898389006473
 30
0.0
 10
4.810064919946499
 20
9.752030019419408
 30
0.0
 10
4.810064919946499
 20
9.752030019419408
 30
0.0
 10
4.810064919946499
 20
9.752030019419408
 30
0.0
 10
4.810064919946499
 20
9.828561096646366
 30
0.0
 10
4.810064919946499
 20
9.828561096646366
 30
0.0
 10
4.810064919946499
 20
9.828561096646366
 30
0.0
 10
4.789130222268542
 20
9.835763941370487
 30
0.0
 10
4.789130222268542
 20
9.835763941370487
 30
0.0
 10
4.789130222268542
 20
9.835763941370487
 30
0.0
 10
4.789130222268542
 20
9.846500532681603
 30
0.0
 10
4.789130222268542
 20
9.846500532681603
 30
0.0
 10
4.803684895797182
 20
9.842720426798236
 30
0.0
 10
4.809680287843498
 20
9.842339689703863
 30
0.0
 10
4.813255905773328
 20
9.85874838734431
 30
0.0
 10
4.813255905773328
 20
9.85874838734431
 30
0.0
 10
4.822066415312848
 20
9.855715149367306
 30
0.0
 10
4.822066415312848
 20
9.855715149367306
 30
0.0
 10
4.822066415312848
 20
9.855715149367306
 30
0.0
 10
4.822066415312848
 20
9.747898389006473
 30
0.0
 10
4.822066415312848
 20
9.747898389006473
 30
0.0
  0
HATCH
  5
38D
330
37A
100
AcDbEntity
  8
Callout
 62
   250
420
  2301728
100
AcDbHatch
 10
0.0
 20
0.0
 30
0.0
210
0.0
220
0.0
230
1.0
  2
SOLID
 70
     1
 71
     0
 91
        1
 92
        1
 93
        1
 72
     4
 94
        3
 73
     0
 74
     1
 95
       26
 96
       22
 40
0.0
 40
0.0
 40
0.0
 40
0.0
 40
1.0
 40
1.0
 40
1.0
 40
2.0
 40
2.0
 40
2.0
 40
3.0
 40
3.0
 40
3.0
 40
4.0
 40
4.0
 40
4.0
 40
5.0
 40
5.0
 40
5.0
 40
6.0
 40
6.0
 40
6.0
 40
7.0
 40
7.0
 40
7.0
 40
7.0
 10
4.822066415312848
 20
9.747898389006473
 10
4.822066415312848
 20
9.747898389006473
 10
4.810064919946499
 20
9.752030019419408
 10
4.810064919946499
 20
9.752030019419408
 10
4.810064919946499
 20
9.752030019419408
 10
4.810064919946499
 20
9.828561096646366
 10
4.810064919946499
 20
9.828561096646366
 10
4.810064919946499
 20
9.828561096646366
 10
4.789130222268542
 20
9.835763941370487
 10
4.789130222268542
 20
9.835763941370487
 10
4.789130222268542
 20
9.835763941370487
 10
4.789130222268542
 20
9.846500532681603
 10
4.789130222268542
 20
9.846500532681603
 10
4.803684895797182
 20
9.842720426798236
 10
4.809680287843498
 20
9.842339689703863
 10
4.813255905773328
 20
9.85874838734431
 10
4.813255905773328
 20
9.85874838734431
 10
4.822066415312848
 20
9.855715149367306
 10
4.822066415312848
 20
9.855715149367306
 10
4.822066415312848
 20
9.855715149367306
 10
4.822066415312848
 20
9.747898389006473
 10
4.822066415312848
 20
9.747898389006473
 97
        0
 97
        0
 75
     2
 76
     1
 98
        0
  0
ENDBLK
  5
37D
330
37A
100
AcDbEntity
  8
0
100
AcDbBlockEnd
  0
ENDSEC
  0
SECTION
  2
ENTITIES
  0
INSERT
  5
42
330
1F
100
AcDbEntity
  8
H1
100
AcDbBlockReference
  2
block 2
 10
0.0
 20
0.0
 30
0.0
  0
INSERT
  5
193
330
1F
100
AcDbEntity
  8
H1
100
AcDbBlockReference
  2
block 4
 10
0.0
 20
0.0
 30
0.0
  0
INSERT
  5
221
330
1F
100
AcDbEntity
  8
H1
100
AcDbBlockReference
  2
block 17
 10
0.0
 20
0.0
 30
0.0
  0
INSERT
  5
333
330
1F
100
AcDbEntity
  8
Callout
100
AcDbBlockReference
  2
block 23
 10
0.0
 20
0.0
 30
0.0
  0
INSERT
  5
361
330
1F
100
AcDbEntity
  8
Callout
100
AcDbBlockReference
  2
block 26
 10
0.0
 20
0.0
 30
0.0
  0
POLYLINE
  5
38E
330
1F
100
AcDbEntity
  8
Callout
 62
   250
420
  2301728
370
    25
100
AcDb2dPolyline
 66
     1
 10
0.0
 20
0.0
 30
0.0
  0
VERTEX
  5
38F
330
38E
100
AcDbEntity
  8
Callout
 62
   250
420
  2301728
370
    25
100
AcDbVertex
100
AcDb2dVertex
 10
4.865094021358876
 20
10.7504234781526
 30
0.0
  0
VERTEX
  5
3A5
330
38E
100
AcDbEntity
  8
0
100
AcDbVertex
100
AcDb2dVertex
 10
4.865094021358876
 20
10.7504234781526
 30
0.0
  0
SEQEND
  5
390
330
38E
100
AcDbEntity
  8
Callout
 62
   250
420
  2301728
370
    25
  0
POLYLINE
  5
391
330
1F
100
AcDbEntity
  8
Callout
 62
   250
420
  2301728
370
    25
100
AcDb2dPolyline
 66
     1
 10
0.0
 20
0.0
 30
0.0
  0
VERTEX
  5
392
330
391
100
AcDbEntity
  8
Callout
 62
   250
420
  2301728
370
    25
100
AcDbVertex
100
AcDb2dVertex
 10
3.148806733187889
 20
8.924435137769224
 30
0.0
  0
VERTEX
  5
3A6
330
391
100
AcDbEntity
  8
0
100
AcDbVertex
100
AcDb2dVertex
 10
3.148806733187889
 20
8.924435137769224
 30
0.0
  0
SEQEND
  5
393
330
391
100
AcDbEntity
  8
Callout
 62
   250
420
  2301728
370
    25
  0
MTEXT
  5
394
330
1F
100
AcDbEntity
  8
Callout
 62
   250
420
  2301728
100
AcDbMText
 10
3.141392336951362
 20
8.256921132405598
 30
0.0
 40
0.118
 41
0.0
 46
0.0
 71
     7
 72
     1
  1
\fHelvetica Neue LT Std 55 Roman|b0|i0|c0|p34;\W1;SIMPSON Strong-Tie\H0.068794;®\H0.118; ^C
 73
     1
 44
1.0
  0
MTEXT
  5
395
330
1F
100
AcDbEntity
  8
Callout
 62
   250
420
  2301728
100
AcDbMText
 10
2.971850236256917
 20
8.056929270426432
 30
0.0
 40
0.118
 41
0.0
 46
0.0
 71
     7
 72
     1
  1
\fHelvetica Neue LT Std 55 Roman|b0|i0|c0|p34;\W1;H1.81Z Rafter-to-Top Plate ^C
 73
     1
 44
1.0
  0
MTEXT
  5
396
330
1F
100
AcDbEntity
  8
Callout
 62
   250
420
  2301728
100
AcDbMText
 10
3.203593942854139
 20
7.856923845079209
 30
0.0
 40
0.118
 41
0.0
 46
0.0
 71
     7
 72
     1
  1
\fHelvetica Neue LT Std 55 Roman|b0|i0|c0|p34;\W1;Two-Sided Tie Down
 73
     1
 44
1.0
  0
SPLINE
  5
397
330
1F
100
AcDbEntity
  8
Callout
 62
   250
420
  2301728
370
    30
100
AcDbSpline
210
0.0
220
0.0
230
1.0
 70
     8
 71
     3
 72
     8
 73
     4
 74
     0
 42
0.0000000001
 43
0.0000000001
 12
1.0
 22
0.0
 32
0.0
 13
1.0
 23
0.0
 33
0.0
 40
0.0
 40
0.0
 40
0.0
 40
0.0
 40
1.0
 40
1.0
 40
1.0
 40
1.0
 10
4.861060452344014
 20
11.74588396835127
 30
0.0
 10
4.861060452344014
 20
11.74588396835127
 30
0.0
 10
4.998207885304661
 20
11.83243727598568
 30
0.0
 10
5.176787499541029
 20
11.91788754343207
 30
0.0
  0
MTEXT
  5
398
330
1F
100
AcDbEntity
  8
Callout
 62
   250
420
  2301728
100
AcDbMText
 10
5.234171761406793
 20
11.87424723307292
 30
0.0
 40
0.118
 41
0.0
 46
0.0
 71
     7
 72
     1
  1
\fHelvetica LT Std Condensed|b0|i0|c0|p34;\W1;Rafter
 73
     1
 44
1.0
  0
POLYLINE
  5
399
330
1F
100
AcDbEntity
  8
Callout
 62
   250
420
  2301728
370
    30
100
AcDb2dPolyline
 66
     1
 10
0.0
 20
0.0
 30
0.0
  0
VERTEX
  5
39A
330
399
100
AcDbEntity
  8
Callout
 62
   250
420
  2301728
370
    30
100
AcDbVertex
100
AcDb2dVertex
 10
3.905767472195116
 20
9.627677015617829
 30
0.0
  0
VERTEX
  5
39B
330
399
100
AcDbEntity
  8
Callout
 62
   250
420
  2301728
370
    30
100
AcDbVertex
100
AcDb2dVertex
 10
4.061085018931041
 20
9.063572600040704
 30
0.0
  0
SEQEND
  5
39C
330
399
100
AcDbEntity
  8
Callout
 62
   250
420
  2301728
370
    30
  0
MTEXT
  5
39D
330
1F
100
AcDbEntity
  8
Callout
 62
   250
420
  2301728
100
AcDbMText
 10
3.836615350511339
 20
8.829888661702473
 30
0.0
 40
0.118
 41
0.0
 46
0.0
 71
     7
 72
     1
  1
\fHelvetica LT Std Condensed|b0|i0|c0|p34;\W1;H1.81Z
 73
     1
 44
1.0
  0
POLYLINE
  5
39E
330
1F
100
AcDbEntity
  8
Callout
 62
   250
420
  2301728
370
    30
100
AcDb2dPolyline
 66
     1
 10
0.0
 20
0.0
 30
0.0
  0
VERTEX
  5
39F
330
39E
100
AcDbEntity
  8
Callout
 62
   250
420
  2301728
370
    30
100
AcDbVertex
100
AcDb2dVertex
 10
5.157089839051271
 20
9.94283243090845
 30
0.0
  0
VERTEX
  5
3A0
330
39E
100
AcDbEntity
  8
Callout
 62
   250
420
  2301728
370
    30
100
AcDbVertex
100
AcDb2dVertex
 10
5.263405404605489
 20
10.17840747013263
 30
0.0
  0
SEQEND
  5
3A1
330
39E
100
AcDbEntity
  8
Callout
 62
   250
420
  2301728
370
    30
  0
MTEXT
  5
3A2
330
1F
100
AcDbEntity
  8
Callout
 62
   250
420
  2301728
100
AcDbMText
 10
5.143733978271484
 20
10.25690587361654
 30
0.0
 40
0.118
 41
0.0
 46
0.0
 71
     7
 72
     1
  1
\fHelvetica LT Std Condensed|b0|i0|c0|p34;\W1;Top Plate
 73
     1
 44
1.0
  0
ENDSEC
  0
SECTION
  2
OBJECTS
  0
DICTIONARY
  5
C
330
0
100
AcDbDictionary
281
     1
  3
ACAD_GROUP
350
D
  3
ACAD_LAYOUT
350
1A
  3
ACAD_MATERIAL
350
3B
  3
ACAD_MLEADERSTYLE
350
3A8
  3
ACAD_MLINESTYLE
350
17
  3
ACAD_PLOTSETTINGS
350
19
  3
ACAD_PLOTSTYLENAME
350
E
  3
ACAD_TABLESTYLE
350
3A7
  3
ACAD_VISUALSTYLE
350
2A
  0
SUN
  5
3F
330
29
100
AcDbSun
 90
        1
290
     0
 63
     7
421
 16777215
 40
1.0
291
     1
 91
  2455826
 92
 54000000
292
     0
 70
     2
 71
   256
280
     1
  0
DICTIONARY
  5
D
102
{ACAD_REACTORS
330
C
102
}
330
C
100
AcDbDictionary
281
     1
  0
DICTIONARY
  5
1A
102
{ACAD_REACTORS
330
C
102
}
330
C
100
AcDbDictionary
281
     1
  3
Layout1
350
1E
  3
Layout2
350
26
  3
Model
350
22
  0
DICTIONARY
  5
3B
102
{ACAD_REACTORS
330
C
102
}
330
C
100
AcDbDictionary
281
     1
  3
ByBlock
350
3D
  3
ByLayer
350
3C
  3
Global
350
3E
  0
DICTIONARY
  5
3A8
102
{ACAD_REACTORS
330
C
102
}
330
C
100
AcDbDictionary
281
     1
  0
DICTIONARY
  5
17
102
{ACAD_REACTORS
330
C
102
}
330
C
100
AcDbDictionary
281
     1
  3
Standard
350
18
  0
DICTIONARY
  5
19
102
{ACAD_REACTORS
330
C
102
}
330
C
100
AcDbDictionary
281
     1
  0
ACDBDICTIONARYWDFLT
  5
E
102
{ACAD_REACTORS
330
C
102
}
330
C
100
AcDbDictionary
281
     1
  3
Normal
350
F
100
AcDbDictionaryWithDefault
340
F
  0
DICTIONARY
  5
3A7
102
{ACAD_REACTORS
330
C
102
}
330
C
100
AcDbDictionary
281
     1
  0
DICTIONARY
  5
2A
102
{ACAD_REACTORS
330
C
102
}
330
C
100
AcDbDictionary
281
     1
  3
2dWireframe
350
2F
  3
3D Hidden
350
31
  3
3dWireframe
350
30
  3
Basic
350
32
  3
Brighten
350
36
  3
ColorChange
350
3A
  3
Conceptual
350
34
  3
Dim
350
35
  3
Facepattern
350
39
  3
Flat
350
2B
  3
FlatWithEdges
350
2C
  3
Gouraud
350
2D
  3
GouraudWithEdges
350
2E
  3
Linepattern
350
38
  3
Realistic
350
33
  3
Thicken
350
37
  0
LAYOUT
  5
1E
102
{ACAD_REACTORS
330
1A
102
}
330
1A
100
AcDbPlotSettings
  1

  2
none_device
  4

  6

 40
0.0
 41
0.0
 42
0.0
 43
0.0
 44
0.0
 45
0.0
 46
0.0
 47
0.0
 48
0.0
 49
0.0
140
0.0
141
0.0
142
1.0
143
1.0
 70
   688
 72
     0
 73
     0
 74
     5
  7

 75
    16
 76
     0
 77
     2
 78
   300
147
1.0
148
0.0
149
0.0
100
AcDbLayout
  1
Layout1
 70
     1
 71
     1
 10
0.0
 20
0.0
 11
12.0
 21
9.0
 12
0.0
 22
0.0
 32
0.0
 14
1.000000000000000E+20
 24
1.000000000000000E+20
 34
1.000000000000000E+20
 15
-1.000000000000000E+20
 25
-1.000000000000000E+20
 35
-1.000000000000000E+20
146
0.0
 13
0.0
 23
0.0
 33
0.0
 16
1.0
 26
0.0
 36
0.0
 17
0.0
 27
1.0
 37
0.0
 76
     0
330
1B
  0
LAYOUT
  5
26
102
{ACAD_REACTORS
330
1A
102
}
330
1A
100
AcDbPlotSettings
  1

  2
none_device
  4

  6

 40
0.0
 41
0.0
 42
0.0
 43
0.0
 44
0.0
 45
0.0
 46
0.0
 47
0.0
 48
0.0
 49
0.0
140
0.0
141
0.0
142
1.0
143
1.0
 70
   688
 72
     0
 73
     0
 74
     5
  7

 75
    16
 76
     0
 77
     2
 78
   300
147
1.0
148
0.0
149
0.0
100
AcDbLayout
  1
Layout2
 70
     1
 71
     2
 10
0.0
 20
0.0
 11
0.0
 21
0.0
 12
0.0
 22
0.0
 32
0.0
 14
0.0
 24
0.0
 34
0.0
 15
0.0
 25
0.0
 35
0.0
146
0.0
 13
0.0
 23
0.0
 33
0.0
 16
1.0
 26
0.0
 36
0.0
 17
0.0
 27
1.0
 37
0.0
 76
     0
330
23
  0
LAYOUT
  5
22
102
{ACAD_REACTORS
330
1A
102
}
330
1A
100
AcDbPlotSettings
  1

  2
none_device
  4

  6

 40
0.0
 41
0.0
 42
0.0
 43
0.0
 44
0.0
 45
0.0
 46
0.0
 47
0.0
 48
0.0
 49
0.0
140
0.0
141
0.0
142
1.0
143
1.0
 70
  1712
 72
     0
 73
     0
 74
     0
  7

 75
     0
 76
     0
 77
     2
 78
   300
147
1.0
148
0.0
149
0.0
100
AcDbLayout
  1
Model
 70
     1
 71
     0
 10
0.0
 20
0.0
 11
12.0
 21
9.0
 12
0.0
 22
0.0
 32
0.0
 14
1.000000000000000E+20
 24
1.000000000000000E+20
 34
1.000000000000000E+20
 15
-1.000000000000000E+20
 25
-1.000000000000000E+20
 35
-1.000000000000000E+20
146
0.0
 13
0.0
 23
0.0
 33
0.0
 16
1.0
 26
0.0
 36
0.0
 17
0.0
 27
1.0
 37
0.0
 76
     0
330
1F
331
29
  0
MATERIAL
  5
3D
102
{ACAD_REACTORS
330
3B
102
}
330
3B
100
AcDbMaterial
  1
ByBlock
 72
     1
 94
      127
  0
MATERIAL
  5
3C
102
{ACAD_REACTORS
330
3B
102
}
330
3B
100
AcDbMaterial
  1
ByLayer
 72
     1
 94
      127
  0
MATERIAL
  5
3E
102
{ACAD_REACTORS
330
3B
102
}
330
3B
100
AcDbMaterial
  1
Global
 72
     1
 94
      127
  0
MLINESTYLE
  5
18
102
{ACAD_REACTORS
330
17
102
}
330
17
100
AcDbMlineStyle
  2
Standard
 70
     0
  3

 62
   256
 51
90.0
 52
90.0
 71
     2
 49
0.5
 62
   256
  6
BYLAYER
 49
-0.5
 62
   256
  6
BYLAYER
  0
ACDBPLACEHOLDER
  5
F
102
{ACAD_REACTORS
330
E
102
}
330
E
  0
VISUALSTYLE
  5
2F
102
{ACAD_REACTORS
330
2A
102
}
330
2A
100
AcDbVisualStyle
  2
2dWireframe
 70
     4
177
     2
291
     0
 71
     0
176
     1
 72
     2
176
     1
 73
     0
176
     1
 90
        0
176
     1
 40
-0.6
176
     1
 41
-30.0
176
     1
 62
     5
 63
     7
421
 16777215
176
     1
 74
     1
176
     1
 91
        4
176
     1
 64
     7
176
     1
 65
   257
176
     1
 75
     1
176
     1
175
     1
176
     1
 42
1.0
176
     1
 92
        0
176
     1
 66
   257
176
     1
 43
1.0
176
     1
 76
     1
176
     1
 77
     6
176
     1
 78
     2
176
     1
 67
     7
176
     1
 79
     5
176
     1
170
     0
176
     1
171
     0
176
     1
290
     0
176
     1
 93
        1
176
     1
 44
0.0
176
     1
173
     0
176
     1
  0
VISUALSTYLE
  5
31
102
{ACAD_REACTORS
330
2A
102
}
330
2A
100
AcDbVisualStyle
  2
3D Hidden
 70
     6
177
     2
291
     0
 71
     1
176
     1
 72
     2
176
     1
 73
     2
176
     1
 90
        0
176
     1
 40
-0.6
176
     1
 41
-30.0
176
     1
 62
     5
 63
     7
421
 16777215
176
     1
 74
     2
176
     1
 91
        2
176
     1
 64
     7
176
     1
 65
   257
176
     1
 75
     2
176
     1
175
     1
176
     1
 42
40.0
176
     1
 92
        0
176
     1
 66
   257
176
     1
 43
1.0
176
     1
 76
     1
176
     1
 77
     6
176
     1
 78
     2
176
     1
 67
     7
176
     1
 79
     3
176
     1
170
     0
176
     1
171
     0
176
     1
290
     0
176
     1
 93
        1
176
     1
 44
0.0
176
     1
173
     0
176
     1
  0
VISUALSTYLE
  5
30
102
{ACAD_REACTORS
330
2A
102
}
330
2A
100
AcDbVisualStyle
  2
3dWireframe
 70
     5
177
     2
291
     0
 71
     0
176
     1
 72
     2
176
     1
 73
     0
176
     1
 90
        0
176
     1
 40
-0.6
176
     1
 41
-30.0
176
     1
 62
     5
 63
     7
421
 16777215
176
     1
 74
     1
176
     1
 91
        4
176
     1
 64
     7
176
     1
 65
   257
176
     1
 75
     1
176
     1
175
     1
176
     1
 42
1.0
176
     1
 92
        0
176
     1
 66
   257
176
     1
 43
1.0
176
     1
 76
     1
176
     1
 77
     6
176
     1
 78
     2
176
     1
 67
     7
176
     1
 79
     5
176
     1
170
     0
176
     1
171
     0
176
     1
290
     0
176
     1
 93
        1
176
     1
 44
0.0
176
     1
173
     0
176
     1
  0
VISUALSTYLE
  5
32
102
{ACAD_REACTORS
330
2A
102
}
330
2A
100
AcDbVisualStyle
  2
Basic
 70
     7
177
     2
291
     1
 71
     1
176
     1
 72
     0
176
     1
 73
     1
176
     1
 90
        0
176
     1
 40
-0.6
176
     1
 41
-30.0
176
     1
 62
     5
 63
     7
421
 16777215
176
     1
 74
     0
176
     1
 91
        4
176
     1
 64
     7
176
     1
 65
   257
176
     1
 75
     1
176
     1
175
     1
176
     1
 42
1.0
176
     1
 92
        8
176
     1
 66
     7
176
     1
 43
1.0
176
     1
 76
     1
176
     1
 77
     6
176
     1
 78
     2
176
     1
 67
     7
176
     1
 79
     5
176
     1
170
     0
176
     1
171
     0
176
     1
290
     0
176
     1
 93
        1
176
     1
 44
0.0
176
     1
173
     0
176
     1
  0
VISUALSTYLE
  5
36
102
{ACAD_REACTORS
330
2A
102
}
330
2A
100
AcDbVisualStyle
  2
Brighten
 70
    12
177
     2
291
     1
 71
     2
176
     1
 72
     2
176
     1
 73
     0
176
     1
 90
        0
176
     1
 40
-0.6
176
     1
 41
-30.0
176
     1
 62
     5
 63
     7
421
 16777215
176
     1
 74
     1
176
     1
 91
        4
176
     1
 64
     7
176
     1
 65
   257
176
     1
 75
     1
176
     1
175
     1
176
     1
 42
1.0
176
     1
 92
        8
176
     1
 66
     7
176
     1
 43
1.0
176
     1
 76
     1
176
     1
 77
     6
176
     1
 78
     2
176
     1
 67
     7
176
     1
 79
     5
176
     1
170
     0
176
     1
171
     0
176
     1
290
     0
176
     1
 93
        1
176
     1
 44
50.0
176
     1
173
     0
176
     1
  0
VISUALSTYLE
  5
3A
102
{ACAD_REACTORS
330
2A
102
}
330
2A
100
AcDbVisualStyle
  2
ColorChange
 70
    16
177
     2
291
     1
 71
     2
176
     1
 72
     2
176
     1
 73
     3
176
     1
 90
        0
176
     1
 40
-0.6
176
     1
 41
-30.0
176
     1
 62
     5
 63
     8
421
  8421504
176
     1
 74
     1
176
     1
 91
        4
176
     1
 64
     7
176
     1
 65
   257
176
     1
 75
     1
176
     1
175
     1
176
     1
 42
1.0
176
     1
 92
        8
176
     1
 66
     8
424
  8421504
176
     1
 43
1.0
176
     1
 76
     1
176
     1
 77
     6
176
     1
 78
     2
176
     1
 67
     7
176
     1
 79
     5
176
     1
170
     0
176
     1
171
     0
176
     1
290
     0
176
     1
 93
        1
176
     1
 44
0.0
176
     1
173
     0
176
     1
  0
VISUALSTYLE
  5
34
102
{ACAD_REACTORS
330
2A
102
}
330
2A
100
AcDbVisualStyle
  2
Conceptual
 70
     9
177
     2
291
     0
 71
     3
176
     1
 72
     2
176
     1
 73
     0
176
     1
 90
        0
176
     1
 40
-0.6
176
     1
 41
-30.0
176
     1
 62
     5
 63
     7
421
 16777215
176
     1
 74
     2
176
     1
 91
        2
176
     1
 64
     7
176
     1
 65
   257
176
     1
 75
     1
176
     1
175
     1
176
     1
 42
40.0
176
     1
 92
        8
176
     1
 66
     7
176
     1
 43
1.0
176
     1
 76
     1
176
     1
 77
     6
176
     1
 78
     2
176
     1
 67
     7
176
     1
 79
     3
176
     1
170
     0
176
     1
171
     0
176
     1
290
     0
176
     1
 93
        1
176
     1
 44
0.0
176
     1
173
     0
176
     1
  0
VISUALSTYLE
  5
35
102
{ACAD_REACTORS
330
2A
102
}
330
2A
100
AcDbVisualStyle
  2
Dim
 70
    11
177
     2
291
     1
 71
     2
176
     1
 72
     2
176
     1
 73
     0
176
     1
 90
        0
176
     1
 40
-0.6
176
     1
 41
-30.0
176
     1
 62
     5
 63
     7
421
 16777215
176
     1
 74
     1
176
     1
 91
        4
176
     1
 64
     7
176
     1
 65
   257
176
     1
 75
     1
176
     1
175
     1
176
     1
 42
1.0
176
     1
 92
        8
176
     1
 66
     7
176
     1
 43
1.0
176
     1
 76
     1
176
     1
 77
     6
176
     1
 78
     2
176
     1
 67
     7
176
     1
 79
     5
176
     1
170
     0
176
     1
171
     0
176
     1
290
     0
176
     1
 93
        1
176
     1
 44
-50.0
176
     1
173
     0
176
     1
  0
VISUALSTYLE
  5
39
102
{ACAD_REACTORS
330
2A
102
}
330
2A
100
AcDbVisualStyle
  2
Facepattern
 70
    15
177
     2
291
     1
 71
     2
176
     1
 72
     2
176
     1
 73
     0
176
     1
 90
        0
176
     1
 40
-0.6
176
     1
 41
-30.0
176
     1
 62
     5
 63
     7
421
 16777215
176
     1
 74
     1
176
     1
 91
        4
176
     1
 64
     7
176
     1
 65
   257
176
     1
 75
     1
176
     1
175
     1
176
     1
 42
1.0
176
     1
 92
        8
176
     1
 66
     7
176
     1
 43
1.0
176
     1
 76
     1
176
     1
 77
     6
176
     1
 78
     2
176
     1
 67
     7
176
     1
 79
     5
176
     1
170
     0
176
     1
171
     0
176
     1
290
     0
176
     1
 93
        1
176
     1
 44
0.0
176
     1
173
     0
176
     1
  0
VISUALSTYLE
  5
2B
102
{ACAD_REACTORS
330
2A
102
}
330
2A
100
AcDbVisualStyle
  2
Flat
 70
     0
177
     2
291
     1
 71
     2
176
     1
 72
     1
176
     1
 73
     1
176
     1
 90
        2
176
     1
 40
-0.6
176
     1
 41
30.0
176
     1
 62
     5
 63
     7
421
 16777215
176
     1
 74
     0
176
     1
 91
        4
176
     1
 64
     7
176
     1
 65
   257
176
     1
 75
     1
176
     1
175
     1
176
     1
 42
1.0
176
     1
 92
        8
176
     1
 66
     7
176
     1
 43
1.0
176
     1
 76
     1
176
     1
 77
     6
176
     1
 78
     2
176
     1
 67
     7
176
     1
 79
     5
176
     1
170
     0
176
     1
171
     0
176
     1
290
     0
176
     1
 93
       13
176
     1
 44
0.0
176
     1
173
     0
176
     1
  0
VISUALSTYLE
  5
2C
102
{ACAD_REACTORS
330
2A
102
}
330
2A
100
AcDbVisualStyle
  2
FlatWithEdges
 70
     1
177
     2
291
     1
 71
     2
176
     1
 72
     1
176
     1
 73
     1
176
     1
 90
        2
176
     1
 40
-0.6
176
     1
 41
30.0
176
     1
 62
     5
 63
     7
421
 16777215
176
     1
 74
     1
176
     1
 91
        4
176
     1
 64
     7
176
     1
 65
   257
176
     1
 75
     1
176
     1
175
     1
176
     1
 42
1.0
176
     1
 92
        0
176
     1
 66
   257
176
     1
 43
1.0
176
     1
 76
     1
176
     1
 77
     6
176
     1
 78
     2
176
     1
 67
     7
176
     1
 79
     5
176
     1
170
     0
176
     1
171
     0
176
     1
290
     0
176
     1
 93
       13
176
     1
 44
0.0
176
     1
173
     0
176
     1
  0
VISUALSTYLE
  5
2D
102
{ACAD_REACTORS
330
2A
102
}
330
2A
100
AcDbVisualStyle
  2
Gouraud
 70
     2
177
     2
291
     1
 71
     2
176
     1
 72
     2
176
     1
 73
     1
176
     1
 90
        2
176
     1
 40
-0.6
176
     1
 41
30.0
176
     1
 62
     5
 63
     7
421
 16777215
176
     1
 74
     0
176
     1
 91
        4
176
     1
 64
     7
176
     1
 65
   257
176
     1
 75
     1
176
     1
175
     1
176
     1
 42
1.0
176
     1
 92
        0
176
     1
 66
     7
176
     1
 43
1.0
176
     1
 76
     1
176
     1
 77
     6
176
     1
 78
     2
176
     1
 67
     7
176
     1
 79
     5
176
     1
170
     0
176
     1
171
     0
176
     1
290
     0
176
     1
 93
       13
176
     1
 44
0.0
176
     1
173
     0
176
     1
  0
VISUALSTYLE
  5
2E
102
{ACAD_REACTORS
330
2A
102
}
330
2A
100
AcDbVisualStyle
  2
GouraudWithEdges
 70
     3
177
     2
291
     1
 71
     2
176
     1
 72
     2
176
     1
 73
     1
176
     1
 90
        2
176
     1
 40
-0.6
176
     1
 41
30.0
176
     1
 62
     5
 63
     7
421
 16777215
176
     1
 74
     1
176
     1
 91
        4
176
     1
 64
     7
176
     1
 65
   257
176
     1
 75
     1
176
     1
175
     1
176
     1
 42
1.0
176
     1
 92
        0
176
     1
 66
   257
176
     1
 43
1.0
176
     1
 76
     1
176
     1
 77
     6
176
     1
 78
     2
176
     1
 67
     7
176
     1
 79
     5
176
     1
170
     0
176
     1
171
     0
176
     1
290
     0
176
     1
 93
       13
176
     1
 44
0.0
176
     1
173
     0
176
     1
  0
VISUALSTYLE
  5
38
102
{ACAD_REACTORS
330
2A
102
}
330
2A
100
AcDbVisualStyle
  2
Linepattern
 70
    14
177
     2
291
     1
 71
     2
176
     1
 72
     2
176
     1
 73
     0
176
     1
 90
        0
176
     1
 40
-0.6
176
     1
 41
-30.0
176
     1
 62
     5
 63
     7
421
 16777215
176
     1
 74
     1
176
     1
 91
        4
176
     1
 64
     7
176
     1
 65
   257
176
     1
 75
     7
176
     1
175
     7
176
     1
 42
1.0
176
     1
 92
        8
176
     1
 66
     7
176
     1
 43
1.0
176
     1
 76
     1
176
     1
 77
     6
176
     1
 78
     2
176
     1
 67
     7
176
     1
 79
     5
176
     1
170
     0
176
     1
171
     0
176
     1
290
     0
176
     1
 93
        1
176
     1
 44
0.0
176
     1
173
     0
176
     1
  0
VISUALSTYLE
  5
33
102
{ACAD_REACTORS
330
2A
102
}
330
2A
100
AcDbVisualStyle
  2
Realistic
 70
     8
177
     2
291
     0
 71
     2
176
     1
 72
     2
176
     1
 73
     0
176
     1
 90
        0
176
     1
 40
-0.6
176
     1
 41
-30.0
176
     1
 62
     5
 63
     7
421
 16777215
176
     1
 74
     1
176
     1
 91
        0
176
     1
 64
     7
176
     1
 65
   257
176
     1
 75
     1
176
     1
175
     1
176
     1
 42
1.0
176
     1
 92
        8
176
     1
 66
     8
424
  7895160
176
     1
 43
1.0
176
     1
 76
     1
176
     1
 77
     6
176
     1
 78
     2
176
     1
 67
     7
176
     1
 79
     5
176
     1
170
     0
176
     1
171
     0
176
     1
290
     0
176
     1
 93
       13
176
     1
 44
0.0
176
     1
173
     0
176
     1
  0
VISUALSTYLE
  5
37
102
{ACAD_REACTORS
330
2A
102
}
330
2A
100
AcDbVisualStyle
  2
Thicken
 70
    13
177
     2
291
     1
 71
     2
176
     1
 72
     2
176
     1
 73
     0
176
     1
 90
        0
176
     1
 40
-0.6
176
     1
 41
-30.0
176
     1
 62
     5
 63
     7
421
 16777215
176
     1
 74
     1
176
     1
 91
        4
176
     1
 64
     7
176
     1
 65
   257
176
     1
 75
     1
176
     1
175
     1
176
     1
 42
1.0
176
     1
 92
       12
176
     1
 66
     7
176
     1
 43
1.0
176
     1
 76
     1
176
     1
 77
     6
176
     1
 78
     2
176
     1
 67
     7
176
     1
 79
     5
176
     1
170
     0
176
     1
171
     0
176
     1
290
     0
176
     1
 93
        1
176
     1
 44
0.0
176
     1
173
     0
176
     1
  0
ENDSEC
  0
EOF
