  0
SECTION
  2
HEADER
  9
$ACADVER
  1
AC1024
  9
$ACADMAINTVER
 70
     6
  9
$DWGCODEPAGE
  3
ANSI_1252
  9
$INSBASE
 10
0.0
 20
0.0
 30
0.0
  9
$EXTMIN
 10
1.000000000000000E+20
 20
1.000000000000000E+20
 30
1.000000000000000E+20
  9
$EXTMAX
 10
-1.000000000000000E+20
 20
-1.000000000000000E+20
 30
-1.000000000000000E+20
  9
$LIMMIN
 10
0.0
 20
0.0
  9
$LIMMAX
 10
12.0
 20
9.0
  9
$ORTHOMODE
 70
     0
  9
$REGENMODE
 70
     1
  9
$FILLMODE
 70
     1
  9
$QTEXTMODE
 70
     0
  9
$MIRRTEXT
 70
     1
  9
$LTSCALE
 40
1.0
  9
$ATTMODE
 70
     1
  9
$TEXTSIZE
 40
0.2
  9
$TRACEWID
 40
0.05
  9
$TEXTSTYLE
  7
Standard
  9
$CLAYER
  8
0
  9
$CELTYPE
  6
ByLayer
  9
$CECOLOR
 62
   256
  9
$CELTSCALE
 40
1.0
  9
$DISPSILH
 70
     0
  9
$DIMSCALE
 40
1.0
  9
$DIMASZ
 40
0.18
  9
$DIMEXO
 40
0.0625
  9
$DIMDLI
 40
0.38
  9
$DIMRND
 40
0.0
  9
$DIMDLE
 40
0.0
  9
$DIMEXE
 40
0.18
  9
$DIMTP
 40
0.0
  9
$DIMTM
 40
0.0
  9
$DIMTXT
 40
0.18
  9
$DIMCEN
 40
0.09
  9
$DIMTSZ
 40
0.0
  9
$DIMTOL
 70
     0
  9
$DIMLIM
 70
     0
  9
$DIMTIH
 70
     1
  9
$DIMTOH
 70
     1
  9
$DIMSE1
 70
     0
  9
$DIMSE2
 70
     0
  9
$DIMTAD
 70
     0
  9
$DIMZIN
 70
     0
  9
$DIMBLK
  1

  9
$DIMASO
 70
     1
  9
$DIMSHO
 70
     1
  9
$DIMPOST
  1

  9
$DIMAPOST
  1

  9
$DIMALT
 70
     0
  9
$DIMALTD
 70
     2
  9
$DIMALTF
 40
25.4
  9
$DIMLFAC
 40
1.0
  9
$DIMTOFL
 70
     0
  9
$DIMTVP
 40
0.0
  9
$DIMTIX
 70
     0
  9
$DIMSOXD
 70
     0
  9
$DIMSAH
 70
     0
  9
$DIMBLK1
  1

  9
$DIMBLK2
  1

  9
$DIMSTYLE
  2
Standard
  9
$DIMCLRD
 70
     0
  9
$DIMCLRE
 70
     0
  9
$DIMCLRT
 70
     0
  9
$DIMTFAC
 40
1.0
  9
$DIMGAP
 40
0.09
  9
$DIMJUST
 70
     0
  9
$DIMSD1
 70
     0
  9
$DIMSD2
 70
     0
  9
$DIMTOLJ
 70
     1
  9
$DIMTZIN
 70
     0
  9
$DIMALTZ
 70
     0
  9
$DIMALTTZ
 70
     0
  9
$DIMUPT
 70
     0
  9
$DIMDEC
 70
     4
  9
$DIMTDEC
 70
     4
  9
$DIMALTU
 70
     2
  9
$DIMALTTD
 70
     2
  9
$DIMTXSTY
  7
Standard
  9
$DIMAUNIT
 70
     0
  9
$DIMADEC
 70
     0
  9
$DIMALTRND
 40
0.0
  9
$DIMAZIN
 70
     0
  9
$DIMDSEP
 70
    46
  9
$DIMATFIT
 70
     3
  9
$DIMFRAC
 70
     0
  9
$DIMLDRBLK
  1

  9
$DIMLUNIT
 70
     2
  9
$DIMLWD
 70
    -2
  9
$DIMLWE
 70
    -2
  9
$DIMTMOVE
 70
     0
  9
$DIMFXL
 40
1.0
  9
$DIMFXLON
 70
     0
  9
$DIMJOGANG
 40
0.7853981633974483
  9
$DIMTFILL
 70
     0
  9
$DIMTFILLCLR
 70
     0
  9
$DIMARCSYM
 70
     0
  9
$DIMLTYPE
  6

  9
$DIMLTEX1
  6

  9
$DIMLTEX2
  6

  9
$DIMTXTDIRECTION
 70
     0
  9
$LUNITS
 70
     2
  9
$LUPREC
 70
     4
  9
$SKETCHINC
 40
0.1
  9
$FILLETRAD
 40
0.5
  9
$AUNITS
 70
     0
  9
$AUPREC
 70
     0
  9
$MENU
  1
.
  9
$ELEVATION
 40
0.0
  9
$PELEVATION
 40
0.0
  9
$THICKNESS
 40
0.0
  9
$LIMCHECK
 70
     0
  9
$CHAMFERA
 40
0.5
  9
$CHAMFERB
 40
0.5
  9
$CHAMFERC
 40
1.0
  9
$CHAMFERD
 40
0.0
  9
$SKPOLY
 70
     0
  9
$TDCREATE
 40
2458775.664716655
  9
$TDUCREATE
 40
2458775.123049988
  9
$TDUPDATE
 40
2458775.664716794
  9
$TDUUPDATE
 40
2458775.123050127
  9
$TDINDWG
 40
0.0000000116
  9
$TDUSRTIMER
 40
0.0000000116
  9
$USRTIMER
 70
     1
  9
$ANGBASE
 50
0.0
  9
$ANGDIR
 70
     0
  9
$PDMODE
 70
     0
  9
$PDSIZE
 40
0.0
  9
$PLINEWID
 40
0.0
  9
$SPLFRAME
 70
     0
  9
$SPLINETYPE
 70
     6
  9
$SPLINESEGS
 70
     8
  9
$HANDSEED
  5
28F
  9
$SURFTAB1
 70
     6
  9
$SURFTAB2
 70
     6
  9
$SURFTYPE
 70
     6
  9
$SURFU
 70
     6
  9
$SURFV
 70
     6
  9
$UCSBASE
  2

  9
$UCSNAME
  2

  9
$UCSORG
 10
0.0
 20
0.0
 30
0.0
  9
$UCSXDIR
 10
1.0
 20
0.0
 30
0.0
  9
$UCSYDIR
 10
0.0
 20
1.0
 30
0.0
  9
$UCSORTHOREF
  2

  9
$UCSORTHOVIEW
 70
     0
  9
$UCSORGTOP
 10
0.0
 20
0.0
 30
0.0
  9
$UCSORGBOTTOM
 10
0.0
 20
0.0
 30
0.0
  9
$UCSORGLEFT
 10
0.0
 20
0.0
 30
0.0
  9
$UCSORGRIGHT
 10
0.0
 20
0.0
 30
0.0
  9
$UCSORGFRONT
 10
0.0
 20
0.0
 30
0.0
  9
$UCSORGBACK
 10
0.0
 20
0.0
 30
0.0
  9
$PUCSBASE
  2

  9
$PUCSNAME
  2

  9
$PUCSORG
 10
0.0
 20
0.0
 30
0.0
  9
$PUCSXDIR
 10
1.0
 20
0.0
 30
0.0
  9
$PUCSYDIR
 10
0.0
 20
1.0
 30
0.0
  9
$PUCSORTHOREF
  2

  9
$PUCSORTHOVIEW
 70
     0
  9
$PUCSORGTOP
 10
0.0
 20
0.0
 30
0.0
  9
$PUCSORGBOTTOM
 10
0.0
 20
0.0
 30
0.0
  9
$PUCSORGLEFT
 10
0.0
 20
0.0
 30
0.0
  9
$PUCSORGRIGHT
 10
0.0
 20
0.0
 30
0.0
  9
$PUCSORGFRONT
 10
0.0
 20
0.0
 30
0.0
  9
$PUCSORGBACK
 10
0.0
 20
0.0
 30
0.0
  9
$USERI1
 70
     0
  9
$USERI2
 70
     0
  9
$USERI3
 70
     0
  9
$USERI4
 70
     0
  9
$USERI5
 70
     0
  9
$USERR1
 40
0.0
  9
$USERR2
 40
0.0
  9
$USERR3
 40
0.0
  9
$USERR4
 40
0.0
  9
$USERR5
 40
0.0
  9
$WORLDVIEW
 70
     1
  9
$SHADEDGE
 70
     3
  9
$SHADEDIF
 70
    70
  9
$TILEMODE
 70
     1
  9
$MAXACTVP
 70
    64
  9
$PINSBASE
 10
0.0
 20
0.0
 30
0.0
  9
$PLIMCHECK
 70
     0
  9
$PEXTMIN
 10
1.000000000000000E+20
 20
1.000000000000000E+20
 30
1.000000000000000E+20
  9
$PEXTMAX
 10
-1.000000000000000E+20
 20
-1.000000000000000E+20
 30
-1.000000000000000E+20
  9
$PLIMMIN
 10
0.0
 20
0.0
  9
$PLIMMAX
 10
12.0
 20
9.0
  9
$UNITMODE
 70
     0
  9
$VISRETAIN
 70
     1
  9
$PLINEGEN
 70
     0
  9
$PSLTSCALE
 70
     1
  9
$TREEDEPTH
 70
  3020
  9
$CMLSTYLE
  2
Standard
  9
$CMLJUST
 70
     0
  9
$CMLSCALE
 40
1.0
  9
$PROXYGRAPHICS
 70
     1
  9
$MEASUREMENT
 70
     0
  9
$CELWEIGHT
370
    -1
  9
$ENDCAPS
280
     0
  9
$JOINSTYLE
280
     0
  9
$LWDISPLAY
290
     1
  9
$INSUNITS
 70
     1
  9
$HYPERLINKBASE
  1

  9
$STYLESHEET
  1

  9
$XEDIT
290
     1
  9
$CEPSNTYPE
380
     0
  9
$PSTYLEMODE
290
     1
  9
$FINGERPRINTGUID
  2
{C80C1BD3-08B0-49CA-A1E0-2E3778118909}
  9
$VERSIONGUID
  2
{FAEB1C32-E019-11D5-929B-00C0DF256EC4}
  9
$EXTNAMES
290
     1
  9
$PSVPSCALE
 40
0.0
  9
$OLESTARTUP
290
     0
  9
$SORTENTS
280
   127
  9
$INDEXCTL
280
     0
  9
$HIDETEXT
280
     1
  9
$XCLIPFRAME
280
     2
  9
$HALOGAP
280
     0
  9
$OBSCOLOR
 70
   257
  9
$OBSLTYPE
280
     0
  9
$INTERSECTIONDISPLAY
280
     0
  9
$INTERSECTIONCOLOR
 70
   257
  9
$DIMASSOC
280
     2
  9
$PROJECTNAME
  1

  9
$CAMERADISPLAY
290
     0
  9
$LENSLENGTH
 40
50.0
  9
$CAMERAHEIGHT
 40
0.0
  9
$STEPSPERSEC
 40
2.0
  9
$STEPSIZE
 40
6.0
  9
$3DDWFPREC
 40
2.0
  9
$PSOLWIDTH
 40
0.25
  9
$PSOLHEIGHT
 40
4.0
  9
$LOFTANG1
 40
1.570796326794897
  9
$LOFTANG2
 40
1.570796326794897
  9
$LOFTMAG1
 40
0.0
  9
$LOFTMAG2
 40
0.0
  9
$LOFTPARAM
 70
     7
  9
$LOFTNORMALS
280
     1
  9
$LATITUDE
 40
37.795
  9
$LONGITUDE
 40
-122.394
  9
$NORTHDIRECTION
 40
0.0
  9
$TIMEZONE
 70
 -8000
  9
$LIGHTGLYPHDISPLAY
280
     1
  9
$TILEMODELIGHTSYNCH
280
     1
  9
$CMATERIAL
347
3C
  9
$SOLIDHIST
280
     1
  9
$SHOWHIST
280
     1
  9
$DWFFRAME
280
     2
  9
$DGNFRAME
280
     2
  9
$REALWORLDSCALE
290
     1
  9
$INTERFERECOLOR
 62
   256
  9
$CSHADOW
280
     0
  9
$SHADOWPLANELOCATION
 40
0.0
  0
ENDSEC
  0
SECTION
  2
CLASSES
  0
CLASS
  1
ACDBDICTIONARYWDFLT
  2
AcDbDictionaryWithDefault
  3
ObjectDBX Classes
 90
        0
 91
        4
280
     0
281
     0
  0
CLASS
  1
VISUALSTYLE
  2
AcDbVisualStyle
  3
ObjectDBX Classes
 90
     4095
 91
        4
280
     0
281
     0
  0
CLASS
  1
MATERIAL
  2
AcDbMaterial
  3
ObjectDBX Classes
 90
     1153
 91
        4
280
     0
281
     0
  0
CLASS
  1
SUN
  2
AcDbSun
  3
SCENEOE
 90
     1024
 91
        4
280
     0
281
     0
  0
ENDSEC
  0
SECTION
  2
TABLES
  0
TABLE
  2
VPORT
  5
8
330
0
100
AcDbSymbolTable
 70
     1
  0
VPORT
  5
29
330
8
100
AcDbSymbolTableRecord
100
AcDbViewportTableRecord
  2
*Active
 70
     0
 10
0.0
 20
0.0
 11
1.0
 21
1.0
 12
0.0
 22
0.0
 13
0.0
 23
0.0
 14
0.5
 24
0.5
 15
0.5
 25
0.5
 16
0.0
 26
0.0
 36
1.0
 17
3.990399899194017
 27
9.4292942062404
 37
0.0
 40
11.6929133858267
 41
0.7070707070707104
 42
50.0
 43
0.0
 44
0.0
 50
0.0
 51
0.0
 71
     0
 72
   100
 73
     1
 74
     3
 75
     0
 76
     0
 77
     0
 78
     0
281
     0
 65
     1
110
0.0
120
0.0
130
0.0
111
1.0
121
0.0
131
0.0
112
0.0
122
1.0
132
0.0
 79
     0
146
0.0
 60
     3
 61
     5
292
     1
282
     1
141
0.0
142
0.0
 63
   250
361
3F
  0
ENDTAB
  0
TABLE
  2
LTYPE
  5
5
330
0
100
AcDbSymbolTable
 70
     1
  0
LTYPE
  5
14
330
5
100
AcDbSymbolTableRecord
100
AcDbLinetypeTableRecord
  2
ByBlock
 70
     0
  3

 72
    65
 73
     0
 40
0.0
  0
LTYPE
  5
15
330
5
100
AcDbSymbolTableRecord
100
AcDbLinetypeTableRecord
  2
ByLayer
 70
     0
  3

 72
    65
 73
     0
 40
0.0
  0
LTYPE
  5
16
330
5
100
AcDbSymbolTableRecord
100
AcDbLinetypeTableRecord
  2
Continuous
 70
     0
  3
Solid line
 72
    65
 73
     0
 40
0.0
  0
ENDTAB
  0
TABLE
  2
LAYER
  5
2
330
0
100
AcDbSymbolTable
 70
     3
  0
LAYER
  5
10
330
2
100
AcDbSymbolTableRecord
100
AcDbLayerTableRecord
  2
0
 70
     0
 62
     7
  6
Continuous
370
    -3
390
F
347
3E
  0
LAYER
  5
40
330
2
100
AcDbSymbolTableRecord
100
AcDbLayerTableRecord
  2
H1
 70
     0
 62
     7
  6
Continuous
370
    -3
390
F
347
3E
  0
LAYER
  5
220
330
2
100
AcDbSymbolTableRecord
100
AcDbLayerTableRecord
  2
Callout
 70
     0
 62
     7
  6
Continuous
370
    -3
390
F
347
3E
  0
ENDTAB
  0
TABLE
  2
STYLE
  5
3
330
0
100
AcDbSymbolTable
 70
     1
  0
STYLE
  5
11
330
3
100
AcDbSymbolTableRecord
100
AcDbTextStyleTableRecord
  2
Standard
 70
     0
 40
0.0
 41
1.0
 50
0.0
 71
     0
 42
0.2
  3
txt
  4

  0
ENDTAB
  0
TABLE
  2
VIEW
  5
6
330
0
100
AcDbSymbolTable
 70
     0
  0
ENDTAB
  0
TABLE
  2
UCS
  5
7
330
0
100
AcDbSymbolTable
 70
     0
  0
ENDTAB
  0
TABLE
  2
APPID
  5
9
330
0
100
AcDbSymbolTable
 70
     1
  0
APPID
  5
12
330
9
100
AcDbSymbolTableRecord
100
AcDbRegAppTableRecord
  2
ACAD
 70
     0
  0
ENDTAB
  0
TABLE
  2
DIMSTYLE
  5
A
330
0
100
AcDbSymbolTable
 70
     1
100
AcDbDimStyleTable
  0
DIMSTYLE
105
27
330
A
100
AcDbSymbolTableRecord
100
AcDbDimStyleTableRecord
  2
Standard
 70
     0
178
     0
340
11
  0
ENDTAB
  0
TABLE
  2
BLOCK_RECORD
  5
1
330
0
100
AcDbSymbolTable
 70
    22
  0
BLOCK_RECORD
  5
1F
330
1
100
AcDbSymbolTableRecord
100
AcDbBlockTableRecord
  2
*Model_Space
340
22
 70
     0
280
     1
281
     0
  0
BLOCK_RECORD
  5
1B
330
1
100
AcDbSymbolTableRecord
100
AcDbBlockTableRecord
  2
*Paper_Space
340
1E
 70
     0
280
     1
281
     0
  0
BLOCK_RECORD
  5
23
330
1
100
AcDbSymbolTableRecord
100
AcDbBlockTableRecord
  2
*Paper_Space0
340
26
 70
     0
280
     1
281
     0
  0
BLOCK_RECORD
  5
41
330
1
100
AcDbSymbolTableRecord
100
AcDbBlockTableRecord
  2
block 2
340
0
102
{BLKREFS
331
42
102
}
 70
     0
280
     1
281
     0
  0
BLOCK_RECORD
  5
DF
330
1
100
AcDbSymbolTableRecord
100
AcDbBlockTableRecord
  2
block 3
340
0
102
{BLKREFS
331
E0
102
}
 70
     0
280
     1
281
     0
  0
BLOCK_RECORD
  5
192
330
1
100
AcDbSymbolTableRecord
100
AcDbBlockTableRecord
  2
block 4
340
0
102
{BLKREFS
331
193
102
}
 70
     0
280
     1
281
     0
  0
BLOCK_RECORD
  5
1B4
330
1
100
AcDbSymbolTableRecord
100
AcDbBlockTableRecord
  2
block 5
340
0
102
{BLKREFS
331
1B5
102
}
 70
     0
280
     1
281
     0
  0
BLOCK_RECORD
  5
1CA
330
1
100
AcDbSymbolTableRecord
100
AcDbBlockTableRecord
  2
block 6
340
0
102
{BLKREFS
331
1CB
102
}
 70
     0
280
     1
281
     0
  0
BLOCK_RECORD
  5
1E9
330
1
100
AcDbSymbolTableRecord
100
AcDbBlockTableRecord
  2
block 7
340
0
102
{BLKREFS
331
1EA
102
}
 70
     0
280
     1
281
     0
  0
BLOCK_RECORD
  5
1EE
330
1
100
AcDbSymbolTableRecord
100
AcDbBlockTableRecord
  2
block 8
340
0
102
{BLKREFS
331
1EF
102
}
 70
     0
280
     1
281
     0
  0
BLOCK_RECORD
  5
1F3
330
1
100
AcDbSymbolTableRecord
100
AcDbBlockTableRecord
  2
block 9
340
0
102
{BLKREFS
331
1F4
102
}
 70
     0
280
     1
281
     0
  0
BLOCK_RECORD
  5
1F8
330
1
100
AcDbSymbolTableRecord
100
AcDbBlockTableRecord
  2
block 10
340
0
102
{BLKREFS
331
1F9
102
}
 70
     0
280
     1
281
     0
  0
BLOCK_RECORD
  5
1FF
330
1
100
AcDbSymbolTableRecord
100
AcDbBlockTableRecord
  2
block 11
340
0
102
{BLKREFS
331
200
102
}
 70
     0
280
     1
281
     0
  0
BLOCK_RECORD
  5
203
330
1
100
AcDbSymbolTableRecord
100
AcDbBlockTableRecord
  2
block 12
340
0
102
{BLKREFS
331
204
102
}
 70
     0
280
     1
281
     0
  0
BLOCK_RECORD
  5
20A
330
1
100
AcDbSymbolTableRecord
100
AcDbBlockTableRecord
  2
block 13
340
0
102
{BLKREFS
331
20B
102
}
 70
     0
280
     1
281
     0
  0
BLOCK_RECORD
  5
20E
330
1
100
AcDbSymbolTableRecord
100
AcDbBlockTableRecord
  2
block 14
340
0
102
{BLKREFS
331
20F
102
}
 70
     0
280
     1
281
     0
  0
BLOCK_RECORD
  5
215
330
1
100
AcDbSymbolTableRecord
100
AcDbBlockTableRecord
  2
block 15
340
0
102
{BLKREFS
331
216
102
}
 70
     0
280
     1
281
     0
  0
BLOCK_RECORD
  5
219
330
1
100
AcDbSymbolTableRecord
100
AcDbBlockTableRecord
  2
block 16
340
0
102
{BLKREFS
331
21A
102
}
 70
     0
280
     1
281
     0
  0
BLOCK_RECORD
  5
221
330
1
100
AcDbSymbolTableRecord
100
AcDbBlockTableRecord
  2
block 17
340
0
102
{BLKREFS
331
222
102
}
 70
     0
280
     1
281
     0
  0
BLOCK_RECORD
  5
225
330
1
100
AcDbSymbolTableRecord
100
AcDbBlockTableRecord
  2
block 18
340
0
102
{BLKREFS
331
226
102
}
 70
     0
280
     1
281
     0
  0
BLOCK_RECORD
  5
23B
330
1
100
AcDbSymbolTableRecord
100
AcDbBlockTableRecord
  2
block 19
340
0
102
{BLKREFS
331
23C
102
}
 70
     0
280
     1
281
     0
  0
BLOCK_RECORD
  5
24F
330
1
100
AcDbSymbolTableRecord
100
AcDbBlockTableRecord
  2
block 20
340
0
102
{BLKREFS
331
250
102
}
 70
     0
280
     1
281
     0
  0
BLOCK_RECORD
  5
253
330
1
100
AcDbSymbolTableRecord
100
AcDbBlockTableRecord
  2
block 21
340
0
102
{BLKREFS
331
254
102
}
 70
     0
280
     1
281
     0
  0
BLOCK_RECORD
  5
269
330
1
100
AcDbSymbolTableRecord
100
AcDbBlockTableRecord
  2
block 22
340
0
102
{BLKREFS
331
26A
102
}
 70
     0
280
     1
281
     0
  0
ENDTAB
  0
ENDSEC
  0
SECTION
  2
BLOCKS
  0
BLOCK
  5
20
330
1F
100
AcDbEntity
  8
0
100
AcDbBlockBegin
  2
*Model_Space
 70
     0
 10
0.0
 20
0.0
 30
0.0
  3
*Model_Space
  1

  0
ENDBLK
  5
21
330
1F
100
AcDbEntity
  8
0
100
AcDbBlockEnd
  0
BLOCK
  5
1C
330
1B
100
AcDbEntity
 67
     1
  8
0
100
AcDbBlockBegin
  2
*Paper_Space
 70
     0
 10
0.0
 20
0.0
 30
0.0
  3
*Paper_Space
  1

  0
ENDBLK
  5
1D
330
1B
100
AcDbEntity
 67
     1
  8
0
100
AcDbBlockEnd
  0
BLOCK
  5
24
330
23
100
AcDbEntity
  8
0
100
AcDbBlockBegin
  2
*Paper_Space0
 70
     0
 10
0.0
 20
0.0
 30
0.0
  3
*Paper_Space0
  1

  0
ENDBLK
  5
25
330
23
100
AcDbEntity
  8
0
100
AcDbBlockEnd
  0
BLOCK
  5
43
330
41
100
AcDbEntity
  8
0
100
AcDbBlockBegin
  2
block 2
 70
     0
 10
0.0
 20
0.0
 30
0.0
  3
block 2
  1

  0
POLYLINE
  5
45
330
41
100
AcDbEntity
  8
H1
 62
   250
420
  2301728
370
    25
100
AcDb2dPolyline
 66
     1
 10
0.0
 20
0.0
 30
0.0
  0
VERTEX
  5
46
330
45
100
AcDbEntity
  8
H1
 62
   250
420
  2301728
370
    25
100
AcDbVertex
100
AcDb2dVertex
 10
4.741599746706116
 20
10.46854385756011
 30
0.0
  0
VERTEX
  5
47
330
45
100
AcDbEntity
  8
H1
 62
   250
420
  2301728
370
    25
100
AcDbVertex
100
AcDb2dVertex
 10
4.775013478317204
 20
10.51207832136544
 30
0.0
  0
VERTEX
  5
48
330
45
100
AcDbEntity
  8
H1
 62
   250
420
  2301728
370
    25
100
AcDbVertex
100
AcDb2dVertex
 10
4.772187477847536
 20
11.17619787271817
 30
0.0
  0
VERTEX
  5
49
330
45
100
AcDbEntity
  8
H1
 62
   250
420
  2301728
370
    25
100
AcDbVertex
100
AcDb2dVertex
 10
4.527537029615663
 20
11.24295924906966
 30
0.0
  0
VERTEX
  5
4A
330
45
100
AcDbEntity
  8
H1
 62
   250
420
  2301728
370
    25
100
AcDbVertex
100
AcDb2dVertex
 10
3.107995243584797
 20
9.96489057118328
 30
0.0
  0
VERTEX
  5
4B
330
45
100
AcDbEntity
  8
H1
 62
   250
420
  2301728
370
    25
100
AcDbVertex
100
AcDb2dVertex
 10
2.901238797196343
 20
10.03841483730014
 30
0.0
  0
VERTEX
  5
4C
330
45
100
AcDbEntity
  8
H1
 62
   250
420
  2301728
370
    25
100
AcDbVertex
100
AcDb2dVertex
 10
2.766672291535959
 20
9.981816153060802
 30
0.0
  0
VERTEX
  5
4D
330
45
100
AcDbEntity
  8
H1
 62
   250
420
  2301728
370
    25
100
AcDbVertex
100
AcDb2dVertex
 10
2.766672291535959
 20
9.934438160777063
 30
0.0
  0
VERTEX
  5
4E
330
45
100
AcDbEntity
  8
H1
 62
   250
420
  2301728
370
    25
100
AcDbVertex
100
AcDb2dVertex
 10
2.543888244136408
 20
9.947391187428655
 30
0.0
  0
VERTEX
  5
4F
330
45
100
AcDbEntity
  8
H1
 62
   250
420
  2301728
370
    25
100
AcDbVertex
100
AcDb2dVertex
 10
2.543888244136408
 20
9.888127184865512
 30
0.0
  0
VERTEX
  5
50
330
45
100
AcDbEntity
  8
H1
 62
   250
420
  2301728
370
    25
100
AcDbVertex
100
AcDb2dVertex
 10
2.397750203497228
 20
9.82666411168523
 30
0.0
  0
VERTEX
  5
51
330
45
100
AcDbEntity
  8
H1
 62
   250
420
  2301728
370
    25
100
AcDbVertex
100
AcDb2dVertex
 10
2.397750203497228
 20
9.709026334896217
 30
0.0
  0
VERTEX
  5
52
330
45
100
AcDbEntity
  8
H1
 62
   250
420
  2301728
370
    25
100
AcDbVertex
100
AcDb2dVertex
 10
2.214237453622079
 20
9.633741850224029
 30
0.0
  0
VERTEX
  5
53
330
45
100
AcDbEntity
  8
H1
 62
   250
420
  2301728
370
    25
100
AcDbVertex
100
AcDb2dVertex
 10
2.214237453622079
 20
9.374939370686976
 30
0.0
  0
VERTEX
  5
54
330
45
100
AcDbEntity
  8
H1
 62
   250
420
  2301728
370
    25
100
AcDbVertex
100
AcDb2dVertex
 10
2.921473967597169
 20
9.103514298851639
 30
0.0
  0
VERTEX
  5
55
330
45
100
AcDbEntity
  8
H1
 62
   250
420
  2301728
370
    25
100
AcDbVertex
100
AcDb2dVertex
 10
2.921473967597169
 20
8.229300389642578
 30
0.0
  0
VERTEX
  5
56
330
45
100
AcDbEntity
  8
H1
 62
   250
420
  2301728
370
    25
100
AcDbVertex
100
AcDb2dVertex
 10
3.208200772487796
 20
8.09393664554236
 30
0.0
  0
VERTEX
  5
57
330
45
100
AcDbEntity
  8
H1
 62
   250
420
  2301728
370
    25
100
AcDbVertex
100
AcDb2dVertex
 10
3.826981583566079
 20
8.738931915320311
 30
0.0
  0
VERTEX
  5
58
330
45
100
AcDbEntity
  8
H1
 62
   250
420
  2301728
370
    25
100
AcDbVertex
100
AcDb2dVertex
 10
5.36169611101761
 20
8.13032953132338
 30
0.0
  0
VERTEX
  5
59
330
45
100
AcDbEntity
  8
H1
 62
   250
420
  2301728
370
    25
100
AcDbVertex
100
AcDb2dVertex
 10
5.563013393242525
 20
8.274107432644188
 30
0.0
  0
VERTEX
  5
5A
330
45
100
AcDbEntity
  8
H1
 62
   250
420
  2301728
370
    25
100
AcDbVertex
100
AcDb2dVertex
 10
5.563013393242525
 20
8.32607884225221
 30
0.0
  0
VERTEX
  5
5B
330
45
100
AcDbEntity
  8
H1
 62
   250
420
  2301728
370
    25
100
AcDbVertex
100
AcDb2dVertex
 10
5.727667258023504
 20
8.317266210498069
 30
0.0
  0
VERTEX
  5
5C
330
45
100
AcDbEntity
  8
H1
 62
   250
420
  2301728
370
    25
100
AcDbVertex
100
AcDb2dVertex
 10
5.727667258023504
 20
8.391701006833058
 30
0.0
  0
VERTEX
  5
5D
330
45
100
AcDbEntity
  8
H1
 62
   250
420
  2301728
370
    25
100
AcDbVertex
100
AcDb2dVertex
 10
5.843436769468654
 20
8.474383025028676
 30
0.0
  0
VERTEX
  5
5E
330
45
100
AcDbEntity
  8
H1
 62
   250
420
  2301728
370
    25
100
AcDbVertex
100
AcDb2dVertex
 10
5.843436769468654
 20
8.756711381526832
 30
0.0
  0
VERTEX
  5
5F
330
45
100
AcDbEntity
  8
H1
 62
   250
420
  2301728
370
    25
100
AcDbVertex
100
AcDb2dVertex
 10
5.617573874470509
 20
8.836707964977702
 30
0.0
  0
VERTEX
  5
60
330
45
100
AcDbEntity
  8
H1
 62
   250
420
  2301728
370
    25
100
AcDbVertex
100
AcDb2dVertex
 10
5.617573874470509
 20
9.109626809889782
 30
0.0
  0
VERTEX
  5
61
330
45
100
AcDbEntity
  8
H1
 62
   250
420
  2301728
370
    25
100
AcDbVertex
100
AcDb2dVertex
 10
4.523963093609685
 20
9.478775481485108
 30
0.0
  0
VERTEX
  5
62
330
45
100
AcDbEntity
  8
H1
 62
   250
420
  2301728
370
    25
100
AcDbVertex
100
AcDb2dVertex
 10
4.781058853486709
 20
9.768013587461269
 30
0.0
  0
VERTEX
  5
63
330
45
100
AcDbEntity
  8
H1
 62
   250
420
  2301728
370
    25
100
AcDbVertex
100
AcDb2dVertex
 10
4.776472634461697
 20
10.35907777477951
 30
0.0
  0
VERTEX
  5
64
330
45
100
AcDbEntity
  8
H1
 62
   250
420
  2301728
370
    25
100
AcDbVertex
100
AcDb2dVertex
 10
4.84114021091063
 20
10.4404141280208
 30
0.0
  0
VERTEX
  5
65
330
45
100
AcDbEntity
  8
H1
 62
   250
420
  2301728
370
    25
100
AcDbVertex
100
AcDb2dVertex
 10
4.741599746706116
 20
10.46854385756011
 30
0.0
  0
SEQEND
  5
67
330
45
100
AcDbEntity
  8
H1
 62
   250
420
  2301728
370
    25
  0
HATCH
  5
66
330
41
100
AcDbEntity
  8
H1
 62
    43
420
 15510365
100
AcDbHatch
 10
0.0
 20
0.0
 30
0.0
210
0.0
220
0.0
230
1.0
  2
SOLID
 70
     1
 71
     0
 91
        1
 92
        1
 93
       31
 72
     1
 10
4.741599746706116
 20
10.46854385756011
 11
4.775013478317204
 21
10.51207832136544
 72
     1
 10
4.775013478317204
 20
10.51207832136544
 11
4.772187477847536
 21
11.17619787271817
 72
     1
 10
4.772187477847536
 20
11.17619787271817
 11
4.527537029615663
 21
11.24295924906966
 72
     1
 10
4.527537029615663
 20
11.24295924906966
 11
3.107995243584797
 21
9.96489057118328
 72
     1
 10
3.107995243584797
 20
9.96489057118328
 11
2.901238797196343
 21
10.03841483730014
 72
     1
 10
2.901238797196343
 20
10.03841483730014
 11
2.766672291535959
 21
9.981816153060802
 72
     1
 10
2.766672291535959
 20
9.981816153060802
 11
2.766672291535959
 21
9.934438160777063
 72
     1
 10
2.766672291535959
 20
9.934438160777063
 11
2.543888244136408
 21
9.947391187428655
 72
     1
 10
2.543888244136408
 20
9.947391187428655
 11
2.543888244136408
 21
9.888127184865512
 72
     1
 10
2.543888244136408
 20
9.888127184865512
 11
2.397750203497228
 21
9.82666411168523
 72
     1
 10
2.397750203497228
 20
9.82666411168523
 11
2.397750203497228
 21
9.709026334896217
 72
     1
 10
2.397750203497228
 20
9.709026334896217
 11
2.214237453622079
 21
9.633741850224029
 72
     1
 10
2.214237453622079
 20
9.633741850224029
 11
2.214237453622079
 21
9.374939370686976
 72
     1
 10
2.214237453622079
 20
9.374939370686976
 11
2.921473967597169
 21
9.103514298851639
 72
     1
 10
2.921473967597169
 20
9.103514298851639
 11
2.921473967597169
 21
8.229300389642578
 72
     1
 10
2.921473967597169
 20
8.229300389642578
 11
3.208200772487796
 21
8.09393664554236
 72
     1
 10
3.208200772487796
 20
8.09393664554236
 11
3.826981583566079
 21
8.738931915320311
 72
     1
 10
3.826981583566079
 20
8.738931915320311
 11
5.36169611101761
 21
8.13032953132338
 72
     1
 10
5.36169611101761
 20
8.13032953132338
 11
5.563013393242525
 21
8.274107432644188
 72
     1
 10
5.563013393242525
 20
8.274107432644188
 11
5.563013393242525
 21
8.32607884225221
 72
     1
 10
5.563013393242525
 20
8.32607884225221
 11
5.727667258023504
 21
8.317266210498069
 72
     1
 10
5.727667258023504
 20
8.317266210498069
 11
5.727667258023504
 21
8.391701006833058
 72
     1
 10
5.727667258023504
 20
8.391701006833058
 11
5.843436769468654
 21
8.474383025028676
 72
     1
 10
5.843436769468654
 20
8.474383025028676
 11
5.843436769468654
 21
8.756711381526832
 72
     1
 10
5.843436769468654
 20
8.756711381526832
 11
5.617573874470509
 21
8.836707964977702
 72
     1
 10
5.617573874470509
 20
8.836707964977702
 11
5.617573874470509
 21
9.109626809889782
 72
     1
 10
5.617573874470509
 20
9.109626809889782
 11
4.523963093609685
 21
9.478775481485108
 72
     1
 10
4.523963093609685
 20
9.478775481485108
 11
4.781058853486709
 21
9.768013587461269
 72
     1
 10
4.781058853486709
 20
9.768013587461269
 11
4.776472634461697
 21
10.35907777477951
 72
     1
 10
4.776472634461697
 20
10.35907777477951
 11
4.84114021091063
 21
10.4404141280208
 72
     1
 10
4.84114021091063
 20
10.4404141280208
 11
4.741599746706116
 21
10.46854385756011
 97
        0
 75
     2
 76
     1
 98
        0
  0
POLYLINE
  5
68
330
41
100
AcDbEntity
  8
H1
 62
   250
420
  2301728
370
    20
100
AcDb2dPolyline
 66
     1
 10
0.0
 20
0.0
 30
0.0
  0
VERTEX
  5
69
330
68
100
AcDbEntity
  8
H1
 62
   250
420
  2301728
370
    20
100
AcDbVertex
100
AcDb2dVertex
 10
2.921473967597169
 20
9.362546508939152
 30
0.0
  0
VERTEX
  5
6A
330
68
100
AcDbEntity
  8
H1
 62
   250
420
  2301728
370
    20
100
AcDbVertex
100
AcDb2dVertex
 10
2.214237453622079
 20
9.633741850224029
 30
0.0
  0
SEQEND
  5
6B
330
68
100
AcDbEntity
  8
H1
 62
   250
420
  2301728
370
    20
  0
POLYLINE
  5
6C
330
41
100
AcDbEntity
  8
H1
 62
   250
420
  2301728
370
    20
100
AcDb2dPolyline
 66
     1
 10
0.0
 20
0.0
 30
0.0
  0
VERTEX
  5
6D
330
6C
100
AcDbEntity
  8
H1
 62
   250
420
  2301728
370
    20
100
AcDbVertex
100
AcDb2dVertex
 10
5.36169611101761
 20
8.426826703093916
 30
0.0
  0
VERTEX
  5
6E
330
6C
100
AcDbEntity
  8
H1
 62
   250
420
  2301728
370
    20
100
AcDbVertex
100
AcDb2dVertex
 10
4.021003270814617
 20
8.941275227345033
 30
0.0
  0
SEQEND
  5
6F
330
6C
100
AcDbEntity
  8
H1
 62
   250
420
  2301728
370
    20
  0
POLYLINE
  5
70
330
41
100
AcDbEntity
  8
H1
 62
   250
420
  2301728
370
    20
100
AcDb2dPolyline
 66
     1
 10
0.0
 20
0.0
 30
0.0
  0
VERTEX
  5
71
330
70
100
AcDbEntity
  8
H1
 62
   250
420
  2301728
370
    20
100
AcDbVertex
100
AcDb2dVertex
 10
5.843436769468654
 20
8.756711381526832
 30
0.0
  0
VERTEX
  5
72
330
70
100
AcDbEntity
  8
H1
 62
   250
420
  2301728
370
    20
100
AcDbVertex
100
AcDb2dVertex
 10
5.681588043086978
 20
8.645880552416973
 30
0.0
  0
VERTEX
  5
73
330
70
100
AcDbEntity
  8
H1
 62
   250
420
  2301728
370
    20
100
AcDbVertex
100
AcDb2dVertex
 10
5.728033358307079
 20
8.595009396969164
 30
0.0
  0
VERTEX
  5
74
330
70
100
AcDbEntity
  8
H1
 62
   250
420
  2301728
370
    20
100
AcDbVertex
100
AcDb2dVertex
 10
5.525977471719872
 20
8.602748903823352
 30
0.0
  0
VERTEX
  5
75
330
70
100
AcDbEntity
  8
H1
 62
   250
420
  2301728
370
    20
100
AcDbVertex
100
AcDb2dVertex
 10
5.563013393242525
 20
8.564683915314541
 30
0.0
  0
VERTEX
  5
76
330
70
100
AcDbEntity
  8
H1
 62
   250
420
  2301728
370
    20
100
AcDbVertex
100
AcDb2dVertex
 10
5.36169611101761
 20
8.426826703093916
 30
0.0
  0
SEQEND
  5
77
330
70
100
AcDbEntity
  8
H1
 62
   250
420
  2301728
370
    20
  0
POLYLINE
  5
78
330
41
100
AcDbEntity
  8
H1
 62
   250
420
  2301728
370
    20
100
AcDb2dPolyline
 66
     1
 10
0.0
 20
0.0
 30
0.0
  0
VERTEX
  5
79
330
78
100
AcDbEntity
  8
H1
 62
   250
420
  2301728
370
    20
100
AcDbVertex
100
AcDb2dVertex
 10
2.543888244136408
 20
9.888127184865512
 30
0.0
  0
VERTEX
  5
7A
330
78
100
AcDbEntity
  8
H1
 62
   250
420
  2301728
370
    20
100
AcDbVertex
100
AcDb2dVertex
 10
2.583818312371654
 20
9.904921642423915
 30
0.0
  0
SEQEND
  5
7B
330
78
100
AcDbEntity
  8
H1
 62
   250
420
  2301728
370
    20
  0
POLYLINE
  5
7C
330
41
100
AcDbEntity
  8
H1
 62
   250
420
  2301728
370
    20
100
AcDb2dPolyline
 66
     1
 10
0.0
 20
0.0
 30
0.0
  0
VERTEX
  5
7D
330
7C
100
AcDbEntity
  8
H1
 62
   250
420
  2301728
370
    20
100
AcDbVertex
100
AcDb2dVertex
 10
2.397716635562902
 20
9.561922205771339
 30
0.0
  0
VERTEX
  5
7E
330
7C
100
AcDbEntity
  8
H1
 62
   250
420
  2301728
370
    20
100
AcDbVertex
100
AcDb2dVertex
 10
2.397716635562902
 20
9.709026334896217
 30
0.0
  0
SEQEND
  5
7F
330
7C
100
AcDbEntity
  8
H1
 62
   250
420
  2301728
370
    20
  0
POLYLINE
  5
80
330
41
100
AcDbEntity
  8
H1
 62
   250
420
  2301728
370
    20
100
AcDb2dPolyline
 66
     1
 10
0.0
 20
0.0
 30
0.0
  0
VERTEX
  5
81
330
80
100
AcDbEntity
  8
H1
 62
   250
420
  2301728
370
    20
100
AcDbVertex
100
AcDb2dVertex
 10
2.766672291535959
 20
9.981816153060802
 30
0.0
  0
VERTEX
  5
82
330
80
100
AcDbEntity
  8
H1
 62
   250
420
  2301728
370
    20
100
AcDbVertex
100
AcDb2dVertex
 10
2.808680463328162
 20
9.931996280124217
 30
0.0
  0
VERTEX
  5
83
330
80
100
AcDbEntity
  8
H1
 62
   250
420
  2301728
370
    20
100
AcDbVertex
100
AcDb2dVertex
 10
2.766672291535959
 20
9.934438160777063
 30
0.0
  0
SEQEND
  5
84
330
80
100
AcDbEntity
  8
H1
 62
   250
420
  2301728
370
    20
  0
POLYLINE
  5
85
330
41
100
AcDbEntity
  8
H1
 62
   250
420
  2301728
370
    20
100
AcDb2dPolyline
 66
     1
 10
0.0
 20
0.0
 30
0.0
  0
VERTEX
  5
86
330
85
100
AcDbEntity
  8
H1
 62
   250
420
  2301728
370
    20
100
AcDbVertex
100
AcDb2dVertex
 10
2.543888244136408
 20
9.947391187428655
 30
0.0
  0
VERTEX
  5
87
330
85
100
AcDbEntity
  8
H1
 62
   250
420
  2301728
370
    20
100
AcDbVertex
100
AcDb2dVertex
 10
2.583818312371654
 20
9.904921642423915
 30
0.0
  0
SEQEND
  5
88
330
85
100
AcDbEntity
  8
H1
 62
   250
420
  2301728
370
    20
  0
POLYLINE
  5
89
330
41
100
AcDbEntity
  8
H1
 62
   250
420
  2301728
370
    20
100
AcDb2dPolyline
 66
     1
 10
0.0
 20
0.0
 30
0.0
  0
VERTEX
  5
8A
330
89
100
AcDbEntity
  8
H1
 62
   250
420
  2301728
370
    20
100
AcDbVertex
100
AcDb2dVertex
 10
5.145473397346501
 20
8.820785225137671
 30
0.0
  0
VERTEX
  5
8B
330
89
100
AcDbEntity
  8
H1
 62
   250
420
  2301728
370
    20
100
AcDbVertex
100
AcDb2dVertex
 10
5.361870134869402
 20
8.953181354045366
 30
0.0
  0
VERTEX
  5
8C
330
89
100
AcDbEntity
  8
H1
 62
   250
420
  2301728
370
    20
100
AcDbVertex
100
AcDb2dVertex
 10
5.312997320510931
 20
8.988980506988279
 30
0.0
  0
VERTEX
  5
8D
330
89
100
AcDbEntity
  8
H1
 62
   250
420
  2301728
370
    20
100
AcDbVertex
100
AcDb2dVertex
 10
5.525756133153057
 20
8.97174756871224
 30
0.0
  0
VERTEX
  5
8E
330
89
100
AcDbEntity
  8
H1
 62
   250
420
  2301728
370
    20
100
AcDbVertex
100
AcDb2dVertex
 10
5.472614946147587
 20
9.02093718045075
 30
0.0
  0
VERTEX
  5
8F
330
89
100
AcDbEntity
  8
H1
 62
   250
420
  2301728
370
    20
100
AcDbVertex
100
AcDb2dVertex
 10
5.617573874470509
 20
9.109626809889782
 30
0.0
  0
SEQEND
  5
90
330
89
100
AcDbEntity
  8
H1
 62
   250
420
  2301728
370
    20
  0
POLYLINE
  5
91
330
41
100
AcDbEntity
  8
H1
 62
   250
420
  2301728
370
    20
100
AcDb2dPolyline
 66
     1
 10
0.0
 20
0.0
 30
0.0
  0
VERTEX
  5
92
330
91
100
AcDbEntity
  8
H1
 62
   250
420
  2301728
370
    20
100
AcDbVertex
100
AcDb2dVertex
 10
4.044660196580404
 20
9.223615122820597
 30
0.0
  0
VERTEX
  5
93
330
91
100
AcDbEntity
  8
H1
 62
   250
420
  2301728
370
    20
100
AcDbVertex
100
AcDb2dVertex
 10
5.145473397346501
 20
8.820785225137671
 30
0.0
  0
SEQEND
  5
94
330
91
100
AcDbEntity
  8
H1
 62
   250
420
  2301728
370
    20
  0
POLYLINE
  5
95
330
41
100
AcDbEntity
  8
H1
 62
   250
420
  2301728
370
    20
100
AcDb2dPolyline
 66
     1
 10
0.0
 20
0.0
 30
0.0
  0
VERTEX
  5
96
330
95
100
AcDbEntity
  8
H1
 62
   250
420
  2301728
370
    20
100
AcDbVertex
100
AcDb2dVertex
 10
2.397750203497228
 20
9.82666411168523
 30
0.0
  0
VERTEX
  5
97
330
95
100
AcDbEntity
  8
H1
 62
   250
420
  2301728
370
    20
100
AcDbVertex
100
AcDb2dVertex
 10
2.921473967597169
 20
9.63494103394156
 30
0.0
  0
SEQEND
  5
98
330
95
100
AcDbEntity
  8
H1
 62
   250
420
  2301728
370
    20
  0
POLYLINE
  5
99
330
41
100
AcDbEntity
  8
H1
 62
   250
420
  2301728
370
    20
100
AcDb2dPolyline
 66
     1
 10
0.0
 20
0.0
 30
0.0
  0
VERTEX
  5
9A
330
99
100
AcDbEntity
  8
H1
 62
   250
420
  2301728
370
    20
100
AcDbVertex
100
AcDb2dVertex
 10
5.145473397346501
 20
8.820785225137671
 30
0.0
  0
VERTEX
  5
9B
330
99
100
AcDbEntity
  8
H1
 62
   250
420
  2301728
370
    20
100
AcDbVertex
100
AcDb2dVertex
 10
5.145473397346501
 20
8.51133083072375
 30
0.0
  0
SEQEND
  5
9C
330
99
100
AcDbEntity
  8
H1
 62
   250
420
  2301728
370
    20
  0
POLYLINE
  5
9D
330
41
100
AcDbEntity
  8
H1
 62
   250
420
  2301728
370
    20
100
AcDb2dPolyline
 66
     1
 10
0.0
 20
0.0
 30
0.0
  0
VERTEX
  5
9E
330
9D
100
AcDbEntity
  8
H1
 62
   250
420
  2301728
370
    20
100
AcDbVertex
100
AcDb2dVertex
 10
5.145473397346501
 20
8.510236876516348
 30
0.0
  0
VERTEX
  5
9F
330
9D
100
AcDbEntity
  8
H1
 62
   250
420
  2301728
370
    20
100
AcDbVertex
100
AcDb2dVertex
 10
5.361870134869402
 20
8.659881528017788
 30
0.0
  0
VERTEX
  5
A0
330
9D
100
AcDbEntity
  8
H1
 62
   250
420
  2301728
370
    20
100
AcDbVertex
100
AcDb2dVertex
 10
5.361870134869402
 20
8.705416430908372
 30
0.0
  0
VERTEX
  5
A1
330
9D
100
AcDbEntity
  8
H1
 62
   250
420
  2301728
370
    20
100
AcDbVertex
100
AcDb2dVertex
 10
5.525735153194091
 20
8.702772956081516
 30
0.0
  0
VERTEX
  5
A2
330
9D
100
AcDbEntity
  8
H1
 62
   250
420
  2301728
370
    20
100
AcDbVertex
100
AcDb2dVertex
 10
5.525756133153057
 20
8.773444996780022
 30
0.0
  0
VERTEX
  5
A3
330
9D
100
AcDbEntity
  8
H1
 62
   250
420
  2301728
370
    20
100
AcDbVertex
100
AcDb2dVertex
 10
5.617573874470509
 20
8.836707964977702
 30
0.0
  0
SEQEND
  5
A4
330
9D
100
AcDbEntity
  8
H1
 62
   250
420
  2301728
370
    20
  0
POLYLINE
  5
A5
330
41
100
AcDbEntity
  8
H1
 62
   250
420
  2301728
370
    20
100
AcDb2dPolyline
 66
     1
 10
0.0
 20
0.0
 30
0.0
  0
VERTEX
  5
A6
330
A5
100
AcDbEntity
  8
H1
 62
   250
420
  2301728
370
    20
100
AcDbVertex
100
AcDb2dVertex
 10
5.36169611101761
 20
8.426826703093916
 30
0.0
  0
VERTEX
  5
A7
330
A5
100
AcDbEntity
  8
H1
 62
   250
420
  2301728
370
    20
100
AcDbVertex
100
AcDb2dVertex
 10
5.36169611101761
 20
8.13032953132338
 30
0.0
  0
SEQEND
  5
A8
330
A5
100
AcDbEntity
  8
H1
 62
   250
420
  2301728
370
    20
  0
POLYLINE
  5
A9
330
41
100
AcDbEntity
  8
H1
 62
   250
420
  2301728
370
    20
100
AcDb2dPolyline
 66
     1
 10
0.0
 20
0.0
 30
0.0
  0
VERTEX
  5
AA
330
A9
100
AcDbEntity
  8
H1
 62
   250
420
  2301728
370
    20
100
AcDbVertex
100
AcDb2dVertex
 10
5.528357648062006
 20
8.600495656232827
 30
0.0
  0
VERTEX
  5
AB
330
A9
100
AcDbEntity
  8
H1
 62
   250
420
  2301728
370
    20
100
AcDbVertex
100
AcDb2dVertex
 10
5.563013393242525
 20
8.564683915314541
 30
0.0
  0
VERTEX
  5
AC
330
A9
100
AcDbEntity
  8
H1
 62
   250
420
  2301728
370
    20
100
AcDbVertex
100
AcDb2dVertex
 10
5.563013393242525
 20
8.274107432644188
 30
0.0
  0
SEQEND
  5
AD
330
A9
100
AcDbEntity
  8
H1
 62
   250
420
  2301728
370
    20
  0
POLYLINE
  5
AE
330
41
100
AcDbEntity
  8
H1
 62
   250
420
  2301728
370
    20
100
AcDb2dPolyline
 66
     1
 10
0.0
 20
0.0
 30
0.0
  0
VERTEX
  5
AF
330
AE
100
AcDbEntity
  8
H1
 62
   250
420
  2301728
370
    20
100
AcDbVertex
100
AcDb2dVertex
 10
5.727667258023504
 20
8.592628171629093
 30
0.0
  0
VERTEX
  5
B0
330
AE
100
AcDbEntity
  8
H1
 62
   250
420
  2301728
370
    20
100
AcDbVertex
100
AcDb2dVertex
 10
5.727667258023504
 20
8.317266210498069
 30
0.0
  0
SEQEND
  5
B1
330
AE
100
AcDbEntity
  8
H1
 62
   250
420
  2301728
370
    20
  0
POLYLINE
  5
B2
330
41
100
AcDbEntity
  8
H1
 62
   250
420
  2301728
370
    20
100
AcDb2dPolyline
 66
     1
 10
0.0
 20
0.0
 30
0.0
  0
VERTEX
  5
B3
330
B2
100
AcDbEntity
  8
H1
 62
   250
420
  2301728
370
    20
100
AcDbVertex
100
AcDb2dVertex
 10
3.208200772487796
 20
8.09393664554236
 30
0.0
  0
VERTEX
  5
B4
330
B2
100
AcDbEntity
  8
H1
 62
   250
420
  2301728
370
    20
100
AcDbVertex
100
AcDb2dVertex
 10
4.026369868373624
 20
8.946869533397262
 30
0.0
  0
SEQEND
  5
B5
330
B2
100
AcDbEntity
  8
H1
 62
   250
420
  2301728
370
    20
  0
POLYLINE
  5
B6
330
41
100
AcDbEntity
  8
H1
 62
   250
420
  2301728
370
    20
100
AcDb2dPolyline
 66
     1
 10
0.0
 20
0.0
 30
0.0
  0
VERTEX
  5
B7
330
B6
100
AcDbEntity
  8
H1
 62
   250
420
  2301728
370
    20
100
AcDbVertex
100
AcDb2dVertex
 10
2.921473967597169
 20
9.794436796752406
 30
0.0
  0
VERTEX
  5
B8
330
B6
100
AcDbEntity
  8
H1
 62
   250
420
  2301728
370
    20
100
AcDbVertex
100
AcDb2dVertex
 10
2.921473967597169
 20
9.103514298851639
 30
0.0
  0
SEQEND
  5
B9
330
B6
100
AcDbEntity
  8
H1
 62
   250
420
  2301728
370
    20
  0
POLYLINE
  5
BA
330
41
100
AcDbEntity
  8
H1
 62
   250
420
  2301728
370
    20
100
AcDb2dPolyline
 66
     1
 10
0.0
 20
0.0
 30
0.0
  0
VERTEX
  5
BB
330
BA
100
AcDbEntity
  8
H1
 62
   250
420
  2301728
370
    20
100
AcDbVertex
100
AcDb2dVertex
 10
3.107995243584797
 20
9.96489057118328
 30
0.0
  0
VERTEX
  5
BC
330
BA
100
AcDbEntity
  8
H1
 62
   250
420
  2301728
370
    20
100
AcDbVertex
100
AcDb2dVertex
 10
2.921473967597169
 20
9.794436796752406
 30
0.0
  0
SEQEND
  5
BD
330
BA
100
AcDbEntity
  8
H1
 62
   250
420
  2301728
370
    20
  0
POLYLINE
  5
BE
330
41
100
AcDbEntity
  8
H1
 62
   250
420
  2301728
370
    20
100
AcDb2dPolyline
 66
     1
 10
0.0
 20
0.0
 30
0.0
  0
VERTEX
  5
BF
330
BE
100
AcDbEntity
  8
H1
 62
   250
420
  2301728
370
    20
100
AcDbVertex
100
AcDb2dVertex
 10
2.921473967597169
 20
9.794436796752406
 30
0.0
  0
VERTEX
  5
C0
330
BE
100
AcDbEntity
  8
H1
 62
   250
420
  2301728
370
    20
100
AcDbVertex
100
AcDb2dVertex
 10
3.208200772487796
 20
9.682545430717962
 30
0.0
  0
VERTEX
  5
C1
330
BE
100
AcDbEntity
  8
H1
 62
   250
420
  2301728
370
    20
100
AcDbVertex
100
AcDb2dVertex
 10
3.208200772487796
 20
8.09393664554236
 30
0.0
  0
SEQEND
  5
C2
330
BE
100
AcDbEntity
  8
H1
 62
   250
420
  2301728
370
    20
  0
POLYLINE
  5
C3
330
41
100
AcDbEntity
  8
H1
 62
   250
420
  2301728
370
    20
100
AcDb2dPolyline
 66
     1
 10
0.0
 20
0.0
 30
0.0
  0
VERTEX
  5
C4
330
C3
100
AcDbEntity
  8
H1
 62
   250
420
  2301728
370
    20
100
AcDbVertex
100
AcDb2dVertex
 10
3.208200772487796
 20
9.682138419514482
 30
0.0
  0
VERTEX
  5
C5
330
C3
100
AcDbEntity
  8
H1
 62
   250
420
  2301728
370
    20
100
AcDbVertex
100
AcDb2dVertex
 10
4.772187477847536
 20
11.17619787271817
 30
0.0
  0
SEQEND
  5
C6
330
C3
100
AcDbEntity
  8
H1
 62
   250
420
  2301728
370
    20
  0
POLYLINE
  5
C7
330
41
100
AcDbEntity
  8
H1
 62
   250
420
  2301728
370
    20
100
AcDb2dPolyline
 66
     1
 10
0.0
 20
0.0
 30
0.0
  0
VERTEX
  5
C8
330
C7
100
AcDbEntity
  8
H1
 62
   250
420
  2301728
370
    20
100
AcDbVertex
100
AcDb2dVertex
 10
4.065879404128042
 20
9.23274560095274
 30
0.0
  0
VERTEX
  5
28B
330
C7
100
AcDbEntity
  8
0
100
AcDbVertex
100
AcDb2dVertex
 10
4.065879404128042
 20
9.23274560095274
 30
0.0
  0
SEQEND
  5
C9
330
C7
100
AcDbEntity
  8
H1
 62
   250
420
  2301728
370
    20
  0
POLYLINE
  5
CA
330
41
100
AcDbEntity
  8
H1
 62
   250
420
  2301728
370
    20
100
AcDb2dPolyline
 66
     1
 10
0.0
 20
0.0
 30
0.0
  0
VERTEX
  5
CB
330
CA
100
AcDbEntity
  8
H1
 62
   250
420
  2301728
370
    20
100
AcDbVertex
100
AcDb2dVertex
 10
4.248926321842267
 20
9.328241129072971
 30
0.0
  0
VERTEX
  5
28C
330
CA
100
AcDbEntity
  8
0
100
AcDbVertex
100
AcDb2dVertex
 10
4.248926321842267
 20
9.328241129072971
 30
0.0
  0
SEQEND
  5
CC
330
CA
100
AcDbEntity
  8
H1
 62
   250
420
  2301728
370
    20
  0
POLYLINE
  5
CD
330
41
100
AcDbEntity
  8
H1
 62
   250
420
  2301728
370
    20
100
AcDb2dPolyline
 66
     1
 10
0.0
 20
0.0
 30
0.0
  0
VERTEX
  5
CE
330
CD
100
AcDbEntity
  8
H1
 62
   250
420
  2301728
370
    20
100
AcDbVertex
100
AcDb2dVertex
 10
4.026419171277135
 20
8.946819343176305
 30
0.0
  0
VERTEX
  5
CF
330
CD
100
AcDbEntity
  8
H1
 62
   250
420
  2301728
370
    20
100
AcDbVertex
100
AcDb2dVertex
 10
4.026419171277135
 20
9.213824824979698
 30
0.0
  0
VERTEX
  5
D0
330
CD
100
AcDbEntity
  8
H1
 62
   250
420
  2301728
370
    20
100
AcDbVertex
100
AcDb2dVertex
 10
4.527537029615663
 20
9.482796290616596
 30
0.0
  0
SEQEND
  5
D1
330
CD
100
AcDbEntity
  8
H1
 62
   250
420
  2301728
370
    20
  0
POLYLINE
  5
D2
330
41
100
AcDbEntity
  8
H1
 62
   250
420
  2301728
370
    20
100
AcDb2dPolyline
 66
     1
 10
0.0
 20
0.0
 30
0.0
  0
VERTEX
  5
D3
330
D2
100
AcDbEntity
  8
H1
 62
   250
420
  2301728
370
    20
100
AcDbVertex
100
AcDb2dVertex
 10
5.361870134869402
 20
8.953181354045366
 30
0.0
  0
VERTEX
  5
D4
330
D2
100
AcDbEntity
  8
H1
 62
   250
420
  2301728
370
    20
100
AcDbVertex
100
AcDb2dVertex
 10
5.361870134869402
 20
8.705416430908372
 30
0.0
  0
SEQEND
  5
D5
330
D2
100
AcDbEntity
  8
H1
 62
   250
420
  2301728
370
    20
  0
POLYLINE
  5
D6
330
41
100
AcDbEntity
  8
H1
 62
   250
420
  2301728
370
    20
100
AcDb2dPolyline
 66
     1
 10
0.0
 20
0.0
 30
0.0
  0
VERTEX
  5
D7
330
D6
100
AcDbEntity
  8
H1
 62
   250
420
  2301728
370
    20
100
AcDbVertex
100
AcDb2dVertex
 10
5.525756133153057
 20
8.97174756871224
 30
0.0
  0
VERTEX
  5
D8
330
D6
100
AcDbEntity
  8
H1
 62
   250
420
  2301728
370
    20
100
AcDbVertex
100
AcDb2dVertex
 10
5.525756133153057
 20
8.702772956081516
 30
0.0
  0
SEQEND
  5
D9
330
D6
100
AcDbEntity
  8
H1
 62
   250
420
  2301728
370
    20
  0
POLYLINE
  5
DA
330
41
100
AcDbEntity
  8
H1
 62
   250
420
  2301728
370
    20
100
AcDb2dPolyline
 66
     1
 10
0.0
 20
0.0
 30
0.0
  0
VERTEX
  5
DB
330
DA
100
AcDbEntity
  8
H1
 62
   250
420
  2301728
370
    20
100
AcDbVertex
100
AcDb2dVertex
 10
4.84114021091063
 20
10.4404141280208
 30
0.0
  0
VERTEX
  5
DC
330
DA
100
AcDbEntity
  8
H1
 62
   250
420
  2301728
370
    20
100
AcDbVertex
100
AcDb2dVertex
 10
4.715314049624491
 20
10.43429512358311
 30
0.0
  0
VERTEX
  5
DD
330
DA
100
AcDbEntity
  8
H1
 62
   250
420
  2301728
370
    20
100
AcDbVertex
100
AcDb2dVertex
 10
4.741599746706116
 20
10.46854385756011
 30
0.0
  0
SEQEND
  5
DE
330
DA
100
AcDbEntity
  8
H1
 62
   250
420
  2301728
370
    20
  0
INSERT
  5
E0
330
41
100
AcDbEntity
  8
H1
100
AcDbBlockReference
  2
block 3
 10
0.0
 20
0.0
 30
0.0
  0
ENDBLK
  5
44
330
41
100
AcDbEntity
  8
0
100
AcDbBlockEnd
  0
BLOCK
  5
E1
330
DF
100
AcDbEntity
  8
0
100
AcDbBlockBegin
  2
block 3
 70
     0
 10
0.0
 20
0.0
 30
0.0
  3
block 3
  1

  0
POLYLINE
  5
E3
330
DF
100
AcDbEntity
  8
H1
 62
   250
420
  2301728
370
     9
100
AcDb2dPolyline
 66
     1
 10
0.0
 20
0.0
 30
0.0
  0
VERTEX
  5
E4
330
E3
100
AcDbEntity
  8
H1
 62
   250
420
  2301728
370
     9
100
AcDbVertex
100
AcDb2dVertex
 10
2.95783433444184
 20
8.212015001469188
 30
0.0
  0
VERTEX
  5
E5
330
E3
100
AcDbEntity
  8
H1
 62
   250
420
  2301728
370
     9
100
AcDbVertex
100
AcDb2dVertex
 10
2.95783433444184
 20
9.779440504814021
 30
0.0
  0
VERTEX
  5
E6
330
E3
100
AcDbEntity
  8
H1
 62
   250
420
  2301728
370
     9
100
AcDbVertex
100
AcDb2dVertex
 10
4.555206448468071
 20
11.23540856184595
 30
0.0
  0
SEQEND
  5
E7
330
E3
100
AcDbEntity
  8
H1
 62
   250
420
  2301728
370
     9
  0
POLYLINE
  5
E8
330
DF
100
AcDbEntity
  8
H1
 62
   250
420
  2301728
370
     9
100
AcDb2dPolyline
 66
     1
 10
0.0
 20
0.0
 30
0.0
  0
VERTEX
  5
E9
330
E8
100
AcDbEntity
  8
H1
 62
   250
420
  2301728
370
     9
100
AcDbVertex
100
AcDb2dVertex
 10
2.988401135477273
 20
8.201087589853563
 30
0.0
  0
VERTEX
  5
EA
330
E8
100
AcDbEntity
  8
H1
 62
   250
420
  2301728
370
     9
100
AcDbVertex
100
AcDb2dVertex
 10
2.988401135477273
 20
9.768513959482043
 30
0.0
  0
VERTEX
  5
EB
330
E8
100
AcDbEntity
  8
H1
 62
   250
420
  2301728
370
     9
100
AcDbVertex
100
AcDb2dVertex
 10
4.584275230581978
 20
11.22747603936948
 30
0.0
  0
SEQEND
  5
EC
330
E8
100
AcDbEntity
  8
H1
 62
   250
420
  2301728
370
     9
  0
POLYLINE
  5
ED
330
DF
100
AcDbEntity
  8
H1
 62
   250
420
  2301728
370
     9
100
AcDb2dPolyline
 66
     1
 10
0.0
 20
0.0
 30
0.0
  0
VERTEX
  5
EE
330
ED
100
AcDbEntity
  8
H1
 62
   250
420
  2301728
370
     9
100
AcDbVertex
100
AcDb2dVertex
 10
3.021152899530711
 20
8.182241292734778
 30
0.0
  0
VERTEX
  5
EF
330
ED
100
AcDbEntity
  8
H1
 62
   250
420
  2301728
370
     9
100
AcDbVertex
100
AcDb2dVertex
 10
3.021152899530711
 20
9.756930924149438
 30
0.0
  0
VERTEX
  5
F0
330
ED
100
AcDbEntity
  8
H1
 62
   250
420
  2301728
370
     9
100
AcDbVertex
100
AcDb2dVertex
 10
4.621035265644523
 20
11.21744447200077
 30
0.0
  0
SEQEND
  5
F1
330
ED
100
AcDbEntity
  8
H1
 62
   250
420
  2301728
370
     9
  0
POLYLINE
  5
F2
330
DF
100
AcDbEntity
  8
H1
 62
   250
420
  2301728
370
     9
100
AcDb2dPolyline
 66
     1
 10
0.0
 20
0.0
 30
0.0
  0
VERTEX
  5
F3
330
F2
100
AcDbEntity
  8
H1
 62
   250
420
  2301728
370
     9
100
AcDbVertex
100
AcDb2dVertex
 10
3.056940513496228
 20
8.165346131797731
 30
0.0
  0
VERTEX
  5
F4
330
F2
100
AcDbEntity
  8
H1
 62
   250
420
  2301728
370
     9
100
AcDbVertex
100
AcDb2dVertex
 10
3.056940513496228
 20
9.74206977023194
 30
0.0
  0
VERTEX
  5
F5
330
F2
100
AcDbEntity
  8
H1
 62
   250
420
  2301728
370
     9
100
AcDbVertex
100
AcDb2dVertex
 10
4.656317262599487
 20
11.20781676884165
 30
0.0
  0
SEQEND
  5
F6
330
F2
100
AcDbEntity
  8
H1
 62
   250
420
  2301728
370
     9
  0
POLYLINE
  5
F7
330
DF
100
AcDbEntity
  8
H1
 62
   250
420
  2301728
370
     9
100
AcDb2dPolyline
 66
     1
 10
0.0
 20
0.0
 30
0.0
  0
VERTEX
  5
F8
330
F7
100
AcDbEntity
  8
H1
 62
   250
420
  2301728
370
     9
100
AcDbVertex
100
AcDb2dVertex
 10
3.095894003266279
 20
8.147987313768024
 30
0.0
  0
VERTEX
  5
F9
330
F7
100
AcDbEntity
  8
H1
 62
   250
420
  2301728
370
     9
100
AcDbVertex
100
AcDb2dVertex
 10
3.095894003266279
 20
9.72786528902937
 30
0.0
  0
VERTEX
  5
FA
330
F7
100
AcDbEntity
  8
H1
 62
   250
420
  2301728
370
     9
100
AcDbVertex
100
AcDb2dVertex
 10
4.68752914751945
 20
11.19929995450861
 30
0.0
  0
SEQEND
  5
FB
330
F7
100
AcDbEntity
  8
H1
 62
   250
420
  2301728
370
     9
  0
POLYLINE
  5
FC
330
DF
100
AcDbEntity
  8
H1
 62
   250
420
  2301728
370
     9
100
AcDb2dPolyline
 66
     1
 10
0.0
 20
0.0
 30
0.0
  0
VERTEX
  5
FD
330
FC
100
AcDbEntity
  8
H1
 62
   250
420
  2301728
370
     9
100
AcDbVertex
100
AcDb2dVertex
 10
3.130889623781677
 20
8.129314242339104
 30
0.0
  0
VERTEX
  5
FE
330
FC
100
AcDbEntity
  8
H1
 62
   250
420
  2301728
370
     9
100
AcDbVertex
100
AcDb2dVertex
 10
3.130889623781677
 20
9.712348511394895
 30
0.0
  0
VERTEX
  5
FF
330
FC
100
AcDbEntity
  8
H1
 62
   250
420
  2301728
370
     9
100
AcDbVertex
100
AcDb2dVertex
 10
4.715480746819645
 20
11.19102462807732
 30
0.0
  0
SEQEND
  5
100
330
FC
100
AcDbEntity
  8
H1
 62
   250
420
  2301728
370
     9
  0
POLYLINE
  5
101
330
DF
100
AcDbEntity
  8
H1
 62
   250
420
  2301728
370
     9
100
AcDb2dPolyline
 66
     1
 10
0.0
 20
0.0
 30
0.0
  0
VERTEX
  5
102
330
101
100
AcDbEntity
  8
H1
 62
   250
420
  2301728
370
     9
100
AcDbVertex
100
AcDb2dVertex
 10
3.170635107001835
 20
8.111671004837149
 30
0.0
  0
VERTEX
  5
103
330
101
100
AcDbEntity
  8
H1
 62
   250
420
  2301728
370
     9
100
AcDbVertex
100
AcDb2dVertex
 10
3.170635107001835
 20
9.696232755932593
 30
0.0
  0
VERTEX
  5
104
330
101
100
AcDbEntity
  8
H1
 62
   250
420
  2301728
370
     9
100
AcDbVertex
100
AcDb2dVertex
 10
4.743225693524234
 20
11.18410124145113
 30
0.0
  0
SEQEND
  5
105
330
101
100
AcDbEntity
  8
H1
 62
   250
420
  2301728
370
     9
  0
POLYLINE
  5
106
330
DF
100
AcDbEntity
  8
H1
 62
   250
420
  2301728
370
     9
100
AcDb2dPolyline
 66
     1
 10
0.0
 20
0.0
 30
0.0
  0
VERTEX
  5
107
330
106
100
AcDbEntity
  8
H1
 62
   250
420
  2301728
370
     9
100
AcDbVertex
100
AcDb2dVertex
 10
5.145473397346501
 20
8.763328617622694
 30
0.0
  0
VERTEX
  5
108
330
106
100
AcDbEntity
  8
H1
 62
   250
420
  2301728
370
     9
100
AcDbVertex
100
AcDb2dVertex
 10
5.181462418917868
 20
8.811188991917005
 30
0.0
  0
VERTEX
  5
109
330
106
100
AcDbEntity
  8
H1
 62
   250
420
  2301728
370
     9
100
AcDbVertex
100
AcDb2dVertex
 10
5.195502207442738
 20
8.851393936238019
 30
0.0
  0
SEQEND
  5
10A
330
106
100
AcDbEntity
  8
H1
 62
   250
420
  2301728
370
     9
  0
SPLINE
  5
10B
330
DF
100
AcDbEntity
  8
H1
 62
   250
420
  2301728
370
     9
100
AcDbSpline
210
0.0
220
0.0
230
1.0
 70
     8
 71
     3
 72
    14
 73
    10
 74
     0
 42
0.0000000001
 43
0.0000000001
 12
1.0
 22
0.0
 32
0.0
 13
1.0
 23
0.0
 33
0.0
 40
0.0
 40
0.0
 40
0.0
 40
0.0
 40
1.0
 40
1.0
 40
1.0
 40
2.0
 40
2.0
 40
2.0
 40
3.0
 40
3.0
 40
3.0
 40
3.0
 10
5.244016264503241
 20
8.881076382151024
 30
0.0
 10
5.244016264503241
 20
8.881076382151024
 30
0.0
 10
5.233912316276119
 20
8.843970177765918
 30
0.0
 10
5.227356079106357
 20
8.825612713690525
 30
0.0
 10
5.220799841936595
 20
8.80725524961512
 30
0.0
 10
5.205720602313249
 20
8.784308577095999
 30
0.0
 10
5.201131130427206
 20
8.773818597359346
 30
0.0
 10
5.19654187004365
 20
8.763328617622694
 30
0.0
 10
5.145473397346501
 20
8.695799217728752
 30
0.0
 10
5.145473397346501
 20
8.695799217728752
 30
0.0
  0
POLYLINE
  5
10C
330
DF
100
AcDbEntity
  8
H1
 62
   250
420
  2301728
370
     9
100
AcDb2dPolyline
 66
     1
 10
0.0
 20
0.0
 30
0.0
  0
VERTEX
  5
10D
330
10C
100
AcDbEntity
  8
H1
 62
   250
420
  2301728
370
     9
100
AcDbVertex
100
AcDb2dVertex
 10
5.145473397346501
 20
8.632859340898802
 30
0.0
  0
VERTEX
  5
10E
330
10C
100
AcDbEntity
  8
H1
 62
   250
420
  2301728
370
     9
100
AcDbVertex
100
AcDb2dVertex
 10
5.19474483092487
 20
8.67809753226235
 30
0.0
  0
VERTEX
  5
10F
330
10C
100
AcDbEntity
  8
H1
 62
   250
420
  2301728
370
     9
100
AcDbVertex
100
AcDb2dVertex
 10
5.231945551654866
 20
8.728580403577679
 30
0.0
  0
VERTEX
  5
110
330
10C
100
AcDbEntity
  8
H1
 62
   250
420
  2301728
370
     9
100
AcDbVertex
100
AcDb2dVertex
 10
5.262104243397768
 20
8.788437275440906
 30
0.0
  0
VERTEX
  5
111
330
10C
100
AcDbEntity
  8
H1
 62
   250
420
  2301728
370
     9
100
AcDbVertex
100
AcDb2dVertex
 10
5.313954006638747
 20
8.92386500841591
 30
0.0
  0
SEQEND
  5
112
330
10C
100
AcDbEntity
  8
H1
 62
   250
420
  2301728
370
     9
  0
SPLINE
  5
113
330
DF
100
AcDbEntity
  8
H1
 62
   250
420
  2301728
370
     9
100
AcDbSpline
210
0.0
220
0.0
230
1.0
 70
     8
 71
     3
 72
    23
 73
    19
 74
     0
 42
0.0000000001
 43
0.0000000001
 12
1.0
 22
0.0
 32
0.0
 13
1.0
 23
0.0
 33
0.0
 40
0.0
 40
0.0
 40
0.0
 40
0.0
 40
1.0
 40
1.0
 40
1.0
 40
2.0
 40
2.0
 40
2.0
 40
3.0
 40
3.0
 40
3.0
 40
4.0
 40
4.0
 40
4.0
 40
5.0
 40
5.0
 40
5.0
 40
6.0
 40
6.0
 40
6.0
 40
6.0
 10
5.360831626901674
 20
8.90269727884005
 30
0.0
 10
5.360831626901674
 20
8.90269727884005
 30
0.0
 10
5.323077141785234
 20
8.820785225137671
 30
0.0
 10
5.323077141785234
 20
8.820785225137671
 30
0.0
 10
5.323077141785234
 20
8.820785225137671
 30
0.0
 10
5.287017945272307
 20
8.750871609954958
 30
0.0
 10
5.287017945272307
 20
8.750871609954958
 30
0.0
 10
5.287017945272307
 20
8.750871609954958
 30
0.0
 10
5.256203522653423
 20
8.690554227992909
 30
0.0
 10
5.256203522653423
 20
8.690554227992909
 30
0.0
 10
5.256203522653423
 20
8.690554227992909
 30
0.0
 10
5.255548006062377
 20
8.683997990823134
 30
0.0
 10
5.241124283924464
 20
8.661706784445869
 30
0.0
 10
5.226700561786553
 20
8.63941557806859
 30
0.0
 10
5.195502207442738
 20
8.594833165314032
 30
0.0
 10
5.195502207442738
 20
8.594833165314032
 30
0.0
 10
5.195502207442738
 20
8.594833165314032
 30
0.0
 10
5.145473397346501
 20
8.556806989729276
 30
0.0
 10
5.145473397346501
 20
8.556806989729276
 30
0.0
  0
POLYLINE
  5
114
330
DF
100
AcDbEntity
  8
H1
 62
   250
420
  2301728
370
     9
100
AcDb2dPolyline
 66
     1
 10
0.0
 20
0.0
 30
0.0
  0
VERTEX
  5
115
330
114
100
AcDbEntity
  8
H1
 62
   250
420
  2301728
370
     9
100
AcDbVertex
100
AcDb2dVertex
 10
5.190760736721535
 20
8.541554559577497
 30
0.0
  0
VERTEX
  5
116
330
114
100
AcDbEntity
  8
H1
 62
   250
420
  2301728
370
     9
100
AcDbVertex
100
AcDb2dVertex
 10
5.263415490864847
 20
8.614501876823397
 30
0.0
  0
VERTEX
  5
117
330
114
100
AcDbEntity
  8
H1
 62
   250
420
  2301728
370
     9
100
AcDbVertex
100
AcDb2dVertex
 10
5.288984708502337
 20
8.678753001087305
 30
0.0
  0
VERTEX
  5
118
330
114
100
AcDbEntity
  8
H1
 62
   250
420
  2301728
370
     9
100
AcDbVertex
100
AcDb2dVertex
 10
5.309964667445658
 20
8.721368698676063
 30
0.0
  0
VERTEX
  5
119
330
114
100
AcDbEntity
  8
H1
 62
   250
420
  2301728
370
     9
100
AcDbVertex
100
AcDb2dVertex
 10
5.36169611101761
 20
8.816433981652823
 30
0.0
  0
SEQEND
  5
11A
330
114
100
AcDbEntity
  8
H1
 62
   250
420
  2301728
370
     9
  0
POLYLINE
  5
11B
330
DF
100
AcDbEntity
  8
H1
 62
   250
420
  2301728
370
     9
100
AcDb2dPolyline
 66
     1
 10
0.0
 20
0.0
 30
0.0
  0
VERTEX
  5
11C
330
11B
100
AcDbEntity
  8
H1
 62
   250
420
  2301728
370
     9
100
AcDbVertex
100
AcDb2dVertex
 10
5.290518343501086
 20
8.610539811576952
 30
0.0
  0
VERTEX
  5
11D
330
11B
100
AcDbEntity
  8
H1
 62
   250
420
  2301728
370
     9
100
AcDbVertex
100
AcDb2dVertex
 10
5.318487884482288
 20
8.648594310106294
 30
0.0
  0
VERTEX
  5
11E
330
11B
100
AcDbEntity
  8
H1
 62
   250
420
  2301728
370
     9
100
AcDbVertex
100
AcDb2dVertex
 10
5.336845349021435
 20
8.678994270615147
 30
0.0
  0
VERTEX
  5
11F
330
11B
100
AcDbEntity
  8
H1
 62
   250
420
  2301728
370
     9
100
AcDbVertex
100
AcDb2dVertex
 10
5.360186493164191
 20
8.75312695554136
 30
0.0
  0
SEQEND
  5
120
330
11B
100
AcDbEntity
  8
H1
 62
   250
420
  2301728
370
     9
  0
POLYLINE
  5
121
330
DF
100
AcDbEntity
  8
H1
 62
   250
420
  2301728
370
     9
100
AcDb2dPolyline
 66
     1
 10
0.0
 20
0.0
 30
0.0
  0
VERTEX
  5
122
330
121
100
AcDbEntity
  8
H1
 62
   250
420
  2301728
370
     9
100
AcDbVertex
100
AcDb2dVertex
 10
5.53849096823165
 20
9.05972597754309
 30
0.0
  0
VERTEX
  5
123
330
121
100
AcDbEntity
  8
H1
 62
   250
420
  2301728
370
     9
100
AcDbVertex
100
AcDb2dVertex
 10
5.528357648062006
 20
9.028211981214326
 30
0.0
  0
VERTEX
  5
124
330
121
100
AcDbEntity
  8
H1
 62
   250
420
  2301728
370
     9
100
AcDbVertex
100
AcDb2dVertex
 10
5.513208019709054
 20
9.00656485957663
 30
0.0
  0
VERTEX
  5
125
330
121
100
AcDbEntity
  8
H1
 62
   250
420
  2301728
370
     9
100
AcDbVertex
100
AcDb2dVertex
 10
5.498802130900609
 20
8.996696935887636
 30
0.0
  0
SEQEND
  5
126
330
121
100
AcDbEntity
  8
H1
 62
   250
420
  2301728
370
     9
  0
POLYLINE
  5
127
330
DF
100
AcDbEntity
  8
H1
 62
   250
420
  2301728
370
     9
100
AcDb2dPolyline
 66
     1
 10
0.0
 20
0.0
 30
0.0
  0
VERTEX
  5
128
330
127
100
AcDbEntity
  8
H1
 62
   250
420
  2301728
370
     9
100
AcDbVertex
100
AcDb2dVertex
 10
5.580205420598658
 20
9.0867638996313
 30
0.0
  0
VERTEX
  5
129
330
127
100
AcDbEntity
  8
H1
 62
   250
420
  2301728
370
     9
100
AcDbVertex
100
AcDb2dVertex
 10
5.54568499615329
 20
8.990174429427901
 30
0.0
  0
VERTEX
  5
12A
330
127
100
AcDbEntity
  8
H1
 62
   250
420
  2301728
370
     9
100
AcDbVertex
100
AcDb2dVertex
 10
5.528357648062006
 20
8.957393242750868
 30
0.0
  0
SEQEND
  5
12B
330
127
100
AcDbEntity
  8
H1
 62
   250
420
  2301728
370
     9
  0
SPLINE
  5
12C
330
DF
100
AcDbEntity
  8
H1
 62
   250
420
  2301728
370
     9
100
AcDbSpline
210
0.0
220
0.0
230
1.0
 70
     8
 71
     3
 72
    17
 73
    13
 74
     0
 42
0.0000000001
 43
0.0000000001
 12
1.0
 22
0.0
 32
0.0
 13
1.0
 23
0.0
 33
0.0
 40
0.0
 40
0.0
 40
0.0
 40
0.0
 40
1.0
 40
1.0
 40
1.0
 40
2.0
 40
2.0
 40
2.0
 40
3.0
 40
3.0
 40
3.0
 40
4.0
 40
4.0
 40
4.0
 40
4.0
 10
5.525756133153057
 20
8.908877086468806
 30
0.0
 10
5.525756133153057
 20
8.908877086468806
 30
0.0
 10
5.538309491586763
 20
8.929201260973146
 30
0.0
 10
5.550344645034632
 20
8.939035778211695
 30
0.0
 10
5.562379913359564
 20
8.94886997248251
 30
0.0
 10
5.571558645629162
 20
8.958048704520213
 30
0.0
 10
5.581392886274847
 20
8.97706195475708
 30
0.0
 10
5.591227357635388
 20
8.99607488010497
 30
0.0
 10
5.602565860840413
 20
9.015088131302464
 30
0.0
 10
5.602565860840413
 20
9.015088131302464
 30
0.0
 10
5.602565860840413
 20
9.015088131302464
 30
0.0
 10
5.617573874470509
 20
9.064915535051593
 30
0.0
 10
5.617573874470509
 20
9.064915535051593
 30
0.0
  0
SPLINE
  5
12D
330
DF
100
AcDbEntity
  8
H1
 62
   250
420
  2301728
370
     9
100
AcDbSpline
210
0.0
220
0.0
230
1.0
 70
     8
 71
     3
 72
    17
 73
    13
 74
     0
 42
0.0000000001
 43
0.0000000001
 12
1.0
 22
0.0
 32
0.0
 13
1.0
 23
0.0
 33
0.0
 40
0.0
 40
0.0
 40
0.0
 40
0.0
 40
1.0
 40
1.0
 40
1.0
 40
2.0
 40
2.0
 40
2.0
 40
3.0
 40
3.0
 40
3.0
 40
4.0
 40
4.0
 40
4.0
 40
4.0
 10
5.525756133153057
 20
8.845937208048882
 30
0.0
 10
5.525756133153057
 20
8.845937208048882
 30
0.0
 10
5.54568499615329
 20
8.874128868746942
 30
0.0
 10
5.54568499615329
 20
8.874128868746942
 30
0.0
 10
5.54568499615329
 20
8.874128868746942
 30
0.0
 10
5.561937121348718
 20
8.895108827690263
 30
0.0
 10
5.571664479312807
 20
8.908877086468806
 30
0.0
 10
5.581392886274847
 20
8.922645023803359
 30
0.0
 10
5.59319411318044
 20
8.93772453074463
 30
0.0
 10
5.59319411318044
 20
8.93772453074463
 30
0.0
 10
5.59319411318044
 20
8.93772453074463
 30
0.0
 10
5.617573874470509
 20
8.993452385237054
 30
0.0
 10
5.617573874470509
 20
8.993452385237054
 30
0.0
  0
POLYLINE
  5
12E
330
DF
100
AcDbEntity
  8
H1
 62
   250
420
  2301728
370
     9
100
AcDb2dPolyline
 66
     1
 10
0.0
 20
0.0
 30
0.0
  0
VERTEX
  5
12F
330
12E
100
AcDbEntity
  8
H1
 62
   250
420
  2301728
370
     9
100
AcDbVertex
100
AcDb2dVertex
 10
5.528357648062006
 20
8.788437275440906
 30
0.0
  0
VERTEX
  5
130
330
12E
100
AcDbEntity
  8
H1
 62
   250
420
  2301728
370
     9
100
AcDbVertex
100
AcDb2dVertex
 10
5.550344645034632
 20
8.807361198407786
 30
0.0
  0
VERTEX
  5
131
330
12E
100
AcDbEntity
  8
H1
 62
   250
420
  2301728
370
     9
100
AcDbVertex
100
AcDb2dVertex
 10
5.580081638840864
 20
8.845937208048882
 30
0.0
  0
VERTEX
  5
132
330
12E
100
AcDbEntity
  8
H1
 62
   250
420
  2301728
370
     9
100
AcDbVertex
100
AcDb2dVertex
 10
5.62138604937829
 20
8.91969524157595
 30
0.0
  0
SEQEND
  5
133
330
12E
100
AcDbEntity
  8
H1
 62
   250
420
  2301728
370
     9
  0
POLYLINE
  5
134
330
DF
100
AcDbEntity
  8
H1
 62
   250
420
  2301728
370
     9
100
AcDb2dPolyline
 66
     1
 10
0.0
 20
0.0
 30
0.0
  0
VERTEX
  5
135
330
134
100
AcDbEntity
  8
H1
 62
   250
420
  2301728
370
     9
100
AcDbVertex
100
AcDb2dVertex
 10
5.591599636300745
 20
8.818812059999042
 30
0.0
  0
VERTEX
  5
136
330
134
100
AcDbEntity
  8
H1
 62
   250
420
  2301728
370
     9
100
AcDbVertex
100
AcDb2dVertex
 10
5.602565860840413
 20
8.833480198294284
 30
0.0
  0
VERTEX
  5
137
330
134
100
AcDbEntity
  8
H1
 62
   250
420
  2301728
370
     9
100
AcDbVertex
100
AcDb2dVertex
 10
5.617573874470509
 20
8.86495013670924
 30
0.0
  0
SEQEND
  5
138
330
134
100
AcDbEntity
  8
H1
 62
   250
420
  2301728
370
     9
  0
POLYLINE
  5
139
330
DF
100
AcDbEntity
  8
H1
 62
   250
420
  2301728
370
     9
100
AcDb2dPolyline
 66
     1
 10
0.0
 20
0.0
 30
0.0
  0
VERTEX
  5
13A
330
139
100
AcDbEntity
  8
H1
 62
   250
420
  2301728
370
     9
100
AcDbVertex
100
AcDb2dVertex
 10
5.458783908214173
 20
8.703853423967088
 30
0.0
  0
VERTEX
  5
13B
330
139
100
AcDbEntity
  8
H1
 62
   250
420
  2301728
370
     9
100
AcDbVertex
100
AcDb2dVertex
 10
5.488294318463836
 20
8.721368698676063
 30
0.0
  0
VERTEX
  5
13C
330
139
100
AcDbEntity
  8
H1
 62
   250
420
  2301728
370
     9
100
AcDbVertex
100
AcDb2dVertex
 10
5.525752986159205
 20
8.763328617622694
 30
0.0
  0
SEQEND
  5
13D
330
139
100
AcDbEntity
  8
H1
 62
   250
420
  2301728
370
     9
  0
SPLINE
  5
13E
330
DF
100
AcDbEntity
  8
H1
 62
   250
420
  2301728
370
     9
100
AcDbSpline
210
0.0
220
0.0
230
1.0
 70
     8
 71
     3
 72
    14
 73
    10
 74
     0
 42
0.0000000001
 43
0.0000000001
 12
1.0
 22
0.0
 32
0.0
 13
1.0
 23
0.0
 33
0.0
 40
0.0
 40
0.0
 40
0.0
 40
0.0
 40
1.0
 40
1.0
 40
1.0
 40
2.0
 40
2.0
 40
2.0
 40
3.0
 40
3.0
 40
3.0
 40
3.0
 10
5.411586454645152
 20
8.705416430908372
 30
0.0
 10
5.411586454645152
 20
8.705416430908372
 30
0.0
 10
5.447645648011176
 20
8.726144630344367
 30
0.0
 10
5.455513132614922
 20
8.733590417773346
 30
0.0
 10
5.463380617218667
 20
8.741037410682287
 30
0.0
 10
5.466658848262593
 20
8.743581074222156
 30
0.0
 10
5.475181844124259
 20
8.75312695554136
 30
0.0
 10
5.483705065334662
 20
8.762672836860588
 30
0.0
 10
5.525752986159205
 20
8.829298892476862
 30
0.0
 10
5.525752986159205
 20
8.829298892476862
 30
0.0
  0
SPLINE
  5
13F
330
DF
100
AcDbEntity
  8
H1
 62
   250
420
  2301728
370
     9
100
AcDbSpline
210
0.0
220
0.0
230
1.0
 70
     8
 71
     3
 72
    17
 73
    13
 74
     0
 42
0.0000000001
 43
0.0000000001
 12
1.0
 22
0.0
 32
0.0
 13
1.0
 23
0.0
 33
0.0
 40
0.0
 40
0.0
 40
0.0
 40
0.0
 40
1.0
 40
1.0
 40
1.0
 40
2.0
 40
2.0
 40
2.0
 40
3.0
 40
3.0
 40
3.0
 40
4.0
 40
4.0
 40
4.0
 40
4.0
 10
5.361870134869402
 20
8.716123708807723
 30
0.0
 10
5.361870134869402
 20
8.716123708807723
 30
0.0
 10
5.408308224992449
 20
8.756711381526832
 30
0.0
 10
5.408308224992449
 20
8.756711381526832
 30
0.0
 10
5.408308224992449
 20
8.756711381526832
 30
0.0
 10
5.435188909052613
 20
8.784964043237853
 30
0.0
 10
5.446334400577244
 20
8.799387765011375
 30
0.0
 10
5.457480115992994
 20
8.813811486784907
 30
0.0
 10
5.481738081294073
 20
8.836707964977702
 30
0.0
 10
5.481738081294073
 20
8.836707964977702
 30
0.0
 10
5.481738081294073
 20
8.836707964977702
 30
0.0
 10
5.528357648062006
 20
8.895764611797985
 30
0.0
 10
5.528357648062006
 20
8.895764611797985
 30
0.0
  0
POLYLINE
  5
140
330
DF
100
AcDbEntity
  8
H1
 62
   250
420
  2301728
370
     9
100
AcDb2dPolyline
 66
     1
 10
0.0
 20
0.0
 30
0.0
  0
VERTEX
  5
141
330
140
100
AcDbEntity
  8
H1
 62
   250
420
  2301728
370
     9
100
AcDbVertex
100
AcDb2dVertex
 10
5.361870134869402
 20
8.788437275440906
 30
0.0
  0
VERTEX
  5
142
330
140
100
AcDbEntity
  8
H1
 62
   250
420
  2301728
370
     9
100
AcDbVertex
100
AcDb2dVertex
 10
5.406341464776788
 20
8.829298892476862
 30
0.0
  0
VERTEX
  5
143
330
140
100
AcDbEntity
  8
H1
 62
   250
420
  2301728
370
     9
100
AcDbVertex
100
AcDb2dVertex
 10
5.468669664868281
 20
8.881076382151024
 30
0.0
  0
VERTEX
  5
144
330
140
100
AcDbEntity
  8
H1
 62
   250
420
  2301728
370
     9
100
AcDbVertex
100
AcDb2dVertex
 10
5.51864718783746
 20
8.97174756871224
 30
0.0
  0
SEQEND
  5
145
330
140
100
AcDbEntity
  8
H1
 62
   250
420
  2301728
370
     9
  0
SPLINE
  5
146
330
DF
100
AcDbEntity
  8
H1
 62
   250
420
  2301728
370
     9
100
AcDbSpline
210
0.0
220
0.0
230
1.0
 70
     8
 71
     3
 72
    14
 73
    10
 74
     0
 42
0.0000000001
 43
0.0000000001
 12
1.0
 22
0.0
 32
0.0
 13
1.0
 23
0.0
 33
0.0
 40
0.0
 40
0.0
 40
0.0
 40
0.0
 40
1.0
 40
1.0
 40
1.0
 40
2.0
 40
2.0
 40
2.0
 40
3.0
 40
3.0
 40
3.0
 40
3.0
 10
5.360831626901674
 20
8.851393936238019
 30
0.0
 10
5.360831626901674
 20
8.851393936238019
 30
0.0
 10
5.382083276313298
 20
8.865605920055094
 30
0.0
 10
5.388639513483112
 20
8.8754401161809
 30
0.0
 10
5.395195750652874
 20
8.885274632061332
 30
0.0
 10
5.401751987822687
 20
8.889304722048589
 30
0.0
 10
5.411586454645152
 20
8.90269727884005
 30
0.0
 10
5.421420699332026
 20
8.916088786633571
 30
0.0
 10
5.45364172027717
 20
8.977588389282067
 30
0.0
 10
5.45364172027717
 20
8.977588389282067
 30
0.0
  0
POLYLINE
  5
147
330
DF
100
AcDbEntity
  8
H1
 62
   250
420
  2301728
370
     9
100
AcDb2dPolyline
 66
     1
 10
0.0
 20
0.0
 30
0.0
  0
VERTEX
  5
148
330
147
100
AcDbEntity
  8
H1
 62
   250
420
  2301728
370
     9
100
AcDbVertex
100
AcDb2dVertex
 10
5.360831626901674
 20
8.92386500841591
 30
0.0
  0
VERTEX
  5
149
330
147
100
AcDbEntity
  8
H1
 62
   250
420
  2301728
370
     9
100
AcDbVertex
100
AcDb2dVertex
 10
5.383621107303851
 20
8.952062073235727
 30
0.0
  0
VERTEX
  5
14A
330
147
100
AcDbEntity
  8
H1
 62
   250
420
  2301728
370
     9
100
AcDbVertex
100
AcDb2dVertex
 10
5.395195750652874
 20
8.98103224954261
 30
0.0
  0
SEQEND
  5
14B
330
147
100
AcDbEntity
  8
H1
 62
   250
420
  2301728
370
     9
  0
POLYLINE
  5
14C
330
DF
100
AcDbEntity
  8
H1
 62
   250
420
  2301728
370
     9
100
AcDb2dPolyline
 66
     1
 10
0.0
 20
0.0
 30
0.0
  0
VERTEX
  5
14D
330
14C
100
AcDbEntity
  8
H1
 62
   250
420
  2301728
370
     9
100
AcDbVertex
100
AcDb2dVertex
 10
5.36397652274728
 20
8.374583458331205
 30
0.0
  0
VERTEX
  5
14E
330
14C
100
AcDbEntity
  8
H1
 62
   250
420
  2301728
370
     9
100
AcDbVertex
100
AcDb2dVertex
 10
5.399278450663283
 20
8.424632199388434
 30
0.0
  0
VERTEX
  5
14F
330
14C
100
AcDbEntity
  8
H1
 62
   250
420
  2301728
370
     9
100
AcDbVertex
100
AcDb2dVertex
 10
5.418884222295774
 20
8.46598789445751
 30
0.0
  0
SEQEND
  5
150
330
14C
100
AcDbEntity
  8
H1
 62
   250
420
  2301728
370
     9
  0
SPLINE
  5
151
330
DF
100
AcDbEntity
  8
H1
 62
   250
420
  2301728
370
     9
100
AcDbSpline
210
0.0
220
0.0
230
1.0
 70
     8
 71
     3
 72
    14
 73
    10
 74
     0
 42
0.0000000001
 43
0.0000000001
 12
1.0
 22
0.0
 32
0.0
 13
1.0
 23
0.0
 33
0.0
 40
0.0
 40
0.0
 40
0.0
 40
0.0
 40
1.0
 40
1.0
 40
1.0
 40
2.0
 40
2.0
 40
2.0
 40
3.0
 40
3.0
 40
3.0
 40
3.0
 10
5.472982095429061
 20
8.503032207963718
 30
0.0
 10
5.472982095429061
 20
8.503032207963718
 30
0.0
 10
5.450875512690496
 20
8.460094773375127
 30
0.0
 10
5.444483031099278
 20
8.441206366953654
 30
0.0
 10
5.438090325710466
 20
8.422317060919037
 30
0.0
 10
5.423310993632842
 20
8.398413692523592
 30
0.0
 10
5.418827576406632
 20
8.387583689890436
 30
0.0
 10
5.414343110182522
 20
8.376753835083907
 30
0.0
 10
5.364248213215584
 20
8.30612480330122
 30
0.0
 10
5.364248213215584
 20
8.30612480330122
 30
0.0
  0
POLYLINE
  5
152
330
DF
100
AcDbEntity
  8
H1
 62
   250
420
  2301728
370
     9
100
AcDb2dPolyline
 66
     1
 10
0.0
 20
0.0
 30
0.0
  0
VERTEX
  5
153
330
152
100
AcDbEntity
  8
H1
 62
   250
420
  2301728
370
     9
100
AcDbVertex
100
AcDb2dVertex
 10
5.364502070718824
 20
8.242317405168958
 30
0.0
  0
VERTEX
  5
154
330
152
100
AcDbEntity
  8
H1
 62
   250
420
  2301728
370
     9
100
AcDbVertex
100
AcDb2dVertex
 10
5.4129133259805
 20
8.290273395321593
 30
0.0
  0
VERTEX
  5
155
330
152
100
AcDbEntity
  8
H1
 62
   250
420
  2301728
370
     9
100
AcDbVertex
100
AcDb2dVertex
 10
5.449399572578841
 20
8.343032747074302
 30
0.0
  0
VERTEX
  5
156
330
152
100
AcDbEntity
  8
H1
 62
   250
420
  2301728
370
     9
100
AcDbVertex
100
AcDb2dVertex
 10
5.478902639842898
 20
8.404996006815445
 30
0.0
  0
VERTEX
  5
157
330
152
100
AcDbEntity
  8
H1
 62
   250
420
  2301728
370
     9
100
AcDbVertex
100
AcDb2dVertex
 10
5.529494761836759
 20
8.544492802827499
 30
0.0
  0
SEQEND
  5
158
330
152
100
AcDbEntity
  8
H1
 62
   250
420
  2301728
370
     9
  0
SPLINE
  5
159
330
DF
100
AcDbEntity
  8
H1
 62
   250
420
  2301728
370
     9
100
AcDbSpline
210
0.0
220
0.0
230
1.0
 70
     8
 71
     3
 72
    23
 73
    19
 74
     0
 42
0.0000000001
 43
0.0000000001
 12
1.0
 22
0.0
 32
0.0
 13
1.0
 23
0.0
 33
0.0
 40
0.0
 40
0.0
 40
0.0
 40
0.0
 40
1.0
 40
1.0
 40
1.0
 40
2.0
 40
2.0
 40
2.0
 40
3.0
 40
3.0
 40
3.0
 40
4.0
 40
4.0
 40
4.0
 40
5.0
 40
5.0
 40
5.0
 40
6.0
 40
6.0
 40
6.0
 40
6.0
 10
5.56432055961088
 20
8.516705896205028
 30
0.0
 10
5.56432055961088
 20
8.516705896205028
 30
0.0
 10
5.538907420416662
 20
8.440380805569236
 30
0.0
 10
5.538907420416662
 20
8.440380805569236
 30
0.0
 10
5.538907420416662
 20
8.440380805569236
 30
0.0
 10
5.503625536854543
 20
8.367971771327802
 30
0.0
 10
5.503625536854543
 20
8.367971771327802
 30
0.0
 10
5.503625536854543
 20
8.367971771327802
 30
0.0
 10
5.473477335091401
 20
8.305514431975755
 30
0.0
 10
5.473477335091401
 20
8.305514431975755
 30
0.0
 10
5.473477335091401
 20
8.305514431975755
 30
0.0
 10
5.472857264673368
 20
8.298839512558162
 30
0.0
 10
5.458720968337375
 20
8.275628479706004
 30
0.0
 10
5.444585720999283
 20
8.252417157404288
 30
0.0
 10
5.413995891862012
 20
8.205895147445428
 30
0.0
 10
5.413995891862012
 20
8.205895147445428
 30
0.0
 10
5.413995891862012
 20
8.205895147445428
 30
0.0
 10
5.364807329121454
 20
8.165218154048185
 30
0.0
 10
5.364807329121454
 20
8.165218154048185
 30
0.0
  0
POLYLINE
  5
15A
330
DF
100
AcDbEntity
  8
H1
 62
   250
420
  2301728
370
     9
100
AcDb2dPolyline
 66
     1
 10
0.0
 20
0.0
 30
0.0
  0
VERTEX
  5
15B
330
15A
100
AcDbEntity
  8
H1
 62
   250
420
  2301728
370
     9
100
AcDbVertex
100
AcDb2dVertex
 10
5.409533454594768
 20
8.164494345464618
 30
0.0
  0
VERTEX
  5
15C
330
15A
100
AcDbEntity
  8
H1
 62
   250
420
  2301728
370
     9
100
AcDbVertex
100
AcDb2dVertex
 10
5.480895735942491
 20
8.228721342775746
 30
0.0
  0
VERTEX
  5
15D
330
15A
100
AcDbEntity
  8
H1
 62
   250
420
  2301728
370
     9
100
AcDbVertex
100
AcDb2dVertex
 10
5.505855593097345
 20
8.29494353418238
 30
0.0
  0
VERTEX
  5
15E
330
15A
100
AcDbEntity
  8
H1
 62
   250
420
  2301728
370
     9
100
AcDbVertex
100
AcDb2dVertex
 10
5.52637504194187
 20
8.339038162891509
 30
0.0
  0
VERTEX
  5
15F
330
15A
100
AcDbEntity
  8
H1
 62
   250
420
  2301728
370
     9
100
AcDbVertex
100
AcDb2dVertex
 10
5.565519449338303
 20
8.42929184826975
 30
0.0
  0
SEQEND
  5
160
330
15A
100
AcDbEntity
  8
H1
 62
   250
420
  2301728
370
     9
  0
POLYLINE
  5
161
330
DF
100
AcDbEntity
  8
H1
 62
   250
420
  2301728
370
     9
100
AcDb2dPolyline
 66
     1
 10
0.0
 20
0.0
 30
0.0
  0
VERTEX
  5
162
330
161
100
AcDbEntity
  8
H1
 62
   250
420
  2301728
370
     9
100
AcDbVertex
100
AcDb2dVertex
 10
5.510554054902715
 20
8.236642326274794
 30
0.0
  0
VERTEX
  5
163
330
161
100
AcDbEntity
  8
H1
 62
   250
420
  2301728
370
     9
100
AcDbVertex
100
AcDb2dVertex
 10
5.535074496105052
 20
8.265624041559096
 30
0.0
  0
VERTEX
  5
164
330
161
100
AcDbEntity
  8
H1
 62
   250
420
  2301728
370
     9
100
AcDbVertex
100
AcDb2dVertex
 10
5.553056304728013
 20
8.297223006721588
 30
0.0
  0
VERTEX
  5
165
330
161
100
AcDbEntity
  8
H1
 62
   250
420
  2301728
370
     9
100
AcDbVertex
100
AcDb2dVertex
 10
5.564285827752428
 20
8.365049115989425
 30
0.0
  0
SEQEND
  5
166
330
161
100
AcDbEntity
  8
H1
 62
   250
420
  2301728
370
     9
  0
POLYLINE
  5
167
330
DF
100
AcDbEntity
  8
H1
 62
   250
420
  2301728
370
     9
100
AcDb2dPolyline
 66
     1
 10
0.0
 20
0.0
 30
0.0
  0
VERTEX
  5
168
330
167
100
AcDbEntity
  8
H1
 62
   250
420
  2301728
370
     9
100
AcDbVertex
100
AcDb2dVertex
 10
5.750397994540637
 20
8.691767918617794
 30
0.0
  0
VERTEX
  5
169
330
167
100
AcDbEntity
  8
H1
 62
   250
420
  2301728
370
     9
100
AcDbVertex
100
AcDb2dVertex
 10
5.740530070851693
 20
8.65938954798057
 30
0.0
  0
VERTEX
  5
16A
330
167
100
AcDbEntity
  8
H1
 62
   250
420
  2301728
370
     9
100
AcDbVertex
100
AcDb2dVertex
 10
5.725676259919813
 20
8.636800426186305
 30
0.0
  0
VERTEX
  5
16B
330
167
100
AcDbEntity
  8
H1
 62
   250
420
  2301728
370
     9
100
AcDbVertex
100
AcDb2dVertex
 10
5.706512234941278
 20
8.61858247883788
 30
0.0
  0
SEQEND
  5
16C
330
167
100
AcDbEntity
  8
H1
 62
   250
420
  2301728
370
     9
  0
POLYLINE
  5
16D
330
DF
100
AcDbEntity
  8
H1
 62
   250
420
  2301728
370
     9
100
AcDb2dPolyline
 66
     1
 10
0.0
 20
0.0
 30
0.0
  0
VERTEX
  5
16E
330
16D
100
AcDbEntity
  8
H1
 62
   250
420
  2301728
370
     9
100
AcDbVertex
100
AcDb2dVertex
 10
5.819069717515604
 20
8.739393474417069
 30
0.0
  0
VERTEX
  5
16F
330
16D
100
AcDbEntity
  8
H1
 62
   250
420
  2301728
370
     9
100
AcDbVertex
100
AcDb2dVertex
 10
5.770234545721551
 20
8.62946688153766
 30
0.0
  0
VERTEX
  5
170
330
16D
100
AcDbEntity
  8
H1
 62
   250
420
  2301728
370
     9
100
AcDbVertex
100
AcDb2dVertex
 10
5.729563846311976
 20
8.581393403614937
 30
0.0
  0
SEQEND
  5
171
330
16D
100
AcDbEntity
  8
H1
 62
   250
420
  2301728
370
     9
  0
SPLINE
  5
172
330
DF
100
AcDbEntity
  8
H1
 62
   250
420
  2301728
370
     9
100
AcDbSpline
210
0.0
220
0.0
230
1.0
 70
     8
 71
     3
 72
    17
 73
    13
 74
     0
 42
0.0000000001
 43
0.0000000001
 12
1.0
 22
0.0
 32
0.0
 13
1.0
 23
0.0
 33
0.0
 40
0.0
 40
0.0
 40
0.0
 40
0.0
 40
1.0
 40
1.0
 40
1.0
 40
2.0
 40
2.0
 40
2.0
 40
3.0
 40
3.0
 40
3.0
 40
4.0
 40
4.0
 40
4.0
 40
4.0
 10
5.726285846744859
 20
8.52894350625666
 30
0.0
 10
5.726285846744859
 20
8.52894350625666
 30
0.0
 10
5.750744163863247
 20
8.55943892557871
 30
0.0
 10
5.762573713713411
 20
8.569920513066803
 30
0.0
 10
5.774404312561526
 20
8.580402100554908
 30
0.0
 10
5.783419400919481
 20
8.590097092251527
 30
0.0
 10
5.793042908086792
 20
8.60978977804474
 30
0.0
 10
5.802665366256153
 20
8.629482616506872
 30
0.0
 10
5.813771107522775
 20
8.649239598006805
 30
0.0
 10
5.813771107522775
 20
8.649239598006805
 30
0.0
 10
5.813771107522775
 20
8.649239598006805
 30
0.0
 10
5.841264294720077
 20
8.717434956274815
 30
0.0
 10
5.841264294720077
 20
8.717434956274815
 30
0.0
  0
SPLINE
  5
173
330
DF
100
AcDbEntity
  8
H1
 62
   250
420
  2301728
370
     9
100
AcDbSpline
210
0.0
220
0.0
230
1.0
 70
     8
 71
     3
 72
    17
 73
    13
 74
     0
 42
0.0000000001
 43
0.0000000001
 12
1.0
 22
0.0
 32
0.0
 13
1.0
 23
0.0
 33
0.0
 40
0.0
 40
0.0
 40
0.0
 40
0.0
 40
1.0
 40
1.0
 40
1.0
 40
2.0
 40
2.0
 40
2.0
 40
3.0
 40
3.0
 40
3.0
 40
4.0
 40
4.0
 40
4.0
 40
4.0
 10
5.728455055481845
 20
8.46600362942671
 30
0.0
 10
5.728455055481845
 20
8.46600362942671
 30
0.0
 10
5.758240303193664
 20
8.50392190871489
 30
0.0
 10
5.758240303193664
 20
8.50392190871489
 30
0.0
 10
5.758240303193664
 20
8.50392190871489
 30
0.0
 10
5.774184022992661
 20
8.525881481248891
 30
0.0
 10
5.783722561326209
 20
8.54025275312506
 30
0.0
 10
5.793261099659806
 20
8.55462402500124
 30
0.0
 10
5.804839939000632
 20
8.570412493104048
 30
0.0
 10
5.804839939000632
 20
8.570412493104048
 30
0.0
 10
5.804839939000632
 20
8.570412493104048
 30
0.0
 10
5.841551720157591
 20
8.644987855163928
 30
0.0
 10
5.841551720157591
 20
8.644987855163928
 30
0.0
  0
POLYLINE
  5
174
330
DF
100
AcDbEntity
  8
H1
 62
   250
420
  2301728
370
     9
100
AcDb2dPolyline
 66
     1
 10
0.0
 20
0.0
 30
0.0
  0
VERTEX
  5
175
330
174
100
AcDbEntity
  8
H1
 62
   250
420
  2301728
370
     9
100
AcDbVertex
100
AcDb2dVertex
 10
5.729563846311976
 20
8.409237105515835
 30
0.0
  0
VERTEX
  5
176
330
174
100
AcDbEntity
  8
H1
 62
   250
420
  2301728
370
     9
100
AcDbVertex
100
AcDb2dVertex
 10
5.763103457676707
 20
8.436433426294052
 30
0.0
  0
VERTEX
  5
177
330
174
100
AcDbEntity
  8
H1
 62
   250
420
  2301728
370
     9
100
AcDbVertex
100
AcDb2dVertex
 10
5.792277139585368
 20
8.47680411229074
 30
0.0
  0
VERTEX
  5
178
330
174
100
AcDbEntity
  8
H1
 62
   250
420
  2301728
370
     9
100
AcDbVertex
100
AcDb2dVertex
 10
5.845608195219281
 20
8.57037682717382
 30
0.0
  0
SEQEND
  5
179
330
174
100
AcDbEntity
  8
H1
 62
   250
420
  2301728
370
     9
  0
POLYLINE
  5
17A
330
DF
100
AcDbEntity
  8
H1
 62
   250
420
  2301728
370
     9
100
AcDb2dPolyline
 66
     1
 10
0.0
 20
0.0
 30
0.0
  0
VERTEX
  5
17B
330
17A
100
AcDbEntity
  8
H1
 62
   250
420
  2301728
370
     9
100
AcDbVertex
100
AcDb2dVertex
 10
5.803745834141712
 20
8.4497945131471
 30
0.0
  0
VERTEX
  5
17C
330
17A
100
AcDbEntity
  8
H1
 62
   250
420
  2301728
370
     9
100
AcDbVertex
100
AcDb2dVertex
 10
5.814502259091973
 20
8.46513191213262
 30
0.0
  0
VERTEX
  5
17D
330
17A
100
AcDbEntity
  8
H1
 62
   250
420
  2301728
370
     9
100
AcDbVertex
100
AcDb2dVertex
 10
5.842068876145529
 20
8.514716097863912
 30
0.0
  0
SEQEND
  5
17E
330
17A
100
AcDbEntity
  8
H1
 62
   250
420
  2301728
370
     9
  0
POLYLINE
  5
17F
330
DF
100
AcDbEntity
  8
H1
 62
   250
420
  2301728
370
     9
100
AcDb2dPolyline
 66
     1
 10
0.0
 20
0.0
 30
0.0
  0
VERTEX
  5
180
330
17F
100
AcDbEntity
  8
H1
 62
   250
420
  2301728
370
     9
100
AcDbVertex
100
AcDb2dVertex
 10
5.65742530648337
 20
8.317266210498069
 30
0.0
  0
VERTEX
  5
181
330
17F
100
AcDbEntity
  8
H1
 62
   250
420
  2301728
370
     9
100
AcDbVertex
100
AcDb2dVertex
 10
5.702253303168163
 20
8.346618222057714
 30
0.0
  0
VERTEX
  5
182
330
17F
100
AcDbEntity
  8
H1
 62
   250
420
  2301728
370
     9
100
AcDbVertex
100
AcDb2dVertex
 10
5.727667258023504
 20
8.377115739375666
 30
0.0
  0
SEQEND
  5
183
330
17F
100
AcDbEntity
  8
H1
 62
   250
420
  2301728
370
     9
  0
SPLINE
  5
184
330
DF
100
AcDbEntity
  8
H1
 62
   250
420
  2301728
370
     9
100
AcDbSpline
210
0.0
220
0.0
230
1.0
 70
     8
 71
     3
 72
    14
 73
    10
 74
     0
 42
0.0000000001
 43
0.0000000001
 12
1.0
 22
0.0
 32
0.0
 13
1.0
 23
0.0
 33
0.0
 40
0.0
 40
0.0
 40
0.0
 40
0.0
 40
1.0
 40
1.0
 40
1.0
 40
2.0
 40
2.0
 40
2.0
 40
3.0
 40
3.0
 40
3.0
 40
3.0
 10
5.618185440273717
 20
8.323125913030935
 30
0.0
 10
5.618185440273717
 20
8.323125913030935
 30
0.0
 10
5.662143699249706
 20
8.349731647964896
 30
0.0
 10
5.669872716124397
 20
8.357615916535805
 30
0.0
 10
5.67760278199709
 20
8.365499136108749
 30
0.0
 10
5.680825303690754
 20
8.36821708978986
 30
0.0
 10
5.689193278396033
 20
8.378257049142183
 30
0.0
 10
5.697559967941894
 20
8.388297008494533
 30
0.0
 10
5.727304304733782
 20
8.448509490661838
 30
0.0
 10
5.727304304733782
 20
8.448509490661838
 30
0.0
  0
SPLINE
  5
185
330
DF
100
AcDbEntity
  8
H1
 62
   250
420
  2301728
370
     9
100
AcDbSpline
210
0.0
220
0.0
230
1.0
 70
     8
 71
     3
 72
    17
 73
    13
 74
     0
 42
0.0000000001
 43
0.0000000001
 12
1.0
 22
0.0
 32
0.0
 13
1.0
 23
0.0
 33
0.0
 40
0.0
 40
0.0
 40
0.0
 40
0.0
 40
1.0
 40
1.0
 40
1.0
 40
2.0
 40
2.0
 40
2.0
 40
3.0
 40
3.0
 40
3.0
 40
4.0
 40
4.0
 40
4.0
 40
4.0
 10
5.566095349211284
 20
8.327607232261231
 30
0.0
 10
5.566095349211284
 20
8.327607232261231
 30
0.0
 10
5.623224826411893
 20
8.379047993594352
 30
0.0
 10
5.623224826411893
 20
8.379047993594352
 30
0.0
 10
5.623224826411893
 20
8.379047993594352
 30
0.0
 10
5.649621810754373
 20
8.408832192308232
 30
0.0
 10
5.660555633714972
 20
8.423928321765894
 30
0.0
 10
5.67149027095896
 20
8.439024451223556
 30
0.0
 10
5.695322455320618
 20
8.463266793782559
 30
0.0
 10
5.695322455320618
 20
8.463266793782559
 30
0.0
 10
5.695322455320618
 20
8.463266793782559
 30
0.0
 10
5.729605806229907
 20
8.516000969584525
 30
0.0
 10
5.729605806229907
 20
8.516000969584525
 30
0.0
  0
POLYLINE
  5
186
330
DF
100
AcDbEntity
  8
H1
 62
   250
420
  2301728
370
     9
100
AcDb2dPolyline
 66
     1
 10
0.0
 20
0.0
 30
0.0
  0
VERTEX
  5
187
330
186
100
AcDbEntity
  8
H1
 62
   250
420
  2301728
370
     9
100
AcDbVertex
100
AcDb2dVertex
 10
5.565803727782016
 20
8.400917502796863
 30
0.0
  0
VERTEX
  5
188
330
186
100
AcDbEntity
  8
H1
 62
   250
420
  2301728
370
     9
100
AcDbVertex
100
AcDb2dVertex
 10
5.62099255878032
 20
8.452551279752255
 30
0.0
  0
VERTEX
  5
189
330
186
100
AcDbEntity
  8
H1
 62
   250
420
  2301728
370
     9
100
AcDbVertex
100
AcDb2dVertex
 10
5.682255087892776
 20
8.507690807847085
 30
0.0
  0
VERTEX
  5
18A
330
186
100
AcDbEntity
  8
H1
 62
   250
420
  2301728
370
     9
100
AcDbVertex
100
AcDb2dVertex
 10
5.723513226152741
 20
8.595161501671516
 30
0.0
  0
SEQEND
  5
18B
330
186
100
AcDbEntity
  8
H1
 62
   250
420
  2301728
370
     9
  0
SPLINE
  5
18C
330
DF
100
AcDbEntity
  8
H1
 62
   250
420
  2301728
370
     9
100
AcDbSpline
210
0.0
220
0.0
230
1.0
 70
     8
 71
     3
 72
    14
 73
    10
 74
     0
 42
0.0000000001
 43
0.0000000001
 12
1.0
 22
0.0
 32
0.0
 13
1.0
 23
0.0
 33
0.0
 40
0.0
 40
0.0
 40
0.0
 40
0.0
 40
1.0
 40
1.0
 40
1.0
 40
2.0
 40
2.0
 40
2.0
 40
3.0
 40
3.0
 40
3.0
 40
3.0
 10
5.564526048282358
 20
8.464696577984544
 30
0.0
 10
5.564526048282358
 20
8.464696577984544
 30
0.0
 10
5.596922251884684
 20
8.48832735474035
 30
0.0
 10
5.603348413308999
 20
8.498575015686217
 30
0.0
 10
5.609774574733365
 20
8.508823725630046
 30
0.0
 10
5.616224979347862
 20
8.51318860608818
 30
0.0
 10
5.625870399234675
 20
8.527183287701316
 30
0.0
 10
5.635514886360903
 20
8.541176920316502
 30
0.0
 10
5.671844832265075
 20
8.597161940756752
 30
0.0
 10
5.671844832265075
 20
8.597161940756752
 30
0.0
  0
POLYLINE
  5
18D
330
DF
100
AcDbEntity
  8
H1
 62
   250
420
  2301728
370
     9
100
AcDb2dPolyline
 66
     1
 10
0.0
 20
0.0
 30
0.0
  0
VERTEX
  5
18E
330
18D
100
AcDbEntity
  8
H1
 62
   250
420
  2301728
370
     9
100
AcDbVertex
100
AcDb2dVertex
 10
5.563013393242525
 20
8.549267841483003
 30
0.0
  0
VERTEX
  5
18F
330
18D
100
AcDbEntity
  8
H1
 62
   250
420
  2301728
370
     9
100
AcDbVertex
100
AcDb2dVertex
 10
5.598089786599858
 20
8.576039318092613
 30
0.0
  0
VERTEX
  5
190
330
18D
100
AcDbEntity
  8
H1
 62
   250
420
  2301728
370
     9
100
AcDbVertex
100
AcDb2dVertex
 10
5.612195661995378
 20
8.599446658285677
 30
0.0
  0
SEQEND
  5
191
330
18D
100
AcDbEntity
  8
H1
 62
   250
420
  2301728
370
     9
  0
ENDBLK
  5
E2
330
DF
100
AcDbEntity
  8
0
100
AcDbBlockEnd
  0
BLOCK
  5
194
330
192
100
AcDbEntity
  8
0
100
AcDbBlockBegin
  2
block 4
 70
     0
 10
0.0
 20
0.0
 30
0.0
  3
block 4
  1

  0
POLYLINE
  5
196
330
192
100
AcDbEntity
  8
H1
 62
   250
420
  2301728
370
    20
100
AcDb2dPolyline
 66
     1
 10
0.0
 20
0.0
 30
0.0
  0
VERTEX
  5
197
330
196
100
AcDbEntity
  8
H1
 62
   250
420
  2301728
370
    20
100
AcDbVertex
100
AcDb2dVertex
 10
3.898382677837869
 20
9.692076626065916
 30
0.0
  0
VERTEX
  5
198
330
196
100
AcDbEntity
  8
H1
 62
   250
420
  2301728
370
    20
100
AcDbVertex
100
AcDb2dVertex
 10
3.898382677837869
 20
9.17526575843778
 30
0.0
  0
VERTEX
  5
199
330
196
100
AcDbEntity
  8
H1
 62
   250
420
  2301728
370
    20
100
AcDbVertex
100
AcDb2dVertex
 10
3.90959017190538
 20
9.172463884920905
 30
0.0
  0
VERTEX
  5
19A
330
196
100
AcDbEntity
  8
H1
 62
   250
420
  2301728
370
    20
100
AcDbVertex
100
AcDb2dVertex
 10
4.028058755068565
 20
9.236700323213553
 30
0.0
  0
VERTEX
  5
19B
330
196
100
AcDbEntity
  8
H1
 62
   250
420
  2301728
370
    20
100
AcDbVertex
100
AcDb2dVertex
 10
4.044479845465263
 20
9.23090146256162
 30
0.0
  0
VERTEX
  5
19C
330
196
100
AcDbEntity
  8
H1
 62
   250
420
  2301728
370
    20
100
AcDbVertex
100
AcDb2dVertex
 10
4.047358219300514
 20
9.225108895897366
 30
0.0
  0
VERTEX
  5
19D
330
196
100
AcDbEntity
  8
H1
 62
   250
420
  2301728
370
    20
100
AcDbVertex
100
AcDb2dVertex
 10
4.025630324820869
 20
9.211806721304002
 30
0.0
  0
VERTEX
  5
19E
330
196
100
AcDbEntity
  8
H1
 62
   250
420
  2301728
370
    20
100
AcDbVertex
100
AcDb2dVertex
 10
4.025630324820869
 20
8.944116962783898
 30
0.0
  0
VERTEX
  5
19F
330
196
100
AcDbEntity
  8
H1
 62
   250
420
  2301728
370
    20
100
AcDbVertex
100
AcDb2dVertex
 10
3.886315005453677
 20
8.79931223715918
 30
0.0
  0
VERTEX
  5
1A0
330
196
100
AcDbEntity
  8
H1
 62
   250
420
  2301728
370
    20
100
AcDbVertex
100
AcDb2dVertex
 10
3.940414976582853
 20
8.777337828161977
 30
0.0
  0
VERTEX
  5
1A1
330
196
100
AcDbEntity
  8
H1
 62
   250
420
  2301728
370
    20
100
AcDbVertex
100
AcDb2dVertex
 10
3.948824793125279
 20
8.780134456689098
 30
0.0
  0
VERTEX
  5
1A2
330
196
100
AcDbEntity
  8
H1
 62
   250
420
  2301728
370
    20
100
AcDbVertex
100
AcDb2dVertex
 10
4.332744488628628
 20
9.105206332540421
 30
0.0
  0
VERTEX
  5
1A3
330
196
100
AcDbEntity
  8
H1
 62
   250
420
  2301728
370
    20
100
AcDbVertex
100
AcDb2dVertex
 10
4.332744488628628
 20
9.194883069047743
 30
0.0
  0
VERTEX
  5
1A4
330
196
100
AcDbEntity
  8
H1
 62
   250
420
  2301728
370
    20
100
AcDbVertex
100
AcDb2dVertex
 10
4.048276092504289
 20
9.6500348863394
 30
0.0
  0
VERTEX
  5
1A5
330
196
100
AcDbEntity
  8
H1
 62
   250
420
  2301728
370
    20
100
AcDbVertex
100
AcDb2dVertex
 10
4.035695460123937
 20
9.660068551704045
 30
0.0
  0
VERTEX
  5
1A6
330
196
100
AcDbEntity
  8
H1
 62
   250
420
  2301728
370
    20
100
AcDbVertex
100
AcDb2dVertex
 10
3.957230413675928
 20
9.710510847964429
 30
0.0
  0
VERTEX
  5
1A7
330
196
100
AcDbEntity
  8
H1
 62
   250
420
  2301728
370
    20
100
AcDbVertex
100
AcDb2dVertex
 10
3.93376118260398
 20
9.715597258037265
 30
0.0
  0
VERTEX
  5
1A8
330
196
100
AcDbEntity
  8
H1
 62
   250
420
  2301728
370
    20
100
AcDbVertex
100
AcDb2dVertex
 10
3.898382677837869
 20
9.692865472522183
 30
0.0
  0
VERTEX
  5
1A9
330
196
100
AcDbEntity
  8
H1
 62
   250
420
  2301728
370
    20
100
AcDbVertex
100
AcDb2dVertex
 10
3.898382677837869
 20
9.692076626065916
 30
0.0
  0
SEQEND
  5
1AB
330
196
100
AcDbEntity
  8
H1
 62
   250
420
  2301728
370
    20
  0
HATCH
  5
1AA
330
192
100
AcDbEntity
  8
H1
 62
   254
420
 13358815
100
AcDbHatch
 10
0.0
 20
0.0
 30
0.0
210
0.0
220
0.0
230
1.0
  2
SOLID
 70
     1
 71
     0
 91
        1
 92
        1
 93
       18
 72
     1
 10
3.898382677837869
 20
9.692076626065916
 11
3.898382677837869
 21
9.17526575843778
 72
     1
 10
3.898382677837869
 20
9.17526575843778
 11
3.90959017190538
 21
9.172463884920905
 72
     1
 10
3.90959017190538
 20
9.172463884920905
 11
4.028058755068565
 21
9.236700323213553
 72
     1
 10
4.028058755068565
 20
9.236700323213553
 11
4.044479845465263
 21
9.23090146256162
 72
     1
 10
4.044479845465263
 20
9.23090146256162
 11
4.047358219300514
 21
9.225108895897366
 72
     1
 10
4.047358219300514
 20
9.225108895897366
 11
4.025630324820869
 21
9.211806721304002
 72
     1
 10
4.025630324820869
 20
9.211806721304002
 11
4.025630324820869
 21
8.944116962783898
 72
     1
 10
4.025630324820869
 20
8.944116962783898
 11
3.886315005453677
 21
8.79931223715918
 72
     1
 10
3.886315005453677
 20
8.79931223715918
 11
3.940414976582853
 21
8.777337828161977
 72
     1
 10
3.940414976582853
 20
8.777337828161977
 11
3.948824793125279
 21
8.780134456689098
 72
     1
 10
3.948824793125279
 20
8.780134456689098
 11
4.332744488628628
 21
9.105206332540421
 72
     1
 10
4.332744488628628
 20
9.105206332540421
 11
4.332744488628628
 21
9.194883069047743
 72
     1
 10
4.332744488628628
 20
9.194883069047743
 11
4.048276092504289
 21
9.6500348863394
 72
     1
 10
4.048276092504289
 20
9.6500348863394
 11
4.035695460123937
 21
9.660068551704045
 72
     1
 10
4.035695460123937
 20
9.660068551704045
 11
3.957230413675928
 21
9.710510847964429
 72
     1
 10
3.957230413675928
 20
9.710510847964429
 11
3.93376118260398
 21
9.715597258037265
 72
     1
 10
3.93376118260398
 20
9.715597258037265
 11
3.898382677837869
 21
9.692865472522183
 72
     1
 10
3.898382677837869
 20
9.692865472522183
 11
3.898382677837869
 21
9.692076626065916
 97
        0
 75
     2
 76
     1
 98
        0
  0
SPLINE
  5
1AC
330
192
100
AcDbEntity
  8
H1
 62
   250
420
  2301728
370
    13
100
AcDbSpline
210
0.0
220
0.0
230
1.0
 70
     8
 71
     3
 72
    14
 73
    10
 74
     0
 42
0.0000000001
 43
0.0000000001
 12
1.0
 22
0.0
 32
0.0
 13
1.0
 23
0.0
 33
0.0
 40
0.0
 40
0.0
 40
0.0
 40
0.0
 40
1.0
 40
1.0
 40
1.0
 40
2.0
 40
2.0
 40
2.0
 40
3.0
 40
3.0
 40
3.0
 40
3.0
 10
4.027289839573288
 20
9.236915367792713
 30
0.0
 10
4.027289839573288
 20
9.236915367792713
 30
0.0
 10
4.043419232008912
 20
9.231583311227268
 30
0.0
 10
4.043419232008912
 20
9.231583311227268
 30
0.0
 10
4.043419232008912
 20
9.231583311227268
 30
0.0
 10
4.050487380176908
 20
9.228755212761712
 30
0.0
 10
4.048603379863796
 20
9.216974965815046
 30
0.0
 10
4.048603379863796
 20
9.216974965815046
 30
0.0
 10
4.04813133078758
 20
9.2117918669581
 30
0.0
 10
4.042005182776127
 20
9.209434768570821
 30
0.0
  0
SPLINE
  5
1AD
330
192
100
AcDbEntity
  8
H1
 62
   250
420
  2301728
370
    13
100
AcDbSpline
210
0.0
220
0.0
230
1.0
 70
     8
 71
     3
 72
    11
 73
     7
 74
     0
 42
0.0000000001
 43
0.0000000001
 12
1.0
 22
0.0
 32
0.0
 13
1.0
 23
0.0
 33
0.0
 40
0.0
 40
0.0
 40
0.0
 40
0.0
 40
1.0
 40
1.0
 40
1.0
 40
2.0
 40
2.0
 40
2.0
 40
2.0
 10
4.02612754984783
 20
9.210618038255221
 30
0.0
 10
4.02612754984783
 20
9.210618038255221
 30
0.0
 10
4.033051985297068
 20
9.208021768335987
 30
0.0
 10
4.033051985297068
 20
9.208021768335987
 30
0.0
 10
4.033051985297068
 20
9.208021768335987
 30
0.0
 10
4.040592182541306
 20
9.206607719103204
 30
0.0
 10
4.044363330161357
 20
9.209906817647038
 30
0.0
  0
SPLINE
  5
1AE
330
192
100
AcDbEntity
  8
H1
 62
   250
420
  2301728
370
    13
100
AcDbSpline
210
0.0
220
0.0
230
1.0
 70
    11
 71
     3
 72
    14
 73
    10
 74
     0
 42
0.0000000001
 43
0.0000000001
 12
1.0
 22
0.0
 32
0.0
 13
1.0
 23
0.0
 33
0.0
 40
0.0
 40
0.0
 40
0.0
 40
0.0
 40
1.0
 40
1.0
 40
1.0
 40
2.0
 40
2.0
 40
2.0
 40
3.0
 40
3.0
 40
3.0
 40
3.0
 10
4.045980884995894
 20
9.215663718381101
 30
0.0
 10
4.045980884995894
 20
9.215663718381101
 30
0.0
 10
4.035787771943281
 20
9.219311084243385
 30
0.0
 10
4.035787771943281
 20
9.219311084243385
 30
0.0
 10
4.035787771943281
 20
9.219311084243385
 30
0.0
 10
4.047373954269725
 20
9.226071876012863
 30
0.0
 10
4.047373954269725
 20
9.226071876012863
 30
0.0
 10
4.047373954269725
 20
9.226071876012863
 30
0.0
 10
4.050272335597747
 20
9.223177859338547
 30
0.0
 10
4.045980884995894
 20
9.215663718381101
 30
0.0
  0
POLYLINE
  5
1AF
330
192
100
AcDbEntity
  8
H1
 62
   250
420
  2301728
370
    13
100
AcDb2dPolyline
 66
     1
 10
0.0
 20
0.0
 30
0.0
  0
VERTEX
  5
1B0
330
1AF
100
AcDbEntity
  8
H1
 62
   250
420
  2301728
370
    13
100
AcDbVertex
100
AcDb2dVertex
 10
3.957230413675928
 20
9.712262674580465
 30
0.0
  0
VERTEX
  5
1B1
330
1AF
100
AcDbEntity
  8
H1
 62
   250
420
  2301728
370
    13
100
AcDbVertex
100
AcDb2dVertex
 10
3.914528854240643
 20
9.68587914619406
 30
0.0
  0
VERTEX
  5
1B2
330
1AF
100
AcDbEntity
  8
H1
 62
   250
420
  2301728
370
    13
100
AcDbVertex
100
AcDb2dVertex
 10
3.914528854240643
 20
9.172463884920905
 30
0.0
  0
SEQEND
  5
1B3
330
1AF
100
AcDbEntity
  8
H1
 62
   250
420
  2301728
370
    13
  0
INSERT
  5
1B5
330
192
100
AcDbEntity
  8
H1
100
AcDbBlockReference
  2
block 5
 10
0.0
 20
0.0
 30
0.0
  0
POLYLINE
  5
1C4
330
192
100
AcDbEntity
  8
H1
 62
   250
420
  2301728
370
     5
100
AcDb2dPolyline
 66
     1
 10
0.0
 20
0.0
 30
0.0
  0
VERTEX
  5
1C5
330
1C4
100
AcDbEntity
  8
H1
 62
   250
420
  2301728
370
     5
100
AcDbVertex
100
AcDb2dVertex
 10
4.125510664360263
 20
9.266315633257932
 30
0.0
  0
VERTEX
  5
1C6
330
1C4
100
AcDbEntity
  8
H1
 62
   250
420
  2301728
370
     5
100
AcDbVertex
100
AcDb2dVertex
 10
4.098323784563566
 20
9.312951983993027
 30
0.0
  0
SEQEND
  5
1C7
330
1C4
100
AcDbEntity
  8
H1
 62
   250
420
  2301728
370
     5
  0
SPLINE
  5
1C8
330
192
100
AcDbEntity
  8
H1
 62
   250
420
  2301728
370
     5
100
AcDbSpline
210
0.0
220
0.0
230
1.0
 70
     8
 71
     3
 72
     8
 73
     4
 74
     0
 42
0.0000000001
 43
0.0000000001
 12
1.0
 22
0.0
 32
0.0
 13
1.0
 23
0.0
 33
0.0
 40
0.0
 40
0.0
 40
0.0
 40
0.0
 40
1.0
 40
1.0
 40
1.0
 40
1.0
 10
4.132640703407156
 20
9.236044699496574
 30
0.0
 10
4.13492542093608
 20
9.240485107806926
 30
0.0
 10
4.136410802029268
 20
9.246882946286682
 30
0.0
 10
4.132619723448203
 20
9.25413047310365
 30
0.0
  0
SPLINE
  5
1C9
330
192
100
AcDbEntity
  8
H1
 62
   250
420
  2301728
370
    13
100
AcDbSpline
210
0.0
220
0.0
230
1.0
 70
     8
 71
     3
 72
    17
 73
    13
 74
     0
 42
0.0000000001
 43
0.0000000001
 12
1.0
 22
0.0
 32
0.0
 13
1.0
 23
0.0
 33
0.0
 40
0.0
 40
0.0
 40
0.0
 40
0.0
 40
1.0
 40
1.0
 40
1.0
 40
2.0
 40
2.0
 40
2.0
 40
3.0
 40
3.0
 40
3.0
 40
4.0
 40
4.0
 40
4.0
 40
4.0
 10
4.089399959027029
 20
9.32328373596546
 30
0.0
 10
4.089399959027029
 20
9.32328373596546
 30
0.0
 10
4.079853028709875
 20
9.328512819541288
 30
0.0
 10
4.070202247595944
 20
9.321188715874188
 30
0.0
 10
4.070202247595944
 20
9.321188715874188
 30
0.0
 10
4.056034481321527
 20
9.313623342679218
 30
0.0
 10
4.065429306936342
 20
9.294871455375679
 30
0.0
 10
4.065429306936342
 20
9.294871455375679
 30
0.0
 10
4.097912577368283
 20
9.23950639272223
 30
0.0
 10
4.097912577368283
 20
9.23950639272223
 30
0.0
 10
4.097912577368283
 20
9.23950639272223
 30
0.0
 10
4.110502650730167
 20
9.220498549919586
 30
0.0
 10
4.127825802829673
 20
9.229559794187189
 30
0.0
  0
INSERT
  5
1CB
330
192
100
AcDbEntity
  8
H1
100
AcDbBlockReference
  2
block 6
 10
0.0
 20
0.0
 30
0.0
  0
SPLINE
  5
1DC
330
192
100
AcDbEntity
  8
H1
 62
   250
420
  2301728
370
    13
100
AcDbSpline
210
0.0
220
0.0
230
1.0
 70
     8
 71
     3
 72
    17
 73
    13
 74
     0
 42
0.0000000001
 43
0.0000000001
 12
1.0
 22
0.0
 32
0.0
 13
1.0
 23
0.0
 33
0.0
 40
0.0
 40
0.0
 40
0.0
 40
0.0
 40
1.0
 40
1.0
 40
1.0
 40
2.0
 40
2.0
 40
2.0
 40
3.0
 40
3.0
 40
3.0
 40
4.0
 40
4.0
 40
4.0
 40
4.0
 10
4.048276092504289
 20
9.6500348863394
 30
0.0
 10
4.048276092504289
 20
9.6500348863394
 30
0.0
 10
4.048276092504289
 20
9.62118744279236
 30
0.0
 10
4.053521082240119
 20
9.613319958188601
 30
0.0
 10
4.053521082240119
 20
9.613319958188601
 30
0.0
 10
4.32101555876741
 20
9.185853294718527
 30
0.0
 10
4.32101555876741
 20
9.185853294718527
 30
0.0
 10
4.32101555876741
 20
9.185853294718527
 30
0.0
 10
4.32101555876741
 20
9.10455595381317
 30
0.0
 10
4.32101555876741
 20
9.10455595381317
 30
0.0
 10
4.32101555876741
 20
9.10455595381317
 30
0.0
 10
3.937254345768047
 20
8.779366590191785
 30
0.0
 10
3.937254345768047
 20
8.779366590191785
 30
0.0
  0
POLYLINE
  5
1DD
330
192
100
AcDbEntity
  8
H1
 62
   250
420
  2301728
370
    13
100
AcDb2dPolyline
 66
     1
 10
0.0
 20
0.0
 30
0.0
  0
VERTEX
  5
1DE
330
1DD
100
AcDbEntity
  8
H1
 62
   250
420
  2301728
370
    13
100
AcDbVertex
100
AcDb2dVertex
 10
4.32101555876741
 20
9.185853294718527
 30
0.0
  0
VERTEX
  5
1DF
330
1DD
100
AcDbEntity
  8
H1
 62
   250
420
  2301728
370
    13
100
AcDbVertex
100
AcDb2dVertex
 10
4.334128033106986
 20
9.1963432741902
 30
0.0
  0
SEQEND
  5
1E0
330
1DD
100
AcDbEntity
  8
H1
 62
   250
420
  2301728
370
    13
  0
POLYLINE
  5
1E1
330
192
100
AcDbEntity
  8
H1
 62
   250
420
  2301728
370
    13
100
AcDb2dPolyline
 66
     1
 10
0.0
 20
0.0
 30
0.0
  0
VERTEX
  5
1E2
330
1E1
100
AcDbEntity
  8
H1
 62
   250
420
  2301728
370
    13
100
AcDbVertex
100
AcDb2dVertex
 10
4.32101555876741
 20
9.099136830418121
 30
0.0
  0
VERTEX
  5
1E3
330
1E1
100
AcDbEntity
  8
H1
 62
   250
420
  2301728
370
    13
100
AcDbVertex
100
AcDb2dVertex
 10
4.334128033106986
 20
9.109626809889782
 30
0.0
  0
SEQEND
  5
1E4
330
1E1
100
AcDbEntity
  8
H1
 62
   250
420
  2301728
370
    13
  0
POLYLINE
  5
1E5
330
192
100
AcDbEntity
  8
H1
 62
   250
420
  2301728
370
    13
100
AcDb2dPolyline
 66
     1
 10
0.0
 20
0.0
 30
0.0
  0
VERTEX
  5
1E6
330
1E5
100
AcDbEntity
  8
H1
 62
   250
420
  2301728
370
    13
100
AcDbVertex
100
AcDb2dVertex
 10
3.897676702219428
 20
9.691584646028698
 30
0.0
  0
VERTEX
  5
1E7
330
1E5
100
AcDbEntity
  8
H1
 62
   250
420
  2301728
370
    13
100
AcDbVertex
100
AcDb2dVertex
 10
3.914528854240643
 20
9.68587914619406
 30
0.0
  0
SEQEND
  5
1E8
330
1E5
100
AcDbEntity
  8
H1
 62
   250
420
  2301728
370
    13
  0
INSERT
  5
1EA
330
192
100
AcDbEntity
  8
H1
100
AcDbBlockReference
  2
block 7
 10
0.0
 20
0.0
 30
0.0
  0
INSERT
  5
1EF
330
192
100
AcDbEntity
  8
H1
100
AcDbBlockReference
  2
block 8
 10
0.0
 20
0.0
 30
0.0
  0
INSERT
  5
1F4
330
192
100
AcDbEntity
  8
H1
100
AcDbBlockReference
  2
block 9
 10
0.0
 20
0.0
 30
0.0
  0
INSERT
  5
1F9
330
192
100
AcDbEntity
  8
H1
100
AcDbBlockReference
  2
block 10
 10
0.0
 20
0.0
 30
0.0
  0
INSERT
  5
200
330
192
100
AcDbEntity
  8
H1
100
AcDbBlockReference
  2
block 11
 10
0.0
 20
0.0
 30
0.0
  0
INSERT
  5
20B
330
192
100
AcDbEntity
  8
H1
100
AcDbBlockReference
  2
block 13
 10
0.0
 20
0.0
 30
0.0
  0
INSERT
  5
216
330
192
100
AcDbEntity
  8
H1
100
AcDbBlockReference
  2
block 15
 10
0.0
 20
0.0
 30
0.0
  0
ENDBLK
  5
195
330
192
100
AcDbEntity
  8
0
100
AcDbBlockEnd
  0
BLOCK
  5
1B6
330
1B4
100
AcDbEntity
  8
0
100
AcDbBlockBegin
  2
block 5
 70
     0
 10
0.0
 20
0.0
 30
0.0
  3
block 5
  1

  0
POLYLINE
  5
1B8
330
1B4
100
AcDbEntity
  8
H1
 62
   250
420
  2301728
370
     5
100
AcDb2dPolyline
 66
     1
 10
0.0
 20
0.0
 30
0.0
  0
VERTEX
  5
1B9
330
1B8
100
AcDbEntity
  8
H1
 62
   250
420
  2301728
370
     5
100
AcDbVertex
100
AcDb2dVertex
 10
4.035163618164713
 20
9.283208696199102
 30
0.0
  0
VERTEX
  5
1BA
330
1B8
100
AcDbEntity
  8
H1
 62
   250
420
  2301728
370
     5
100
AcDbVertex
100
AcDb2dVertex
 10
4.035163618164713
 20
9.2470413449767
 30
0.0
  0
SEQEND
  5
1BB
330
1B8
100
AcDbEntity
  8
H1
 62
   250
420
  2301728
370
     5
  0
POLYLINE
  5
1BC
330
1B4
100
AcDbEntity
  8
H1
 62
   250
420
  2301728
370
     5
100
AcDb2dPolyline
 66
     1
 10
0.0
 20
0.0
 30
0.0
  0
VERTEX
  5
1BD
330
1BC
100
AcDbEntity
  8
H1
 62
   250
420
  2301728
370
     5
100
AcDbVertex
100
AcDb2dVertex
 10
4.035163618164713
 20
9.595096765850446
 30
0.0
  0
VERTEX
  5
1BE
330
1BC
100
AcDbEntity
  8
H1
 62
   250
420
  2301728
370
     5
100
AcDbVertex
100
AcDb2dVertex
 10
4.035163618164713
 20
9.308354225990607
 30
0.0
  0
SEQEND
  5
1BF
330
1BC
100
AcDbEntity
  8
H1
 62
   250
420
  2301728
370
     5
  0
POLYLINE
  5
1C0
330
1B4
100
AcDbEntity
  8
H1
 62
   250
420
  2301728
370
     5
100
AcDb2dPolyline
 66
     1
 10
0.0
 20
0.0
 30
0.0
  0
VERTEX
  5
1C1
330
1C0
100
AcDbEntity
  8
H1
 62
   250
420
  2301728
370
     5
100
AcDbVertex
100
AcDb2dVertex
 10
4.035163618164713
 20
9.642167401735655
 30
0.0
  0
VERTEX
  5
1C2
330
1C0
100
AcDbEntity
  8
H1
 62
   250
420
  2301728
370
     5
100
AcDbVertex
100
AcDb2dVertex
 10
4.035163618164713
 20
9.609769100137441
 30
0.0
  0
SEQEND
  5
1C3
330
1C0
100
AcDbEntity
  8
H1
 62
   250
420
  2301728
370
     5
  0
ENDBLK
  5
1B7
330
1B4
100
AcDbEntity
  8
0
100
AcDbBlockEnd
  0
BLOCK
  5
1CC
330
1CA
100
AcDbEntity
  8
0
100
AcDbBlockBegin
  2
block 6
 70
     0
 10
0.0
 20
0.0
 30
0.0
  3
block 6
  1

  0
POLYLINE
  5
1CE
330
1CA
100
AcDbEntity
  8
H1
 62
   250
420
  2301728
370
     5
100
AcDb2dPolyline
 66
     1
 10
0.0
 20
0.0
 30
0.0
  0
VERTEX
  5
1CF
330
1CE
100
AcDbEntity
  8
H1
 62
   250
420
  2301728
370
     5
100
AcDbVertex
100
AcDb2dVertex
 10
4.131339945952669
 20
9.400949274786928
 30
0.0
  0
VERTEX
  5
1D0
330
1CE
100
AcDbEntity
  8
H1
 62
   250
420
  2301728
370
     5
100
AcDbVertex
100
AcDb2dVertex
 10
4.090229716403238
 20
9.469077495463567
 30
0.0
  0
SEQEND
  5
1D1
330
1CE
100
AcDbEntity
  8
H1
 62
   250
420
  2301728
370
     5
  0
POLYLINE
  5
1D2
330
1CA
100
AcDbEntity
  8
H1
 62
   250
420
  2301728
370
     5
100
AcDb2dPolyline
 66
     1
 10
0.0
 20
0.0
 30
0.0
  0
VERTEX
  5
1D3
330
1D2
100
AcDbEntity
  8
H1
 62
   250
420
  2301728
370
     5
100
AcDbVertex
100
AcDb2dVertex
 10
4.181889059030697
 20
9.323022364285823
 30
0.0
  0
VERTEX
  5
1D4
330
1D2
100
AcDbEntity
  8
H1
 62
   250
420
  2301728
370
     5
100
AcDbVertex
100
AcDb2dVertex
 10
4.137178668526606
 20
9.39164256499968
 30
0.0
  0
SEQEND
  5
1D5
330
1D2
100
AcDbEntity
  8
H1
 62
   250
420
  2301728
370
     5
  0
POLYLINE
  5
1D6
330
1CA
100
AcDbEntity
  8
H1
 62
   250
420
  2301728
370
     5
100
AcDb2dPolyline
 66
     1
 10
0.0
 20
0.0
 30
0.0
  0
VERTEX
  5
1D7
330
1D6
100
AcDbEntity
  8
H1
 62
   250
420
  2301728
370
     5
100
AcDbVertex
100
AcDb2dVertex
 10
4.237197475795016
 20
9.234881360773164
 30
0.0
  0
VERTEX
  5
1D8
330
1D6
100
AcDbEntity
  8
H1
 62
   250
420
  2301728
370
     5
100
AcDbVertex
100
AcDb2dVertex
 10
4.190657713095574
 20
9.309059323442574
 30
0.0
  0
SEQEND
  5
1D9
330
1D6
100
AcDbEntity
  8
H1
 62
   250
420
  2301728
370
     5
  0
SPLINE
  5
1DA
330
1CA
100
AcDbEntity
  8
H1
 62
   250
420
  2301728
370
     5
100
AcDbSpline
210
0.0
220
0.0
230
1.0
 70
     8
 71
     3
 72
     8
 73
     4
 74
     0
 42
0.0000000001
 43
0.0000000001
 12
1.0
 22
0.0
 32
0.0
 13
1.0
 23
0.0
 33
0.0
 40
0.0
 40
0.0
 40
0.0
 40
0.0
 40
1.0
 40
1.0
 40
1.0
 40
1.0
 10
4.243784133905264
 20
9.204482449262247
 30
0.0
 10
4.246150673274075
 20
9.208881946652657
 30
0.0
 10
4.247748297147609
 20
9.215248315194003
 30
0.0
 10
4.244082049322262
 20
9.222568222869338
 30
0.0
  0
SPLINE
  5
1DB
330
1CA
100
AcDbEntity
  8
H1
 62
   250
420
  2301728
370
    13
100
AcDbSpline
210
0.0
220
0.0
230
1.0
 70
     8
 71
     3
 72
    17
 73
    13
 74
     0
 42
0.0000000001
 43
0.0000000001
 12
1.0
 22
0.0
 32
0.0
 13
1.0
 23
0.0
 33
0.0
 40
0.0
 40
0.0
 40
0.0
 40
0.0
 40
1.0
 40
1.0
 40
1.0
 40
2.0
 40
2.0
 40
2.0
 40
3.0
 40
3.0
 40
3.0
 40
4.0
 40
4.0
 40
4.0
 40
4.0
 10
4.081491563503353
 20
9.479567474935227
 30
0.0
 10
4.081491563503353
 20
9.479567474935227
 30
0.0
 10
4.072046385987075
 20
9.484966667369285
 30
0.0
 10
4.062263431131795
 20
9.477820893353194
 30
0.0
 10
4.062263431131795
 20
9.477820893353194
 30
0.0
 10
4.047962518737828
 20
9.47051672064707
 30
0.0
 10
4.057018441395977
 20
9.451595944674041
 30
0.0
 10
4.057018441395977
 20
9.451595944674041
 30
0.0
 10
4.209129437722696
 20
9.208579835243894
 30
0.0
 10
4.209129437722696
 20
9.208579835243894
 30
0.0
 10
4.209129437722696
 20
9.208579835243894
 30
0.0
 10
4.221360753786649
 20
9.189346457882595
 30
0.0
 10
4.238847549565902
 20
9.19808985577222
 30
0.0
  0
ENDBLK
  5
1CD
330
1CA
100
AcDbEntity
  8
0
100
AcDbBlockEnd
  0
BLOCK
  5
1EB
330
1E9
100
AcDbEntity
  8
0
100
AcDbBlockBegin
  2
block 7
 70
     0
 10
0.0
 20
0.0
 30
0.0
  3
block 7
  1

  0
SPLINE
  5
1ED
330
1E9
100
AcDbEntity
  8
H1
 62
   250
420
  2301728
370
    13
100
AcDbSpline
210
0.0
220
0.0
230
1.0
 70
    11
 71
     3
 72
    17
 73
    13
 74
     0
 42
0.0000000001
 43
0.0000000001
 12
1.0
 22
0.0
 32
0.0
 13
1.0
 23
0.0
 33
0.0
 40
0.0
 40
0.0
 40
0.0
 40
0.0
 40
1.0
 40
1.0
 40
1.0
 40
2.0
 40
2.0
 40
2.0
 40
3.0
 40
3.0
 40
3.0
 40
4.0
 40
4.0
 40
4.0
 40
4.0
 10
3.951002512863599
 20
9.586347073973128
 30
0.0
 10
3.949860228240608
 20
9.578694633948556
 30
0.0
 10
3.953051205854409
 20
9.571800619439777
 30
0.0
 10
3.958122061931009
 20
9.570944637114886
 30
0.0
 10
3.963197113999399
 20
9.5700949487777
 30
0.0
 10
3.968237549135539
 20
9.575606383992104
 30
0.0
 10
3.969385152889736
 20
9.583243089047476
 30
0.0
 10
3.970522266664463
 20
9.590895529072036
 30
0.0
 10
3.967331214909184
 20
9.597789543580815
 30
0.0
 10
3.962255113842843
 20
9.598645704052716
 30
0.0
 10
3.957179012776515
 20
9.599495392411388
 30
0.0
 10
3.952135430646548
 20
9.59397958303671
 30
0.0
 10
3.951002512863599
 20
9.586347073973128
 30
0.0
  0
ENDBLK
  5
1EC
330
1E9
100
AcDbEntity
  8
0
100
AcDbBlockEnd
  0
BLOCK
  5
1F0
330
1EE
100
AcDbEntity
  8
0
100
AcDbBlockBegin
  2
block 8
 70
     0
 10
0.0
 20
0.0
 30
0.0
  3
block 8
  1

  0
SPLINE
  5
1F2
330
1EE
100
AcDbEntity
  8
H1
 62
   250
420
  2301728
370
    13
100
AcDbSpline
210
0.0
220
0.0
230
1.0
 70
    11
 71
     3
 72
    17
 73
    13
 74
     0
 42
0.0000000001
 43
0.0000000001
 12
1.0
 22
0.0
 32
0.0
 13
1.0
 23
0.0
 33
0.0
 40
0.0
 40
0.0
 40
0.0
 40
0.0
 40
1.0
 40
1.0
 40
1.0
 40
2.0
 40
2.0
 40
2.0
 40
3.0
 40
3.0
 40
3.0
 40
4.0
 40
4.0
 40
4.0
 40
4.0
 10
3.951002512863599
 20
9.448911733291665
 30
0.0
 10
3.949860228240608
 20
9.441260167900623
 30
0.0
 10
3.953051205854409
 20
9.434365104393892
 30
0.0
 10
3.958122061931009
 20
9.433510171066953
 30
0.0
 10
3.963197113999399
 20
9.432659433731816
 30
0.0
 10
3.968237549135539
 20
9.43817086894622
 30
0.0
 10
3.969385152889736
 20
9.44580862299953
 30
0.0
 10
3.970522266664463
 20
9.453460014026165
 30
0.0
 10
3.967331214909184
 20
9.460355077532894
 30
0.0
 10
3.962255113842843
 20
9.461210010859821
 30
0.0
 10
3.957179012776515
 20
9.462060748194972
 30
0.0
 10
3.952135430646548
 20
9.456544067990837
 30
0.0
 10
3.951002512863599
 20
9.448911733291665
 30
0.0
  0
ENDBLK
  5
1F1
330
1EE
100
AcDbEntity
  8
0
100
AcDbBlockEnd
  0
BLOCK
  5
1F5
330
1F3
100
AcDbEntity
  8
0
100
AcDbBlockBegin
  2
block 9
 70
     0
 10
0.0
 20
0.0
 30
0.0
  3
block 9
  1

  0
SPLINE
  5
1F7
330
1F3
100
AcDbEntity
  8
H1
 62
   250
420
  2301728
370
    13
100
AcDbSpline
210
0.0
220
0.0
230
1.0
 70
    11
 71
     3
 72
    17
 73
    13
 74
     0
 42
0.0000000001
 43
0.0000000001
 12
1.0
 22
0.0
 32
0.0
 13
1.0
 23
0.0
 33
0.0
 40
0.0
 40
0.0
 40
0.0
 40
0.0
 40
1.0
 40
1.0
 40
1.0
 40
2.0
 40
2.0
 40
2.0
 40
3.0
 40
3.0
 40
3.0
 40
4.0
 40
4.0
 40
4.0
 40
4.0
 10
3.951002512863599
 20
9.309919501780957
 30
0.0
 10
3.949860228240608
 20
9.302267939901158
 30
0.0
 10
3.953051205854409
 20
9.29537287639443
 30
0.0
 10
3.958122061931009
 20
9.29451794306749
 30
0.0
 10
3.963197113999399
 20
9.293667205732351
 30
0.0
 10
3.968237549135539
 20
9.299178640946744
 30
0.0
 10
3.969385152889736
 20
9.306816395000055
 30
0.0
 10
3.970522266664463
 20
9.3144677860267
 30
0.0
 10
3.967331214909184
 20
9.321362849533404
 30
0.0
 10
3.962255113842843
 20
9.322217782860346
 30
0.0
 10
3.957179012776515
 20
9.323068520195495
 30
0.0
 10
3.952135430646548
 20
9.31755183999135
 30
0.0
 10
3.951002512863599
 20
9.309919501780957
 30
0.0
  0
ENDBLK
  5
1F6
330
1F3
100
AcDbEntity
  8
0
100
AcDbBlockEnd
  0
BLOCK
  5
1FA
330
1F8
100
AcDbEntity
  8
0
100
AcDbBlockBegin
  2
block 10
 70
     0
 10
0.0
 20
0.0
 30
0.0
  3
block 10
  1

  0
SPLINE
  5
1FC
330
1F8
100
AcDbEntity
  8
H1
 62
   250
420
  2301728
370
     5
100
AcDbSpline
210
0.0
220
0.0
230
1.0
 70
    11
 71
     3
 72
    17
 73
    13
 74
     0
 42
0.0000000001
 43
0.0000000001
 12
1.0
 22
0.0
 32
0.0
 13
1.0
 23
0.0
 33
0.0
 40
0.0
 40
0.0
 40
0.0
 40
0.0
 40
1.0
 40
1.0
 40
1.0
 40
2.0
 40
2.0
 40
2.0
 40
3.0
 40
3.0
 40
3.0
 40
4.0
 40
4.0
 40
4.0
 40
4.0
 10
4.216585715131158
 20
9.083325449489418
 30
0.0
 10
4.222507308542895
 20
9.071564968374824
 30
0.0
 10
4.219863833716039
 20
9.058288850355476
 30
0.0
 10
4.210674611698866
 20
9.053678504377684
 30
0.0
 10
4.201506369640659
 20
9.049068158399892
 30
0.0
 10
4.189275053576681
 20
9.054846039092883
 30
0.0
 10
4.183374440123885
 20
9.066565444158629
 30
0.0
 10
4.177443405730602
 20
9.07832576014429
 30
0.0
 10
4.180096321538991
 20
9.091596633173884
 30
0.0
 10
4.189275053576681
 20
9.096217634585779
 30
0.0
 10
4.198443295634913
 20
9.100817325129482
 30
0.0
 10
4.210665170717347
 20
9.09504993441596
 30
0.0
 10
4.216585715131158
 20
9.083325449489418
 30
0.0
  0
SPLINE
  5
1FD
330
1F8
100
AcDbEntity
  8
H1
 62
   250
420
  2301728
370
    13
100
AcDbSpline
210
0.0
220
0.0
230
1.0
 70
     8
 71
     3
 72
    11
 73
     7
 74
     0
 42
0.0000000001
 43
0.0000000001
 12
1.0
 22
0.0
 32
0.0
 13
1.0
 23
0.0
 33
0.0
 40
0.0
 40
0.0
 40
0.0
 40
0.0
 40
1.0
 40
1.0
 40
1.0
 40
2.0
 40
2.0
 40
2.0
 40
2.0
 10
4.22628684814654
 20
9.066811958676213
 30
0.0
 10
4.228386942036764
 20
9.072712572129008
 30
0.0
 10
4.227896010997496
 20
9.080231789414293
 30
0.0
 10
4.224371377895017
 20
9.087218115742417
 30
0.0
 10
4.221441526628584
 20
9.09302117238614
 30
0.0
 10
4.216954962408547
 20
9.097374513866876
 30
0.0
 10
4.212088741697572
 20
9.09971079783808
 30
0.0
  0
SPLINE
  5
1FE
330
1F8
100
AcDbEntity
  8
H1
 62
   250
420
  2301728
370
    13
100
AcDbSpline
210
0.0
220
0.0
230
1.0
 70
     8
 71
     3
 72
    23
 73
    19
 74
     0
 42
0.0000000001
 43
0.0000000001
 12
1.0
 22
0.0
 32
0.0
 13
1.0
 23
0.0
 33
0.0
 40
0.0
 40
0.0
 40
0.0
 40
0.0
 40
1.0
 40
1.0
 40
1.0
 40
2.0
 40
2.0
 40
2.0
 40
3.0
 40
3.0
 40
3.0
 40
4.0
 40
4.0
 40
4.0
 40
5.0
 40
5.0
 40
5.0
 40
6.0
 40
6.0
 40
6.0
 40
6.0
 10
4.219311011797887
 20
9.094342909799566
 30
0.0
 10
4.212898487346857
 20
9.101032535284906
 30
0.0
 10
4.204087953588618
 20
9.103644540239328
 30
0.0
 10
4.197060716340553
 20
9.100110300513101
 30
0.0
 10
4.195719047966122
 20
9.099433696837169
 30
0.0
 10
4.190627211930582
 20
9.096893023809129
 30
0.0
 10
4.189275053576681
 20
9.096217634585779
 30
0.0
 10
4.180096321538991
 20
9.091596633173884
 30
0.0
 10
4.177443405730602
 20
9.07832576014429
 30
0.0
 10
4.183374440123885
 20
9.066565444158629
 30
0.0
 10
4.189275053576681
 20
9.054846039092883
 30
0.0
 10
4.201506369640659
 20
9.049068158399892
 30
0.0
 10
4.210674611698866
 20
9.053678504377684
 30
0.0
 10
4.212017329071247
 20
9.054355108053615
 30
0.0
 10
4.217118606088308
 20
9.056894732083693
 30
0.0
 10
4.218470764442208
 20
9.057571335759613
 30
0.0
 10
4.225764447168848
 20
9.061238632582912
 30
0.0
 10
4.228838011154052
 20
9.070376453700671
 30
0.0
 10
4.226871140003115
 20
9.079862542136892
 30
0.0
  0
ENDBLK
  5
1FB
330
1F8
100
AcDbEntity
  8
0
100
AcDbBlockEnd
  0
BLOCK
  5
201
330
1FF
100
AcDbEntity
  8
0
100
AcDbBlockBegin
  2
block 11
 70
     0
 10
0.0
 20
0.0
 30
0.0
  3
block 11
  1

  0
INSERT
  5
204
330
1FF
100
AcDbEntity
  8
H1
100
AcDbBlockReference
  2
block 12
 10
0.0
 20
0.0
 30
0.0
  0
ENDBLK
  5
202
330
1FF
100
AcDbEntity
  8
0
100
AcDbBlockEnd
  0
BLOCK
  5
205
330
203
100
AcDbEntity
  8
0
100
AcDbBlockBegin
  2
block 12
 70
     0
 10
0.0
 20
0.0
 30
0.0
  3
block 12
  1

  0
SPLINE
  5
207
330
203
100
AcDbEntity
  8
H1
 62
   250
420
  2301728
370
    13
100
AcDbSpline
210
0.0
220
0.0
230
1.0
 70
    11
 71
     3
 72
    35
 73
    31
 74
     0
 42
0.0000000001
 43
0.0000000001
 12
1.0
 22
0.0
 32
0.0
 13
1.0
 23
0.0
 33
0.0
 40
0.0
 40
0.0
 40
0.0
 40
0.0
 40
1.0
 40
1.0
 40
1.0
 40
2.0
 40
2.0
 40
2.0
 40
3.0
 40
3.0
 40
3.0
 40
4.0
 40
4.0
 40
4.0
 40
5.0
 40
5.0
 40
5.0
 40
6.0
 40
6.0
 40
6.0
 40
7.0
 40
7.0
 40
7.0
 40
8.0
 40
8.0
 40
8.0
 40
9.0
 40
9.0
 40
9.0
 40
10.0
 40
10.0
 40
10.0
 40
10.0
 10
3.945040008531906
 20
9.58179022689065
 30
0.0
 10
3.944946647714624
 20
9.58420502016501
 30
0.0
 10
3.945116585382051
 20
9.58673520321358
 30
0.0
 10
3.945579193476747
 20
9.589310493173873
 30
0.0
 10
3.946095300466759
 20
9.592146983622998
 30
0.0
 10
3.94692610684092
 20
9.594801997427288
 30
0.0
 10
3.948002378734714
 20
9.597198957736559
 30
0.0
 10
3.948002378734714
 20
9.597198957736559
 30
0.0
 10
3.948060073621794
 20
9.597173781785829
 30
0.0
 10
3.948060073621794
 20
9.597173781785829
 30
0.0
 10
3.951850103204922
 20
9.605612970270776
 30
0.0
 10
3.9586444629087
 20
9.610879988963486
 30
0.0
 10
3.965324481836256
 20
9.609569790527479
 30
0.0
 10
3.967145542272533
 20
9.609215229221338
 30
0.0
 10
3.971536647679373
 20
9.607255701056033
 30
0.0
 10
3.972216398349145
 20
9.607153077619172
 30
0.0
 10
3.980856994439945
 20
9.60569793910449
 30
0.0
 10
3.986275068837055
 20
9.59403098393611
 30
0.0
 10
3.984355402593741
 20
9.581069565300924
 30
0.0
 10
3.982386433446903
 20
9.56812597963085
 30
0.0
 10
3.973831855187768
 20
9.558783781053421
 30
0.0
 10
3.965192308094907
 20
9.560224927092804
 30
0.0
 10
3.963218093958353
 20
9.560542773470791
 30
0.0
 10
3.957916532678357
 20
9.562678533291217
 30
0.0
 10
3.956916763289718
 20
9.5628736469094
 30
0.0
 10
3.950057365713203
 20
9.564233148248919
 30
0.0
 10
3.945500518630713
 20
9.572095565339243
 30
0.0
 10
3.945129247379365
 20
9.581794422882428
 30
0.0
 10
3.945129247379365
 20
9.581794422882428
 30
0.0
 10
3.945040008531906
 20
9.58179022689065
 30
0.0
 10
3.945040008531906
 20
9.58179022689065
 30
0.0
  0
HATCH
  5
208
330
203
100
AcDbEntity
  8
H1
 62
   254
420
 13358815
100
AcDbHatch
 10
0.0
 20
0.0
 30
0.0
210
0.0
220
0.0
230
1.0
  2
SOLID
 70
     1
 71
     0
 91
        1
 92
        1
 93
        1
 72
     4
 94
        3
 73
     0
 74
     1
 95
       35
 96
       31
 40
0.0
 40
0.0
 40
0.0
 40
0.0
 40
1.0
 40
1.0
 40
1.0
 40
2.0
 40
2.0
 40
2.0
 40
3.0
 40
3.0
 40
3.0
 40
4.0
 40
4.0
 40
4.0
 40
5.0
 40
5.0
 40
5.0
 40
6.0
 40
6.0
 40
6.0
 40
7.0
 40
7.0
 40
7.0
 40
8.0
 40
8.0
 40
8.0
 40
9.0
 40
9.0
 40
9.0
 40
10.0
 40
10.0
 40
10.0
 40
10.0
 10
3.945040008531906
 20
9.58179022689065
 10
3.944946647714624
 20
9.58420502016501
 10
3.945116585382051
 20
9.58673520321358
 10
3.945579193476747
 20
9.589310493173873
 10
3.946095300466759
 20
9.592146983622998
 10
3.94692610684092
 20
9.594801997427288
 10
3.948002378734714
 20
9.597198957736559
 10
3.948002378734714
 20
9.597198957736559
 10
3.948060073621794
 20
9.597173781785829
 10
3.948060073621794
 20
9.597173781785829
 10
3.951850103204922
 20
9.605612970270776
 10
3.9586444629087
 20
9.610879988963486
 10
3.965324481836256
 20
9.609569790527479
 10
3.967145542272533
 20
9.609215229221338
 10
3.971536647679373
 20
9.607255701056033
 10
3.972216398349145
 20
9.607153077619172
 10
3.980856994439945
 20
9.60569793910449
 10
3.986275068837055
 20
9.59403098393611
 10
3.984355402593741
 20
9.581069565300924
 10
3.982386433446903
 20
9.56812597963085
 10
3.973831855187768
 20
9.558783781053421
 10
3.965192308094907
 20
9.560224927092804
 10
3.963218093958353
 20
9.560542773470791
 10
3.957916532678357
 20
9.562678533291217
 10
3.956916763289718
 20
9.5628736469094
 10
3.950057365713203
 20
9.564233148248919
 10
3.945500518630713
 20
9.572095565339243
 10
3.945129247379365
 20
9.581794422882428
 10
3.945129247379365
 20
9.581794422882428
 10
3.945040008531906
 20
9.58179022689065
 10
3.945040008531906
 20
9.58179022689065
 97
        0
 97
        0
 75
     2
 76
     1
 98
        0
  0
SPLINE
  5
209
330
203
100
AcDbEntity
  8
H1
 62
   250
420
  2301728
370
     5
100
AcDbSpline
210
0.0
220
0.0
230
1.0
 70
    11
 71
     3
 72
    17
 73
    13
 74
     0
 42
0.0000000001
 43
0.0000000001
 12
1.0
 22
0.0
 32
0.0
 13
1.0
 23
0.0
 33
0.0
 40
0.0
 40
0.0
 40
0.0
 40
0.0
 40
1.0
 40
1.0
 40
1.0
 40
2.0
 40
2.0
 40
2.0
 40
3.0
 40
3.0
 40
3.0
 40
4.0
 40
4.0
 40
4.0
 40
4.0
 10
3.953255760454113
 20
9.58734362202295
 30
0.0
 10
3.95016960849355
 20
9.5746014439587
 30
0.0
 10
3.954529243961967
 20
9.562498105644307
 30
0.0
 10
3.962994657395598
 20
9.560292062961416
 30
0.0
 10
3.971467413814859
 20
9.558100706249787
 30
0.0
 10
3.980823426505645
 20
9.566652137515081
 30
0.0
 10
3.983932656421024
 20
9.579357600651166
 30
0.0
 10
3.987018808381587
 20
9.59210502370513
 30
0.0
 10
3.98265917291317
 20
9.604211509013364
 30
0.0
 10
3.97418536749597
 20
9.606417551696255
 30
0.0
 10
3.965701072099288
 20
9.608599467426352
 30
0.0
 10
3.956327226443414
 20
9.600036497183636
 30
0.0
 10
3.953255760454113
 20
9.58734362202295
 30
0.0
  0
ENDBLK
  5
206
330
203
100
AcDbEntity
  8
0
100
AcDbBlockEnd
  0
BLOCK
  5
20C
330
20A
100
AcDbEntity
  8
0
100
AcDbBlockBegin
  2
block 13
 70
     0
 10
0.0
 20
0.0
 30
0.0
  3
block 13
  1

  0
INSERT
  5
20F
330
20A
100
AcDbEntity
  8
H1
100
AcDbBlockReference
  2
block 14
 10
0.0
 20
0.0
 30
0.0
  0
ENDBLK
  5
20D
330
20A
100
AcDbEntity
  8
0
100
AcDbBlockEnd
  0
BLOCK
  5
210
330
20E
100
AcDbEntity
  8
0
100
AcDbBlockBegin
  2
block 14
 70
     0
 10
0.0
 20
0.0
 30
0.0
  3
block 14
  1

  0
SPLINE
  5
212
330
20E
100
AcDbEntity
  8
H1
 62
   250
420
  2301728
370
    13
100
AcDbSpline
210
0.0
220
0.0
230
1.0
 70
    11
 71
     3
 72
    35
 73
    31
 74
     0
 42
0.0000000001
 43
0.0000000001
 12
1.0
 22
0.0
 32
0.0
 13
1.0
 23
0.0
 33
0.0
 40
0.0
 40
0.0
 40
0.0
 40
0.0
 40
1.0
 40
1.0
 40
1.0
 40
2.0
 40
2.0
 40
2.0
 40
3.0
 40
3.0
 40
3.0
 40
4.0
 40
4.0
 40
4.0
 40
5.0
 40
5.0
 40
5.0
 40
6.0
 40
6.0
 40
6.0
 40
7.0
 40
7.0
 40
7.0
 40
8.0
 40
8.0
 40
8.0
 40
9.0
 40
9.0
 40
9.0
 40
10.0
 40
10.0
 40
10.0
 40
10.0
 10
3.945040008531906
 20
9.444290722969981
 30
0.0
 10
3.944946647714624
 20
9.446705516244366
 30
0.0
 10
3.945116585382051
 20
9.449235699292949
 30
0.0
 10
3.945579193476747
 20
9.451810989253216
 30
0.0
 10
3.946095300466759
 20
9.454647479702366
 30
0.0
 10
3.94692610684092
 20
9.457303717081004
 30
0.0
 10
3.948002378734714
 20
9.459699453815903
 30
0.0
 10
3.948002378734714
 20
9.459699453815903
 30
0.0
 10
3.948060073621794
 20
9.45967445250148
 30
0.0
 10
3.948060073621794
 20
9.45967445250148
 30
0.0
 10
3.951850103204922
 20
9.46811451534807
 30
0.0
 10
3.9586444629087
 20
9.473380485042854
 30
0.0
 10
3.965324481836256
 20
9.472070286606822
 30
0.0
 10
3.967145542272533
 20
9.471715725300681
 30
0.0
 10
3.971536647679373
 20
9.469756197135387
 30
0.0
 10
3.972216398349145
 20
9.46965444433451
 30
0.0
 10
3.980856994439945
 20
9.468198435183846
 30
0.0
 10
3.986275068837055
 20
9.456532529013403
 30
0.0
 10
3.984355402593741
 20
9.443570061380278
 30
0.0
 10
3.982386433446903
 20
9.430626475710204
 30
0.0
 10
3.973831855187768
 20
9.421284099992741
 30
0.0
 10
3.965192308094907
 20
9.422725423172146
 30
0.0
 10
3.963218093958353
 20
9.42304344326107
 30
0.0
 10
3.957916532678357
 20
9.425179029370572
 30
0.0
 10
3.956916763289718
 20
9.425374142988769
 30
0.0
 10
3.950057365713203
 20
9.426733644328275
 30
0.0
 10
3.945500518630713
 20
9.43459588394228
 30
0.0
 10
3.945129247379365
 20
9.444294918961784
 30
0.0
 10
3.945129247379365
 20
9.444294918961784
 30
0.0
 10
3.945040008531906
 20
9.444290722969981
 30
0.0
 10
3.945040008531906
 20
9.444290722969981
 30
0.0
  0
HATCH
  5
213
330
20E
100
AcDbEntity
  8
H1
 62
   254
420
 13358815
100
AcDbHatch
 10
0.0
 20
0.0
 30
0.0
210
0.0
220
0.0
230
1.0
  2
SOLID
 70
     1
 71
     0
 91
        1
 92
        1
 93
        1
 72
     4
 94
        3
 73
     0
 74
     1
 95
       35
 96
       31
 40
0.0
 40
0.0
 40
0.0
 40
0.0
 40
1.0
 40
1.0
 40
1.0
 40
2.0
 40
2.0
 40
2.0
 40
3.0
 40
3.0
 40
3.0
 40
4.0
 40
4.0
 40
4.0
 40
5.0
 40
5.0
 40
5.0
 40
6.0
 40
6.0
 40
6.0
 40
7.0
 40
7.0
 40
7.0
 40
8.0
 40
8.0
 40
8.0
 40
9.0
 40
9.0
 40
9.0
 40
10.0
 40
10.0
 40
10.0
 40
10.0
 10
3.945040008531906
 20
9.444290722969981
 10
3.944946647714624
 20
9.446705516244366
 10
3.945116585382051
 20
9.449235699292949
 10
3.945579193476747
 20
9.451810989253216
 10
3.946095300466759
 20
9.454647479702366
 10
3.94692610684092
 20
9.457303717081004
 10
3.948002378734714
 20
9.459699453815903
 10
3.948002378734714
 20
9.459699453815903
 10
3.948060073621794
 20
9.45967445250148
 10
3.948060073621794
 20
9.45967445250148
 10
3.951850103204922
 20
9.46811451534807
 10
3.9586444629087
 20
9.473380485042854
 10
3.965324481836256
 20
9.472070286606822
 10
3.967145542272533
 20
9.471715725300681
 10
3.971536647679373
 20
9.469756197135387
 10
3.972216398349145
 20
9.46965444433451
 10
3.980856994439945
 20
9.468198435183846
 10
3.986275068837055
 20
9.456532529013403
 10
3.984355402593741
 20
9.443570061380278
 10
3.982386433446903
 20
9.430626475710204
 10
3.973831855187768
 20
9.421284099992741
 10
3.965192308094907
 20
9.422725423172146
 10
3.963218093958353
 20
9.42304344326107
 10
3.957916532678357
 20
9.425179029370572
 10
3.956916763289718
 20
9.425374142988769
 10
3.950057365713203
 20
9.426733644328275
 10
3.945500518630713
 20
9.43459588394228
 10
3.945129247379365
 20
9.444294918961784
 10
3.945129247379365
 20
9.444294918961784
 10
3.945040008531906
 20
9.444290722969981
 10
3.945040008531906
 20
9.444290722969981
 97
        0
 97
        0
 75
     2
 76
     1
 98
        0
  0
SPLINE
  5
214
330
20E
100
AcDbEntity
  8
H1
 62
   250
420
  2301728
370
     5
100
AcDbSpline
210
0.0
220
0.0
230
1.0
 70
    11
 71
     3
 72
    17
 73
    13
 74
     0
 42
0.0000000001
 43
0.0000000001
 12
1.0
 22
0.0
 32
0.0
 13
1.0
 23
0.0
 33
0.0
 40
0.0
 40
0.0
 40
0.0
 40
0.0
 40
1.0
 40
1.0
 40
1.0
 40
2.0
 40
2.0
 40
2.0
 40
3.0
 40
3.0
 40
3.0
 40
4.0
 40
4.0
 40
4.0
 40
4.0
 10
3.953255760454113
 20
9.449844118102279
 30
0.0
 10
3.95016960849355
 20
9.437101940038056
 30
0.0
 10
3.954529243961967
 20
9.42499860172365
 30
0.0
 10
3.962994657395598
 20
9.422792559040772
 30
0.0
 10
3.971467413814859
 20
9.420601202329129
 30
0.0
 10
3.980823426505645
 20
9.429152633594438
 30
0.0
 10
3.983932656421024
 20
9.441858096730508
 30
0.0
 10
3.987018808381587
 20
9.45460551978446
 30
0.0
 10
3.98265917291317
 20
9.466712005092706
 30
0.0
 10
3.97418536749597
 20
9.468918047775597
 30
0.0
 10
3.965701072099288
 20
9.471099963505695
 30
0.0
 10
3.956327226443414
 20
9.46253699326299
 30
0.0
 10
3.953255760454113
 20
9.449844118102279
 30
0.0
  0
ENDBLK
  5
211
330
20E
100
AcDbEntity
  8
0
100
AcDbBlockEnd
  0
BLOCK
  5
217
330
215
100
AcDbEntity
  8
0
100
AcDbBlockBegin
  2
block 15
 70
     0
 10
0.0
 20
0.0
 30
0.0
  3
block 15
  1

  0
INSERT
  5
21A
330
215
100
AcDbEntity
  8
H1
100
AcDbBlockReference
  2
block 16
 10
0.0
 20
0.0
 30
0.0
  0
ENDBLK
  5
218
330
215
100
AcDbEntity
  8
0
100
AcDbBlockEnd
  0
BLOCK
  5
21B
330
219
100
AcDbEntity
  8
0
100
AcDbBlockBegin
  2
block 16
 70
     0
 10
0.0
 20
0.0
 30
0.0
  3
block 16
  1

  0
SPLINE
  5
21D
330
219
100
AcDbEntity
  8
H1
 62
   250
420
  2301728
370
    13
100
AcDbSpline
210
0.0
220
0.0
230
1.0
 70
    11
 71
     3
 72
    35
 73
    31
 74
     0
 42
0.0000000001
 43
0.0000000001
 12
1.0
 22
0.0
 32
0.0
 13
1.0
 23
0.0
 33
0.0
 40
0.0
 40
0.0
 40
0.0
 40
0.0
 40
1.0
 40
1.0
 40
1.0
 40
2.0
 40
2.0
 40
2.0
 40
3.0
 40
3.0
 40
3.0
 40
4.0
 40
4.0
 40
4.0
 40
5.0
 40
5.0
 40
5.0
 40
6.0
 40
6.0
 40
6.0
 40
7.0
 40
7.0
 40
7.0
 40
8.0
 40
8.0
 40
8.0
 40
9.0
 40
9.0
 40
9.0
 40
10.0
 40
10.0
 40
10.0
 40
10.0
 10
3.945040008531906
 20
9.306792268047275
 30
0.0
 10
3.944946647714624
 20
9.309206183158885
 30
0.0
 10
3.945116585382051
 20
9.311736195372266
 30
0.0
 10
3.945579193476747
 20
9.314311485332558
 30
0.0
 10
3.946095300466759
 20
9.317147975781696
 30
0.0
 10
3.94692610684092
 20
9.319804038583925
 30
0.0
 10
3.948002378734714
 20
9.322200998893196
 30
0.0
 10
3.948002378734714
 20
9.322200998893196
 30
0.0
 10
3.948060073621794
 20
9.322174773944512
 30
0.0
 10
3.948060073621794
 20
9.322174773944512
 30
0.0
 10
3.951850103204922
 20
9.330615011427414
 30
0.0
 10
3.9586444629087
 20
9.335880981122184
 30
0.0
 10
3.965324481836256
 20
9.334570954162105
 30
0.0
 10
3.967145542272533
 20
9.334217270377975
 30
0.0
 10
3.971536647679373
 20
9.332256693214731
 30
0.0
 10
3.972216398349145
 20
9.332154940413854
 30
0.0
 10
3.980856994439945
 20
9.330698931263187
 30
0.0
 10
3.986275068837055
 20
9.319033025092747
 30
0.0
 10
3.984355402593741
 20
9.306070557459622
 30
0.0
 10
3.982386433446903
 20
9.293128020787497
 30
0.0
 10
3.973831855187768
 20
9.283784596072083
 30
0.0
 10
3.965192308094907
 20
9.28522608948088
 30
0.0
 10
3.963218093958353
 20
9.285543765629477
 30
0.0
 10
3.957916532678357
 20
9.287679525449915
 30
0.0
 10
3.956916763289718
 20
9.287874639068086
 30
0.0
 10
3.950057365713203
 20
9.289234140407617
 30
0.0
 10
3.945500518630713
 20
9.297096380021621
 30
0.0
 10
3.945129247379365
 20
9.306795415041114
 30
0.0
 10
3.945129247379365
 20
9.306795415041114
 30
0.0
 10
3.945040008531906
 20
9.306792268047275
 30
0.0
 10
3.945040008531906
 20
9.306792268047275
 30
0.0
  0
HATCH
  5
21E
330
219
100
AcDbEntity
  8
H1
 62
   254
420
 13358815
100
AcDbHatch
 10
0.0
 20
0.0
 30
0.0
210
0.0
220
0.0
230
1.0
  2
SOLID
 70
     1
 71
     0
 91
        1
 92
        1
 93
        1
 72
     4
 94
        3
 73
     0
 74
     1
 95
       35
 96
       31
 40
0.0
 40
0.0
 40
0.0
 40
0.0
 40
1.0
 40
1.0
 40
1.0
 40
2.0
 40
2.0
 40
2.0
 40
3.0
 40
3.0
 40
3.0
 40
4.0
 40
4.0
 40
4.0
 40
5.0
 40
5.0
 40
5.0
 40
6.0
 40
6.0
 40
6.0
 40
7.0
 40
7.0
 40
7.0
 40
8.0
 40
8.0
 40
8.0
 40
9.0
 40
9.0
 40
9.0
 40
10.0
 40
10.0
 40
10.0
 40
10.0
 10
3.945040008531906
 20
9.306792268047275
 10
3.944946647714624
 20
9.309206183158885
 10
3.945116585382051
 20
9.311736195372266
 10
3.945579193476747
 20
9.314311485332558
 10
3.946095300466759
 20
9.317147975781696
 10
3.94692610684092
 20
9.319804038583925
 10
3.948002378734714
 20
9.322200998893196
 10
3.948002378734714
 20
9.322200998893196
 10
3.948060073621794
 20
9.322174773944512
 10
3.948060073621794
 20
9.322174773944512
 10
3.951850103204922
 20
9.330615011427414
 10
3.9586444629087
 20
9.335880981122184
 10
3.965324481836256
 20
9.334570954162105
 10
3.967145542272533
 20
9.334217270377975
 10
3.971536647679373
 20
9.332256693214731
 10
3.972216398349145
 20
9.332154940413854
 10
3.980856994439945
 20
9.330698931263187
 10
3.986275068837055
 20
9.319033025092747
 10
3.984355402593741
 20
9.306070557459622
 10
3.982386433446903
 20
9.293128020787497
 10
3.973831855187768
 20
9.283784596072083
 10
3.965192308094907
 20
9.28522608948088
 10
3.963218093958353
 20
9.285543765629477
 10
3.957916532678357
 20
9.287679525449915
 10
3.956916763289718
 20
9.287874639068086
 10
3.950057365713203
 20
9.289234140407617
 10
3.945500518630713
 20
9.297096380021621
 10
3.945129247379365
 20
9.306795415041114
 10
3.945129247379365
 20
9.306795415041114
 10
3.945040008531906
 20
9.306792268047275
 10
3.945040008531906
 20
9.306792268047275
 97
        0
 97
        0
 75
     2
 76
     1
 98
        0
  0
SPLINE
  5
21F
330
219
100
AcDbEntity
  8
H1
 62
   250
420
  2301728
370
     5
100
AcDbSpline
210
0.0
220
0.0
230
1.0
 70
    11
 71
     3
 72
    17
 73
    13
 74
     0
 42
0.0000000001
 43
0.0000000001
 12
1.0
 22
0.0
 32
0.0
 13
1.0
 23
0.0
 33
0.0
 40
0.0
 40
0.0
 40
0.0
 40
0.0
 40
1.0
 40
1.0
 40
1.0
 40
2.0
 40
2.0
 40
2.0
 40
3.0
 40
3.0
 40
3.0
 40
4.0
 40
4.0
 40
4.0
 40
4.0
 10
3.953255760454113
 20
9.312344614181622
 30
0.0
 10
3.95016960849355
 20
9.299602436117398
 30
0.0
 10
3.954529243961967
 20
9.287499097803005
 30
0.0
 10
3.962994657395598
 20
9.285293055120114
 30
0.0
 10
3.971467413814859
 20
9.283101698408485
 30
0.0
 10
3.980823426505645
 20
9.29165312967378
 30
0.0
 10
3.983932656421024
 20
9.304358592809864
 30
0.0
 10
3.987018808381587
 20
9.317106015863802
 30
0.0
 10
3.98265917291317
 20
9.32921250117205
 30
0.0
 10
3.97418536749597
 20
9.331418543854939
 30
0.0
 10
3.965701072099288
 20
9.333600459585037
 30
0.0
 10
3.956327226443414
 20
9.325037489342334
 30
0.0
 10
3.953255760454113
 20
9.312344614181622
 30
0.0
  0
ENDBLK
  5
21C
330
219
100
AcDbEntity
  8
0
100
AcDbBlockEnd
  0
BLOCK
  5
223
330
221
100
AcDbEntity
  8
0
100
AcDbBlockBegin
  2
block 17
 70
     0
 10
0.0
 20
0.0
 30
0.0
  3
block 17
  1

  0
INSERT
  5
226
330
221
100
AcDbEntity
  8
Callout
100
AcDbBlockReference
  2
block 18
 10
0.0
 20
0.0
 30
0.0
  0
INSERT
  5
23C
330
221
100
AcDbEntity
  8
Callout
100
AcDbBlockReference
  2
block 19
 10
0.0
 20
0.0
 30
0.0
  0
ENDBLK
  5
224
330
221
100
AcDbEntity
  8
0
100
AcDbBlockEnd
  0
BLOCK
  5
227
330
225
100
AcDbEntity
  8
0
100
AcDbBlockBegin
  2
block 18
 70
     0
 10
0.0
 20
0.0
 30
0.0
  3
block 18
  1

  0
POLYLINE
  5
229
330
225
100
AcDbEntity
  8
Callout
 62
   250
420
  2301728
370
    80
100
AcDb2dPolyline
 66
     1
 10
0.0
 20
0.0
 30
0.0
  0
VERTEX
  5
22A
330
229
100
AcDbEntity
  8
Callout
 62
   250
420
  2301728
370
    80
100
AcDbVertex
100
AcDb2dVertex
 10
4.786948976960048
 20
9.60527537124628
 30
0.0
  0
VERTEX
  5
22B
330
229
100
AcDbEntity
  8
Callout
 62
   250
420
  2301728
370
    80
100
AcDbVertex
100
AcDb2dVertex
 10
5.187433315233142
 20
9.891611770586058
 30
0.0
  0
SEQEND
  5
22C
330
229
100
AcDbEntity
  8
Callout
 62
   250
420
  2301728
370
    80
  0
POLYLINE
  5
22D
330
225
100
AcDbEntity
  8
Callout
370
     0
100
AcDb2dPolyline
 66
     1
 10
0.0
 20
0.0
 30
0.0
  0
VERTEX
  5
22E
330
22D
100
AcDbEntity
  8
Callout
370
     0
100
AcDbVertex
100
AcDb2dVertex
 10
5.147214733938805
 20
9.80411170481913
 30
0.0
  0
VERTEX
  5
22F
330
22D
100
AcDbEntity
  8
Callout
370
     0
100
AcDbVertex
100
AcDb2dVertex
 10
5.263537067302068
 20
9.937771876253148
 30
0.0
  0
VERTEX
  5
230
330
22D
100
AcDbEntity
  8
Callout
370
     0
100
AcDbVertex
100
AcDb2dVertex
 10
5.145473397346501
 20
9.924910112422948
 30
0.0
  0
VERTEX
  5
231
330
22D
100
AcDbEntity
  8
Callout
370
     0
100
AcDbVertex
100
AcDb2dVertex
 10
5.147214733938805
 20
9.80411170481913
 30
0.0
  0
SEQEND
  5
233
330
22D
100
AcDbEntity
  8
Callout
370
     0
  0
HATCH
  5
232
330
225
100
AcDbEntity
  8
Callout
 62
   250
420
  2301728
100
AcDbHatch
 10
0.0
 20
0.0
 30
0.0
210
0.0
220
0.0
230
1.0
  2
SOLID
 70
     1
 71
     0
 91
        1
 92
        1
 93
        3
 72
     1
 10
5.147214733938805
 20
9.80411170481913
 11
5.263537067302068
 21
9.937771876253148
 72
     1
 10
5.263537067302068
 20
9.937771876253148
 11
5.145473397346501
 21
9.924910112422948
 72
     1
 10
5.145473397346501
 20
9.924910112422948
 11
5.147214733938805
 21
9.80411170481913
 97
        0
 75
     2
 76
     1
 98
        0
  0
POLYLINE
  5
234
330
225
100
AcDbEntity
  8
Callout
370
     0
100
AcDb2dPolyline
 66
     1
 10
0.0
 20
0.0
 30
0.0
  0
VERTEX
  5
235
330
234
100
AcDbEntity
  8
Callout
370
     0
100
AcDbVertex
100
AcDb2dVertex
 10
4.84114021091063
 20
9.70667657949457
 30
0.0
  0
VERTEX
  5
236
330
234
100
AcDbEntity
  8
Callout
370
     0
100
AcDbVertex
100
AcDb2dVertex
 10
4.682663895040504
 20
9.54171535831506
 30
0.0
  0
VERTEX
  5
237
330
234
100
AcDbEntity
  8
Callout
370
     0
100
AcDbVertex
100
AcDb2dVertex
 10
4.84114021091063
 20
9.579009333332705
 30
0.0
  0
VERTEX
  5
238
330
234
100
AcDbEntity
  8
Callout
370
     0
100
AcDbVertex
100
AcDb2dVertex
 10
4.84114021091063
 20
9.70667657949457
 30
0.0
  0
SEQEND
  5
23A
330
234
100
AcDbEntity
  8
Callout
370
     0
  0
HATCH
  5
239
330
225
100
AcDbEntity
  8
Callout
 62
   250
420
  2301728
100
AcDbHatch
 10
0.0
 20
0.0
 30
0.0
210
0.0
220
0.0
230
1.0
  2
SOLID
 70
     1
 71
     0
 91
        1
 92
        1
 93
        3
 72
     1
 10
4.84114021091063
 20
9.70667657949457
 11
4.682663895040504
 21
9.54171535831506
 72
     1
 10
4.682663895040504
 20
9.54171535831506
 11
4.84114021091063
 21
9.579009333332705
 72
     1
 10
4.84114021091063
 20
9.579009333332705
 11
4.84114021091063
 21
9.70667657949457
 97
        0
 75
     2
 76
     1
 98
        0
  0
ENDBLK
  5
228
330
225
100
AcDbEntity
  8
0
100
AcDbBlockEnd
  0
BLOCK
  5
23D
330
23B
100
AcDbEntity
  8
0
100
AcDbBlockBegin
  2
block 19
 70
     0
 10
0.0
 20
0.0
 30
0.0
  3
block 19
  1

  0
POLYLINE
  5
23F
330
23B
100
AcDbEntity
  8
Callout
370
     0
100
AcDb2dPolyline
 66
     1
 10
0.0
 20
0.0
 30
0.0
  0
VERTEX
  5
240
330
23F
100
AcDbEntity
  8
Callout
370
     0
100
AcDbVertex
100
AcDb2dVertex
 10
4.909738382667607
 20
9.808963320324766
 30
0.0
  0
VERTEX
  5
241
330
23F
100
AcDbEntity
  8
Callout
370
     0
100
AcDbVertex
100
AcDb2dVertex
 10
4.89424887897975
 20
9.798109338565432
 30
0.0
  0
VERTEX
  5
242
330
23F
100
AcDbEntity
  8
Callout
370
     0
100
AcDbVertex
100
AcDb2dVertex
 10
4.89424887897975
 20
9.956278298037052
 30
0.0
  0
VERTEX
  5
243
330
23F
100
AcDbEntity
  8
Callout
370
     0
100
AcDbVertex
100
AcDb2dVertex
 10
4.973616063662322
 20
10.01188358122042
 30
0.0
  0
VERTEX
  5
244
330
23F
100
AcDbEntity
  8
Callout
370
     0
100
AcDbVertex
100
AcDb2dVertex
 10
4.973616063662322
 20
9.992941825288451
 30
0.0
  0
VERTEX
  5
245
330
23F
100
AcDbEntity
  8
Callout
370
     0
100
AcDbVertex
100
AcDb2dVertex
 10
4.909738382667607
 20
9.948185278874663
 30
0.0
  0
VERTEX
  5
246
330
23F
100
AcDbEntity
  8
Callout
370
     0
100
AcDbVertex
100
AcDb2dVertex
 10
4.909738382667607
 20
9.899720524717685
 30
0.0
  0
VERTEX
  5
247
330
23F
100
AcDbEntity
  8
Callout
370
     0
100
AcDbVertex
100
AcDb2dVertex
 10
4.965953133658281
 20
9.939104103646047
 30
0.0
  0
VERTEX
  5
248
330
23F
100
AcDbEntity
  8
Callout
370
     0
100
AcDbVertex
100
AcDb2dVertex
 10
4.965953133658281
 20
9.920163582981267
 30
0.0
  0
VERTEX
  5
249
330
23F
100
AcDbEntity
  8
Callout
370
     0
100
AcDbVertex
100
AcDb2dVertex
 10
4.909738382667607
 20
9.88077981778363
 30
0.0
  0
VERTEX
  5
24A
330
23F
100
AcDbEntity
  8
Callout
370
     0
100
AcDbVertex
100
AcDb2dVertex
 10
4.909738382667607
 20
9.808963320324766
 30
0.0
  0
SEQEND
  5
24B
330
23F
100
AcDbEntity
  8
Callout
370
     0
  0
HATCH
  5
24C
330
23B
100
AcDbEntity
  8
Callout
 62
   250
420
  2301728
100
AcDbHatch
 10
0.0
 20
0.0
 30
0.0
210
0.0
220
0.0
230
1.0
  2
SOLID
 70
     1
 71
     0
 91
        1
 92
        1
 93
       10
 72
     1
 10
4.909738382667607
 20
9.808963320324766
 11
4.89424887897975
 21
9.798109338565432
 72
     1
 10
4.89424887897975
 20
9.798109338565432
 11
4.89424887897975
 21
9.956278298037052
 72
     1
 10
4.89424887897975
 20
9.956278298037052
 11
4.973616063662322
 21
10.01188358122042
 72
     1
 10
4.973616063662322
 20
10.01188358122042
 11
4.973616063662322
 21
9.992941825288451
 72
     1
 10
4.973616063662322
 20
9.992941825288451
 11
4.909738382667607
 21
9.948185278874663
 72
     1
 10
4.909738382667607
 20
9.948185278874663
 11
4.909738382667607
 21
9.899720524717685
 72
     1
 10
4.909738382667607
 20
9.899720524717685
 11
4.965953133658281
 21
9.939104103646047
 72
     1
 10
4.965953133658281
 20
9.939104103646047
 11
4.965953133658281
 21
9.920163582981267
 72
     1
 10
4.965953133658281
 20
9.920163582981267
 11
4.909738382667607
 21
9.88077981778363
 72
     1
 10
4.909738382667607
 20
9.88077981778363
 11
4.909738382667607
 21
9.808963320324766
 97
        0
 75
     2
 76
     1
 98
        0
  0
SPLINE
  5
24D
330
23B
100
AcDbEntity
  8
Callout
370
     0
100
AcDbSpline
210
0.0
220
0.0
230
1.0
 70
    11
 71
     3
 72
    47
 73
    43
 74
     0
 42
0.0000000001
 43
0.0000000001
 12
1.0
 22
0.0
 32
0.0
 13
1.0
 23
0.0
 33
0.0
 40
0.0
 40
0.0
 40
0.0
 40
0.0
 40
1.0
 40
1.0
 40
1.0
 40
2.0
 40
2.0
 40
2.0
 40
3.0
 40
3.0
 40
3.0
 40
4.0
 40
4.0
 40
4.0
 40
5.0
 40
5.0
 40
5.0
 40
6.0
 40
6.0
 40
6.0
 40
7.0
 40
7.0
 40
7.0
 40
8.0
 40
8.0
 40
8.0
 40
9.0
 40
9.0
 40
9.0
 40
10.0
 40
10.0
 40
10.0
 40
11.0
 40
11.0
 40
11.0
 40
12.0
 40
12.0
 40
12.0
 40
13.0
 40
13.0
 40
13.0
 40
14.0
 40
14.0
 40
14.0
 40
14.0
 10
4.983358107597622
 20
9.903588180148859
 30
0.0
 10
4.983358107597622
 20
9.941419242115444
 30
0.0
 10
5.00335935145626
 20
9.959234374252167
 30
0.0
 10
5.012461506643831
 20
9.965611232772984
 30
0.0
 10
5.02707404804783
 20
9.975849452737318
 30
0.0
 10
5.038814534723264
 20
9.971019866188573
 30
0.0
 10
5.038814534723264
 20
9.949373793548803
 30
0.0
 10
5.038814534723264
 20
9.928557478285269
 30
0.0
 10
5.028872030529278
 20
9.912838244046977
 30
0.0
 10
5.016297692136605
 20
9.894772401400877
 30
0.0
 10
5.016297692136605
 20
9.894772401400877
 30
0.0
 10
5.007554395108046
 20
9.882039664318173
 30
0.0
 10
5.007554395108046
 20
9.882039664318173
 30
0.0
 10
4.996055178750137
 20
9.865228423216902
 30
0.0
 10
4.993540730670802
 20
9.854380920052689
 30
0.0
 10
4.993059240613042
 20
9.849580520839027
 30
0.0
 10
4.993059240613042
 20
9.849580520839027
 30
0.0
 10
5.038814534723264
 20
9.88163475111057
 30
0.0
 10
5.038814534723264
 20
9.88163475111057
 30
0.0
 10
5.038814534723264
 20
9.88163475111057
 30
0.0
 10
5.038814534723264
 20
9.86792348389272
 30
0.0
 10
5.038814534723264
 20
9.86792348389272
 30
0.0
 10
5.038814534723264
 20
9.86792348389272
 30
0.0
 10
4.981201367818256
 20
9.827561004930063
 30
0.0
 10
4.981201367818256
 20
9.827561004930063
 30
0.0
 10
4.981800345646105
 20
9.852106507895794
 30
0.0
 10
4.989708741169781
 20
9.870530058841874
 30
0.0
 10
5.000967636136718
 20
9.887504943622906
 30
0.0
 10
5.000967636136718
 20
9.887504943622906
 30
0.0
 10
5.012102749345861
 20
9.904228068896625
 30
0.0
 10
5.012102749345861
 20
9.904228068896625
 30
0.0
 10
5.021086468968305
 20
9.917627968673742
 30
0.0
 10
5.027555538105591
 20
9.926949364432238
 30
0.0
 10
5.027555538105591
 20
9.942147246690777
 30
0.0
 10
5.027555538105591
 20
9.951402742637027
 30
0.0
 10
5.023243107544759
 20
9.960110287538049
 30
0.0
 10
5.010903744692263
 20
9.9514686424493
 30
0.0
 10
4.994974710864577
 20
9.940308353289398
 30
0.0
 10
4.994257196268689
 20
9.919317904366608
 30
0.0
 10
4.993899487968721
 20
9.910968929705113
 30
0.0
 10
4.993899487968721
 20
9.910968929705113
 30
0.0
 10
4.983358107597622
 20
9.903588180148859
 30
0.0
 10
4.983358107597622
 20
9.903588180148859
 30
0.0
  0
HATCH
  5
24E
330
23B
100
AcDbEntity
  8
Callout
 62
   250
420
  2301728
100
AcDbHatch
 10
0.0
 20
0.0
 30
0.0
210
0.0
220
0.0
230
1.0
  2
SOLID
 70
     1
 71
     0
 91
        1
 92
        1
 93
        1
 72
     4
 94
        3
 73
     0
 74
     1
 95
       47
 96
       43
 40
0.0
 40
0.0
 40
0.0
 40
0.0
 40
1.0
 40
1.0
 40
1.0
 40
2.0
 40
2.0
 40
2.0
 40
3.0
 40
3.0
 40
3.0
 40
4.0
 40
4.0
 40
4.0
 40
5.0
 40
5.0
 40
5.0
 40
6.0
 40
6.0
 40
6.0
 40
7.0
 40
7.0
 40
7.0
 40
8.0
 40
8.0
 40
8.0
 40
9.0
 40
9.0
 40
9.0
 40
10.0
 40
10.0
 40
10.0
 40
11.0
 40
11.0
 40
11.0
 40
12.0
 40
12.0
 40
12.0
 40
13.0
 40
13.0
 40
13.0
 40
14.0
 40
14.0
 40
14.0
 40
14.0
 10
4.983358107597622
 20
9.903588180148859
 10
4.983358107597622
 20
9.941419242115444
 10
5.00335935145626
 20
9.959234374252167
 10
5.012461506643831
 20
9.965611232772984
 10
5.02707404804783
 20
9.975849452737318
 10
5.038814534723264
 20
9.971019866188573
 10
5.038814534723264
 20
9.949373793548803
 10
5.038814534723264
 20
9.928557478285269
 10
5.028872030529278
 20
9.912838244046977
 10
5.016297692136605
 20
9.894772401400877
 10
5.016297692136605
 20
9.894772401400877
 10
5.007554395108046
 20
9.882039664318173
 10
5.007554395108046
 20
9.882039664318173
 10
4.996055178750137
 20
9.865228423216902
 10
4.993540730670802
 20
9.854380920052689
 10
4.993059240613042
 20
9.849580520839027
 10
4.993059240613042
 20
9.849580520839027
 10
5.038814534723264
 20
9.88163475111057
 10
5.038814534723264
 20
9.88163475111057
 10
5.038814534723264
 20
9.88163475111057
 10
5.038814534723264
 20
9.86792348389272
 10
5.038814534723264
 20
9.86792348389272
 10
5.038814534723264
 20
9.86792348389272
 10
4.981201367818256
 20
9.827561004930063
 10
4.981201367818256
 20
9.827561004930063
 10
4.981800345646105
 20
9.852106507895794
 10
4.989708741169781
 20
9.870530058841874
 10
5.000967636136718
 20
9.887504943622906
 10
5.000967636136718
 20
9.887504943622906
 10
5.012102749345861
 20
9.904228068896625
 10
5.012102749345861
 20
9.904228068896625
 10
5.021086468968305
 20
9.917627968673742
 10
5.027555538105591
 20
9.926949364432238
 10
5.027555538105591
 20
9.942147246690777
 10
5.027555538105591
 20
9.951402742637027
 10
5.023243107544759
 20
9.960110287538049
 10
5.010903744692263
 20
9.9514686424493
 10
4.994974710864577
 20
9.940308353289398
 10
4.994257196268689
 20
9.919317904366608
 10
4.993899487968721
 20
9.910968929705113
 10
4.993899487968721
 20
9.910968929705113
 10
4.983358107597622
 20
9.903588180148859
 10
4.983358107597622
 20
9.903588180148859
 97
        0
 97
        0
 75
     2
 76
     1
 98
        0
  0
ENDBLK
  5
23E
330
23B
100
AcDbEntity
  8
0
100
AcDbBlockEnd
  0
BLOCK
  5
251
330
24F
100
AcDbEntity
  8
0
100
AcDbBlockBegin
  2
block 20
 70
     0
 10
0.0
 20
0.0
 30
0.0
  3
block 20
  1

  0
INSERT
  5
254
330
24F
100
AcDbEntity
  8
Callout
100
AcDbBlockReference
  2
block 21
 10
0.0
 20
0.0
 30
0.0
  0
INSERT
  5
26A
330
24F
100
AcDbEntity
  8
Callout
100
AcDbBlockReference
  2
block 22
 10
0.0
 20
0.0
 30
0.0
  0
ENDBLK
  5
252
330
24F
100
AcDbEntity
  8
0
100
AcDbBlockEnd
  0
BLOCK
  5
255
330
253
100
AcDbEntity
  8
0
100
AcDbBlockBegin
  2
block 21
 70
     0
 10
0.0
 20
0.0
 30
0.0
  3
block 21
  1

  0
POLYLINE
  5
257
330
253
100
AcDbEntity
  8
Callout
 62
   250
420
  2301728
370
    80
100
AcDb2dPolyline
 66
     1
 10
0.0
 20
0.0
 30
0.0
  0
VERTEX
  5
258
330
257
100
AcDbEntity
  8
Callout
 62
   250
420
  2301728
370
    80
100
AcDbVertex
100
AcDb2dVertex
 10
4.750762743774632
 20
9.31148548486289
 30
0.0
  0
VERTEX
  5
259
330
257
100
AcDbEntity
  8
Callout
 62
   250
420
  2301728
370
    80
100
AcDbVertex
100
AcDb2dVertex
 10
5.163104954842462
 20
9.174426560080052
 30
0.0
  0
SEQEND
  5
25A
330
257
100
AcDbEntity
  8
Callout
 62
   250
420
  2301728
370
    80
  0
POLYLINE
  5
25B
330
253
100
AcDbEntity
  8
Callout
370
     0
100
AcDb2dPolyline
 66
     1
 10
0.0
 20
0.0
 30
0.0
  0
VERTEX
  5
25C
330
25B
100
AcDbEntity
  8
Callout
370
     0
100
AcDbVertex
100
AcDb2dVertex
 10
5.135138669571006
 20
9.128932568109411
 30
0.0
  0
VERTEX
  5
25D
330
25B
100
AcDbEntity
  8
Callout
370
     0
100
AcDbVertex
100
AcDb2dVertex
 10
5.295418212912308
 20
9.130530358304389
 30
0.0
  0
VERTEX
  5
25E
330
25B
100
AcDbEntity
  8
Callout
370
     0
100
AcDbVertex
100
AcDb2dVertex
 10
5.13688000616331
 20
9.246115079789357
 30
0.0
  0
VERTEX
  5
25F
330
25B
100
AcDbEntity
  8
Callout
370
     0
100
AcDbVertex
100
AcDb2dVertex
 10
5.135138669571006
 20
9.128932568109411
 30
0.0
  0
SEQEND
  5
261
330
25B
100
AcDbEntity
  8
Callout
370
     0
  0
HATCH
  5
260
330
253
100
AcDbEntity
  8
Callout
 62
   250
420
  2301728
100
AcDbHatch
 10
0.0
 20
0.0
 30
0.0
210
0.0
220
0.0
230
1.0
  2
SOLID
 70
     1
 71
     0
 91
        1
 92
        1
 93
        3
 72
     1
 10
5.135138669571006
 20
9.128932568109411
 11
5.295418212912308
 21
9.130530358304389
 72
     1
 10
5.295418212912308
 20
9.130530358304389
 11
5.13688000616331
 21
9.246115079789357
 72
     1
 10
5.13688000616331
 20
9.246115079789357
 11
5.135138669571006
 21
9.128932568109411
 97
        0
 75
     2
 76
     1
 98
        0
  0
POLYLINE
  5
262
330
253
100
AcDbEntity
  8
Callout
370
     0
100
AcDb2dPolyline
 66
     1
 10
0.0
 20
0.0
 30
0.0
  0
VERTEX
  5
263
330
262
100
AcDbEntity
  8
Callout
370
     0
100
AcDbVertex
100
AcDb2dVertex
 10
4.780491345597309
 20
9.36389447130125
 30
0.0
  0
VERTEX
  5
264
330
262
100
AcDbEntity
  8
Callout
370
     0
100
AcDbVertex
100
AcDb2dVertex
 10
4.618449576736212
 20
9.355386048951788
 30
0.0
  0
VERTEX
  5
265
330
262
100
AcDbEntity
  8
Callout
370
     0
100
AcDbVertex
100
AcDb2dVertex
 10
4.778739519025521
 20
9.243264952366921
 30
0.0
  0
VERTEX
  5
266
330
262
100
AcDbEntity
  8
Callout
370
     0
100
AcDbVertex
100
AcDb2dVertex
 10
4.780491345597309
 20
9.36389447130125
 30
0.0
  0
SEQEND
  5
268
330
262
100
AcDbEntity
  8
Callout
370
     0
  0
HATCH
  5
267
330
253
100
AcDbEntity
  8
Callout
 62
   250
420
  2301728
100
AcDbHatch
 10
0.0
 20
0.0
 30
0.0
210
0.0
220
0.0
230
1.0
  2
SOLID
 70
     1
 71
     0
 91
        1
 92
        1
 93
        3
 72
     1
 10
4.780491345597309
 20
9.36389447130125
 11
4.618449576736212
 21
9.355386048951788
 72
     1
 10
4.618449576736212
 20
9.355386048951788
 11
4.778739519025521
 21
9.243264952366921
 72
     1
 10
4.778739519025521
 20
9.243264952366921
 11
4.780491345597309
 21
9.36389447130125
 97
        0
 75
     2
 76
     1
 98
        0
  0
ENDBLK
  5
256
330
253
100
AcDbEntity
  8
0
100
AcDbBlockEnd
  0
BLOCK
  5
26B
330
269
100
AcDbEntity
  8
0
100
AcDbBlockBegin
  2
block 22
 70
     0
 10
0.0
 20
0.0
 30
0.0
  3
block 22
  1

  0
POLYLINE
  5
26D
330
269
100
AcDbEntity
  8
Callout
370
     0
100
AcDb2dPolyline
 66
     1
 10
0.0
 20
0.0
 30
0.0
  0
VERTEX
  5
26E
330
26D
100
AcDbEntity
  8
Callout
370
     0
100
AcDbVertex
100
AcDb2dVertex
 10
4.898637886390689
 20
9.051255319119731
 30
0.0
  0
VERTEX
  5
26F
330
26D
100
AcDbEntity
  8
Callout
370
     0
100
AcDbVertex
100
AcDb2dVertex
 10
4.88084897920266
 20
9.057381467131183
 30
0.0
  0
VERTEX
  5
270
330
26D
100
AcDbEntity
  8
Callout
370
     0
100
AcDbVertex
100
AcDb2dVertex
 10
4.88084897920266
 20
9.215546230611
 30
0.0
  0
VERTEX
  5
271
330
26D
100
AcDbEntity
  8
Callout
370
     0
100
AcDbVertex
100
AcDb2dVertex
 10
4.971985920852401
 20
9.184183289986636
 30
0.0
  0
VERTEX
  5
272
330
26D
100
AcDbEntity
  8
Callout
370
     0
100
AcDbVertex
100
AcDb2dVertex
 10
4.971985920852401
 20
9.165237338062878
 30
0.0
  0
VERTEX
  5
273
330
26D
100
AcDbEntity
  8
Callout
370
     0
100
AcDbVertex
100
AcDb2dVertex
 10
4.898637886390689
 20
9.190478326667579
 30
0.0
  0
VERTEX
  5
274
330
26D
100
AcDbEntity
  8
Callout
370
     0
100
AcDbVertex
100
AcDb2dVertex
 10
4.898637886390689
 20
9.142018817500304
 30
0.0
  0
VERTEX
  5
275
330
26D
100
AcDbEntity
  8
Callout
370
     0
100
AcDbVertex
100
AcDb2dVertex
 10
4.963185877073657
 20
9.119804187973184
 30
0.0
  0
VERTEX
  5
276
330
26D
100
AcDbEntity
  8
Callout
370
     0
100
AcDbVertex
100
AcDb2dVertex
 10
4.963185877073657
 20
9.100858236049412
 30
0.0
  0
VERTEX
  5
277
330
26D
100
AcDbEntity
  8
Callout
370
     0
100
AcDbVertex
100
AcDb2dVertex
 10
4.898637886390689
 20
9.123071982711622
 30
0.0
  0
VERTEX
  5
278
330
26D
100
AcDbEntity
  8
Callout
370
     0
100
AcDbVertex
100
AcDb2dVertex
 10
4.898637886390689
 20
9.051255319119731
 30
0.0
  0
SEQEND
  5
279
330
26D
100
AcDbEntity
  8
Callout
370
     0
  0
HATCH
  5
27A
330
269
100
AcDbEntity
  8
Callout
 62
   250
420
  2301728
100
AcDbHatch
 10
0.0
 20
0.0
 30
0.0
210
0.0
220
0.0
230
1.0
  2
SOLID
 70
     1
 71
     0
 91
        1
 92
        1
 93
       10
 72
     1
 10
4.898637886390689
 20
9.051255319119731
 11
4.88084897920266
 21
9.057381467131183
 72
     1
 10
4.88084897920266
 20
9.057381467131183
 11
4.88084897920266
 21
9.215546230611
 72
     1
 10
4.88084897920266
 20
9.215546230611
 11
4.971985920852401
 21
9.184183289986636
 72
     1
 10
4.971985920852401
 20
9.184183289986636
 11
4.971985920852401
 21
9.165237338062878
 72
     1
 10
4.971985920852401
 20
9.165237338062878
 11
4.898637886390689
 21
9.190478326667579
 72
     1
 10
4.898637886390689
 20
9.190478326667579
 11
4.898637886390689
 21
9.142018817500304
 72
     1
 10
4.898637886390689
 20
9.142018817500304
 11
4.963185877073657
 21
9.119804187973184
 72
     1
 10
4.963185877073657
 20
9.119804187973184
 11
4.963185877073657
 21
9.100858236049412
 72
     1
 10
4.963185877073657
 20
9.100858236049412
 11
4.898637886390689
 21
9.123071982711622
 72
     1
 10
4.898637886390689
 20
9.123071982711622
 11
4.898637886390689
 21
9.051255319119731
 97
        0
 75
     2
 76
     1
 98
        0
  0
SPLINE
  5
27B
330
269
100
AcDbEntity
  8
Callout
370
     0
100
AcDbSpline
210
0.0
220
0.0
230
1.0
 70
    11
 71
     3
 72
    26
 73
    22
 74
     0
 42
0.0000000001
 43
0.0000000001
 12
1.0
 22
0.0
 32
0.0
 13
1.0
 23
0.0
 33
0.0
 40
0.0
 40
0.0
 40
0.0
 40
0.0
 40
1.0
 40
1.0
 40
1.0
 40
2.0
 40
2.0
 40
2.0
 40
3.0
 40
3.0
 40
3.0
 40
4.0
 40
4.0
 40
4.0
 40
5.0
 40
5.0
 40
5.0
 40
6.0
 40
6.0
 40
6.0
 40
7.0
 40
7.0
 40
7.0
 40
7.0
 10
5.010760031973505
 20
8.98103224954261
 30
0.0
 10
5.010760031973505
 20
8.98103224954261
 30
0.0
 10
4.997831132274667
 20
8.985483147832433
 30
0.0
 10
4.997831132274667
 20
8.985483147832433
 30
0.0
 10
4.997831132274667
 20
8.985483147832433
 30
0.0
 10
4.997831132274667
 20
9.067928092491986
 30
0.0
 10
4.997831132274667
 20
9.067928092491986
 30
0.0
 10
4.997831132274667
 20
9.067928092491986
 30
0.0
 10
4.975278725408568
 20
9.075687530307176
 30
0.0
 10
4.975278725408568
 20
9.075687530307176
 30
0.0
 10
4.975278725408568
 20
9.075687530307176
 30
0.0
 10
4.975278725408568
 20
9.087253781672617
 30
0.0
 10
4.975278725408568
 20
9.087253781672617
 30
0.0
 10
4.990958097724867
 20
9.083181571641742
 30
0.0
 10
4.997416778085557
 20
9.082771413444384
 30
0.0
 10
5.001268698547543
 20
9.10044807785208
 30
0.0
 10
5.001268698547543
 20
9.10044807785208
 30
0.0
 10
5.010760031973505
 20
9.097180449246656
 30
0.0
 10
5.010760031973505
 20
9.097180449246656
 30
0.0
 10
5.010760031973505
 20
9.097180449246656
 30
0.0
 10
5.010760031973505
 20
8.98103224954261
 30
0.0
 10
5.010760031973505
 20
8.98103224954261
 30
0.0
  0
HATCH
  5
27C
330
269
100
AcDbEntity
  8
Callout
 62
   250
420
  2301728
100
AcDbHatch
 10
0.0
 20
0.0
 30
0.0
210
0.0
220
0.0
230
1.0
  2
SOLID
 70
     1
 71
     0
 91
        1
 92
        1
 93
        1
 72
     4
 94
        3
 73
     0
 74
     1
 95
       26
 96
       22
 40
0.0
 40
0.0
 40
0.0
 40
0.0
 40
1.0
 40
1.0
 40
1.0
 40
2.0
 40
2.0
 40
2.0
 40
3.0
 40
3.0
 40
3.0
 40
4.0
 40
4.0
 40
4.0
 40
5.0
 40
5.0
 40
5.0
 40
6.0
 40
6.0
 40
6.0
 40
7.0
 40
7.0
 40
7.0
 40
7.0
 10
5.010760031973505
 20
8.98103224954261
 10
5.010760031973505
 20
8.98103224954261
 10
4.997831132274667
 20
8.985483147832433
 10
4.997831132274667
 20
8.985483147832433
 10
4.997831132274667
 20
8.985483147832433
 10
4.997831132274667
 20
9.067928092491986
 10
4.997831132274667
 20
9.067928092491986
 10
4.997831132274667
 20
9.067928092491986
 10
4.975278725408568
 20
9.075687530307176
 10
4.975278725408568
 20
9.075687530307176
 10
4.975278725408568
 20
9.075687530307176
 10
4.975278725408568
 20
9.087253781672617
 10
4.975278725408568
 20
9.087253781672617
 10
4.990958097724867
 20
9.083181571641742
 10
4.997416778085557
 20
9.082771413444384
 10
5.001268698547543
 20
9.10044807785208
 10
5.001268698547543
 20
9.10044807785208
 10
5.010760031973505
 20
9.097180449246656
 10
5.010760031973505
 20
9.097180449246656
 10
5.010760031973505
 20
9.097180449246656
 10
5.010760031973505
 20
8.98103224954261
 10
5.010760031973505
 20
8.98103224954261
 97
        0
 97
        0
 75
     2
 76
     1
 98
        0
  0
ENDBLK
  5
26C
330
269
100
AcDbEntity
  8
0
100
AcDbBlockEnd
  0
ENDSEC
  0
SECTION
  2
ENTITIES
  0
INSERT
  5
42
330
1F
100
AcDbEntity
  8
H1
100
AcDbBlockReference
  2
block 2
 10
0.0
 20
0.0
 30
0.0
  0
INSERT
  5
193
330
1F
100
AcDbEntity
  8
H1
100
AcDbBlockReference
  2
block 4
 10
0.0
 20
0.0
 30
0.0
  0
INSERT
  5
222
330
1F
100
AcDbEntity
  8
Callout
100
AcDbBlockReference
  2
block 17
 10
0.0
 20
0.0
 30
0.0
  0
INSERT
  5
250
330
1F
100
AcDbEntity
  8
Callout
100
AcDbBlockReference
  2
block 20
 10
0.0
 20
0.0
 30
0.0
  0
MTEXT
  5
27D
330
1F
100
AcDbEntity
  8
Callout
 62
   250
420
  2301728
100
AcDbMText
 10
3.29892963833279
 20
7.352195527818467
 30
0.0
 40
0.118
 41
0.0
 46
0.0
 71
     7
 72
     1
  1
\fHelvetica Neue LT Std 55 Roman|b0|i0|c0|p34;\W1;SIMPSON Strong-Tie\H0.068794;®\H0.118; ^C
 73
     1
 44
1.0
  0
MTEXT
  5
27E
330
1F
100
AcDbEntity
  8
Callout
 62
   250
420
  2301728
100
AcDbMText
 10
2.755974451700846
 20
7.152203665839301
 30
0.0
 40
0.118
 41
0.0
 46
0.0
 71
     7
 72
     1
  1
\fHelvetica Neue LT Std 55 Roman|b0|i0|c0|p34;\W1;H1.81Z Rafter-to-Top Plate Tie Down
 73
     1
 44
1.0
  0
SPLINE
  5
27F
330
1F
100
AcDbEntity
  8
Callout
 62
   250
420
  2301728
370
    30
100
AcDbSpline
210
0.0
220
0.0
230
1.0
 70
     8
 71
     3
 72
     8
 73
     4
 74
     0
 42
0.0000000001
 43
0.0000000001
 12
1.0
 22
0.0
 32
0.0
 13
1.0
 23
0.0
 33
0.0
 40
0.0
 40
0.0
 40
0.0
 40
0.0
 40
1.0
 40
1.0
 40
1.0
 40
1.0
 10
4.772143906184914
 20
10.71092475513308
 30
0.0
 10
4.772143906184914
 20
10.71092475513308
 30
0.0
 10
4.986909152131198
 20
10.80387098711791
 30
0.0
 10
5.157315397826374
 20
10.89681721910276
 30
0.0
  0
MTEXT
  5
280
330
1F
100
AcDbEntity
  8
Callout
 62
   250
420
  2301728
100
AcDbMText
 10
5.211528884039985
 20
10.84556325276693
 30
0.0
 40
0.118
 41
0.0
 46
0.0
 71
     7
 72
     1
  1
\fHelvetica LT Std Condensed|b0|i0|c0|p34;\W1;Rafter
 73
     1
 44
1.0
  0
POLYLINE
  5
281
330
1F
100
AcDbEntity
  8
Callout
 62
   250
420
  2301728
370
    30
100
AcDb2dPolyline
 66
     1
 10
0.0
 20
0.0
 30
0.0
  0
VERTEX
  5
282
330
281
100
AcDbEntity
  8
Callout
 62
   250
420
  2301728
370
    30
100
AcDbVertex
100
AcDb2dVertex
 10
4.044660196580404
 20
8.86495013670924
 30
0.0
  0
VERTEX
  5
283
330
281
100
AcDbEntity
  8
Callout
 62
   250
420
  2301728
370
    30
100
AcDbVertex
100
AcDb2dVertex
 10
4.199977743316341
 20
8.300845721132115
 30
0.0
  0
SEQEND
  5
284
330
281
100
AcDbEntity
  8
Callout
 62
   250
420
  2301728
370
    30
  0
POLYLINE
  5
285
330
1F
100
AcDbEntity
  8
Callout
 62
   250
420
  2301728
370
    30
100
AcDb2dPolyline
 66
     1
 10
0.0
 20
0.0
 30
0.0
  0
VERTEX
  5
286
330
285
100
AcDbEntity
  8
Callout
 62
   250
420
  2301728
370
    30
100
AcDbVertex
100
AcDb2dVertex
 10
5.070905156015164
 20
9.29548125140036
 30
0.0
  0
VERTEX
  5
287
330
285
100
AcDbEntity
  8
Callout
 62
   250
420
  2301728
370
    30
100
AcDbVertex
100
AcDb2dVertex
 10
5.510554054902715
 20
9.642167401735655
 30
0.0
  0
SEQEND
  5
288
330
285
100
AcDbEntity
  8
Callout
 62
   250
420
  2301728
370
    30
  0
MTEXT
  5
289
330
1F
100
AcDbEntity
  8
Callout
 62
   250
420
  2301728
100
AcDbMText
 10
3.975507974624634
 20
8.067161560058594
 30
0.0
 40
0.118
 41
0.0
 46
0.0
 71
     7
 72
     1
  1
\fHelvetica LT Std Condensed|b0|i0|c0|p34;\W1;H1.81Z
 73
     1
 44
1.0
  0
MTEXT
  5
28A
330
1F
100
AcDbEntity
  8
Callout
 62
   250
420
  2301728
100
AcDbMText
 10
5.390882703993055
 20
9.748443603515625
 30
0.0
 40
0.118
 41
0.0
 46
0.0
 71
     7
 72
     1
  1
\fHelvetica LT Std Condensed|b0|i0|c0|p34;\W1;Top Plate
 73
     1
 44
1.0
  0
ENDSEC
  0
SECTION
  2
OBJECTS
  0
DICTIONARY
  5
C
330
0
100
AcDbDictionary
281
     1
  3
ACAD_GROUP
350
D
  3
ACAD_LAYOUT
350
1A
  3
ACAD_MATERIAL
350
3B
  3
ACAD_MLEADERSTYLE
350
28E
  3
ACAD_MLINESTYLE
350
17
  3
ACAD_PLOTSETTINGS
350
19
  3
ACAD_PLOTSTYLENAME
350
E
  3
ACAD_TABLESTYLE
350
28D
  3
ACAD_VISUALSTYLE
350
2A
  0
SUN
  5
3F
330
29
100
AcDbSun
 90
        1
290
     0
 63
     7
421
 16777215
 40
1.0
291
     1
 91
  2455826
 92
 54000000
292
     0
 70
     2
 71
   256
280
     1
  0
DICTIONARY
  5
D
102
{ACAD_REACTORS
330
C
102
}
330
C
100
AcDbDictionary
281
     1
  0
DICTIONARY
  5
1A
102
{ACAD_REACTORS
330
C
102
}
330
C
100
AcDbDictionary
281
     1
  3
Layout1
350
1E
  3
Layout2
350
26
  3
Model
350
22
  0
DICTIONARY
  5
3B
102
{ACAD_REACTORS
330
C
102
}
330
C
100
AcDbDictionary
281
     1
  3
ByBlock
350
3D
  3
ByLayer
350
3C
  3
Global
350
3E
  0
DICTIONARY
  5
28E
102
{ACAD_REACTORS
330
C
102
}
330
C
100
AcDbDictionary
281
     1
  0
DICTIONARY
  5
17
102
{ACAD_REACTORS
330
C
102
}
330
C
100
AcDbDictionary
281
     1
  3
Standard
350
18
  0
DICTIONARY
  5
19
102
{ACAD_REACTORS
330
C
102
}
330
C
100
AcDbDictionary
281
     1
  0
ACDBDICTIONARYWDFLT
  5
E
102
{ACAD_REACTORS
330
C
102
}
330
C
100
AcDbDictionary
281
     1
  3
Normal
350
F
100
AcDbDictionaryWithDefault
340
F
  0
DICTIONARY
  5
28D
102
{ACAD_REACTORS
330
C
102
}
330
C
100
AcDbDictionary
281
     1
  0
DICTIONARY
  5
2A
102
{ACAD_REACTORS
330
C
102
}
330
C
100
AcDbDictionary
281
     1
  3
2dWireframe
350
2F
  3
3D Hidden
350
31
  3
3dWireframe
350
30
  3
Basic
350
32
  3
Brighten
350
36
  3
ColorChange
350
3A
  3
Conceptual
350
34
  3
Dim
350
35
  3
Facepattern
350
39
  3
Flat
350
2B
  3
FlatWithEdges
350
2C
  3
Gouraud
350
2D
  3
GouraudWithEdges
350
2E
  3
Linepattern
350
38
  3
Realistic
350
33
  3
Thicken
350
37
  0
LAYOUT
  5
1E
102
{ACAD_REACTORS
330
1A
102
}
330
1A
100
AcDbPlotSettings
  1

  2
none_device
  4

  6

 40
0.0
 41
0.0
 42
0.0
 43
0.0
 44
0.0
 45
0.0
 46
0.0
 47
0.0
 48
0.0
 49
0.0
140
0.0
141
0.0
142
1.0
143
1.0
 70
   688
 72
     0
 73
     0
 74
     5
  7

 75
    16
 76
     0
 77
     2
 78
   300
147
1.0
148
0.0
149
0.0
100
AcDbLayout
  1
Layout1
 70
     1
 71
     1
 10
0.0
 20
0.0
 11
12.0
 21
9.0
 12
0.0
 22
0.0
 32
0.0
 14
1.000000000000000E+20
 24
1.000000000000000E+20
 34
1.000000000000000E+20
 15
-1.000000000000000E+20
 25
-1.000000000000000E+20
 35
-1.000000000000000E+20
146
0.0
 13
0.0
 23
0.0
 33
0.0
 16
1.0
 26
0.0
 36
0.0
 17
0.0
 27
1.0
 37
0.0
 76
     0
330
1B
  0
LAYOUT
  5
26
102
{ACAD_REACTORS
330
1A
102
}
330
1A
100
AcDbPlotSettings
  1

  2
none_device
  4

  6

 40
0.0
 41
0.0
 42
0.0
 43
0.0
 44
0.0
 45
0.0
 46
0.0
 47
0.0
 48
0.0
 49
0.0
140
0.0
141
0.0
142
1.0
143
1.0
 70
   688
 72
     0
 73
     0
 74
     5
  7

 75
    16
 76
     0
 77
     2
 78
   300
147
1.0
148
0.0
149
0.0
100
AcDbLayout
  1
Layout2
 70
     1
 71
     2
 10
0.0
 20
0.0
 11
0.0
 21
0.0
 12
0.0
 22
0.0
 32
0.0
 14
0.0
 24
0.0
 34
0.0
 15
0.0
 25
0.0
 35
0.0
146
0.0
 13
0.0
 23
0.0
 33
0.0
 16
1.0
 26
0.0
 36
0.0
 17
0.0
 27
1.0
 37
0.0
 76
     0
330
23
  0
LAYOUT
  5
22
102
{ACAD_REACTORS
330
1A
102
}
330
1A
100
AcDbPlotSettings
  1

  2
none_device
  4

  6

 40
0.0
 41
0.0
 42
0.0
 43
0.0
 44
0.0
 45
0.0
 46
0.0
 47
0.0
 48
0.0
 49
0.0
140
0.0
141
0.0
142
1.0
143
1.0
 70
  1712
 72
     0
 73
     0
 74
     0
  7

 75
     0
 76
     0
 77
     2
 78
   300
147
1.0
148
0.0
149
0.0
100
AcDbLayout
  1
Model
 70
     1
 71
     0
 10
0.0
 20
0.0
 11
12.0
 21
9.0
 12
0.0
 22
0.0
 32
0.0
 14
1.000000000000000E+20
 24
1.000000000000000E+20
 34
1.000000000000000E+20
 15
-1.000000000000000E+20
 25
-1.000000000000000E+20
 35
-1.000000000000000E+20
146
0.0
 13
0.0
 23
0.0
 33
0.0
 16
1.0
 26
0.0
 36
0.0
 17
0.0
 27
1.0
 37
0.0
 76
     0
330
1F
331
29
  0
MATERIAL
  5
3D
102
{ACAD_REACTORS
330
3B
102
}
330
3B
100
AcDbMaterial
  1
ByBlock
 72
     1
 94
      127
  0
MATERIAL
  5
3C
102
{ACAD_REACTORS
330
3B
102
}
330
3B
100
AcDbMaterial
  1
ByLayer
 72
     1
 94
      127
  0
MATERIAL
  5
3E
102
{ACAD_REACTORS
330
3B
102
}
330
3B
100
AcDbMaterial
  1
Global
 72
     1
 94
      127
  0
MLINESTYLE
  5
18
102
{ACAD_REACTORS
330
17
102
}
330
17
100
AcDbMlineStyle
  2
Standard
 70
     0
  3

 62
   256
 51
90.0
 52
90.0
 71
     2
 49
0.5
 62
   256
  6
BYLAYER
 49
-0.5
 62
   256
  6
BYLAYER
  0
ACDBPLACEHOLDER
  5
F
102
{ACAD_REACTORS
330
E
102
}
330
E
  0
VISUALSTYLE
  5
2F
102
{ACAD_REACTORS
330
2A
102
}
330
2A
100
AcDbVisualStyle
  2
2dWireframe
 70
     4
177
     2
291
     0
 71
     0
176
     1
 72
     2
176
     1
 73
     0
176
     1
 90
        0
176
     1
 40
-0.6
176
     1
 41
-30.0
176
     1
 62
     5
 63
     7
421
 16777215
176
     1
 74
     1
176
     1
 91
        4
176
     1
 64
     7
176
     1
 65
   257
176
     1
 75
     1
176
     1
175
     1
176
     1
 42
1.0
176
     1
 92
        0
176
     1
 66
   257
176
     1
 43
1.0
176
     1
 76
     1
176
     1
 77
     6
176
     1
 78
     2
176
     1
 67
     7
176
     1
 79
     5
176
     1
170
     0
176
     1
171
     0
176
     1
290
     0
176
     1
 93
        1
176
     1
 44
0.0
176
     1
173
     0
176
     1
  0
VISUALSTYLE
  5
31
102
{ACAD_REACTORS
330
2A
102
}
330
2A
100
AcDbVisualStyle
  2
3D Hidden
 70
     6
177
     2
291
     0
 71
     1
176
     1
 72
     2
176
     1
 73
     2
176
     1
 90
        0
176
     1
 40
-0.6
176
     1
 41
-30.0
176
     1
 62
     5
 63
     7
421
 16777215
176
     1
 74
     2
176
     1
 91
        2
176
     1
 64
     7
176
     1
 65
   257
176
     1
 75
     2
176
     1
175
     1
176
     1
 42
40.0
176
     1
 92
        0
176
     1
 66
   257
176
     1
 43
1.0
176
     1
 76
     1
176
     1
 77
     6
176
     1
 78
     2
176
     1
 67
     7
176
     1
 79
     3
176
     1
170
     0
176
     1
171
     0
176
     1
290
     0
176
     1
 93
        1
176
     1
 44
0.0
176
     1
173
     0
176
     1
  0
VISUALSTYLE
  5
30
102
{ACAD_REACTORS
330
2A
102
}
330
2A
100
AcDbVisualStyle
  2
3dWireframe
 70
     5
177
     2
291
     0
 71
     0
176
     1
 72
     2
176
     1
 73
     0
176
     1
 90
        0
176
     1
 40
-0.6
176
     1
 41
-30.0
176
     1
 62
     5
 63
     7
421
 16777215
176
     1
 74
     1
176
     1
 91
        4
176
     1
 64
     7
176
     1
 65
   257
176
     1
 75
     1
176
     1
175
     1
176
     1
 42
1.0
176
     1
 92
        0
176
     1
 66
   257
176
     1
 43
1.0
176
     1
 76
     1
176
     1
 77
     6
176
     1
 78
     2
176
     1
 67
     7
176
     1
 79
     5
176
     1
170
     0
176
     1
171
     0
176
     1
290
     0
176
     1
 93
        1
176
     1
 44
0.0
176
     1
173
     0
176
     1
  0
VISUALSTYLE
  5
32
102
{ACAD_REACTORS
330
2A
102
}
330
2A
100
AcDbVisualStyle
  2
Basic
 70
     7
177
     2
291
     1
 71
     1
176
     1
 72
     0
176
     1
 73
     1
176
     1
 90
        0
176
     1
 40
-0.6
176
     1
 41
-30.0
176
     1
 62
     5
 63
     7
421
 16777215
176
     1
 74
     0
176
     1
 91
        4
176
     1
 64
     7
176
     1
 65
   257
176
     1
 75
     1
176
     1
175
     1
176
     1
 42
1.0
176
     1
 92
        8
176
     1
 66
     7
176
     1
 43
1.0
176
     1
 76
     1
176
     1
 77
     6
176
     1
 78
     2
176
     1
 67
     7
176
     1
 79
     5
176
     1
170
     0
176
     1
171
     0
176
     1
290
     0
176
     1
 93
        1
176
     1
 44
0.0
176
     1
173
     0
176
     1
  0
VISUALSTYLE
  5
36
102
{ACAD_REACTORS
330
2A
102
}
330
2A
100
AcDbVisualStyle
  2
Brighten
 70
    12
177
     2
291
     1
 71
     2
176
     1
 72
     2
176
     1
 73
     0
176
     1
 90
        0
176
     1
 40
-0.6
176
     1
 41
-30.0
176
     1
 62
     5
 63
     7
421
 16777215
176
     1
 74
     1
176
     1
 91
        4
176
     1
 64
     7
176
     1
 65
   257
176
     1
 75
     1
176
     1
175
     1
176
     1
 42
1.0
176
     1
 92
        8
176
     1
 66
     7
176
     1
 43
1.0
176
     1
 76
     1
176
     1
 77
     6
176
     1
 78
     2
176
     1
 67
     7
176
     1
 79
     5
176
     1
170
     0
176
     1
171
     0
176
     1
290
     0
176
     1
 93
        1
176
     1
 44
50.0
176
     1
173
     0
176
     1
  0
VISUALSTYLE
  5
3A
102
{ACAD_REACTORS
330
2A
102
}
330
2A
100
AcDbVisualStyle
  2
ColorChange
 70
    16
177
     2
291
     1
 71
     2
176
     1
 72
     2
176
     1
 73
     3
176
     1
 90
        0
176
     1
 40
-0.6
176
     1
 41
-30.0
176
     1
 62
     5
 63
     8
421
  8421504
176
     1
 74
     1
176
     1
 91
        4
176
     1
 64
     7
176
     1
 65
   257
176
     1
 75
     1
176
     1
175
     1
176
     1
 42
1.0
176
     1
 92
        8
176
     1
 66
     8
424
  8421504
176
     1
 43
1.0
176
     1
 76
     1
176
     1
 77
     6
176
     1
 78
     2
176
     1
 67
     7
176
     1
 79
     5
176
     1
170
     0
176
     1
171
     0
176
     1
290
     0
176
     1
 93
        1
176
     1
 44
0.0
176
     1
173
     0
176
     1
  0
VISUALSTYLE
  5
34
102
{ACAD_REACTORS
330
2A
102
}
330
2A
100
AcDbVisualStyle
  2
Conceptual
 70
     9
177
     2
291
     0
 71
     3
176
     1
 72
     2
176
     1
 73
     0
176
     1
 90
        0
176
     1
 40
-0.6
176
     1
 41
-30.0
176
     1
 62
     5
 63
     7
421
 16777215
176
     1
 74
     2
176
     1
 91
        2
176
     1
 64
     7
176
     1
 65
   257
176
     1
 75
     1
176
     1
175
     1
176
     1
 42
40.0
176
     1
 92
        8
176
     1
 66
     7
176
     1
 43
1.0
176
     1
 76
     1
176
     1
 77
     6
176
     1
 78
     2
176
     1
 67
     7
176
     1
 79
     3
176
     1
170
     0
176
     1
171
     0
176
     1
290
     0
176
     1
 93
        1
176
     1
 44
0.0
176
     1
173
     0
176
     1
  0
VISUALSTYLE
  5
35
102
{ACAD_REACTORS
330
2A
102
}
330
2A
100
AcDbVisualStyle
  2
Dim
 70
    11
177
     2
291
     1
 71
     2
176
     1
 72
     2
176
     1
 73
     0
176
     1
 90
        0
176
     1
 40
-0.6
176
     1
 41
-30.0
176
     1
 62
     5
 63
     7
421
 16777215
176
     1
 74
     1
176
     1
 91
        4
176
     1
 64
     7
176
     1
 65
   257
176
     1
 75
     1
176
     1
175
     1
176
     1
 42
1.0
176
     1
 92
        8
176
     1
 66
     7
176
     1
 43
1.0
176
     1
 76
     1
176
     1
 77
     6
176
     1
 78
     2
176
     1
 67
     7
176
     1
 79
     5
176
     1
170
     0
176
     1
171
     0
176
     1
290
     0
176
     1
 93
        1
176
     1
 44
-50.0
176
     1
173
     0
176
     1
  0
VISUALSTYLE
  5
39
102
{ACAD_REACTORS
330
2A
102
}
330
2A
100
AcDbVisualStyle
  2
Facepattern
 70
    15
177
     2
291
     1
 71
     2
176
     1
 72
     2
176
     1
 73
     0
176
     1
 90
        0
176
     1
 40
-0.6
176
     1
 41
-30.0
176
     1
 62
     5
 63
     7
421
 16777215
176
     1
 74
     1
176
     1
 91
        4
176
     1
 64
     7
176
     1
 65
   257
176
     1
 75
     1
176
     1
175
     1
176
     1
 42
1.0
176
     1
 92
        8
176
     1
 66
     7
176
     1
 43
1.0
176
     1
 76
     1
176
     1
 77
     6
176
     1
 78
     2
176
     1
 67
     7
176
     1
 79
     5
176
     1
170
     0
176
     1
171
     0
176
     1
290
     0
176
     1
 93
        1
176
     1
 44
0.0
176
     1
173
     0
176
     1
  0
VISUALSTYLE
  5
2B
102
{ACAD_REACTORS
330
2A
102
}
330
2A
100
AcDbVisualStyle
  2
Flat
 70
     0
177
     2
291
     1
 71
     2
176
     1
 72
     1
176
     1
 73
     1
176
     1
 90
        2
176
     1
 40
-0.6
176
     1
 41
30.0
176
     1
 62
     5
 63
     7
421
 16777215
176
     1
 74
     0
176
     1
 91
        4
176
     1
 64
     7
176
     1
 65
   257
176
     1
 75
     1
176
     1
175
     1
176
     1
 42
1.0
176
     1
 92
        8
176
     1
 66
     7
176
     1
 43
1.0
176
     1
 76
     1
176
     1
 77
     6
176
     1
 78
     2
176
     1
 67
     7
176
     1
 79
     5
176
     1
170
     0
176
     1
171
     0
176
     1
290
     0
176
     1
 93
       13
176
     1
 44
0.0
176
     1
173
     0
176
     1
  0
VISUALSTYLE
  5
2C
102
{ACAD_REACTORS
330
2A
102
}
330
2A
100
AcDbVisualStyle
  2
FlatWithEdges
 70
     1
177
     2
291
     1
 71
     2
176
     1
 72
     1
176
     1
 73
     1
176
     1
 90
        2
176
     1
 40
-0.6
176
     1
 41
30.0
176
     1
 62
     5
 63
     7
421
 16777215
176
     1
 74
     1
176
     1
 91
        4
176
     1
 64
     7
176
     1
 65
   257
176
     1
 75
     1
176
     1
175
     1
176
     1
 42
1.0
176
     1
 92
        0
176
     1
 66
   257
176
     1
 43
1.0
176
     1
 76
     1
176
     1
 77
     6
176
     1
 78
     2
176
     1
 67
     7
176
     1
 79
     5
176
     1
170
     0
176
     1
171
     0
176
     1
290
     0
176
     1
 93
       13
176
     1
 44
0.0
176
     1
173
     0
176
     1
  0
VISUALSTYLE
  5
2D
102
{ACAD_REACTORS
330
2A
102
}
330
2A
100
AcDbVisualStyle
  2
Gouraud
 70
     2
177
     2
291
     1
 71
     2
176
     1
 72
     2
176
     1
 73
     1
176
     1
 90
        2
176
     1
 40
-0.6
176
     1
 41
30.0
176
     1
 62
     5
 63
     7
421
 16777215
176
     1
 74
     0
176
     1
 91
        4
176
     1
 64
     7
176
     1
 65
   257
176
     1
 75
     1
176
     1
175
     1
176
     1
 42
1.0
176
     1
 92
        0
176
     1
 66
     7
176
     1
 43
1.0
176
     1
 76
     1
176
     1
 77
     6
176
     1
 78
     2
176
     1
 67
     7
176
     1
 79
     5
176
     1
170
     0
176
     1
171
     0
176
     1
290
     0
176
     1
 93
       13
176
     1
 44
0.0
176
     1
173
     0
176
     1
  0
VISUALSTYLE
  5
2E
102
{ACAD_REACTORS
330
2A
102
}
330
2A
100
AcDbVisualStyle
  2
GouraudWithEdges
 70
     3
177
     2
291
     1
 71
     2
176
     1
 72
     2
176
     1
 73
     1
176
     1
 90
        2
176
     1
 40
-0.6
176
     1
 41
30.0
176
     1
 62
     5
 63
     7
421
 16777215
176
     1
 74
     1
176
     1
 91
        4
176
     1
 64
     7
176
     1
 65
   257
176
     1
 75
     1
176
     1
175
     1
176
     1
 42
1.0
176
     1
 92
        0
176
     1
 66
   257
176
     1
 43
1.0
176
     1
 76
     1
176
     1
 77
     6
176
     1
 78
     2
176
     1
 67
     7
176
     1
 79
     5
176
     1
170
     0
176
     1
171
     0
176
     1
290
     0
176
     1
 93
       13
176
     1
 44
0.0
176
     1
173
     0
176
     1
  0
VISUALSTYLE
  5
38
102
{ACAD_REACTORS
330
2A
102
}
330
2A
100
AcDbVisualStyle
  2
Linepattern
 70
    14
177
     2
291
     1
 71
     2
176
     1
 72
     2
176
     1
 73
     0
176
     1
 90
        0
176
     1
 40
-0.6
176
     1
 41
-30.0
176
     1
 62
     5
 63
     7
421
 16777215
176
     1
 74
     1
176
     1
 91
        4
176
     1
 64
     7
176
     1
 65
   257
176
     1
 75
     7
176
     1
175
     7
176
     1
 42
1.0
176
     1
 92
        8
176
     1
 66
     7
176
     1
 43
1.0
176
     1
 76
     1
176
     1
 77
     6
176
     1
 78
     2
176
     1
 67
     7
176
     1
 79
     5
176
     1
170
     0
176
     1
171
     0
176
     1
290
     0
176
     1
 93
        1
176
     1
 44
0.0
176
     1
173
     0
176
     1
  0
VISUALSTYLE
  5
33
102
{ACAD_REACTORS
330
2A
102
}
330
2A
100
AcDbVisualStyle
  2
Realistic
 70
     8
177
     2
291
     0
 71
     2
176
     1
 72
     2
176
     1
 73
     0
176
     1
 90
        0
176
     1
 40
-0.6
176
     1
 41
-30.0
176
     1
 62
     5
 63
     7
421
 16777215
176
     1
 74
     1
176
     1
 91
        0
176
     1
 64
     7
176
     1
 65
   257
176
     1
 75
     1
176
     1
175
     1
176
     1
 42
1.0
176
     1
 92
        8
176
     1
 66
     8
424
  7895160
176
     1
 43
1.0
176
     1
 76
     1
176
     1
 77
     6
176
     1
 78
     2
176
     1
 67
     7
176
     1
 79
     5
176
     1
170
     0
176
     1
171
     0
176
     1
290
     0
176
     1
 93
       13
176
     1
 44
0.0
176
     1
173
     0
176
     1
  0
VISUALSTYLE
  5
37
102
{ACAD_REACTORS
330
2A
102
}
330
2A
100
AcDbVisualStyle
  2
Thicken
 70
    13
177
     2
291
     1
 71
     2
176
     1
 72
     2
176
     1
 73
     0
176
     1
 90
        0
176
     1
 40
-0.6
176
     1
 41
-30.0
176
     1
 62
     5
 63
     7
421
 16777215
176
     1
 74
     1
176
     1
 91
        4
176
     1
 64
     7
176
     1
 65
   257
176
     1
 75
     1
176
     1
175
     1
176
     1
 42
1.0
176
     1
 92
       12
176
     1
 66
     7
176
     1
 43
1.0
176
     1
 76
     1
176
     1
 77
     6
176
     1
 78
     2
176
     1
 67
     7
176
     1
 79
     5
176
     1
170
     0
176
     1
171
     0
176
     1
290
     0
176
     1
 93
        1
176
     1
 44
0.0
176
     1
173
     0
176
     1
  0
ENDSEC
  0
EOF
