  0
SECTION
  2
HEADER
  9
$ACADVER
  1
AC1024
  9
$ACADMAINTVER
 70
     6
  9
$DWGCODEPAGE
  3
ANSI_1252
  9
$INSBASE
 10
0.0
 20
0.0
 30
0.0
  9
$EXTMIN
 10
1.000000000000000E+20
 20
1.000000000000000E+20
 30
1.000000000000000E+20
  9
$EXTMAX
 10
-1.000000000000000E+20
 20
-1.000000000000000E+20
 30
-1.000000000000000E+20
  9
$LIMMIN
 10
0.0
 20
0.0
  9
$LIMMAX
 10
12.0
 20
9.0
  9
$ORTHOMODE
 70
     0
  9
$REGENMODE
 70
     1
  9
$FILLMODE
 70
     1
  9
$QTEXTMODE
 70
     0
  9
$MIRRTEXT
 70
     1
  9
$LTSCALE
 40
1.0
  9
$ATTMODE
 70
     1
  9
$TEXTSIZE
 40
0.2
  9
$TRACEWID
 40
0.05
  9
$TEXTSTYLE
  7
Standard
  9
$CLAYER
  8
0
  9
$CELTYPE
  6
ByLayer
  9
$CECOLOR
 62
   256
  9
$CELTSCALE
 40
1.0
  9
$DISPSILH
 70
     0
  9
$DIMSCALE
 40
1.0
  9
$DIMASZ
 40
0.18
  9
$DIMEXO
 40
0.0625
  9
$DIMDLI
 40
0.38
  9
$DIMRND
 40
0.0
  9
$DIMDLE
 40
0.0
  9
$DIMEXE
 40
0.18
  9
$DIMTP
 40
0.0
  9
$DIMTM
 40
0.0
  9
$DIMTXT
 40
0.18
  9
$DIMCEN
 40
0.09
  9
$DIMTSZ
 40
0.0
  9
$DIMTOL
 70
     0
  9
$DIMLIM
 70
     0
  9
$DIMTIH
 70
     1
  9
$DIMTOH
 70
     1
  9
$DIMSE1
 70
     0
  9
$DIMSE2
 70
     0
  9
$DIMTAD
 70
     0
  9
$DIMZIN
 70
     0
  9
$DIMBLK
  1

  9
$DIMASO
 70
     1
  9
$DIMSHO
 70
     1
  9
$DIMPOST
  1

  9
$DIMAPOST
  1

  9
$DIMALT
 70
     0
  9
$DIMALTD
 70
     2
  9
$DIMALTF
 40
25.4
  9
$DIMLFAC
 40
1.0
  9
$DIMTOFL
 70
     0
  9
$DIMTVP
 40
0.0
  9
$DIMTIX
 70
     0
  9
$DIMSOXD
 70
     0
  9
$DIMSAH
 70
     0
  9
$DIMBLK1
  1

  9
$DIMBLK2
  1

  9
$DIMSTYLE
  2
Standard
  9
$DIMCLRD
 70
     0
  9
$DIMCLRE
 70
     0
  9
$DIMCLRT
 70
     0
  9
$DIMTFAC
 40
1.0
  9
$DIMGAP
 40
0.09
  9
$DIMJUST
 70
     0
  9
$DIMSD1
 70
     0
  9
$DIMSD2
 70
     0
  9
$DIMTOLJ
 70
     1
  9
$DIMTZIN
 70
     0
  9
$DIMALTZ
 70
     0
  9
$DIMALTTZ
 70
     0
  9
$DIMUPT
 70
     0
  9
$DIMDEC
 70
     4
  9
$DIMTDEC
 70
     4
  9
$DIMALTU
 70
     2
  9
$DIMALTTD
 70
     2
  9
$DIMTXSTY
  7
Standard
  9
$DIMAUNIT
 70
     0
  9
$DIMADEC
 70
     0
  9
$DIMALTRND
 40
0.0
  9
$DIMAZIN
 70
     0
  9
$DIMDSEP
 70
    46
  9
$DIMATFIT
 70
     3
  9
$DIMFRAC
 70
     0
  9
$DIMLDRBLK
  1

  9
$DIMLUNIT
 70
     2
  9
$DIMLWD
 70
    -2
  9
$DIMLWE
 70
    -2
  9
$DIMTMOVE
 70
     0
  9
$DIMFXL
 40
1.0
  9
$DIMFXLON
 70
     0
  9
$DIMJOGANG
 40
0.7853981633974483
  9
$DIMTFILL
 70
     0
  9
$DIMTFILLCLR
 70
     0
  9
$DIMARCSYM
 70
     0
  9
$DIMLTYPE
  6

  9
$DIMLTEX1
  6

  9
$DIMLTEX2
  6

  9
$DIMTXTDIRECTION
 70
     0
  9
$LUNITS
 70
     2
  9
$LUPREC
 70
     4
  9
$SKETCHINC
 40
0.1
  9
$FILLETRAD
 40
0.5
  9
$AUNITS
 70
     0
  9
$AUPREC
 70
     0
  9
$MENU
  1
.
  9
$ELEVATION
 40
0.0
  9
$PELEVATION
 40
0.0
  9
$THICKNESS
 40
0.0
  9
$LIMCHECK
 70
     0
  9
$CHAMFERA
 40
0.5
  9
$CHAMFERB
 40
0.5
  9
$CHAMFERC
 40
1.0
  9
$CHAMFERD
 40
0.0
  9
$SKPOLY
 70
     0
  9
$TDCREATE
 40
2458775.664133623
  9
$TDUCREATE
 40
2458775.122466956
  9
$TDUPDATE
 40
2458775.66413375
  9
$TDUUPDATE
 40
2458775.122467083
  9
$TDINDWG
 40
0.0000000116
  9
$TDUSRTIMER
 40
0.0000000116
  9
$USRTIMER
 70
     1
  9
$ANGBASE
 50
0.0
  9
$ANGDIR
 70
     0
  9
$PDMODE
 70
     0
  9
$PDSIZE
 40
0.0
  9
$PLINEWID
 40
0.0
  9
$SPLFRAME
 70
     0
  9
$SPLINETYPE
 70
     6
  9
$SPLINESEGS
 70
     8
  9
$HANDSEED
  5
208
  9
$SURFTAB1
 70
     6
  9
$SURFTAB2
 70
     6
  9
$SURFTYPE
 70
     6
  9
$SURFU
 70
     6
  9
$SURFV
 70
     6
  9
$UCSBASE
  2

  9
$UCSNAME
  2

  9
$UCSORG
 10
0.0
 20
0.0
 30
0.0
  9
$UCSXDIR
 10
1.0
 20
0.0
 30
0.0
  9
$UCSYDIR
 10
0.0
 20
1.0
 30
0.0
  9
$UCSORTHOREF
  2

  9
$UCSORTHOVIEW
 70
     0
  9
$UCSORGTOP
 10
0.0
 20
0.0
 30
0.0
  9
$UCSORGBOTTOM
 10
0.0
 20
0.0
 30
0.0
  9
$UCSORGLEFT
 10
0.0
 20
0.0
 30
0.0
  9
$UCSORGRIGHT
 10
0.0
 20
0.0
 30
0.0
  9
$UCSORGFRONT
 10
0.0
 20
0.0
 30
0.0
  9
$UCSORGBACK
 10
0.0
 20
0.0
 30
0.0
  9
$PUCSBASE
  2

  9
$PUCSNAME
  2

  9
$PUCSORG
 10
0.0
 20
0.0
 30
0.0
  9
$PUCSXDIR
 10
1.0
 20
0.0
 30
0.0
  9
$PUCSYDIR
 10
0.0
 20
1.0
 30
0.0
  9
$PUCSORTHOREF
  2

  9
$PUCSORTHOVIEW
 70
     0
  9
$PUCSORGTOP
 10
0.0
 20
0.0
 30
0.0
  9
$PUCSORGBOTTOM
 10
0.0
 20
0.0
 30
0.0
  9
$PUCSORGLEFT
 10
0.0
 20
0.0
 30
0.0
  9
$PUCSORGRIGHT
 10
0.0
 20
0.0
 30
0.0
  9
$PUCSORGFRONT
 10
0.0
 20
0.0
 30
0.0
  9
$PUCSORGBACK
 10
0.0
 20
0.0
 30
0.0
  9
$USERI1
 70
     0
  9
$USERI2
 70
     0
  9
$USERI3
 70
     0
  9
$USERI4
 70
     0
  9
$USERI5
 70
     0
  9
$USERR1
 40
0.0
  9
$USERR2
 40
0.0
  9
$USERR3
 40
0.0
  9
$USERR4
 40
0.0
  9
$USERR5
 40
0.0
  9
$WORLDVIEW
 70
     1
  9
$SHADEDGE
 70
     3
  9
$SHADEDIF
 70
    70
  9
$TILEMODE
 70
     1
  9
$MAXACTVP
 70
    64
  9
$PINSBASE
 10
0.0
 20
0.0
 30
0.0
  9
$PLIMCHECK
 70
     0
  9
$PEXTMIN
 10
1.000000000000000E+20
 20
1.000000000000000E+20
 30
1.000000000000000E+20
  9
$PEXTMAX
 10
-1.000000000000000E+20
 20
-1.000000000000000E+20
 30
-1.000000000000000E+20
  9
$PLIMMIN
 10
0.0
 20
0.0
  9
$PLIMMAX
 10
12.0
 20
9.0
  9
$UNITMODE
 70
     0
  9
$VISRETAIN
 70
     1
  9
$PLINEGEN
 70
     0
  9
$PSLTSCALE
 70
     1
  9
$TREEDEPTH
 70
  3020
  9
$CMLSTYLE
  2
Standard
  9
$CMLJUST
 70
     0
  9
$CMLSCALE
 40
1.0
  9
$PROXYGRAPHICS
 70
     1
  9
$MEASUREMENT
 70
     0
  9
$CELWEIGHT
370
    -1
  9
$ENDCAPS
280
     0
  9
$JOINSTYLE
280
     0
  9
$LWDISPLAY
290
     1
  9
$INSUNITS
 70
     1
  9
$HYPERLINKBASE
  1

  9
$STYLESHEET
  1

  9
$XEDIT
290
     1
  9
$CEPSNTYPE
380
     0
  9
$PSTYLEMODE
290
     1
  9
$FINGERPRINTGUID
  2
{5ECF9BBC-E0E2-4B95-867D-2B44D12D5385}
  9
$VERSIONGUID
  2
{FAEB1C32-E019-11D5-929B-00C0DF256EC4}
  9
$EXTNAMES
290
     1
  9
$PSVPSCALE
 40
0.0
  9
$OLESTARTUP
290
     0
  9
$SORTENTS
280
   127
  9
$INDEXCTL
280
     0
  9
$HIDETEXT
280
     1
  9
$XCLIPFRAME
280
     2
  9
$HALOGAP
280
     0
  9
$OBSCOLOR
 70
   257
  9
$OBSLTYPE
280
     0
  9
$INTERSECTIONDISPLAY
280
     0
  9
$INTERSECTIONCOLOR
 70
   257
  9
$DIMASSOC
280
     2
  9
$PROJECTNAME
  1

  9
$CAMERADISPLAY
290
     0
  9
$LENSLENGTH
 40
50.0
  9
$CAMERAHEIGHT
 40
0.0
  9
$STEPSPERSEC
 40
2.0
  9
$STEPSIZE
 40
6.0
  9
$3DDWFPREC
 40
2.0
  9
$PSOLWIDTH
 40
0.25
  9
$PSOLHEIGHT
 40
4.0
  9
$LOFTANG1
 40
1.570796326794897
  9
$LOFTANG2
 40
1.570796326794897
  9
$LOFTMAG1
 40
0.0
  9
$LOFTMAG2
 40
0.0
  9
$LOFTPARAM
 70
     7
  9
$LOFTNORMALS
280
     1
  9
$LATITUDE
 40
37.795
  9
$LONGITUDE
 40
-122.394
  9
$NORTHDIRECTION
 40
0.0
  9
$TIMEZONE
 70
 -8000
  9
$LIGHTGLYPHDISPLAY
280
     1
  9
$TILEMODELIGHTSYNCH
280
     1
  9
$CMATERIAL
347
3C
  9
$SOLIDHIST
280
     1
  9
$SHOWHIST
280
     1
  9
$DWFFRAME
280
     2
  9
$DGNFRAME
280
     2
  9
$REALWORLDSCALE
290
     1
  9
$INTERFERECOLOR
 62
   256
  9
$CSHADOW
280
     0
  9
$SHADOWPLANELOCATION
 40
0.0
  0
ENDSEC
  0
SECTION
  2
CLASSES
  0
CLASS
  1
ACDBDICTIONARYWDFLT
  2
AcDbDictionaryWithDefault
  3
ObjectDBX Classes
 90
        0
 91
        4
280
     0
281
     0
  0
CLASS
  1
VISUALSTYLE
  2
AcDbVisualStyle
  3
ObjectDBX Classes
 90
     4095
 91
        4
280
     0
281
     0
  0
CLASS
  1
MATERIAL
  2
AcDbMaterial
  3
ObjectDBX Classes
 90
     1153
 91
        4
280
     0
281
     0
  0
CLASS
  1
SUN
  2
AcDbSun
  3
SCENEOE
 90
     1024
 91
        4
280
     0
281
     0
  0
ENDSEC
  0
SECTION
  2
TABLES
  0
TABLE
  2
VPORT
  5
8
330
0
100
AcDbSymbolTable
 70
     1
  0
VPORT
  5
29
330
8
100
AcDbSymbolTableRecord
100
AcDbViewportTableRecord
  2
*Active
 70
     0
 10
0.0
 20
0.0
 11
1.0
 21
1.0
 12
0.0
 22
0.0
 13
0.0
 23
0.0
 14
0.5
 24
0.5
 15
0.5
 25
0.5
 16
0.0
 26
0.0
 36
1.0
 17
3.970989903479449
 27
8.480002742504565
 37
0.0
 40
11.69291338582671
 41
0.7070707070707096
 42
50.0
 43
0.0
 44
0.0
 50
0.0
 51
0.0
 71
     0
 72
   100
 73
     1
 74
     3
 75
     0
 76
     0
 77
     0
 78
     0
281
     0
 65
     1
110
0.0
120
0.0
130
0.0
111
1.0
121
0.0
131
0.0
112
0.0
122
1.0
132
0.0
 79
     0
146
0.0
 60
     3
 61
     5
292
     1
282
     1
141
0.0
142
0.0
 63
   250
361
3F
  0
ENDTAB
  0
TABLE
  2
LTYPE
  5
5
330
0
100
AcDbSymbolTable
 70
     1
  0
LTYPE
  5
14
330
5
100
AcDbSymbolTableRecord
100
AcDbLinetypeTableRecord
  2
ByBlock
 70
     0
  3

 72
    65
 73
     0
 40
0.0
  0
LTYPE
  5
15
330
5
100
AcDbSymbolTableRecord
100
AcDbLinetypeTableRecord
  2
ByLayer
 70
     0
  3

 72
    65
 73
     0
 40
0.0
  0
LTYPE
  5
16
330
5
100
AcDbSymbolTableRecord
100
AcDbLinetypeTableRecord
  2
Continuous
 70
     0
  3
Solid line
 72
    65
 73
     0
 40
0.0
  0
ENDTAB
  0
TABLE
  2
LAYER
  5
2
330
0
100
AcDbSymbolTable
 70
     3
  0
LAYER
  5
10
330
2
100
AcDbSymbolTableRecord
100
AcDbLayerTableRecord
  2
0
 70
     0
 62
     7
  6
Continuous
370
    -3
390
F
347
3E
  0
LAYER
  5
40
330
2
100
AcDbSymbolTableRecord
100
AcDbLayerTableRecord
  2
H1
 70
     0
 62
     7
  6
Continuous
370
    -3
390
F
347
3E
  0
LAYER
  5
198
330
2
100
AcDbSymbolTableRecord
100
AcDbLayerTableRecord
  2
Callout
 70
     0
 62
     7
  6
Continuous
370
    -3
390
F
347
3E
  0
ENDTAB
  0
TABLE
  2
STYLE
  5
3
330
0
100
AcDbSymbolTable
 70
     1
  0
STYLE
  5
11
330
3
100
AcDbSymbolTableRecord
100
AcDbTextStyleTableRecord
  2
Standard
 70
     0
 40
0.0
 41
1.0
 50
0.0
 71
     0
 42
0.2
  3
txt
  4

  0
ENDTAB
  0
TABLE
  2
VIEW
  5
6
330
0
100
AcDbSymbolTable
 70
     0
  0
ENDTAB
  0
TABLE
  2
UCS
  5
7
330
0
100
AcDbSymbolTable
 70
     0
  0
ENDTAB
  0
TABLE
  2
APPID
  5
9
330
0
100
AcDbSymbolTable
 70
     1
  0
APPID
  5
12
330
9
100
AcDbSymbolTableRecord
100
AcDbRegAppTableRecord
  2
ACAD
 70
     0
  0
ENDTAB
  0
TABLE
  2
DIMSTYLE
  5
A
330
0
100
AcDbSymbolTable
 70
     1
100
AcDbDimStyleTable
  0
DIMSTYLE
105
27
330
A
100
AcDbSymbolTableRecord
100
AcDbDimStyleTableRecord
  2
Standard
 70
     0
178
     0
340
11
  0
ENDTAB
  0
TABLE
  2
BLOCK_RECORD
  5
1
330
0
100
AcDbSymbolTable
 70
    25
  0
BLOCK_RECORD
  5
1F
330
1
100
AcDbSymbolTableRecord
100
AcDbBlockTableRecord
  2
*Model_Space
340
22
 70
     0
280
     1
281
     0
  0
BLOCK_RECORD
  5
1B
330
1
100
AcDbSymbolTableRecord
100
AcDbBlockTableRecord
  2
*Paper_Space
340
1E
 70
     0
280
     1
281
     0
  0
BLOCK_RECORD
  5
23
330
1
100
AcDbSymbolTableRecord
100
AcDbBlockTableRecord
  2
*Paper_Space0
340
26
 70
     0
280
     1
281
     0
  0
BLOCK_RECORD
  5
41
330
1
100
AcDbSymbolTableRecord
100
AcDbBlockTableRecord
  2
block 2
340
0
102
{BLKREFS
331
42
102
}
 70
     0
280
     1
281
     0
  0
BLOCK_RECORD
  5
C9
330
1
100
AcDbSymbolTableRecord
100
AcDbBlockTableRecord
  2
block 3
340
0
102
{BLKREFS
331
CA
102
}
 70
     0
280
     1
281
     0
  0
BLOCK_RECORD
  5
F4
330
1
100
AcDbSymbolTableRecord
100
AcDbBlockTableRecord
  2
block 4
340
0
102
{BLKREFS
331
F5
102
}
 70
     0
280
     1
281
     0
  0
BLOCK_RECORD
  5
114
330
1
100
AcDbSymbolTableRecord
100
AcDbBlockTableRecord
  2
block 5
340
0
102
{BLKREFS
331
115
102
}
 70
     0
280
     1
281
     0
  0
BLOCK_RECORD
  5
12A
330
1
100
AcDbSymbolTableRecord
100
AcDbBlockTableRecord
  2
block 6
340
0
102
{BLKREFS
331
12B
102
}
 70
     0
280
     1
281
     0
  0
BLOCK_RECORD
  5
149
330
1
100
AcDbSymbolTableRecord
100
AcDbBlockTableRecord
  2
block 7
340
0
102
{BLKREFS
331
14A
102
}
 70
     0
280
     1
281
     0
  0
BLOCK_RECORD
  5
14E
330
1
100
AcDbSymbolTableRecord
100
AcDbBlockTableRecord
  2
block 8
340
0
102
{BLKREFS
331
14F
102
}
 70
     0
280
     1
281
     0
  0
BLOCK_RECORD
  5
153
330
1
100
AcDbSymbolTableRecord
100
AcDbBlockTableRecord
  2
block 9
340
0
102
{BLKREFS
331
154
102
}
 70
     0
280
     1
281
     0
  0
BLOCK_RECORD
  5
158
330
1
100
AcDbSymbolTableRecord
100
AcDbBlockTableRecord
  2
block 10
340
0
102
{BLKREFS
331
159
102
}
 70
     0
280
     1
281
     0
  0
BLOCK_RECORD
  5
15F
330
1
100
AcDbSymbolTableRecord
100
AcDbBlockTableRecord
  2
block 11
340
0
102
{BLKREFS
331
160
102
}
 70
     0
280
     1
281
     0
  0
BLOCK_RECORD
  5
166
330
1
100
AcDbSymbolTableRecord
100
AcDbBlockTableRecord
  2
block 12
340
0
102
{BLKREFS
331
167
102
}
 70
     0
280
     1
281
     0
  0
BLOCK_RECORD
  5
16C
330
1
100
AcDbSymbolTableRecord
100
AcDbBlockTableRecord
  2
block 13
340
0
102
{BLKREFS
331
16D
102
}
 70
     0
280
     1
281
     0
  0
BLOCK_RECORD
  5
170
330
1
100
AcDbSymbolTableRecord
100
AcDbBlockTableRecord
  2
block 14
340
0
102
{BLKREFS
331
171
102
}
 70
     0
280
     1
281
     0
  0
BLOCK_RECORD
  5
177
330
1
100
AcDbSymbolTableRecord
100
AcDbBlockTableRecord
  2
block 15
340
0
102
{BLKREFS
331
178
102
}
 70
     0
280
     1
281
     0
  0
BLOCK_RECORD
  5
17B
330
1
100
AcDbSymbolTableRecord
100
AcDbBlockTableRecord
  2
block 16
340
0
102
{BLKREFS
331
17C
102
}
 70
     0
280
     1
281
     0
  0
BLOCK_RECORD
  5
182
330
1
100
AcDbSymbolTableRecord
100
AcDbBlockTableRecord
  2
block 17
340
0
102
{BLKREFS
331
183
102
}
 70
     0
280
     1
281
     0
  0
BLOCK_RECORD
  5
186
330
1
100
AcDbSymbolTableRecord
100
AcDbBlockTableRecord
  2
block 18
340
0
102
{BLKREFS
331
187
102
}
 70
     0
280
     1
281
     0
  0
BLOCK_RECORD
  5
18D
330
1
100
AcDbSymbolTableRecord
100
AcDbBlockTableRecord
  2
block 19
340
0
102
{BLKREFS
331
18E
102
}
 70
     0
280
     1
281
     0
  0
BLOCK_RECORD
  5
199
330
1
100
AcDbSymbolTableRecord
100
AcDbBlockTableRecord
  2
block 20
340
0
102
{BLKREFS
331
19A
102
}
 70
     0
280
     1
281
     0
  0
BLOCK_RECORD
  5
19D
330
1
100
AcDbSymbolTableRecord
100
AcDbBlockTableRecord
  2
block 21
340
0
102
{BLKREFS
331
19E
102
}
 70
     0
280
     1
281
     0
  0
BLOCK_RECORD
  5
1B3
330
1
100
AcDbSymbolTableRecord
100
AcDbBlockTableRecord
  2
block 22
340
0
102
{BLKREFS
331
1B4
102
}
 70
     0
280
     1
281
     0
  0
BLOCK_RECORD
  5
1C7
330
1
100
AcDbSymbolTableRecord
100
AcDbBlockTableRecord
  2
block 23
340
0
102
{BLKREFS
331
1C8
102
}
 70
     0
280
     1
281
     0
  0
BLOCK_RECORD
  5
1CB
330
1
100
AcDbSymbolTableRecord
100
AcDbBlockTableRecord
  2
block 24
340
0
102
{BLKREFS
331
1CC
102
}
 70
     0
280
     1
281
     0
  0
BLOCK_RECORD
  5
1E1
330
1
100
AcDbSymbolTableRecord
100
AcDbBlockTableRecord
  2
block 25
340
0
102
{BLKREFS
331
1E2
102
}
 70
     0
280
     1
281
     0
  0
ENDTAB
  0
ENDSEC
  0
SECTION
  2
BLOCKS
  0
BLOCK
  5
20
330
1F
100
AcDbEntity
  8
0
100
AcDbBlockBegin
  2
*Model_Space
 70
     0
 10
0.0
 20
0.0
 30
0.0
  3
*Model_Space
  1

  0
ENDBLK
  5
21
330
1F
100
AcDbEntity
  8
0
100
AcDbBlockEnd
  0
BLOCK
  5
1C
330
1B
100
AcDbEntity
 67
     1
  8
0
100
AcDbBlockBegin
  2
*Paper_Space
 70
     0
 10
0.0
 20
0.0
 30
0.0
  3
*Paper_Space
  1

  0
ENDBLK
  5
1D
330
1B
100
AcDbEntity
 67
     1
  8
0
100
AcDbBlockEnd
  0
BLOCK
  5
24
330
23
100
AcDbEntity
  8
0
100
AcDbBlockBegin
  2
*Paper_Space0
 70
     0
 10
0.0
 20
0.0
 30
0.0
  3
*Paper_Space0
  1

  0
ENDBLK
  5
25
330
23
100
AcDbEntity
  8
0
100
AcDbBlockEnd
  0
BLOCK
  5
43
330
41
100
AcDbEntity
  8
0
100
AcDbBlockBegin
  2
block 2
 70
     0
 10
0.0
 20
0.0
 30
0.0
  3
block 2
  1

  0
POLYLINE
  5
45
330
41
100
AcDbEntity
  8
H1
 62
   250
420
  2301728
370
    25
100
AcDb2dPolyline
 66
     1
 10
0.0
 20
0.0
 30
0.0
  0
VERTEX
  5
46
330
45
100
AcDbEntity
  8
H1
 62
   250
420
  2301728
370
    25
100
AcDbVertex
100
AcDb2dVertex
 10
2.540581955827911
 20
10.20558225078053
 30
0.0
  0
VERTEX
  5
47
330
45
100
AcDbEntity
  8
H1
 62
   250
420
  2301728
370
    25
100
AcDbVertex
100
AcDb2dVertex
 10
2.989722882553603
 20
10.39447613701293
 30
0.0
  0
VERTEX
  5
48
330
45
100
AcDbEntity
  8
H1
 62
   250
420
  2301728
370
    25
100
AcDbVertex
100
AcDb2dVertex
 10
5.412850772980947
 20
9.5659435335274
 30
0.0
  0
VERTEX
  5
49
330
45
100
AcDbEntity
  8
H1
 62
   250
420
  2301728
370
    25
100
AcDbVertex
100
AcDb2dVertex
 10
5.411353764903575
 20
9.5659435335274
 30
0.0
  0
VERTEX
  5
4A
330
45
100
AcDbEntity
  8
H1
 62
   250
420
  2301728
370
    25
100
AcDbVertex
100
AcDb2dVertex
 10
5.411353764903575
 20
8.767071116511817
 30
0.0
  0
VERTEX
  5
4B
330
45
100
AcDbEntity
  8
H1
 62
   250
420
  2301728
370
    25
100
AcDbVertex
100
AcDb2dVertex
 10
5.315175435068769
 20
8.707613740854804
 30
0.0
  0
VERTEX
  5
4C
330
45
100
AcDbEntity
  8
H1
 62
   250
420
  2301728
370
    25
100
AcDbVertex
100
AcDb2dVertex
 10
5.533720654357719
 20
8.56619965124062
 30
0.0
  0
VERTEX
  5
4D
330
45
100
AcDbEntity
  8
H1
 62
   250
420
  2301728
370
    25
100
AcDbVertex
100
AcDb2dVertex
 10
5.411353764903575
 20
8.490552526501068
 30
0.0
  0
VERTEX
  5
4E
330
45
100
AcDbEntity
  8
H1
 62
   250
420
  2301728
370
    25
100
AcDbVertex
100
AcDb2dVertex
 10
5.411353764903575
 20
7.631149070899697
 30
0.0
  0
VERTEX
  5
4F
330
45
100
AcDbEntity
  8
H1
 62
   250
420
  2301728
370
    25
100
AcDbVertex
100
AcDb2dVertex
 10
5.412850772980947
 20
7.631149070899697
 30
0.0
  0
VERTEX
  5
50
330
45
100
AcDbEntity
  8
H1
 62
   250
420
  2301728
370
    25
100
AcDbVertex
100
AcDb2dVertex
 10
4.991709860442547
 20
7.371725505190334
 30
0.0
  0
VERTEX
  5
51
330
45
100
AcDbEntity
  8
H1
 62
   250
420
  2301728
370
    25
100
AcDbVertex
100
AcDb2dVertex
 10
2.540581955827911
 20
8.43420372678213
 30
0.0
  0
VERTEX
  5
52
330
45
100
AcDbEntity
  8
H1
 62
   250
420
  2301728
370
    25
100
AcDbVertex
100
AcDb2dVertex
 10
2.540626243255398
 20
8.43420372678213
 30
0.0
  0
VERTEX
  5
53
330
45
100
AcDbEntity
  8
H1
 62
   250
420
  2301728
370
    25
100
AcDbVertex
100
AcDb2dVertex
 10
2.540626243255398
 20
9.234492351701482
 30
0.0
  0
VERTEX
  5
54
330
45
100
AcDbEntity
  8
H1
 62
   250
420
  2301728
370
    25
100
AcDbVertex
100
AcDb2dVertex
 10
2.652657822657779
 20
9.27333672913859
 30
0.0
  0
VERTEX
  5
55
330
45
100
AcDbEntity
  8
H1
 62
   250
420
  2301728
370
    25
100
AcDbVertex
100
AcDb2dVertex
 10
2.431335800446972
 20
9.416547563520048
 30
0.0
  0
VERTEX
  5
56
330
45
100
AcDbEntity
  8
H1
 62
   250
420
  2301728
370
    25
100
AcDbVertex
100
AcDb2dVertex
 10
2.540626243255398
 20
9.457242257926572
 30
0.0
  0
VERTEX
  5
57
330
45
100
AcDbEntity
  8
H1
 62
   250
420
  2301728
370
    25
100
AcDbVertex
100
AcDb2dVertex
 10
2.540626243255398
 20
10.20558225078053
 30
0.0
  0
VERTEX
  5
58
330
45
100
AcDbEntity
  8
H1
 62
   250
420
  2301728
370
    25
100
AcDbVertex
100
AcDb2dVertex
 10
2.540581955827911
 20
10.20558225078053
 30
0.0
  0
SEQEND
  5
5A
330
45
100
AcDbEntity
  8
H1
 62
   250
420
  2301728
370
    25
  0
HATCH
  5
59
330
41
100
AcDbEntity
  8
H1
 62
    43
420
 15510365
100
AcDbHatch
 10
0.0
 20
0.0
 30
0.0
210
0.0
220
0.0
230
1.0
  2
SOLID
 70
     1
 71
     0
 91
        1
 92
        1
 93
       18
 72
     1
 10
2.540581955827911
 20
10.20558225078053
 11
2.989722882553603
 21
10.39447613701293
 72
     1
 10
2.989722882553603
 20
10.39447613701293
 11
5.412850772980947
 21
9.5659435335274
 72
     1
 10
5.412850772980947
 20
9.5659435335274
 11
5.411353764903575
 21
9.5659435335274
 72
     1
 10
5.411353764903575
 20
9.5659435335274
 11
5.411353764903575
 21
8.767071116511817
 72
     1
 10
5.411353764903575
 20
8.767071116511817
 11
5.315175435068769
 21
8.707613740854804
 72
     1
 10
5.315175435068769
 20
8.707613740854804
 11
5.533720654357719
 21
8.56619965124062
 72
     1
 10
5.533720654357719
 20
8.56619965124062
 11
5.411353764903575
 21
8.490552526501068
 72
     1
 10
5.411353764903575
 20
8.490552526501068
 11
5.411353764903575
 21
7.631149070899697
 72
     1
 10
5.411353764903575
 20
7.631149070899697
 11
5.412850772980947
 21
7.631149070899697
 72
     1
 10
5.412850772980947
 20
7.631149070899697
 11
4.991709860442547
 21
7.371725505190334
 72
     1
 10
4.991709860442547
 20
7.371725505190334
 11
2.540581955827911
 21
8.43420372678213
 72
     1
 10
2.540581955827911
 20
8.43420372678213
 11
2.540626243255398
 21
8.43420372678213
 72
     1
 10
2.540626243255398
 20
8.43420372678213
 11
2.540626243255398
 21
9.234492351701482
 72
     1
 10
2.540626243255398
 20
9.234492351701482
 11
2.652657822657779
 21
9.27333672913859
 72
     1
 10
2.652657822657779
 20
9.27333672913859
 11
2.431335800446972
 21
9.416547563520048
 72
     1
 10
2.431335800446972
 20
9.416547563520048
 11
2.540626243255398
 21
9.457242257926572
 72
     1
 10
2.540626243255398
 20
9.457242257926572
 11
2.540626243255398
 21
10.20558225078053
 72
     1
 10
2.540626243255398
 20
10.20558225078053
 11
2.540581955827911
 21
10.20558225078053
 97
        0
 75
     2
 76
     1
 98
        0
  0
POLYLINE
  5
5B
330
41
100
AcDbEntity
  8
H1
 62
   250
420
  2301728
370
    18
100
AcDb2dPolyline
 66
     1
 10
0.0
 20
0.0
 30
0.0
  0
VERTEX
  5
5C
330
5B
100
AcDbEntity
  8
H1
 62
   250
420
  2301728
370
    18
100
AcDbVertex
100
AcDb2dVertex
 10
4.991709860442547
 20
9.306519967818037
 30
0.0
  0
VERTEX
  5
5D
330
5B
100
AcDbEntity
  8
H1
 62
   250
420
  2301728
370
    18
100
AcDbVertex
100
AcDb2dVertex
 10
4.991709860442547
 20
8.507647550802453
 30
0.0
  0
VERTEX
  5
5E
330
5B
100
AcDbEntity
  8
H1
 62
   250
420
  2301728
370
    18
100
AcDbVertex
100
AcDb2dVertex
 10
4.872336987143146
 20
8.463198626683253
 30
0.0
  0
VERTEX
  5
5F
330
5B
100
AcDbEntity
  8
H1
 62
   250
420
  2301728
370
    18
100
AcDbVertex
100
AcDb2dVertex
 10
5.11407674989669
 20
8.306776085531258
 30
0.0
  0
VERTEX
  5
60
330
5B
100
AcDbEntity
  8
H1
 62
   250
420
  2301728
370
    18
100
AcDbVertex
100
AcDb2dVertex
 10
4.991709860442547
 20
8.264348176676297
 30
0.0
  0
VERTEX
  5
61
330
5B
100
AcDbEntity
  8
H1
 62
   250
420
  2301728
370
    18
100
AcDbVertex
100
AcDb2dVertex
 10
4.991709860442547
 20
7.371725505190334
 30
0.0
  0
SEQEND
  5
62
330
5B
100
AcDbEntity
  8
H1
 62
   250
420
  2301728
370
    18
  0
POLYLINE
  5
63
330
41
100
AcDbEntity
  8
H1
 62
   250
420
  2301728
370
    18
100
AcDb2dPolyline
 66
     1
 10
0.0
 20
0.0
 30
0.0
  0
VERTEX
  5
64
330
63
100
AcDbEntity
  8
H1
 62
   250
420
  2301728
370
    18
100
AcDbVertex
100
AcDb2dVertex
 10
2.540581955827911
 20
10.20558225078053
 30
0.0
  0
VERTEX
  5
65
330
63
100
AcDbEntity
  8
H1
 62
   250
420
  2301728
370
    18
100
AcDbVertex
100
AcDb2dVertex
 10
4.991709860442547
 20
9.306519967818037
 30
0.0
  0
SEQEND
  5
66
330
63
100
AcDbEntity
  8
H1
 62
   250
420
  2301728
370
    18
  0
POLYLINE
  5
67
330
41
100
AcDbEntity
  8
H1
 62
   250
420
  2301728
370
    18
100
AcDb2dPolyline
 66
     1
 10
0.0
 20
0.0
 30
0.0
  0
VERTEX
  5
68
330
67
100
AcDbEntity
  8
H1
 62
   250
420
  2301728
370
    18
100
AcDbVertex
100
AcDb2dVertex
 10
4.991709860442547
 20
9.306519967818037
 30
0.0
  0
VERTEX
  5
69
330
67
100
AcDbEntity
  8
H1
 62
   250
420
  2301728
370
    18
100
AcDbVertex
100
AcDb2dVertex
 10
5.412850772980947
 20
9.5659435335274
 30
0.0
  0
SEQEND
  5
6A
330
67
100
AcDbEntity
  8
H1
 62
   250
420
  2301728
370
    18
  0
POLYLINE
  5
6B
330
41
100
AcDbEntity
  8
H1
 62
   250
420
  2301728
370
    18
100
AcDb2dPolyline
 66
     1
 10
0.0
 20
0.0
 30
0.0
  0
VERTEX
  5
6C
330
6B
100
AcDbEntity
  8
H1
 62
   250
420
  2301728
370
    18
100
AcDbVertex
100
AcDb2dVertex
 10
5.11407674989669
 20
8.306776085531258
 30
0.0
  0
VERTEX
  5
6D
330
6B
100
AcDbEntity
  8
H1
 62
   250
420
  2301728
370
    18
100
AcDbVertex
100
AcDb2dVertex
 10
5.533720654357719
 20
8.56619965124062
 30
0.0
  0
SEQEND
  5
6E
330
6B
100
AcDbEntity
  8
H1
 62
   250
420
  2301728
370
    18
  0
POLYLINE
  5
6F
330
41
100
AcDbEntity
  8
H1
 62
   250
420
  2301728
370
    18
100
AcDb2dPolyline
 66
     1
 10
0.0
 20
0.0
 30
0.0
  0
VERTEX
  5
70
330
6F
100
AcDbEntity
  8
H1
 62
   250
420
  2301728
370
    18
100
AcDbVertex
100
AcDb2dVertex
 10
4.991709860442547
 20
8.507647550802453
 30
0.0
  0
VERTEX
  5
71
330
6F
100
AcDbEntity
  8
H1
 62
   250
420
  2301728
370
    18
100
AcDbVertex
100
AcDb2dVertex
 10
5.411353764903575
 20
8.767071116511817
 30
0.0
  0
SEQEND
  5
72
330
6F
100
AcDbEntity
  8
H1
 62
   250
420
  2301728
370
    18
  0
POLYLINE
  5
73
330
41
100
AcDbEntity
  8
H1
 62
   250
420
  2301728
370
     9
100
AcDb2dPolyline
 66
     1
 10
0.0
 20
0.0
 30
0.0
  0
VERTEX
  5
74
330
73
100
AcDbEntity
  8
H1
 62
   250
420
  2301728
370
     9
100
AcDbVertex
100
AcDb2dVertex
 10
5.11407674989669
 20
9.381350431507446
 30
0.0
  0
VERTEX
  5
75
330
73
100
AcDbEntity
  8
H1
 62
   250
420
  2301728
370
     9
100
AcDbVertex
100
AcDb2dVertex
 10
5.100040247543271
 20
9.330717167685394
 30
0.0
  0
VERTEX
  5
76
330
73
100
AcDbEntity
  8
H1
 62
   250
420
  2301728
370
     9
100
AcDbVertex
100
AcDb2dVertex
 10
5.073526854208997
 20
9.271332328840545
 30
0.0
  0
VERTEX
  5
77
330
73
100
AcDbEntity
  8
H1
 62
   250
420
  2301728
370
     9
100
AcDbVertex
100
AcDb2dVertex
 10
4.993206868519918
 20
9.151458730236842
 30
0.0
  0
SEQEND
  5
78
330
73
100
AcDbEntity
  8
H1
 62
   250
420
  2301728
370
     9
  0
SPLINE
  5
79
330
41
100
AcDbEntity
  8
H1
 62
   250
420
  2301728
370
     9
100
AcDbSpline
210
0.0
220
0.0
230
1.0
 70
     8
 71
     3
 72
    17
 73
    13
 74
     0
 42
0.0000000001
 43
0.0000000001
 12
1.0
 22
0.0
 32
0.0
 13
1.0
 23
0.0
 33
0.0
 40
0.0
 40
0.0
 40
0.0
 40
0.0
 40
1.0
 40
1.0
 40
1.0
 40
2.0
 40
2.0
 40
2.0
 40
3.0
 40
3.0
 40
3.0
 40
4.0
 40
4.0
 40
4.0
 40
4.0
 10
5.235608119174407
 20
9.456761737417537
 30
0.0
 10
5.235608119174407
 20
9.456761737417537
 30
0.0
 10
5.152837265146596
 20
9.261985438450841
 30
0.0
 10
5.152172343992889
 20
9.251122573262617
 30
0.0
 10
5.151507422839182
 20
9.240259708074378
 30
0.0
 10
5.126313350139096
 20
9.191458078789537
 30
0.0
 10
5.117855632958986
 20
9.176868609116871
 30
0.0
 10
5.109397915778875
 20
9.162279139444195
 30
0.0
 10
5.087765854571217
 20
9.120729084294199
 30
0.0
 10
5.087765854571217
 20
9.120729084294199
 30
0.0
 10
5.087765854571217
 20
9.120729084294199
 30
0.0
 10
4.993206868519918
 20
9.006291890160039
 30
0.0
 10
4.993206868519918
 20
9.006291890160039
 30
0.0
  0
POLYLINE
  5
7A
330
41
100
AcDbEntity
  8
H1
 62
   250
420
  2301728
370
     9
100
AcDb2dPolyline
 66
     1
 10
0.0
 20
0.0
 30
0.0
  0
VERTEX
  5
7B
330
7A
100
AcDbEntity
  8
H1
 62
   250
420
  2301728
370
     9
100
AcDbVertex
100
AcDb2dVertex
 10
5.317382908286036
 20
9.50713515577911
 30
0.0
  0
VERTEX
  5
7C
330
7A
100
AcDbEntity
  8
H1
 62
   250
420
  2301728
370
     9
100
AcDbVertex
100
AcDb2dVertex
 10
5.266613816323039
 20
9.304398584482605
 30
0.0
  0
VERTEX
  5
7D
330
7A
100
AcDbEntity
  8
H1
 62
   250
420
  2301728
370
     9
100
AcDbVertex
100
AcDb2dVertex
 10
5.162424702447424
 20
9.084901380825562
 30
0.0
  0
VERTEX
  5
7E
330
7A
100
AcDbEntity
  8
H1
 62
   250
420
  2301728
370
     9
100
AcDbVertex
100
AcDb2dVertex
 10
5.108350901613195
 20
9.013028408107289
 30
0.0
  0
VERTEX
  5
7F
330
7A
100
AcDbEntity
  8
H1
 62
   250
420
  2301728
370
     9
100
AcDbVertex
100
AcDb2dVertex
 10
4.991709860442547
 20
8.840938086301106
 30
0.0
  0
SEQEND
  5
80
330
7A
100
AcDbEntity
  8
H1
 62
   250
420
  2301728
370
     9
  0
SPLINE
  5
81
330
41
100
AcDbEntity
  8
H1
 62
   250
420
  2301728
370
     9
100
AcDbSpline
210
0.0
220
0.0
230
1.0
 70
     8
 71
     3
 72
    20
 73
    16
 74
     0
 42
0.0000000001
 43
0.0000000001
 12
1.0
 22
0.0
 32
0.0
 13
1.0
 23
0.0
 33
0.0
 40
0.0
 40
0.0
 40
0.0
 40
0.0
 40
1.0
 40
1.0
 40
1.0
 40
2.0
 40
2.0
 40
2.0
 40
3.0
 40
3.0
 40
3.0
 40
4.0
 40
4.0
 40
4.0
 40
5.0
 40
5.0
 40
5.0
 40
5.0
 10
5.411353764903575
 20
9.477320636710107
 30
0.0
 10
5.411353764903575
 20
9.477320636710107
 30
0.0
 10
5.296840955494139
 20
9.196785402491502
 30
0.0
 10
5.296840955494139
 20
9.196785402491502
 30
0.0
 10
5.296840955494139
 20
9.196785402491502
 30
0.0
 10
5.265359053039244
 20
9.136274843514583
 30
0.0
 10
5.241964882450197
 20
9.088452147947855
 30
0.0
 10
5.218570711861148
 20
9.040629452381115
 30
0.0
 10
5.186627277566054
 20
8.966190537005065
 30
0.0
 10
5.186627277566054
 20
8.966190537005065
 30
0.0
 10
5.186627277566054
 20
8.966190537005065
 30
0.0
 10
5.134351697740562
 20
8.868336870319443
 30
0.0
 10
5.134351697740562
 20
8.868336870319443
 30
0.0
 10
5.134351697740562
 20
8.868336870319443
 30
0.0
 10
4.993206868519918
 20
8.660007107652657
 30
0.0
 10
4.993206868519918
 20
8.660007107652657
 30
0.0
  0
SPLINE
  5
82
330
41
100
AcDbEntity
  8
H1
 62
   250
420
  2301728
370
     9
100
AcDbSpline
210
0.0
220
0.0
230
1.0
 70
     8
 71
     3
 72
    17
 73
    13
 74
     0
 42
0.0000000001
 43
0.0000000001
 12
1.0
 22
0.0
 32
0.0
 13
1.0
 23
0.0
 33
0.0
 40
0.0
 40
0.0
 40
0.0
 40
0.0
 40
1.0
 40
1.0
 40
1.0
 40
2.0
 40
2.0
 40
2.0
 40
3.0
 40
3.0
 40
3.0
 40
4.0
 40
4.0
 40
4.0
 40
4.0
 10
5.036338450664466
 20
8.53523691379539
 30
0.0
 10
5.036338450664466
 20
8.53523691379539
 30
0.0
 10
5.214476633298545
 20
8.77122187277247
 30
0.0
 10
5.214476633298545
 20
8.77122187277247
 30
0.0
 10
5.214476633298545
 20
8.77122187277247
 30
0.0
 10
5.247593631762988
 20
8.854871992519735
 30
0.0
 10
5.266613816323039
 20
8.8900451016641
 30
0.0
 10
5.285634000883091
 20
8.925218210808477
 30
0.0
 10
5.317382908286036
 20
8.990628490334137
 30
0.0
 10
5.317382908286036
 20
8.990628490334137
 30
0.0
 10
5.317382908286036
 20
8.990628490334137
 30
0.0
 10
5.411353764903575
 20
9.279424372242854
 30
0.0
 10
5.411353764903575
 20
9.279424372242854
 30
0.0
  0
POLYLINE
  5
83
330
41
100
AcDbEntity
  8
H1
 62
   250
420
  2301728
370
     9
100
AcDb2dPolyline
 66
     1
 10
0.0
 20
0.0
 30
0.0
  0
VERTEX
  5
84
330
83
100
AcDbEntity
  8
H1
 62
   250
420
  2301728
370
     9
100
AcDbVertex
100
AcDb2dVertex
 10
5.211117698370217
 20
8.643362623582435
 30
0.0
  0
VERTEX
  5
85
330
83
100
AcDbEntity
  8
H1
 62
   250
420
  2301728
370
     9
100
AcDbVertex
100
AcDb2dVertex
 10
5.271200945176259
 20
8.723127385607842
 30
0.0
  0
VERTEX
  5
86
330
83
100
AcDbEntity
  8
H1
 62
   250
420
  2301728
370
     9
100
AcDbVertex
100
AcDb2dVertex
 10
5.317382908286036
 20
8.792253414884929
 30
0.0
  0
VERTEX
  5
87
330
83
100
AcDbEntity
  8
H1
 62
   250
420
  2301728
370
     9
100
AcDbVertex
100
AcDb2dVertex
 10
5.411353764903575
 20
9.066070945510697
 30
0.0
  0
SEQEND
  5
88
330
83
100
AcDbEntity
  8
H1
 62
   250
420
  2301728
370
     9
  0
SPLINE
  5
89
330
41
100
AcDbEntity
  8
H1
 62
   250
420
  2301728
370
     9
100
AcDbSpline
210
0.0
220
0.0
230
1.0
 70
     8
 71
     3
 72
    11
 73
     7
 74
     0
 42
0.0000000001
 43
0.0000000001
 12
1.0
 22
0.0
 32
0.0
 13
1.0
 23
0.0
 33
0.0
 40
0.0
 40
0.0
 40
0.0
 40
0.0
 40
1.0
 40
1.0
 40
1.0
 40
2.0
 40
2.0
 40
2.0
 40
2.0
 10
5.348722206298842
 20
8.723127385607842
 30
0.0
 10
5.348722206298842
 20
8.723127385607842
 30
0.0
 10
5.375142387177498
 20
8.761864204536828
 30
0.0
 10
5.37951595226731
 20
8.769662261399857
 30
0.0
 10
5.383889517357122
 20
8.777460318262872
 30
0.0
 10
5.413396325025309
 20
8.901737194709085
 30
0.0
 10
5.413396325025309
 20
8.901737194709085
 30
0.0
  0
POLYLINE
  5
8A
330
41
100
AcDbEntity
  8
H1
 62
   250
420
  2301728
370
     9
100
AcDb2dPolyline
 66
     1
 10
0.0
 20
0.0
 30
0.0
  0
VERTEX
  5
8B
330
8A
100
AcDbEntity
  8
H1
 62
   250
420
  2301728
370
     9
100
AcDbVertex
100
AcDb2dVertex
 10
5.323898702127204
 20
7.576354433971598
 30
0.0
  0
VERTEX
  5
8C
330
8A
100
AcDbEntity
  8
H1
 62
   250
420
  2301728
370
     9
100
AcDbVertex
100
AcDb2dVertex
 10
5.348722206298842
 20
7.647896496646151
 30
0.0
  0
VERTEX
  5
8D
330
8A
100
AcDbEntity
  8
H1
 62
   250
420
  2301728
370
     9
100
AcDbVertex
100
AcDb2dVertex
 10
5.411353764903575
 20
7.816334524887338
 30
0.0
  0
SEQEND
  5
8E
330
8A
100
AcDbEntity
  8
H1
 62
   250
420
  2301728
370
     9
  0
POLYLINE
  5
8F
330
41
100
AcDbEntity
  8
H1
 62
   250
420
  2301728
370
     9
100
AcDb2dPolyline
 66
     1
 10
0.0
 20
0.0
 30
0.0
  0
VERTEX
  5
90
330
8F
100
AcDbEntity
  8
H1
 62
   250
420
  2301728
370
     9
100
AcDbVertex
100
AcDb2dVertex
 10
5.211117698370217
 20
7.512210307229641
 30
0.0
  0
VERTEX
  5
91
330
8F
100
AcDbEntity
  8
H1
 62
   250
420
  2301728
370
     9
100
AcDbVertex
100
AcDb2dVertex
 10
5.311235731636897
 20
7.721198231158521
 30
0.0
  0
VERTEX
  5
92
330
8F
100
AcDbEntity
  8
H1
 62
   250
420
  2301728
370
     9
100
AcDbVertex
100
AcDb2dVertex
 10
5.332422342061187
 20
7.800738411161306
 30
0.0
  0
VERTEX
  5
93
330
8F
100
AcDbEntity
  8
H1
 62
   250
420
  2301728
370
     9
100
AcDbVertex
100
AcDb2dVertex
 10
5.411353764903575
 20
8.028441671561419
 30
0.0
  0
SEQEND
  5
94
330
8F
100
AcDbEntity
  8
H1
 62
   250
420
  2301728
370
     9
  0
SPLINE
  5
95
330
41
100
AcDbEntity
  8
H1
 62
   250
420
  2301728
370
     9
100
AcDbSpline
210
0.0
220
0.0
230
1.0
 70
     8
 71
     3
 72
    14
 73
    10
 74
     0
 42
0.0000000001
 43
0.0000000001
 12
1.0
 22
0.0
 32
0.0
 13
1.0
 23
0.0
 33
0.0
 40
0.0
 40
0.0
 40
0.0
 40
0.0
 40
1.0
 40
1.0
 40
1.0
 40
2.0
 40
2.0
 40
2.0
 40
3.0
 40
3.0
 40
3.0
 40
3.0
 10
5.079972440792491
 20
7.426095414717956
 30
0.0
 10
5.079972440792491
 20
7.426095414717956
 30
0.0
 10
5.202105073506699
 20
7.755509681355811
 30
0.0
 10
5.211117698370217
 20
7.770325989395523
 30
0.0
 10
5.220130323233737
 20
7.785142297435262
 30
0.0
 10
5.323898702127204
 20
8.012845557835387
 30
0.0
 10
5.323898702127204
 20
8.012845557835387
 30
0.0
 10
5.323898702127204
 20
8.012845557835387
 30
0.0
 10
5.411353764903575
 20
8.270181434314976
 30
0.0
 10
5.411353764903575
 20
8.270181434314976
 30
0.0
  0
SPLINE
  5
96
330
41
100
AcDbEntity
  8
H1
 62
   250
420
  2301728
370
     9
100
AcDbSpline
210
0.0
220
0.0
230
1.0
 70
     8
 71
     3
 72
    14
 73
    10
 74
     0
 42
0.0000000001
 43
0.0000000001
 12
1.0
 22
0.0
 32
0.0
 13
1.0
 23
0.0
 33
0.0
 40
0.0
 40
0.0
 40
0.0
 40
0.0
 40
1.0
 40
1.0
 40
1.0
 40
2.0
 40
2.0
 40
2.0
 40
3.0
 40
3.0
 40
3.0
 40
3.0
 10
4.993206868519918
 20
7.499733416248798
 30
0.0
 10
4.993206868519918
 20
7.499733416248798
 30
0.0
 10
5.193616929899463
 20
7.909911207243554
 30
0.0
 10
5.193616929899463
 20
7.909911207243554
 30
0.0
 10
5.193616929899463
 20
7.909911207243554
 30
0.0
 10
5.234166825587155
 20
7.973855273520282
 30
0.0
 10
5.254441773431002
 20
8.014405169207988
 30
0.0
 10
5.274716721274873
 20
8.054955064895681
 30
0.0
 10
5.381059265662088
 20
8.471824488440575
 30
0.0
 10
5.381059265662088
 20
8.471824488440575
 30
0.0
  0
POLYLINE
  5
97
330
41
100
AcDbEntity
  8
H1
 62
   250
420
  2301728
370
     9
100
AcDb2dPolyline
 66
     1
 10
0.0
 20
0.0
 30
0.0
  0
VERTEX
  5
98
330
97
100
AcDbEntity
  8
H1
 62
   250
420
  2301728
370
     9
100
AcDbVertex
100
AcDb2dVertex
 10
4.991709860442547
 20
7.70872134017769
 30
0.0
  0
VERTEX
  5
99
330
97
100
AcDbEntity
  8
H1
 62
   250
420
  2301728
370
     9
100
AcDbVertex
100
AcDb2dVertex
 10
5.140590143230964
 20
7.995689832736755
 30
0.0
  0
VERTEX
  5
9A
330
97
100
AcDbEntity
  8
H1
 62
   250
420
  2301728
370
     9
100
AcDbVertex
100
AcDb2dVertex
 10
5.201531812673061
 20
8.128256799408051
 30
0.0
  0
VERTEX
  5
9B
330
97
100
AcDbEntity
  8
H1
 62
   250
420
  2301728
370
     9
100
AcDbVertex
100
AcDb2dVertex
 10
5.286273331969899
 20
8.413227891096678
 30
0.0
  0
SEQEND
  5
9C
330
97
100
AcDbEntity
  8
H1
 62
   250
420
  2301728
370
     9
  0
POLYLINE
  5
9D
330
41
100
AcDbEntity
  8
H1
 62
   250
420
  2301728
370
     9
100
AcDb2dPolyline
 66
     1
 10
0.0
 20
0.0
 30
0.0
  0
VERTEX
  5
9E
330
9D
100
AcDbEntity
  8
H1
 62
   250
420
  2301728
370
     9
100
AcDbVertex
100
AcDb2dVertex
 10
4.991709860442547
 20
7.925507320969587
 30
0.0
  0
VERTEX
  5
9F
330
9D
100
AcDbEntity
  8
H1
 62
   250
420
  2301728
370
     9
100
AcDbVertex
100
AcDb2dVertex
 10
5.079972440792491
 20
8.070551178621713
 30
0.0
  0
VERTEX
  5
A0
330
9D
100
AcDbEntity
  8
H1
 62
   250
420
  2301728
370
     9
100
AcDbVertex
100
AcDb2dVertex
 10
5.120315195387118
 20
8.145412524506684
 30
0.0
  0
VERTEX
  5
A1
330
9D
100
AcDbEntity
  8
H1
 62
   250
420
  2301728
370
     9
100
AcDbVertex
100
AcDb2dVertex
 10
5.201531812673061
 20
8.360840743646387
 30
0.0
  0
SEQEND
  5
A2
330
9D
100
AcDbEntity
  8
H1
 62
   250
420
  2301728
370
     9
  0
POLYLINE
  5
A3
330
41
100
AcDbEntity
  8
H1
 62
   250
420
  2301728
370
     9
100
AcDb2dPolyline
 66
     1
 10
0.0
 20
0.0
 30
0.0
  0
VERTEX
  5
A4
330
A3
100
AcDbEntity
  8
H1
 62
   250
420
  2301728
370
     9
100
AcDbVertex
100
AcDb2dVertex
 10
4.991709860442547
 20
8.100183794701175
 30
0.0
  0
VERTEX
  5
A5
330
A3
100
AcDbEntity
  8
H1
 62
   250
420
  2301728
370
     9
100
AcDbVertex
100
AcDb2dVertex
 10
5.036338450664466
 20
8.187522031566976
 30
0.0
  0
VERTEX
  5
A6
330
A3
100
AcDbEntity
  8
H1
 62
   250
420
  2301728
370
     9
100
AcDbVertex
100
AcDb2dVertex
 10
5.079972440792491
 20
8.294951199529098
 30
0.0
  0
SEQEND
  5
A7
330
A3
100
AcDbEntity
  8
H1
 62
   250
420
  2301728
370
     9
  0
POLYLINE
  5
A8
330
41
100
AcDbEntity
  8
H1
 62
   250
420
  2301728
370
     9
100
AcDb2dPolyline
 66
     1
 10
0.0
 20
0.0
 30
0.0
  0
VERTEX
  5
A9
330
A8
100
AcDbEntity
  8
H1
 62
   250
420
  2301728
370
     9
100
AcDbVertex
100
AcDb2dVertex
 10
5.428019296063338
 20
8.500855146107698
 30
0.0
  0
VERTEX
  5
AA
330
A8
100
AcDbEntity
  8
H1
 62
   250
420
  2301728
370
     9
100
AcDbVertex
100
AcDb2dVertex
 10
5.439859342243708
 20
8.558709538246628
 30
0.0
  0
VERTEX
  5
AB
330
A8
100
AcDbEntity
  8
H1
 62
   250
420
  2301728
370
     9
100
AcDbVertex
100
AcDb2dVertex
 10
5.437011803871554
 20
8.600819045306922
 30
0.0
  0
VERTEX
  5
AC
330
A8
100
AcDbEntity
  8
H1
 62
   250
420
  2301728
370
     9
100
AcDbVertex
100
AcDb2dVertex
 10
5.428019296063338
 20
8.634595845871722
 30
0.0
  0
SEQEND
  5
AD
330
A8
100
AcDbEntity
  8
H1
 62
   250
420
  2301728
370
     9
  0
POLYLINE
  5
AE
330
41
100
AcDbEntity
  8
H1
 62
   250
420
  2301728
370
     9
100
AcDb2dPolyline
 66
     1
 10
0.0
 20
0.0
 30
0.0
  0
VERTEX
  5
AF
330
AE
100
AcDbEntity
  8
H1
 62
   250
420
  2301728
370
     9
100
AcDbVertex
100
AcDb2dVertex
 10
5.333264742414333
 20
8.695908689889405
 30
0.0
  0
VERTEX
  5
B0
330
AE
100
AcDbEntity
  8
H1
 62
   250
420
  2301728
370
     9
100
AcDbVertex
100
AcDb2dVertex
 10
5.341348831798869
 20
8.62733243864117
 30
0.0
  0
VERTEX
  5
B1
330
AE
100
AcDbEntity
  8
H1
 62
   250
420
  2301728
370
     9
100
AcDbVertex
100
AcDb2dVertex
 10
5.348722206298842
 20
8.550911481383611
 30
0.0
  0
VERTEX
  5
B2
330
AE
100
AcDbEntity
  8
H1
 62
   250
420
  2301728
370
     9
100
AcDbVertex
100
AcDb2dVertex
 10
5.324602450638976
 20
8.436487868385939
 30
0.0
  0
SEQEND
  5
B3
330
AE
100
AcDbEntity
  8
H1
 62
   250
420
  2301728
370
     9
  0
POLYLINE
  5
B4
330
41
100
AcDbEntity
  8
H1
 62
   250
420
  2301728
370
     9
100
AcDb2dPolyline
 66
     1
 10
0.0
 20
0.0
 30
0.0
  0
VERTEX
  5
B5
330
B4
100
AcDbEntity
  8
H1
 62
   250
420
  2301728
370
     9
100
AcDbVertex
100
AcDb2dVertex
 10
5.245663102848058
 20
8.66464126611187
 30
0.0
  0
VERTEX
  5
B6
330
B4
100
AcDbEntity
  8
H1
 62
   250
420
  2301728
370
     9
100
AcDbVertex
100
AcDb2dVertex
 10
5.245663102848058
 20
8.599259433934309
 30
0.0
  0
VERTEX
  5
B7
330
B4
100
AcDbEntity
  8
H1
 62
   250
420
  2301728
370
     9
100
AcDbVertex
100
AcDb2dVertex
 10
5.245663102848058
 20
8.543113424520584
 30
0.0
  0
VERTEX
  5
B8
330
B4
100
AcDbEntity
  8
H1
 62
   250
420
  2301728
370
     9
100
AcDbVertex
100
AcDb2dVertex
 10
5.245663102848058
 20
8.458894410399996
 30
0.0
  0
VERTEX
  5
B9
330
B4
100
AcDbEntity
  8
H1
 62
   250
420
  2301728
370
     9
100
AcDbVertex
100
AcDb2dVertex
 10
5.223846107784033
 20
8.374635425142856
 30
0.0
  0
SEQEND
  5
BA
330
B4
100
AcDbEntity
  8
H1
 62
   250
420
  2301728
370
     9
  0
SPLINE
  5
BB
330
41
100
AcDbEntity
  8
H1
 62
   250
420
  2301728
370
     9
100
AcDbSpline
210
0.0
220
0.0
230
1.0
 70
     8
 71
     3
 72
    14
 73
    10
 74
     0
 42
0.0000000001
 43
0.0000000001
 12
1.0
 22
0.0
 32
0.0
 13
1.0
 23
0.0
 33
0.0
 40
0.0
 40
0.0
 40
0.0
 40
0.0
 40
1.0
 40
1.0
 40
1.0
 40
2.0
 40
2.0
 40
2.0
 40
3.0
 40
3.0
 40
3.0
 40
3.0
 10
5.164301001855569
 20
8.614343272673421
 30
0.0
 10
5.164301001855569
 20
8.614343272673421
 30
0.0
 10
5.173341982055641
 20
8.560112241894874
 30
0.0
 10
5.173341982055641
 20
8.53523691379539
 30
0.0
 10
5.173341982055641
 20
8.510361585695907
 30
0.0
 10
5.16929652400894
 20
8.494765471969874
 30
0.0
 10
5.164301001855569
 20
8.46201363314521
 30
0.0
 10
5.159305479702198
 20
8.429261794320533
 30
0.0
 10
5.128791458568356
 20
8.31587270805192
 30
0.0
 10
5.128791458568356
 20
8.31587270805192
 30
0.0
  0
POLYLINE
  5
BC
330
41
100
AcDbEntity
  8
H1
 62
   250
420
  2301728
370
     9
100
AcDb2dPolyline
 66
     1
 10
0.0
 20
0.0
 30
0.0
  0
VERTEX
  5
BD
330
BC
100
AcDbEntity
  8
H1
 62
   250
420
  2301728
370
     9
100
AcDbVertex
100
AcDb2dVertex
 10
5.045795621125838
 20
8.350958753510263
 30
0.0
  0
VERTEX
  5
203
330
BC
100
AcDbEntity
  8
0
100
AcDbVertex
100
AcDb2dVertex
 10
5.045795621125838
 20
8.350958753510263
 30
0.0
  0
SEQEND
  5
BE
330
BC
100
AcDbEntity
  8
H1
 62
   250
420
  2301728
370
     9
  0
POLYLINE
  5
BF
330
41
100
AcDbEntity
  8
H1
 62
   250
420
  2301728
370
     9
100
AcDb2dPolyline
 66
     1
 10
0.0
 20
0.0
 30
0.0
  0
VERTEX
  5
C0
330
BF
100
AcDbEntity
  8
H1
 62
   250
420
  2301728
370
     9
100
AcDbVertex
100
AcDb2dVertex
 10
5.036338450664466
 20
8.360840743646387
 30
0.0
  0
VERTEX
  5
C1
330
BF
100
AcDbEntity
  8
H1
 62
   250
420
  2301728
370
     9
100
AcDbVertex
100
AcDb2dVertex
 10
5.079615793627277
 20
8.443298296673976
 30
0.0
  0
VERTEX
  5
C2
330
BF
100
AcDbEntity
  8
H1
 62
   250
420
  2301728
370
     9
100
AcDbVertex
100
AcDb2dVertex
 10
5.096620836557804
 20
8.572503442229806
 30
0.0
  0
SEQEND
  5
C3
330
BF
100
AcDbEntity
  8
H1
 62
   250
420
  2301728
370
     9
  0
POLYLINE
  5
C4
330
41
100
AcDbEntity
  8
H1
 62
   250
420
  2301728
370
     9
100
AcDb2dPolyline
 66
     1
 10
0.0
 20
0.0
 30
0.0
  0
VERTEX
  5
C5
330
C4
100
AcDbEntity
  8
H1
 62
   250
420
  2301728
370
     9
100
AcDbVertex
100
AcDb2dVertex
 10
4.972399179302177
 20
8.398451386955433
 30
0.0
  0
VERTEX
  5
C6
330
C4
100
AcDbEntity
  8
H1
 62
   250
420
  2301728
370
     9
100
AcDbVertex
100
AcDb2dVertex
 10
4.993206868519918
 20
8.44953674216438
 30
0.0
  0
VERTEX
  5
C7
330
C4
100
AcDbEntity
  8
H1
 62
   250
420
  2301728
370
     9
100
AcDbVertex
100
AcDb2dVertex
 10
5.002582325868793
 20
8.514368901259218
 30
0.0
  0
SEQEND
  5
C8
330
C4
100
AcDbEntity
  8
H1
 62
   250
420
  2301728
370
     9
  0
ENDBLK
  5
44
330
41
100
AcDbEntity
  8
0
100
AcDbBlockEnd
  0
BLOCK
  5
CB
330
C9
100
AcDbEntity
  8
0
100
AcDbBlockBegin
  2
block 3
 70
     0
 10
0.0
 20
0.0
 30
0.0
  3
block 3
  1

  0
POLYLINE
  5
CD
330
C9
100
AcDbEntity
  8
H1
 62
   250
420
  2301728
370
    18
100
AcDb2dPolyline
 66
     1
 10
0.0
 20
0.0
 30
0.0
  0
VERTEX
  5
CE
330
CD
100
AcDbEntity
  8
H1
 62
   250
420
  2301728
370
    18
100
AcDbVertex
100
AcDb2dVertex
 10
3.007773824124102
 20
10.75245396558392
 30
0.0
  0
VERTEX
  5
CF
330
CD
100
AcDbEntity
  8
H1
 62
   250
420
  2301728
370
    18
100
AcDbVertex
100
AcDb2dVertex
 10
3.007773824124102
 20
10.13611116281485
 30
0.0
  0
SEQEND
  5
D0
330
CD
100
AcDbEntity
  8
H1
 62
   250
420
  2301728
370
    18
  0
POLYLINE
  5
D1
330
C9
100
AcDbEntity
  8
H1
 62
   250
420
  2301728
370
    25
100
AcDb2dPolyline
 66
     1
 10
0.0
 20
0.0
 30
0.0
  0
VERTEX
  5
D2
330
D1
100
AcDbEntity
  8
H1
 62
   250
420
  2301728
370
    25
100
AcDbVertex
100
AcDb2dVertex
 10
4.831620864693124
 20
10.15415566987873
 30
0.0
  0
VERTEX
  5
D3
330
D1
100
AcDbEntity
  8
H1
 62
   250
420
  2301728
370
    25
100
AcDbVertex
100
AcDb2dVertex
 10
4.827529692243893
 20
10.68141908789596
 30
0.0
  0
VERTEX
  5
D4
330
D1
100
AcDbEntity
  8
H1
 62
   250
420
  2301728
370
    25
100
AcDbVertex
100
AcDb2dVertex
 10
4.885216908158705
 20
10.75397581614849
 30
0.0
  0
VERTEX
  5
D5
330
D1
100
AcDbEntity
  8
H1
 62
   250
420
  2301728
370
    25
100
AcDbVertex
100
AcDb2dVertex
 10
4.796421060747232
 20
10.77906916076829
 30
0.0
  0
VERTEX
  5
D6
330
D1
100
AcDbEntity
  8
H1
 62
   250
420
  2301728
370
    25
100
AcDbVertex
100
AcDb2dVertex
 10
4.826228040625185
 20
10.81790441873188
 30
0.0
  0
VERTEX
  5
D7
330
D1
100
AcDbEntity
  8
H1
 62
   250
420
  2301728
370
    25
100
AcDbVertex
100
AcDb2dVertex
 10
4.823707084866176
 20
11.41033744399613
 30
0.0
  0
VERTEX
  5
D8
330
D1
100
AcDbEntity
  8
H1
 62
   250
420
  2301728
370
    25
100
AcDbVertex
100
AcDb2dVertex
 10
4.575795269990673
 20
11.47798881061764
 30
0.0
  0
VERTEX
  5
D9
330
D1
100
AcDbEntity
  8
H1
 62
   250
420
  2301728
370
    25
100
AcDbVertex
100
AcDb2dVertex
 10
3.007773824124102
 20
10.75245396558392
 30
0.0
  0
VERTEX
  5
DA
330
D1
100
AcDbEntity
  8
H1
 62
   250
420
  2301728
370
    25
100
AcDbVertex
100
AcDb2dVertex
 10
3.007773824124102
 20
10.13611116281485
 30
0.0
  0
VERTEX
  5
DB
330
D1
100
AcDbEntity
  8
H1
 62
   250
420
  2301728
370
    25
100
AcDbVertex
100
AcDb2dVertex
 10
3.007773824124102
 20
9.356261827095295
 30
0.0
  0
VERTEX
  5
DC
330
D1
100
AcDbEntity
  8
H1
 62
   250
420
  2301728
370
    25
100
AcDbVertex
100
AcDb2dVertex
 10
3.263550706614157
 20
9.23550954346648
 30
0.0
  0
VERTEX
  5
DD
330
D1
100
AcDbEntity
  8
H1
 62
   250
420
  2301728
370
    25
100
AcDbVertex
100
AcDb2dVertex
 10
4.831620864693124
 20
10.15415566987873
 30
0.0
  0
SEQEND
  5
DF
330
D1
100
AcDbEntity
  8
H1
 62
   250
420
  2301728
370
    25
  0
HATCH
  5
DE
330
C9
100
AcDbEntity
  8
H1
 62
    43
420
 15510365
100
AcDbHatch
 10
0.0
 20
0.0
 30
0.0
210
0.0
220
0.0
230
1.0
  2
SOLID
 70
     1
 71
     0
 91
        1
 92
        1
 93
       11
 72
     1
 10
4.831620864693124
 20
10.15415566987873
 11
4.827529692243893
 21
10.68141908789596
 72
     1
 10
4.827529692243893
 20
10.68141908789596
 11
4.885216908158705
 21
10.75397581614849
 72
     1
 10
4.885216908158705
 20
10.75397581614849
 11
4.796421060747232
 21
10.77906916076829
 72
     1
 10
4.796421060747232
 20
10.77906916076829
 11
4.826228040625185
 21
10.81790441873188
 72
     1
 10
4.826228040625185
 20
10.81790441873188
 11
4.823707084866176
 21
11.41033744399613
 72
     1
 10
4.823707084866176
 20
11.41033744399613
 11
4.575795269990673
 21
11.47798881061764
 72
     1
 10
4.575795269990673
 20
11.47798881061764
 11
3.007773824124102
 21
10.75245396558392
 72
     1
 10
3.007773824124102
 20
10.75245396558392
 11
3.007773824124102
 21
10.13611116281485
 72
     1
 10
3.007773824124102
 20
10.13611116281485
 11
3.007773824124102
 21
9.356261827095295
 72
     1
 10
3.007773824124102
 20
9.356261827095295
 11
3.263550706614157
 21
9.23550954346648
 72
     1
 10
3.263550706614157
 20
9.23550954346648
 11
4.831620864693124
 21
10.15415566987873
 97
        0
 75
     2
 76
     1
 98
        0
  0
POLYLINE
  5
E0
330
C9
100
AcDbEntity
  8
H1
 62
   250
420
  2301728
370
    18
100
AcDb2dPolyline
 66
     1
 10
0.0
 20
0.0
 30
0.0
  0
VERTEX
  5
E1
330
E0
100
AcDbEntity
  8
H1
 62
   250
420
  2301728
370
    18
100
AcDbVertex
100
AcDb2dVertex
 10
3.007773824124102
 20
10.75245396558392
 30
0.0
  0
VERTEX
  5
E2
330
E0
100
AcDbEntity
  8
H1
 62
   250
420
  2301728
370
    18
100
AcDbVertex
100
AcDb2dVertex
 10
3.263550706614157
 20
10.65264039987017
 30
0.0
  0
VERTEX
  5
E3
330
E0
100
AcDbEntity
  8
H1
 62
   250
420
  2301728
370
    18
100
AcDbVertex
100
AcDb2dVertex
 10
3.263550706614157
 20
9.23550954346648
 30
0.0
  0
SEQEND
  5
E4
330
E0
100
AcDbEntity
  8
H1
 62
   250
420
  2301728
370
    18
  0
POLYLINE
  5
E5
330
C9
100
AcDbEntity
  8
H1
 62
   250
420
  2301728
370
    18
100
AcDb2dPolyline
 66
     1
 10
0.0
 20
0.0
 30
0.0
  0
VERTEX
  5
E6
330
E5
100
AcDbEntity
  8
H1
 62
   250
420
  2301728
370
    18
100
AcDbVertex
100
AcDb2dVertex
 10
3.263550706614157
 20
10.6522773223518
 30
0.0
  0
VERTEX
  5
E7
330
E5
100
AcDbEntity
  8
H1
 62
   250
420
  2301728
370
    18
100
AcDbVertex
100
AcDb2dVertex
 10
4.823707084866176
 20
11.41033744399613
 30
0.0
  0
SEQEND
  5
E8
330
E5
100
AcDbEntity
  8
H1
 62
   250
420
  2301728
370
    18
  0
POLYLINE
  5
E9
330
C9
100
AcDbEntity
  8
H1
 62
   250
420
  2301728
370
    18
100
AcDb2dPolyline
 66
     1
 10
0.0
 20
0.0
 30
0.0
  0
VERTEX
  5
EA
330
E9
100
AcDbEntity
  8
H1
 62
   250
420
  2301728
370
    18
100
AcDbVertex
100
AcDb2dVertex
 10
4.028649619019537
 20
9.666338917567877
 30
0.0
  0
VERTEX
  5
204
330
E9
100
AcDbEntity
  8
0
100
AcDbVertex
100
AcDb2dVertex
 10
4.028649619019537
 20
9.666338917567877
 30
0.0
  0
SEQEND
  5
EB
330
E9
100
AcDbEntity
  8
H1
 62
   250
420
  2301728
370
    18
  0
POLYLINE
  5
EC
330
C9
100
AcDbEntity
  8
H1
 62
   250
420
  2301728
370
    18
100
AcDb2dPolyline
 66
     1
 10
0.0
 20
0.0
 30
0.0
  0
VERTEX
  5
ED
330
EC
100
AcDbEntity
  8
H1
 62
   250
420
  2301728
370
    18
100
AcDbVertex
100
AcDb2dVertex
 10
4.191938049552643
 20
9.664588097885218
 30
0.0
  0
VERTEX
  5
205
330
EC
100
AcDbEntity
  8
0
100
AcDbVertex
100
AcDb2dVertex
 10
4.191938049552643
 20
9.664588097885218
 30
0.0
  0
SEQEND
  5
EE
330
EC
100
AcDbEntity
  8
H1
 62
   250
420
  2301728
370
    18
  0
POLYLINE
  5
EF
330
C9
100
AcDbEntity
  8
H1
 62
   250
420
  2301728
370
    18
100
AcDb2dPolyline
 66
     1
 10
0.0
 20
0.0
 30
0.0
  0
VERTEX
  5
F0
330
EF
100
AcDbEntity
  8
H1
 62
   250
420
  2301728
370
    18
100
AcDbVertex
100
AcDb2dVertex
 10
4.885216908158705
 20
10.75397581614849
 30
0.0
  0
VERTEX
  5
F1
330
EF
100
AcDbEntity
  8
H1
 62
   250
420
  2301728
370
    18
100
AcDbVertex
100
AcDb2dVertex
 10
4.772972699662962
 20
10.74851731051763
 30
0.0
  0
VERTEX
  5
F2
330
EF
100
AcDbEntity
  8
H1
 62
   250
420
  2301728
370
    18
100
AcDbVertex
100
AcDb2dVertex
 10
4.796421060747232
 20
10.77906916076829
 30
0.0
  0
SEQEND
  5
F3
330
EF
100
AcDbEntity
  8
H1
 62
   250
420
  2301728
370
    18
  0
ENDBLK
  5
CC
330
C9
100
AcDbEntity
  8
0
100
AcDbBlockEnd
  0
BLOCK
  5
F6
330
F4
100
AcDbEntity
  8
0
100
AcDbBlockBegin
  2
block 4
 70
     0
 10
0.0
 20
0.0
 30
0.0
  3
block 4
  1

  0
POLYLINE
  5
F8
330
F4
100
AcDbEntity
  8
H1
 62
   250
420
  2301728
370
    18
100
AcDb2dPolyline
 66
     1
 10
0.0
 20
0.0
 30
0.0
  0
VERTEX
  5
F9
330
F8
100
AcDbEntity
  8
H1
 62
   250
420
  2301728
370
    18
100
AcDbVertex
100
AcDb2dVertex
 10
3.879232858022482
 20
10.08552243458366
 30
0.0
  0
VERTEX
  5
FA
330
F8
100
AcDbEntity
  8
H1
 62
   250
420
  2301728
370
    18
100
AcDbVertex
100
AcDb2dVertex
 10
3.879232858022482
 20
9.624497269498937
 30
0.0
  0
VERTEX
  5
FB
330
F8
100
AcDbEntity
  8
H1
 62
   250
420
  2301728
370
    18
100
AcDbVertex
100
AcDb2dVertex
 10
3.889230590512852
 20
9.621997836376357
 30
0.0
  0
VERTEX
  5
FC
330
F8
100
AcDbEntity
  8
H1
 62
   250
420
  2301728
370
    18
100
AcDbVertex
100
AcDb2dVertex
 10
3.99491141406213
 20
9.679300452136431
 30
0.0
  0
VERTEX
  5
FD
330
F8
100
AcDbEntity
  8
H1
 62
   250
420
  2301728
370
    18
100
AcDbVertex
100
AcDb2dVertex
 10
4.009559975818876
 20
9.674127533266452
 30
0.0
  0
VERTEX
  5
FE
330
F8
100
AcDbEntity
  8
H1
 62
   250
420
  2301728
370
    18
100
AcDbVertex
100
AcDb2dVertex
 10
4.009953062789186
 20
9.672462945322359
 30
0.0
  0
VERTEX
  5
FF
330
F8
100
AcDbEntity
  8
H1
 62
   250
420
  2301728
370
    18
100
AcDbVertex
100
AcDb2dVertex
 10
3.710693212569127
 20
9.498218614076942
 30
0.0
  0
VERTEX
  5
100
330
F8
100
AcDbEntity
  8
H1
 62
   250
420
  2301728
370
    18
100
AcDbVertex
100
AcDb2dVertex
 10
3.83550630858157
 20
9.301545899393039
 30
0.0
  0
VERTEX
  5
101
330
F8
100
AcDbEntity
  8
H1
 62
   250
420
  2301728
370
    18
100
AcDbVertex
100
AcDb2dVertex
 10
3.916728097928588
 20
9.269522555849486
 30
0.0
  0
VERTEX
  5
102
330
F8
100
AcDbEntity
  8
H1
 62
   250
420
  2301728
370
    18
100
AcDbVertex
100
AcDb2dVertex
 10
3.924230140363572
 20
9.272017310138102
 30
0.0
  0
VERTEX
  5
103
330
F8
100
AcDbEntity
  8
H1
 62
   250
420
  2301728
370
    18
100
AcDbVertex
100
AcDb2dVertex
 10
4.266708698933749
 20
9.562000212232533
 30
0.0
  0
VERTEX
  5
104
330
F8
100
AcDbEntity
  8
H1
 62
   250
420
  2301728
370
    18
100
AcDbVertex
100
AcDb2dVertex
 10
4.266708698933749
 20
9.641997044424302
 30
0.0
  0
VERTEX
  5
105
330
F8
100
AcDbEntity
  8
H1
 62
   250
420
  2301728
370
    18
100
AcDbVertex
100
AcDb2dVertex
 10
4.012946447597035
 20
10.04801877277636
 30
0.0
  0
VERTEX
  5
106
330
F8
100
AcDbEntity
  8
H1
 62
   250
420
  2301728
370
    18
100
AcDbVertex
100
AcDb2dVertex
 10
4.001723796365556
 20
10.05696938221763
 30
0.0
  0
VERTEX
  5
107
330
F8
100
AcDbEntity
  8
H1
 62
   250
420
  2301728
370
    18
100
AcDbVertex
100
AcDb2dVertex
 10
3.931728439731349
 20
10.10196682599706
 30
0.0
  0
VERTEX
  5
108
330
F8
100
AcDbEntity
  8
H1
 62
   250
420
  2301728
370
    18
100
AcDbVertex
100
AcDb2dVertex
 10
3.910792529116684
 20
10.10650419777153
 30
0.0
  0
VERTEX
  5
109
330
F8
100
AcDbEntity
  8
H1
 62
   250
420
  2301728
370
    18
100
AcDbVertex
100
AcDb2dVertex
 10
3.879232858022482
 20
10.08622613121719
 30
0.0
  0
VERTEX
  5
10A
330
F8
100
AcDbEntity
  8
H1
 62
   250
420
  2301728
370
    18
100
AcDbVertex
100
AcDb2dVertex
 10
3.879232858022482
 20
10.08552243458366
 30
0.0
  0
SEQEND
  5
10C
330
F8
100
AcDbEntity
  8
H1
 62
   250
420
  2301728
370
    18
  0
HATCH
  5
10B
330
F4
100
AcDbEntity
  8
H1
 62
   254
420
 13358815
100
AcDbHatch
 10
0.0
 20
0.0
 30
0.0
210
0.0
220
0.0
230
1.0
  2
SOLID
 70
     1
 71
     0
 91
        1
 92
        1
 93
       17
 72
     1
 10
3.879232858022482
 20
10.08552243458366
 11
3.879232858022482
 21
9.624497269498937
 72
     1
 10
3.879232858022482
 20
9.624497269498937
 11
3.889230590512852
 21
9.621997836376357
 72
     1
 10
3.889230590512852
 20
9.621997836376357
 11
3.99491141406213
 21
9.679300452136431
 72
     1
 10
3.99491141406213
 20
9.679300452136431
 11
4.009559975818876
 21
9.674127533266452
 72
     1
 10
4.009559975818876
 20
9.674127533266452
 11
4.009953062789186
 21
9.672462945322359
 72
     1
 10
4.009953062789186
 20
9.672462945322359
 11
3.710693212569127
 21
9.498218614076942
 72
     1
 10
3.710693212569127
 20
9.498218614076942
 11
3.83550630858157
 21
9.301545899393039
 72
     1
 10
3.83550630858157
 20
9.301545899393039
 11
3.916728097928588
 21
9.269522555849486
 72
     1
 10
3.916728097928588
 20
9.269522555849486
 11
3.924230140363572
 21
9.272017310138102
 72
     1
 10
3.924230140363572
 20
9.272017310138102
 11
4.266708698933749
 21
9.562000212232533
 72
     1
 10
4.266708698933749
 20
9.562000212232533
 11
4.266708698933749
 21
9.641997044424302
 72
     1
 10
4.266708698933749
 20
9.641997044424302
 11
4.012946447597035
 21
10.04801877277636
 72
     1
 10
4.012946447597035
 20
10.04801877277636
 11
4.001723796365556
 21
10.05696938221763
 72
     1
 10
4.001723796365556
 20
10.05696938221763
 11
3.931728439731349
 21
10.10196682599706
 72
     1
 10
3.931728439731349
 20
10.10196682599706
 11
3.910792529116684
 21
10.10650419777153
 72
     1
 10
3.910792529116684
 20
10.10650419777153
 11
3.879232858022482
 21
10.08622613121719
 72
     1
 10
3.879232858022482
 20
10.08622613121719
 11
3.879232858022482
 21
10.08552243458366
 97
        0
 75
     2
 76
     1
 98
        0
  0
SPLINE
  5
10D
330
F4
100
AcDbEntity
  8
H1
 62
   250
420
  2301728
370
    13
100
AcDbSpline
210
0.0
220
0.0
230
1.0
 70
     8
 71
     3
 72
    23
 73
    19
 74
     0
 42
0.0000000001
 43
0.0000000001
 12
1.0
 22
0.0
 32
0.0
 13
1.0
 23
0.0
 33
0.0
 40
0.0
 40
0.0
 40
0.0
 40
0.0
 40
1.0
 40
1.0
 40
1.0
 40
2.0
 40
2.0
 40
2.0
 40
3.0
 40
3.0
 40
3.0
 40
4.0
 40
4.0
 40
4.0
 40
5.0
 40
5.0
 40
5.0
 40
6.0
 40
6.0
 40
6.0
 40
6.0
 10
3.985978640795262
 20
9.658736896963267
 30
0.0
 10
3.985978640795262
 20
9.658736896963267
 30
0.0
 10
3.999365664029761
 20
9.653717523593336
 30
0.0
 10
3.999365664029761
 20
9.653717523593336
 30
0.0
 10
3.999365664029761
 20
9.653717523593336
 30
0.0
 10
4.003796485236042
 20
9.652528222024658
 30
0.0
 10
4.007440470467322
 20
9.654114231911471
 30
0.0
 10
4.007440470467322
 20
9.654114231911471
 30
0.0
 10
4.007400752006131
 20
9.654205420330614
 30
0.0
 10
4.007400752006131
 20
9.654205420330614
 30
0.0
 10
4.012865630117668
 20
9.656308088330041
 30
0.0
 10
4.013238332187143
 20
9.661704130101738
 30
0.0
 10
4.013238332187143
 20
9.661704130101738
 30
0.0
 10
4.014901511502469
 20
9.672183530540412
 30
0.0
 10
4.008561497082939
 20
9.674647457589268
 30
0.0
 10
4.008613757009913
 20
9.674735985334411
 30
0.0
 10
4.008613757009913
 20
9.674735985334411
 30
0.0
 10
3.994225496997779
 20
9.679492284330422
 30
0.0
 10
3.994225496997779
 20
9.679492284330422
 30
0.0
  0
SPLINE
  5
10E
330
F4
100
AcDbEntity
  8
H1
 62
   250
420
  2301728
370
    13
100
AcDbSpline
210
0.0
220
0.0
230
1.0
 70
    11
 71
     3
 72
    14
 73
    10
 74
     0
 42
0.0000000001
 43
0.0000000001
 12
1.0
 22
0.0
 32
0.0
 13
1.0
 23
0.0
 33
0.0
 40
0.0
 40
0.0
 40
0.0
 40
0.0
 40
1.0
 40
1.0
 40
1.0
 40
2.0
 40
2.0
 40
2.0
 40
3.0
 40
3.0
 40
3.0
 40
3.0
 10
4.010898989838804
 20
9.660534584730776
 30
0.0
 10
4.010898989838804
 20
9.660534584730776
 30
0.0
 10
3.997972102067049
 20
9.665449139026464
 30
0.0
 10
3.997972102067049
 20
9.665449139026464
 30
0.0
 10
3.997972102067049
 20
9.665449139026464
 30
0.0
 10
4.009953062789186
 20
9.672462945322359
 30
0.0
 10
4.009953062789186
 20
9.672462945322359
 30
0.0
 10
4.009953062789186
 20
9.672462945322359
 30
0.0
 10
4.014727211817292
 20
9.667237632774787
 30
0.0
 10
4.010898989838804
 20
9.660534584730776
 30
0.0
  0
POLYLINE
  5
10F
330
F4
100
AcDbEntity
  8
H1
 62
   250
420
  2301728
370
    13
100
AcDb2dPolyline
 66
     1
 10
0.0
 20
0.0
 30
0.0
  0
VERTEX
  5
110
330
10F
100
AcDbEntity
  8
H1
 62
   250
420
  2301728
370
    13
100
AcDbVertex
100
AcDb2dVertex
 10
3.931728439731349
 20
10.1035295565924
 30
0.0
  0
VERTEX
  5
111
330
10F
100
AcDbEntity
  8
H1
 62
   250
420
  2301728
370
    13
100
AcDbVertex
100
AcDb2dVertex
 10
3.893636180606892
 20
10.07999392432972
 30
0.0
  0
VERTEX
  5
112
330
10F
100
AcDbEntity
  8
H1
 62
   250
420
  2301728
370
    13
100
AcDbVertex
100
AcDb2dVertex
 10
3.893636180606892
 20
9.621997836376357
 30
0.0
  0
SEQEND
  5
113
330
10F
100
AcDbEntity
  8
H1
 62
   250
420
  2301728
370
    13
  0
INSERT
  5
115
330
F4
100
AcDbEntity
  8
H1
100
AcDbBlockReference
  2
block 5
 10
0.0
 20
0.0
 30
0.0
  0
POLYLINE
  5
124
330
F4
100
AcDbEntity
  8
H1
 62
   250
420
  2301728
370
     5
100
AcDb2dPolyline
 66
     1
 10
0.0
 20
0.0
 30
0.0
  0
VERTEX
  5
125
330
124
100
AcDbEntity
  8
H1
 62
   250
420
  2301728
370
     5
100
AcDbVertex
100
AcDb2dVertex
 10
4.081844149774939
 20
9.705719020431843
 30
0.0
  0
VERTEX
  5
126
330
124
100
AcDbEntity
  8
H1
 62
   250
420
  2301728
370
     5
100
AcDbVertex
100
AcDb2dVertex
 10
4.057591881621343
 20
9.747321340822811
 30
0.0
  0
SEQEND
  5
127
330
124
100
AcDbEntity
  8
H1
 62
   250
420
  2301728
370
     5
  0
SPLINE
  5
128
330
F4
100
AcDbEntity
  8
H1
 62
   250
420
  2301728
370
     5
100
AcDbSpline
210
0.0
220
0.0
230
1.0
 70
     8
 71
     3
 72
     8
 73
     4
 74
     0
 42
0.0000000001
 43
0.0000000001
 12
1.0
 22
0.0
 32
0.0
 13
1.0
 23
0.0
 33
0.0
 40
0.0
 40
0.0
 40
0.0
 40
0.0
 40
1.0
 40
1.0
 40
1.0
 40
1.0
 10
4.088204556714016
 20
9.678715597886493
 30
0.0
 10
4.090242656804245
 20
9.682676698750544
 30
0.0
 10
4.091567702592934
 20
9.68838394046328
 30
0.0
 10
4.088185841378011
 20
9.69484915328394
 30
0.0
  0
SPLINE
  5
129
330
F4
100
AcDbEntity
  8
H1
 62
   250
420
  2301728
370
    13
100
AcDbSpline
210
0.0
220
0.0
230
1.0
 70
     8
 71
     3
 72
    17
 73
    13
 74
     0
 42
0.0000000001
 43
0.0000000001
 12
1.0
 22
0.0
 32
0.0
 13
1.0
 23
0.0
 33
0.0
 40
0.0
 40
0.0
 40
0.0
 40
0.0
 40
1.0
 40
1.0
 40
1.0
 40
2.0
 40
2.0
 40
2.0
 40
3.0
 40
3.0
 40
3.0
 40
4.0
 40
4.0
 40
4.0
 40
4.0
 10
4.049631313454407
 20
9.756537860747331
 30
0.0
 10
4.049631313454407
 20
9.756537860747331
 30
0.0
 10
4.041114899808311
 20
9.761202505532866
 30
0.0
 10
4.032505845249034
 20
9.754668981735803
 30
0.0
 10
4.032505845249034
 20
9.754668981735803
 30
0.0
 10
4.019867378849262
 20
9.747920231574755
 30
0.0
 10
4.028248106309371
 20
9.73119246425934
 30
0.0
 10
4.028248106309371
 20
9.73119246425934
 30
0.0
 10
4.057225061035776
 20
9.681803628326229
 30
0.0
 10
4.057225061035776
 20
9.681803628326229
 30
0.0
 10
4.057225061035776
 20
9.681803628326229
 30
0.0
 10
4.068456134168451
 20
9.664847533911635
 30
0.0
 10
4.083909387102381
 20
9.67293068752935
 30
0.0
  0
INSERT
  5
12B
330
F4
100
AcDbEntity
  8
H1
100
AcDbBlockReference
  2
block 6
 10
0.0
 20
0.0
 30
0.0
  0
SPLINE
  5
13C
330
F4
100
AcDbEntity
  8
H1
 62
   250
420
  2301728
370
    13
100
AcDbSpline
210
0.0
220
0.0
230
1.0
 70
     8
 71
     3
 72
    17
 73
    13
 74
     0
 42
0.0000000001
 43
0.0000000001
 12
1.0
 22
0.0
 32
0.0
 13
1.0
 23
0.0
 33
0.0
 40
0.0
 40
0.0
 40
0.0
 40
0.0
 40
1.0
 40
1.0
 40
1.0
 40
2.0
 40
2.0
 40
2.0
 40
3.0
 40
3.0
 40
3.0
 40
4.0
 40
4.0
 40
4.0
 40
4.0
 10
4.012946447597035
 20
10.04801877277636
 30
0.0
 10
4.012946447597035
 20
10.04801877277636
 30
0.0
 10
4.012946447597035
 20
10.02228518577849
 30
0.0
 10
4.017625281596653
 20
10.01526693477905
 30
0.0
 10
4.017625281596653
 20
10.01526693477905
 30
0.0
 10
4.256245815576928
 20
9.633941963810571
 30
0.0
 10
4.256245815576928
 20
9.633941963810571
 30
0.0
 10
4.256245815576928
 20
9.633941963810571
 30
0.0
 10
4.256245815576928
 20
9.561420036816571
 30
0.0
 10
4.256245815576928
 20
9.561420036816571
 30
0.0
 10
4.256245815576928
 20
9.561420036816571
 30
0.0
 10
3.913908632560416
 20
9.271332328840545
 30
0.0
 10
3.913908632560416
 20
9.271332328840545
 30
0.0
  0
POLYLINE
  5
13D
330
F4
100
AcDbEntity
  8
H1
 62
   250
420
  2301728
370
    13
100
AcDb2dPolyline
 66
     1
 10
0.0
 20
0.0
 30
0.0
  0
VERTEX
  5
13E
330
13D
100
AcDbEntity
  8
H1
 62
   250
420
  2301728
370
    13
100
AcDbVertex
100
AcDb2dVertex
 10
4.256245815576928
 20
9.633941963810571
 30
0.0
  0
VERTEX
  5
13F
330
13D
100
AcDbEntity
  8
H1
 62
   250
420
  2301728
370
    13
100
AcDbVertex
100
AcDb2dVertex
 10
4.267942900575968
 20
9.643299631809807
 30
0.0
  0
SEQEND
  5
140
330
13D
100
AcDbEntity
  8
H1
 62
   250
420
  2301728
370
    13
  0
POLYLINE
  5
141
330
F4
100
AcDbEntity
  8
H1
 62
   250
420
  2301728
370
    13
100
AcDb2dPolyline
 66
     1
 10
0.0
 20
0.0
 30
0.0
  0
VERTEX
  5
142
330
141
100
AcDbEntity
  8
H1
 62
   250
420
  2301728
370
    13
100
AcDbVertex
100
AcDb2dVertex
 10
4.256245815576928
 20
9.556585865528165
 30
0.0
  0
VERTEX
  5
143
330
141
100
AcDbEntity
  8
H1
 62
   250
420
  2301728
370
    13
100
AcDbVertex
100
AcDb2dVertex
 10
4.267942900575968
 20
9.5659435335274
 30
0.0
  0
SEQEND
  5
144
330
141
100
AcDbEntity
  8
H1
 62
   250
420
  2301728
370
    13
  0
POLYLINE
  5
145
330
F4
100
AcDbEntity
  8
H1
 62
   250
420
  2301728
370
    13
100
AcDb2dPolyline
 66
     1
 10
0.0
 20
0.0
 30
0.0
  0
VERTEX
  5
146
330
145
100
AcDbEntity
  8
H1
 62
   250
420
  2301728
370
    13
100
AcDbVertex
100
AcDb2dVertex
 10
3.878603086966134
 20
10.08508355995451
 30
0.0
  0
VERTEX
  5
147
330
145
100
AcDbEntity
  8
H1
 62
   250
420
  2301728
370
    13
100
AcDbVertex
100
AcDb2dVertex
 10
3.893636180606892
 20
10.07999392432972
 30
0.0
  0
SEQEND
  5
148
330
145
100
AcDbEntity
  8
H1
 62
   250
420
  2301728
370
    13
  0
INSERT
  5
14A
330
F4
100
AcDbEntity
  8
H1
100
AcDbBlockReference
  2
block 7
 10
0.0
 20
0.0
 30
0.0
  0
INSERT
  5
14F
330
F4
100
AcDbEntity
  8
H1
100
AcDbBlockReference
  2
block 8
 10
0.0
 20
0.0
 30
0.0
  0
INSERT
  5
154
330
F4
100
AcDbEntity
  8
H1
100
AcDbBlockReference
  2
block 9
 10
0.0
 20
0.0
 30
0.0
  0
INSERT
  5
159
330
F4
100
AcDbEntity
  8
H1
100
AcDbBlockReference
  2
block 10
 10
0.0
 20
0.0
 30
0.0
  0
INSERT
  5
160
330
F4
100
AcDbEntity
  8
H1
100
AcDbBlockReference
  2
block 11
 10
0.0
 20
0.0
 30
0.0
  0
INSERT
  5
167
330
F4
100
AcDbEntity
  8
H1
100
AcDbBlockReference
  2
block 12
 10
0.0
 20
0.0
 30
0.0
  0
INSERT
  5
16D
330
F4
100
AcDbEntity
  8
H1
100
AcDbBlockReference
  2
block 13
 10
0.0
 20
0.0
 30
0.0
  0
INSERT
  5
178
330
F4
100
AcDbEntity
  8
H1
100
AcDbBlockReference
  2
block 15
 10
0.0
 20
0.0
 30
0.0
  0
INSERT
  5
183
330
F4
100
AcDbEntity
  8
H1
100
AcDbBlockReference
  2
block 17
 10
0.0
 20
0.0
 30
0.0
  0
ENDBLK
  5
F7
330
F4
100
AcDbEntity
  8
0
100
AcDbBlockEnd
  0
BLOCK
  5
116
330
114
100
AcDbEntity
  8
0
100
AcDbBlockBegin
  2
block 5
 70
     0
 10
0.0
 20
0.0
 30
0.0
  3
block 5
  1

  0
POLYLINE
  5
118
330
114
100
AcDbEntity
  8
H1
 62
   250
420
  2301728
370
     5
100
AcDb2dPolyline
 66
     1
 10
0.0
 20
0.0
 30
0.0
  0
VERTEX
  5
119
330
118
100
AcDbEntity
  8
H1
 62
   250
420
  2301728
370
     5
100
AcDbVertex
100
AcDb2dVertex
 10
4.001249362597997
 20
9.72078860897779
 30
0.0
  0
VERTEX
  5
11A
330
118
100
AcDbEntity
  8
H1
 62
   250
420
  2301728
370
     5
100
AcDbVertex
100
AcDb2dVertex
 10
4.001249362597997
 20
9.688525241250064
 30
0.0
  0
SEQEND
  5
11B
330
118
100
AcDbEntity
  8
H1
 62
   250
420
  2301728
370
     5
  0
POLYLINE
  5
11C
330
114
100
AcDbEntity
  8
H1
 62
   250
420
  2301728
370
     5
100
AcDb2dPolyline
 66
     1
 10
0.0
 20
0.0
 30
0.0
  0
VERTEX
  5
11D
330
11C
100
AcDbEntity
  8
H1
 62
   250
420
  2301728
370
     5
100
AcDbVertex
100
AcDb2dVertex
 10
4.001249362597997
 20
9.999010793930816
 30
0.0
  0
VERTEX
  5
11E
330
11C
100
AcDbEntity
  8
H1
 62
   250
420
  2301728
370
     5
100
AcDbVertex
100
AcDb2dVertex
 10
4.001249362597997
 20
9.743219874938745
 30
0.0
  0
SEQEND
  5
11F
330
11C
100
AcDbEntity
  8
H1
 62
   250
420
  2301728
370
     5
  0
POLYLINE
  5
120
330
114
100
AcDbEntity
  8
H1
 62
   250
420
  2301728
370
     5
100
AcDb2dPolyline
 66
     1
 10
0.0
 20
0.0
 30
0.0
  0
VERTEX
  5
121
330
120
100
AcDbEntity
  8
H1
 62
   250
420
  2301728
370
     5
100
AcDbVertex
100
AcDb2dVertex
 10
4.001249362597997
 20
10.04100052177695
 30
0.0
  0
VERTEX
  5
122
330
120
100
AcDbEntity
  8
H1
 62
   250
420
  2301728
370
     5
100
AcDbVertex
100
AcDb2dVertex
 10
4.001249362597997
 20
10.01209936416132
 30
0.0
  0
SEQEND
  5
123
330
120
100
AcDbEntity
  8
H1
 62
   250
420
  2301728
370
     5
  0
ENDBLK
  5
117
330
114
100
AcDbEntity
  8
0
100
AcDbBlockEnd
  0
BLOCK
  5
12C
330
12A
100
AcDbEntity
  8
0
100
AcDbBlockBegin
  2
block 6
 70
     0
 10
0.0
 20
0.0
 30
0.0
  3
block 6
  1

  0
POLYLINE
  5
12E
330
12A
100
AcDbEntity
  8
H1
 62
   250
420
  2301728
370
     5
100
AcDb2dPolyline
 66
     1
 10
0.0
 20
0.0
 30
0.0
  0
VERTEX
  5
12F
330
12E
100
AcDbEntity
  8
H1
 62
   250
420
  2301728
370
     5
100
AcDbVertex
100
AcDb2dVertex
 10
4.087044205882131
 20
9.82582001036792
 30
0.0
  0
VERTEX
  5
130
330
12E
100
AcDbEntity
  8
H1
 62
   250
420
  2301728
370
     5
100
AcDbVertex
100
AcDb2dVertex
 10
4.050371504993172
 20
9.886594320955698
 30
0.0
  0
SEQEND
  5
131
330
12E
100
AcDbEntity
  8
H1
 62
   250
420
  2301728
370
     5
  0
POLYLINE
  5
132
330
12A
100
AcDbEntity
  8
H1
 62
   250
420
  2301728
370
     5
100
AcDb2dPolyline
 66
     1
 10
0.0
 20
0.0
 30
0.0
  0
VERTEX
  5
133
330
132
100
AcDbEntity
  8
H1
 62
   250
420
  2301728
370
     5
100
AcDbVertex
100
AcDb2dVertex
 10
4.132136936436786
 20
9.756304702102057
 30
0.0
  0
VERTEX
  5
134
330
132
100
AcDbEntity
  8
H1
 62
   250
420
  2301728
370
     5
100
AcDbVertex
100
AcDb2dVertex
 10
4.092252683890491
 20
9.817517887319001
 30
0.0
  0
SEQEND
  5
135
330
132
100
AcDbEntity
  8
H1
 62
   250
420
  2301728
370
     5
  0
POLYLINE
  5
136
330
12A
100
AcDbEntity
  8
H1
 62
   250
420
  2301728
370
     5
100
AcDb2dPolyline
 66
     1
 10
0.0
 20
0.0
 30
0.0
  0
VERTEX
  5
137
330
136
100
AcDbEntity
  8
H1
 62
   250
420
  2301728
370
     5
100
AcDbVertex
100
AcDb2dVertex
 10
4.181475240962704
 20
9.67767783250536
 30
0.0
  0
VERTEX
  5
138
330
136
100
AcDbEntity
  8
H1
 62
   250
420
  2301728
370
     5
100
AcDbVertex
100
AcDb2dVertex
 10
4.139959082682253
 20
9.743848862619831
 30
0.0
  0
SEQEND
  5
139
330
136
100
AcDbEntity
  8
H1
 62
   250
420
  2301728
370
     5
  0
SPLINE
  5
13A
330
12A
100
AcDbEntity
  8
H1
 62
   250
420
  2301728
370
     5
100
AcDbSpline
210
0.0
220
0.0
230
1.0
 70
     8
 71
     3
 72
     8
 73
     4
 74
     0
 42
0.0000000001
 43
0.0000000001
 12
1.0
 22
0.0
 32
0.0
 13
1.0
 23
0.0
 33
0.0
 40
0.0
 40
0.0
 40
0.0
 40
0.0
 40
1.0
 40
1.0
 40
1.0
 40
1.0
 10
4.187350920699436
 20
9.6505602464104
 30
0.0
 10
4.189462010600045
 20
9.654484852369276
 30
0.0
 10
4.190887183436327
 20
9.660164021078003
 30
0.0
 10
4.187616678470603
 20
9.666693801807872
 30
0.0
  0
SPLINE
  5
13B
330
12A
100
AcDbEntity
  8
H1
 62
   250
420
  2301728
370
    13
100
AcDbSpline
210
0.0
220
0.0
230
1.0
 70
     8
 71
     3
 72
    17
 73
    13
 74
     0
 42
0.0000000001
 43
0.0000000001
 12
1.0
 22
0.0
 32
0.0
 13
1.0
 23
0.0
 33
0.0
 40
0.0
 40
0.0
 40
0.0
 40
0.0
 40
1.0
 40
1.0
 40
1.0
 40
2.0
 40
2.0
 40
2.0
 40
3.0
 40
3.0
 40
3.0
 40
4.0
 40
4.0
 40
4.0
 40
4.0
 10
4.042576567549784
 20
9.895951988954936
 30
0.0
 10
4.042576567549784
 20
9.895951988954936
 30
0.0
 10
4.034150923283278
 20
9.90076838067412
 30
0.0
 10
4.025423962107197
 20
9.89439393723305
 30
0.0
 10
4.025423962107197
 20
9.89439393723305
 30
0.0
 10
4.012666721673087
 20
9.887878193005184
 30
0.0
 10
4.020745128107592
 20
9.870999767234984
 30
0.0
 10
4.020745128107592
 20
9.870999767234984
 30
0.0
 10
4.156436928697177
 20
9.654215351530903
 30
0.0
 10
4.156436928697177
 20
9.654215351530903
 30
0.0
 10
4.156436928697177
 20
9.654215351530903
 30
0.0
 10
4.167347969584272
 20
9.637058067254316
 30
0.0
 10
4.182947202138987
 20
9.644857683531667
 30
0.0
  0
ENDBLK
  5
12D
330
12A
100
AcDbEntity
  8
0
100
AcDbBlockEnd
  0
BLOCK
  5
14B
330
149
100
AcDbEntity
  8
0
100
AcDbBlockBegin
  2
block 7
 70
     0
 10
0.0
 20
0.0
 30
0.0
  3
block 7
  1

  0
SPLINE
  5
14D
330
149
100
AcDbEntity
  8
H1
 62
   250
420
  2301728
370
    13
100
AcDbSpline
210
0.0
220
0.0
230
1.0
 70
    11
 71
     3
 72
    17
 73
    13
 74
     0
 42
0.0000000001
 43
0.0000000001
 12
1.0
 22
0.0
 32
0.0
 13
1.0
 23
0.0
 33
0.0
 40
0.0
 40
0.0
 40
0.0
 40
0.0
 40
1.0
 40
1.0
 40
1.0
 40
2.0
 40
2.0
 40
2.0
 40
3.0
 40
3.0
 40
3.0
 40
4.0
 40
4.0
 40
4.0
 40
4.0
 10
3.926172792240209
 20
9.991205563052656
 30
0.0
 10
3.925153808333562
 20
9.984379144247214
 30
0.0
 10
3.928000344800453
 20
9.97822928483812
 30
0.0
 10
3.932523841511284
 20
9.977465699129386
 30
0.0
 10
3.937051081289307
 20
9.976707728021463
 30
0.0
 10
3.941547440762936
 20
9.981624246788252
 30
0.0
 10
3.942571169642052
 20
9.988436629091678
 30
0.0
 10
3.943585540853165
 20
9.995263047897108
 30
0.0
 10
3.940738938247806
 20
10.00141290730623
 30
0.0
 10
3.936210762702975
 20
10.00217665193238
 30
0.0
 10
3.931682587158156
 20
10.00293462305947
 30
0.0
 10
3.927183420384128
 20
9.998014202288887
 30
0.0
 10
3.926172792240209
 20
9.991205563052656
 30
0.0
  0
ENDBLK
  5
14C
330
149
100
AcDbEntity
  8
0
100
AcDbBlockEnd
  0
BLOCK
  5
150
330
14E
100
AcDbEntity
  8
0
100
AcDbBlockBegin
  2
block 8
 70
     0
 10
0.0
 20
0.0
 30
0.0
  3
block 8
  1

  0
SPLINE
  5
152
330
14E
100
AcDbEntity
  8
H1
 62
   250
420
  2301728
370
    13
100
AcDbSpline
210
0.0
220
0.0
230
1.0
 70
    11
 71
     3
 72
    17
 73
    13
 74
     0
 42
0.0000000001
 43
0.0000000001
 12
1.0
 22
0.0
 32
0.0
 13
1.0
 23
0.0
 33
0.0
 40
0.0
 40
0.0
 40
0.0
 40
0.0
 40
1.0
 40
1.0
 40
1.0
 40
2.0
 40
2.0
 40
2.0
 40
3.0
 40
3.0
 40
3.0
 40
4.0
 40
4.0
 40
4.0
 40
4.0
 10
3.926172792240209
 20
9.868605295537122
 30
0.0
 10
3.925153808333562
 20
9.86177965695535
 30
0.0
 10
3.928000344800453
 20
9.855628861779463
 30
0.0
 10
3.932523841511284
 20
9.854866211837512
 30
0.0
 10
3.937051081289307
 20
9.854107304962794
 30
0.0
 10
3.941547440762936
 20
9.85902382372957
 30
0.0
 10
3.942571169642052
 20
9.865837141799817
 30
0.0
 10
3.943585540853165
 20
9.872662624838464
 30
0.0
 10
3.940738938247806
 20
9.87881342001434
 30
0.0
 10
3.936210762702975
 20
9.879576069956277
 30
0.0
 10
3.931682587158156
 20
9.88033497683101
 30
0.0
 10
3.927183420384128
 20
9.875413779230218
 30
0.0
 10
3.926172792240209
 20
9.868605295537122
 30
0.0
  0
ENDBLK
  5
151
330
14E
100
AcDbEntity
  8
0
100
AcDbBlockEnd
  0
BLOCK
  5
155
330
153
100
AcDbEntity
  8
0
100
AcDbBlockBegin
  2
block 9
 70
     0
 10
0.0
 20
0.0
 30
0.0
  3
block 9
  1

  0
SPLINE
  5
157
330
153
100
AcDbEntity
  8
H1
 62
   250
420
  2301728
370
    13
100
AcDbSpline
210
0.0
220
0.0
230
1.0
 70
    11
 71
     3
 72
    17
 73
    13
 74
     0
 42
0.0000000001
 43
0.0000000001
 12
1.0
 22
0.0
 32
0.0
 13
1.0
 23
0.0
 33
0.0
 40
0.0
 40
0.0
 40
0.0
 40
0.0
 40
1.0
 40
1.0
 40
1.0
 40
2.0
 40
2.0
 40
2.0
 40
3.0
 40
3.0
 40
3.0
 40
4.0
 40
4.0
 40
4.0
 40
4.0
 10
3.926172792240209
 20
9.74461619141515
 30
0.0
 10
3.925153808333562
 20
9.737790555965603
 30
0.0
 10
3.928000344800453
 20
9.731639760789701
 30
0.0
 10
3.932523841511284
 20
9.730877110847763
 30
0.0
 10
3.937051081289307
 20
9.730118203973031
 30
0.0
 10
3.941547440762936
 20
9.73503472273982
 30
0.0
 10
3.942571169642052
 20
9.741848040810055
 30
0.0
 10
3.943585540853165
 20
9.748673523848689
 30
0.0
 10
3.940738938247806
 20
9.754824319024578
 30
0.0
 10
3.936210762702975
 20
9.755586968966515
 30
0.0
 10
3.931682587158156
 20
9.75634587584126
 30
0.0
 10
3.927183420384128
 20
9.75142467824047
 30
0.0
 10
3.926172792240209
 20
9.74461619141515
 30
0.0
  0
ENDBLK
  5
156
330
153
100
AcDbEntity
  8
0
100
AcDbBlockEnd
  0
BLOCK
  5
15A
330
158
100
AcDbEntity
  8
0
100
AcDbBlockBegin
  2
block 10
 70
     0
 10
0.0
 20
0.0
 30
0.0
  3
block 10
  1

  0
SPLINE
  5
15C
330
158
100
AcDbEntity
  8
H1
 62
   250
420
  2301728
370
     5
100
AcDbSpline
210
0.0
220
0.0
230
1.0
 70
    11
 71
     3
 72
    17
 73
    13
 74
     0
 42
0.0000000001
 43
0.0000000001
 12
1.0
 22
0.0
 32
0.0
 13
1.0
 23
0.0
 33
0.0
 40
0.0
 40
0.0
 40
0.0
 40
0.0
 40
1.0
 40
1.0
 40
1.0
 40
2.0
 40
2.0
 40
2.0
 40
3.0
 40
3.0
 40
3.0
 40
4.0
 40
4.0
 40
4.0
 40
4.0
 10
4.163088359111031
 20
9.542481199857484
 30
0.0
 10
4.168370762696592
 20
9.531990170958995
 30
0.0
 10
4.166012630360784
 20
9.52014710633917
 30
0.0
 10
4.157815313193459
 20
9.516034411253523
 30
0.0
 10
4.149636711362139
 20
9.51192171616785
 30
0.0
 10
4.138725670475044
 20
9.517075919701837
 30
0.0
 10
4.133461982225476
 20
9.527530306390581
 30
0.0
 10
4.128171156738719
 20
9.538021187984503
 30
0.0
 10
4.130537710975722
 20
9.54985957377034
 30
0.0
 10
4.138725670475044
 20
9.553981774119102
 30
0.0
 10
4.146904272306364
 20
9.558084963941647
 30
0.0
 10
4.157806891292264
 20
9.552940118075664
 30
0.0
 10
4.163088359111031
 20
9.542481199857484
 30
0.0
  0
SPLINE
  5
15D
330
158
100
AcDbEntity
  8
H1
 62
   250
420
  2301728
370
    13
100
AcDbSpline
210
0.0
220
0.0
230
1.0
 70
     8
 71
     3
 72
    11
 73
     7
 74
     0
 42
0.0000000001
 43
0.0000000001
 12
1.0
 22
0.0
 32
0.0
 13
1.0
 23
0.0
 33
0.0
 40
0.0
 40
0.0
 40
0.0
 40
0.0
 40
1.0
 40
1.0
 40
1.0
 40
2.0
 40
2.0
 40
2.0
 40
2.0
 10
4.171742330476718
 20
9.527750211588542
 30
0.0
 10
4.173615735610156
 20
9.533013899838112
 30
0.0
 10
4.173177796747811
 20
9.539721476259956
 30
0.0
 10
4.170033620300059
 20
9.545953683147445
 30
0.0
 10
4.167420023627869
 20
9.55113034508463
 30
0.0
 10
4.1634177490246
 20
9.5550137773043
 30
0.0
 10
4.15907679888763
 20
9.55709787764153
 30
0.0
  0
SPLINE
  5
15E
330
158
100
AcDbEntity
  8
H1
 62
   250
420
  2301728
370
    13
100
AcDbSpline
210
0.0
220
0.0
230
1.0
 70
     8
 71
     3
 72
    23
 73
    19
 74
     0
 42
0.0000000001
 43
0.0000000001
 12
1.0
 22
0.0
 32
0.0
 13
1.0
 23
0.0
 33
0.0
 40
0.0
 40
0.0
 40
0.0
 40
0.0
 40
1.0
 40
1.0
 40
1.0
 40
2.0
 40
2.0
 40
2.0
 40
3.0
 40
3.0
 40
3.0
 40
4.0
 40
4.0
 40
4.0
 40
5.0
 40
5.0
 40
5.0
 40
6.0
 40
6.0
 40
6.0
 40
6.0
 10
4.165519481257231
 20
9.552309411252546
 30
0.0
 10
4.1597991388093
 20
9.55827694383922
 30
0.0
 10
4.151939633456752
 20
9.560607003229885
 30
0.0
 10
4.145670931664073
 20
9.55745425711848
 30
0.0
 10
4.144474085926971
 20
9.556850687532561
 30
0.0
 10
4.139931873880136
 20
9.554584260343125
 30
0.0
 10
4.138725670475044
 20
9.553981774119102
 30
0.0
 10
4.130537710975722
 20
9.54985957377034
 30
0.0
 10
4.128171156738719
 20
9.538021187984503
 30
0.0
 10
4.133461982225476
 20
9.527530306390581
 30
0.0
 10
4.138725670475044
 20
9.517075919701837
 30
0.0
 10
4.149636711362139
 20
9.51192171616785
 30
0.0
 10
4.157815313193459
 20
9.516034411253523
 30
0.0
 10
4.15901309469738
 20
9.516637980839466
 30
0.0
 10
4.163563728645386
 20
9.518903472262082
 30
0.0
 10
4.16476993205049
 20
9.519507041848037
 30
0.0
 10
4.171276318610353
 20
9.522778482580557
 30
0.0
 10
4.17401811533413
 20
9.53092994717469
 30
0.0
 10
4.172263552584266
 20
9.539392086346385
 30
0.0
  0
ENDBLK
  5
15B
330
158
100
AcDbEntity
  8
0
100
AcDbBlockEnd
  0
BLOCK
  5
161
330
15F
100
AcDbEntity
  8
0
100
AcDbBlockBegin
  2
block 11
 70
     0
 10
0.0
 20
0.0
 30
0.0
  3
block 11
  1

  0
SPLINE
  5
163
330
15F
100
AcDbEntity
  8
H1
 62
   250
420
  2301728
370
     5
100
AcDbSpline
210
0.0
220
0.0
230
1.0
 70
    11
 71
     3
 72
    17
 73
    13
 74
     0
 42
0.0000000001
 43
0.0000000001
 12
1.0
 22
0.0
 32
0.0
 13
1.0
 23
0.0
 33
0.0
 40
0.0
 40
0.0
 40
0.0
 40
0.0
 40
1.0
 40
1.0
 40
1.0
 40
2.0
 40
2.0
 40
2.0
 40
3.0
 40
3.0
 40
3.0
 40
4.0
 40
4.0
 40
4.0
 40
4.0
 10
3.883868382698665
 20
9.349892927338107
 30
0.0
 10
3.889150786284239
 20
9.33940189843962
 30
0.0
 10
3.886792653948431
 20
9.327558833819795
 30
0.0
 10
3.878595336781106
 20
9.323446138734134
 30
0.0
 10
3.870416734949786
 20
9.319333443648475
 30
0.0
 10
3.859505694062679
 20
9.324487647182448
 30
0.0
 10
3.854242005813123
 20
9.334942033871192
 30
0.0
 10
3.848951180326367
 20
9.345432915465114
 30
0.0
 10
3.851317734563357
 20
9.35727130125095
 30
0.0
 10
3.859505694062679
 20
9.361393501599713
 30
0.0
 10
3.867684295894012
 20
9.365496691422258
 30
0.0
 10
3.878586914879911
 20
9.360351845556288
 30
0.0
 10
3.883868382698665
 20
9.349892927338107
 30
0.0
  0
SPLINE
  5
164
330
15F
100
AcDbEntity
  8
H1
 62
   250
420
  2301728
370
    13
100
AcDbSpline
210
0.0
220
0.0
230
1.0
 70
     8
 71
     3
 72
    11
 73
     7
 74
     0
 42
0.0000000001
 43
0.0000000001
 12
1.0
 22
0.0
 32
0.0
 13
1.0
 23
0.0
 33
0.0
 40
0.0
 40
0.0
 40
0.0
 40
0.0
 40
1.0
 40
1.0
 40
1.0
 40
2.0
 40
2.0
 40
2.0
 40
2.0
 10
3.892522354064353
 20
9.335161939069167
 30
0.0
 10
3.894395759197803
 20
9.340425627318735
 30
0.0
 10
3.893957820335433
 20
9.34713320374058
 30
0.0
 10
3.890813643887693
 20
9.353365410628069
 30
0.0
 10
3.888200047215516
 20
9.35854207256524
 30
0.0
 10
3.884197772612235
 20
9.36242550478491
 30
0.0
 10
3.879856822475277
 20
9.36450960512214
 30
0.0
  0
SPLINE
  5
165
330
15F
100
AcDbEntity
  8
H1
 62
   250
420
  2301728
370
    13
100
AcDbSpline
210
0.0
220
0.0
230
1.0
 70
     8
 71
     3
 72
    23
 73
    19
 74
     0
 42
0.0000000001
 43
0.0000000001
 12
1.0
 22
0.0
 32
0.0
 13
1.0
 23
0.0
 33
0.0
 40
0.0
 40
0.0
 40
0.0
 40
0.0
 40
1.0
 40
1.0
 40
1.0
 40
2.0
 40
2.0
 40
2.0
 40
3.0
 40
3.0
 40
3.0
 40
4.0
 40
4.0
 40
4.0
 40
5.0
 40
5.0
 40
5.0
 40
6.0
 40
6.0
 40
6.0
 40
6.0
 10
3.886299504844866
 20
9.359721138733157
 30
0.0
 10
3.880579162396947
 20
9.365688671319832
 30
0.0
 10
3.872719657044386
 20
9.368018730710508
 30
0.0
 10
3.866450955251707
 20
9.364865984599115
 30
0.0
 10
3.865254109514606
 20
9.364262415013172
 30
0.0
 10
3.860711897467783
 20
9.361995987823748
 30
0.0
 10
3.859505694062679
 20
9.361393501599713
 30
0.0
 10
3.851317734563357
 20
9.35727130125095
 30
0.0
 10
3.848951180326367
 20
9.345432915465114
 30
0.0
 10
3.854242005813123
 20
9.334942033871192
 30
0.0
 10
3.859505694062679
 20
9.324487647182448
 30
0.0
 10
3.870416734949786
 20
9.319333443648475
 30
0.0
 10
3.878595336781106
 20
9.323446138734134
 30
0.0
 10
3.879793118285003
 20
9.324049708320077
 30
0.0
 10
3.884343752233033
 20
9.326315199742693
 30
0.0
 10
3.885549955638137
 20
9.326918769328648
 30
0.0
 10
3.892056342198
 20
9.33019021006118
 30
0.0
 10
3.894798138921778
 20
9.3383416746553
 30
0.0
 10
3.893043576171913
 20
9.346803813826996
 30
0.0
  0
ENDBLK
  5
162
330
15F
100
AcDbEntity
  8
0
100
AcDbBlockEnd
  0
BLOCK
  5
168
330
166
100
AcDbEntity
  8
0
100
AcDbBlockBegin
  2
block 12
 70
     0
 10
0.0
 20
0.0
 30
0.0
  3
block 12
  1

  0
SPLINE
  5
16A
330
166
100
AcDbEntity
  8
H1
 62
   250
420
  2301728
370
     5
100
AcDbSpline
210
0.0
220
0.0
230
1.0
 70
     8
 71
     3
 72
    17
 73
    13
 74
     0
 42
0.0000000001
 43
0.0000000001
 12
1.0
 22
0.0
 32
0.0
 13
1.0
 23
0.0
 33
0.0
 40
0.0
 40
0.0
 40
0.0
 40
0.0
 40
1.0
 40
1.0
 40
1.0
 40
2.0
 40
2.0
 40
2.0
 40
3.0
 40
3.0
 40
3.0
 40
4.0
 40
4.0
 40
4.0
 40
4.0
 10
3.878211247678046
 20
9.596004172637587
 30
0.0
 10
3.880406824005932
 20
9.593988422796023
 30
0.0
 10
3.882342614443157
 20
9.591462133841256
 30
0.0
 10
3.883831613468917
 20
9.588513461318396
 30
0.0
 10
3.889114017054491
 20
9.578022432419907
 30
0.0
 10
3.886755884718696
 20
9.566179367800082
 30
0.0
 10
3.87855856755137
 20
9.56206667271441
 30
0.0
 10
3.870379965720038
 20
9.557953977628749
 30
0.0
 10
3.859468924832943
 20
9.563108181162734
 30
0.0
 10
3.854205236583375
 20
9.57356256785148
 30
0.0
 10
3.853113079450029
 20
9.575728145075042
 30
0.0
 10
3.852347212166061
 20
9.577951141018263
 30
0.0
 10
3.851891485505739
 20
9.580151831495009
 30
0.0
  0
SPLINE
  5
16B
330
166
100
AcDbEntity
  8
H1
 62
   250
420
  2301728
370
    13
100
AcDbSpline
210
0.0
220
0.0
230
1.0
 70
    11
 71
     3
 72
    26
 73
    22
 74
     0
 42
0.0000000001
 43
0.0000000001
 12
1.0
 22
0.0
 32
0.0
 13
1.0
 23
0.0
 33
0.0
 40
0.0
 40
0.0
 40
0.0
 40
0.0
 40
1.0
 40
1.0
 40
1.0
 40
2.0
 40
2.0
 40
2.0
 40
3.0
 40
3.0
 40
3.0
 40
4.0
 40
4.0
 40
4.0
 40
5.0
 40
5.0
 40
5.0
 40
6.0
 40
6.0
 40
6.0
 40
7.0
 40
7.0
 40
7.0
 40
7.0
 10
3.851891485505739
 20
9.580151831495009
 30
0.0
 10
3.852347212166061
 20
9.577951141018263
 30
0.0
 10
3.853113079450029
 20
9.575728145075042
 30
0.0
 10
3.854205236583375
 20
9.57356256785148
 30
0.0
 10
3.859468924832943
 20
9.563108181162734
 30
0.0
 10
3.870379965720038
 20
9.557953977628749
 30
0.0
 10
3.87855856755137
 20
9.56206667271441
 30
0.0
 10
3.879756349055267
 20
9.562670242300378
 30
0.0
 10
3.884404492687218
 20
9.564771174978393
 30
0.0
 10
3.885513186408389
 20
9.565539303308924
 30
0.0
 10
3.89212123946182
 20
9.570117513380017
 30
0.0
 10
3.892485584834617
 20
9.573782473049466
 30
0.0
 10
3.892485584834617
 20
9.573782473049466
 30
0.0
 10
3.894358989968067
 20
9.579046161299049
 30
0.0
 10
3.893921051105697
 20
9.58575373772088
 30
0.0
 10
3.890776874657957
 20
9.591985944608355
 30
0.0
 10
3.889316178165763
 20
9.594879096414589
 30
0.0
 10
3.887421726798089
 20
9.597368306685793
 30
0.0
 10
3.885276817211813
 20
9.599365226257152
 30
0.0
 10
3.885276817211813
 20
9.599365226257152
 30
0.0
 10
3.851891485505739
 20
9.580151831495009
 30
0.0
 10
3.851891485505739
 20
9.580151831495009
 30
0.0
  0
ENDBLK
  5
169
330
166
100
AcDbEntity
  8
0
100
AcDbBlockEnd
  0
BLOCK
  5
16E
330
16C
100
AcDbEntity
  8
0
100
AcDbBlockBegin
  2
block 13
 70
     0
 10
0.0
 20
0.0
 30
0.0
  3
block 13
  1

  0
INSERT
  5
171
330
16C
100
AcDbEntity
  8
H1
100
AcDbBlockReference
  2
block 14
 10
0.0
 20
0.0
 30
0.0
  0
ENDBLK
  5
16F
330
16C
100
AcDbEntity
  8
0
100
AcDbBlockEnd
  0
BLOCK
  5
172
330
170
100
AcDbEntity
  8
0
100
AcDbBlockBegin
  2
block 14
 70
     0
 10
0.0
 20
0.0
 30
0.0
  3
block 14
  1

  0
SPLINE
  5
174
330
170
100
AcDbEntity
  8
H1
 62
   250
420
  2301728
370
    13
100
AcDbSpline
210
0.0
220
0.0
230
1.0
 70
    11
 71
     3
 72
    35
 73
    31
 74
     0
 42
0.0000000001
 43
0.0000000001
 12
1.0
 22
0.0
 32
0.0
 13
1.0
 23
0.0
 33
0.0
 40
0.0
 40
0.0
 40
0.0
 40
0.0
 40
1.0
 40
1.0
 40
1.0
 40
2.0
 40
2.0
 40
2.0
 40
3.0
 40
3.0
 40
3.0
 40
4.0
 40
4.0
 40
4.0
 40
5.0
 40
5.0
 40
5.0
 40
6.0
 40
6.0
 40
6.0
 40
7.0
 40
7.0
 40
7.0
 40
8.0
 40
8.0
 40
8.0
 40
9.0
 40
9.0
 40
9.0
 40
10.0
 40
10.0
 40
10.0
 40
10.0
 10
3.920853893749444
 20
9.987140592073791
 30
0.0
 10
3.920770610504266
 20
9.989294727247207
 30
0.0
 10
3.920922204725836
 20
9.991551796768627
 30
0.0
 10
3.921334877884608
 20
9.99384910426243
 30
0.0
 10
3.921795275150164
 20
9.996379417689429
 30
0.0
 10
3.922536402455711
 20
9.998747843460023
 30
0.0
 10
3.923496499192424
 20
10.00088607059786
 30
0.0
 10
3.923496499192424
 20
10.00088607059786
 30
0.0
 10
3.923547966366426
 20
10.00086361219467
 30
0.0
 10
3.923547966366426
 20
10.00086361219467
 30
0.0
 10
3.926928891814555
 20
10.00839185610003
 30
0.0
 10
3.932989853377649
 20
10.01309034120244
 30
0.0
 10
3.938948816359546
 20
10.01192156846933
 30
0.0
 10
3.94057330752422
 20
10.01160527929096
 30
0.0
 10
3.944490427348695
 20
10.00985726690871
 30
0.0
 10
3.945096804235037
 20
10.00976572087149
 30
0.0
 10
3.952804715366003
 20
10.00846765321084
 30
0.0
 10
3.957637950887602
 20
9.998060054862082
 30
0.0
 10
3.955925497643749
 20
9.986497720282246
 30
0.0
 10
3.954169063360293
 20
9.974951293737995
 30
0.0
 10
3.946537885106927
 20
9.966617512637033
 30
0.0
 10
3.938830909742743
 20
9.967903098200976
 30
0.0
 10
3.937069796625325
 20
9.96818663554134
 30
0.0
 10
3.932340497538525
 20
9.970091856745992
 30
0.0
 10
3.931448645458166
 20
9.970265909370784
 30
0.0
 10
3.925329666353466
 20
9.97147866314348
 30
0.0
 10
3.921264695374614
 20
9.978492393628029
 30
0.0
 10
3.920933499959296
 20
9.987144335140984
 30
0.0
 10
3.920933499959296
 20
9.987144335140984
 30
0.0
 10
3.920853893749444
 20
9.987140592073791
 30
0.0
 10
3.920853893749444
 20
9.987140592073791
 30
0.0
  0
HATCH
  5
175
330
170
100
AcDbEntity
  8
H1
 62
   254
420
 13358815
100
AcDbHatch
 10
0.0
 20
0.0
 30
0.0
210
0.0
220
0.0
230
1.0
  2
SOLID
 70
     1
 71
     0
 91
        1
 92
        1
 93
        1
 72
     4
 94
        3
 73
     0
 74
     1
 95
       35
 96
       31
 40
0.0
 40
0.0
 40
0.0
 40
0.0
 40
1.0
 40
1.0
 40
1.0
 40
2.0
 40
2.0
 40
2.0
 40
3.0
 40
3.0
 40
3.0
 40
4.0
 40
4.0
 40
4.0
 40
5.0
 40
5.0
 40
5.0
 40
6.0
 40
6.0
 40
6.0
 40
7.0
 40
7.0
 40
7.0
 40
8.0
 40
8.0
 40
8.0
 40
9.0
 40
9.0
 40
9.0
 40
10.0
 40
10.0
 40
10.0
 40
10.0
 10
3.920853893749444
 20
9.987140592073791
 10
3.920770610504266
 20
9.989294727247207
 10
3.920922204725836
 20
9.991551796768627
 10
3.921334877884608
 20
9.99384910426243
 10
3.921795275150164
 20
9.996379417689429
 10
3.922536402455711
 20
9.998747843460023
 10
3.923496499192424
 20
10.00088607059786
 10
3.923496499192424
 20
10.00088607059786
 10
3.923547966366426
 20
10.00086361219467
 10
3.923547966366426
 20
10.00086361219467
 10
3.926928891814555
 20
10.00839185610003
 10
3.932989853377649
 20
10.01309034120244
 10
3.938948816359546
 20
10.01192156846933
 10
3.94057330752422
 20
10.01160527929096
 10
3.944490427348695
 20
10.00985726690871
 10
3.945096804235037
 20
10.00976572087149
 10
3.952804715366003
 20
10.00846765321084
 10
3.957637950887602
 20
9.998060054862082
 10
3.955925497643749
 20
9.986497720282246
 10
3.954169063360293
 20
9.974951293737995
 10
3.946537885106927
 20
9.966617512637033
 10
3.938830909742743
 20
9.967903098200976
 10
3.937069796625325
 20
9.96818663554134
 10
3.932340497538525
 20
9.970091856745992
 10
3.931448645458166
 20
9.970265909370784
 10
3.925329666353466
 20
9.97147866314348
 10
3.921264695374614
 20
9.978492393628029
 10
3.920933499959296
 20
9.987144335140984
 10
3.920933499959296
 20
9.987144335140984
 10
3.920853893749444
 20
9.987140592073791
 10
3.920853893749444
 20
9.987140592073791
 97
        0
 97
        0
 75
     2
 76
     1
 98
        0
  0
SPLINE
  5
176
330
170
100
AcDbEntity
  8
H1
 62
   250
420
  2301728
370
     5
100
AcDbSpline
210
0.0
220
0.0
230
1.0
 70
    11
 71
     3
 72
    17
 73
    13
 74
     0
 42
0.0000000001
 43
0.0000000001
 12
1.0
 22
0.0
 32
0.0
 13
1.0
 23
0.0
 33
0.0
 40
0.0
 40
0.0
 40
0.0
 40
0.0
 40
1.0
 40
1.0
 40
1.0
 40
2.0
 40
2.0
 40
2.0
 40
3.0
 40
3.0
 40
3.0
 40
4.0
 40
4.0
 40
4.0
 40
4.0
 10
3.928182819326442
 20
9.992094541512579
 30
0.0
 10
3.925429793401071
 20
9.980727782193917
 30
0.0
 10
3.929318840221551
 20
9.969930904856406
 30
0.0
 10
3.936870478296921
 20
9.967962987276184
 30
0.0
 10
3.944428666739908
 20
9.966008170431135
 30
0.0
 10
3.952774770828417
 20
9.973636541384115
 30
0.0
 10
3.955548383623384
 20
9.984970548864768
 30
0.0
 10
3.958301409548754
 20
9.996341987017418
 30
0.0
 10
3.954412362728274
 20
10.00714167165533
 30
0.0
 10
3.946853238518492
 20
10.00910958923557
 30
0.0
 10
3.93928475664072
 20
10.01105598417941
 30
0.0
 10
3.930922744516617
 20
10.00341731979164
 30
0.0
 10
3.928182819326442
 20
9.992094541512579
 30
0.0
  0
ENDBLK
  5
173
330
170
100
AcDbEntity
  8
0
100
AcDbBlockEnd
  0
BLOCK
  5
179
330
177
100
AcDbEntity
  8
0
100
AcDbBlockBegin
  2
block 15
 70
     0
 10
0.0
 20
0.0
 30
0.0
  3
block 15
  1

  0
INSERT
  5
17C
330
177
100
AcDbEntity
  8
H1
100
AcDbBlockReference
  2
block 16
 10
0.0
 20
0.0
 30
0.0
  0
ENDBLK
  5
17A
330
177
100
AcDbEntity
  8
0
100
AcDbBlockEnd
  0
BLOCK
  5
17D
330
17B
100
AcDbEntity
  8
0
100
AcDbBlockBegin
  2
block 16
 70
     0
 10
0.0
 20
0.0
 30
0.0
  3
block 16
  1

  0
SPLINE
  5
17F
330
17B
100
AcDbEntity
  8
H1
 62
   250
420
  2301728
370
    13
100
AcDbSpline
210
0.0
220
0.0
230
1.0
 70
    11
 71
     3
 72
    35
 73
    31
 74
     0
 42
0.0000000001
 43
0.0000000001
 12
1.0
 22
0.0
 32
0.0
 13
1.0
 23
0.0
 33
0.0
 40
0.0
 40
0.0
 40
0.0
 40
0.0
 40
1.0
 40
1.0
 40
1.0
 40
2.0
 40
2.0
 40
2.0
 40
3.0
 40
3.0
 40
3.0
 40
4.0
 40
4.0
 40
4.0
 40
5.0
 40
5.0
 40
5.0
 40
6.0
 40
6.0
 40
6.0
 40
7.0
 40
7.0
 40
7.0
 40
8.0
 40
8.0
 40
8.0
 40
9.0
 40
9.0
 40
9.0
 40
10.0
 40
10.0
 40
10.0
 40
10.0
 10
3.920853893749444
 20
9.864483087240323
 30
0.0
 10
3.920770610504266
 20
9.866637222413752
 30
0.0
 10
3.920922204725836
 20
9.868894291935172
 30
0.0
 10
3.921334877884608
 20
9.871191599428975
 30
0.0
 10
3.921795275150164
 20
9.873721912855961
 30
0.0
 10
3.922536402455711
 20
9.876091430125623
 30
0.0
 10
3.923496499192424
 20
9.87822856576439
 30
0.0
 10
3.923496499192424
 20
9.87822856576439
 30
0.0
 10
3.923547966366426
 20
9.87820626314687
 30
0.0
 10
3.923547966366426
 20
9.87820626314687
 30
0.0
 10
3.926928891814555
 20
9.885735287033361
 30
0.0
 10
3.932989853377649
 20
9.890432836368985
 30
0.0
 10
3.938948816359546
 20
9.88926406363588
 30
0.0
 10
3.94057330752422
 20
9.888947774457494
 30
0.0
 10
3.944490427348695
 20
9.887199762075271
 30
0.0
 10
3.945096804235037
 20
9.887108992695655
 30
0.0
 10
3.952804715366003
 20
9.885810148377358
 30
0.0
 10
3.957637950887602
 20
9.87540348579542
 30
0.0
 10
3.955925497643749
 20
9.863840215448779
 30
0.0
 10
3.954169063360293
 20
9.852293788904527
 30
0.0
 10
3.946537885106927
 20
9.843959849784419
 30
0.0
 10
3.938830909742743
 20
9.845245593367508
 30
0.0
 10
3.937069796625325
 20
9.845529285668084
 30
0.0
 10
3.932340497538525
 20
9.847434351912536
 30
0.0
 10
3.931448645458166
 20
9.847608404537317
 30
0.0
 10
3.925329666353466
 20
9.848821158310013
 30
0.0
 10
3.921264695374614
 20
9.855834730475433
 30
0.0
 10
3.920933499959296
 20
9.864486830307529
 30
0.0
 10
3.920933499959296
 20
9.864486830307529
 30
0.0
 10
3.920853893749444
 20
9.864483087240323
 30
0.0
 10
3.920853893749444
 20
9.864483087240323
 30
0.0
  0
HATCH
  5
180
330
17B
100
AcDbEntity
  8
H1
 62
   254
420
 13358815
100
AcDbHatch
 10
0.0
 20
0.0
 30
0.0
210
0.0
220
0.0
230
1.0
  2
SOLID
 70
     1
 71
     0
 91
        1
 92
        1
 93
        1
 72
     4
 94
        3
 73
     0
 74
     1
 95
       35
 96
       31
 40
0.0
 40
0.0
 40
0.0
 40
0.0
 40
1.0
 40
1.0
 40
1.0
 40
2.0
 40
2.0
 40
2.0
 40
3.0
 40
3.0
 40
3.0
 40
4.0
 40
4.0
 40
4.0
 40
5.0
 40
5.0
 40
5.0
 40
6.0
 40
6.0
 40
6.0
 40
7.0
 40
7.0
 40
7.0
 40
8.0
 40
8.0
 40
8.0
 40
9.0
 40
9.0
 40
9.0
 40
10.0
 40
10.0
 40
10.0
 40
10.0
 10
3.920853893749444
 20
9.864483087240323
 10
3.920770610504266
 20
9.866637222413752
 10
3.920922204725836
 20
9.868894291935172
 10
3.921334877884608
 20
9.871191599428975
 10
3.921795275150164
 20
9.873721912855961
 10
3.922536402455711
 20
9.876091430125623
 10
3.923496499192424
 20
9.87822856576439
 10
3.923496499192424
 20
9.87822856576439
 10
3.923547966366426
 20
9.87820626314687
 10
3.923547966366426
 20
9.87820626314687
 10
3.926928891814555
 20
9.885735287033361
 10
3.932989853377649
 20
9.890432836368985
 10
3.938948816359546
 20
9.88926406363588
 10
3.94057330752422
 20
9.888947774457494
 10
3.944490427348695
 20
9.887199762075271
 10
3.945096804235037
 20
9.887108992695655
 10
3.952804715366003
 20
9.885810148377358
 10
3.957637950887602
 20
9.87540348579542
 10
3.955925497643749
 20
9.863840215448779
 10
3.954169063360293
 20
9.852293788904527
 10
3.946537885106927
 20
9.843959849784419
 10
3.938830909742743
 20
9.845245593367508
 10
3.937069796625325
 20
9.845529285668084
 10
3.932340497538525
 20
9.847434351912536
 10
3.931448645458166
 20
9.847608404537317
 10
3.925329666353466
 20
9.848821158310013
 10
3.921264695374614
 20
9.855834730475433
 10
3.920933499959296
 20
9.864486830307529
 10
3.920933499959296
 20
9.864486830307529
 10
3.920853893749444
 20
9.864483087240323
 10
3.920853893749444
 20
9.864483087240323
 97
        0
 97
        0
 75
     2
 76
     1
 98
        0
  0
SPLINE
  5
181
330
17B
100
AcDbEntity
  8
H1
 62
   250
420
  2301728
370
     5
100
AcDbSpline
210
0.0
220
0.0
230
1.0
 70
    11
 71
     3
 72
    17
 73
    13
 74
     0
 42
0.0000000001
 43
0.0000000001
 12
1.0
 22
0.0
 32
0.0
 13
1.0
 23
0.0
 33
0.0
 40
0.0
 40
0.0
 40
0.0
 40
0.0
 40
1.0
 40
1.0
 40
1.0
 40
2.0
 40
2.0
 40
2.0
 40
3.0
 40
3.0
 40
3.0
 40
4.0
 40
4.0
 40
4.0
 40
4.0
 10
3.928182819326442
 20
9.86943703667911
 30
0.0
 10
3.925429793401071
 20
9.858070277360449
 30
0.0
 10
3.929318840221551
 20
9.847273400022964
 30
0.0
 10
3.936870478296921
 20
9.845305482442704
 30
0.0
 10
3.944428666739908
 20
9.843350665597667
 30
0.0
 10
3.952774770828417
 20
9.850979036550635
 30
0.0
 10
3.955548383623384
 20
9.8623130440313
 30
0.0
 10
3.958301409548754
 20
9.873684482183963
 30
0.0
 10
3.954412362728274
 20
9.884484166821872
 30
0.0
 10
3.946853238518492
 20
9.886452084402107
 30
0.0
 10
3.93928475664072
 20
9.88839847934595
 30
0.0
 10
3.930922744516617
 20
9.88075981495817
 30
0.0
 10
3.928182819326442
 20
9.86943703667911
 30
0.0
  0
ENDBLK
  5
17E
330
17B
100
AcDbEntity
  8
0
100
AcDbBlockEnd
  0
BLOCK
  5
184
330
182
100
AcDbEntity
  8
0
100
AcDbBlockBegin
  2
block 17
 70
     0
 10
0.0
 20
0.0
 30
0.0
  3
block 17
  1

  0
INSERT
  5
187
330
182
100
AcDbEntity
  8
H1
100
AcDbBlockReference
  2
block 18
 10
0.0
 20
0.0
 30
0.0
  0
ENDBLK
  5
185
330
182
100
AcDbEntity
  8
0
100
AcDbBlockEnd
  0
BLOCK
  5
188
330
186
100
AcDbEntity
  8
0
100
AcDbBlockBegin
  2
block 18
 70
     0
 10
0.0
 20
0.0
 30
0.0
  3
block 18
  1

  0
SPLINE
  5
18A
330
186
100
AcDbEntity
  8
H1
 62
   250
420
  2301728
370
    13
100
AcDbSpline
210
0.0
220
0.0
230
1.0
 70
    11
 71
     3
 72
    35
 73
    31
 74
     0
 42
0.0000000001
 43
0.0000000001
 12
1.0
 22
0.0
 32
0.0
 13
1.0
 23
0.0
 33
0.0
 40
0.0
 40
0.0
 40
0.0
 40
0.0
 40
1.0
 40
1.0
 40
1.0
 40
2.0
 40
2.0
 40
2.0
 40
3.0
 40
3.0
 40
3.0
 40
4.0
 40
4.0
 40
4.0
 40
5.0
 40
5.0
 40
5.0
 40
6.0
 40
6.0
 40
6.0
 40
7.0
 40
7.0
 40
7.0
 40
8.0
 40
8.0
 40
8.0
 40
9.0
 40
9.0
 40
9.0
 40
10.0
 40
10.0
 40
10.0
 40
10.0
 10
3.920853893749444
 20
9.741826518173664
 30
0.0
 10
3.920770610504266
 20
9.743979869975128
 30
0.0
 10
3.920922204725836
 20
9.746236787101692
 30
0.0
 10
3.921334877884608
 20
9.74853409459552
 30
0.0
 10
3.921795275150164
 20
9.751064408022506
 30
0.0
 10
3.922536402455711
 20
9.753433769559907
 30
0.0
 10
3.923496499192424
 20
9.755571996697716
 30
0.0
 10
3.923496499192424
 20
9.755571996697716
 30
0.0
 10
3.923547966366426
 20
9.755548602527723
 30
0.0
 10
3.923547966366426
 20
9.755548602527723
 30
0.0
 10
3.926928891814555
 20
9.763077782199906
 30
0.0
 10
3.932989853377649
 20
9.767775331535518
 30
0.0
 10
3.938948816359546
 20
9.76660671176886
 30
0.0
 10
3.94057330752422
 20
9.766291205390832
 30
0.0
 10
3.944490427348695
 20
9.764542257241777
 30
0.0
 10
3.945096804235037
 20
9.764451487862187
 30
0.0
 10
3.952804715366003
 20
9.763152643543902
 30
0.0
 10
3.957637950887602
 20
9.752745980961953
 30
0.0
 10
3.955925497643749
 20
9.741182710615323
 30
0.0
 10
3.954169063360293
 20
9.72963721983788
 30
0.0
 10
3.946537885106927
 20
9.721302344950951
 30
0.0
 10
3.938830909742743
 20
9.722588240388506
 30
0.0
 10
3.937069796625325
 20
9.72287162587443
 30
0.0
 10
3.932340497538525
 20
9.724776847079069
 30
0.0
 10
3.931448645458166
 20
9.724950899703849
 30
0.0
 10
3.925329666353466
 20
9.726163653476558
 30
0.0
 10
3.921264695374614
 20
9.733177225641965
 30
0.0
 10
3.920933499959296
 20
9.741829325474074
 30
0.0
 10
3.920933499959296
 20
9.741829325474074
 30
0.0
 10
3.920853893749444
 20
9.741826518173664
 30
0.0
 10
3.920853893749444
 20
9.741826518173664
 30
0.0
  0
HATCH
  5
18B
330
186
100
AcDbEntity
  8
H1
 62
   254
420
 13358815
100
AcDbHatch
 10
0.0
 20
0.0
 30
0.0
210
0.0
220
0.0
230
1.0
  2
SOLID
 70
     1
 71
     0
 91
        1
 92
        1
 93
        1
 72
     4
 94
        3
 73
     0
 74
     1
 95
       35
 96
       31
 40
0.0
 40
0.0
 40
0.0
 40
0.0
 40
1.0
 40
1.0
 40
1.0
 40
2.0
 40
2.0
 40
2.0
 40
3.0
 40
3.0
 40
3.0
 40
4.0
 40
4.0
 40
4.0
 40
5.0
 40
5.0
 40
5.0
 40
6.0
 40
6.0
 40
6.0
 40
7.0
 40
7.0
 40
7.0
 40
8.0
 40
8.0
 40
8.0
 40
9.0
 40
9.0
 40
9.0
 40
10.0
 40
10.0
 40
10.0
 40
10.0
 10
3.920853893749444
 20
9.741826518173664
 10
3.920770610504266
 20
9.743979869975128
 10
3.920922204725836
 20
9.746236787101692
 10
3.921334877884608
 20
9.74853409459552
 10
3.921795275150164
 20
9.751064408022506
 10
3.922536402455711
 20
9.753433769559907
 10
3.923496499192424
 20
9.755571996697716
 10
3.923496499192424
 20
9.755571996697716
 10
3.923547966366426
 20
9.755548602527723
 10
3.923547966366426
 20
9.755548602527723
 10
3.926928891814555
 20
9.763077782199906
 10
3.932989853377649
 20
9.767775331535518
 10
3.938948816359546
 20
9.76660671176886
 10
3.94057330752422
 20
9.766291205390832
 10
3.944490427348695
 20
9.764542257241777
 10
3.945096804235037
 20
9.764451487862187
 10
3.952804715366003
 20
9.763152643543902
 10
3.957637950887602
 20
9.752745980961953
 10
3.955925497643749
 20
9.741182710615323
 10
3.954169063360293
 20
9.72963721983788
 10
3.946537885106927
 20
9.721302344950951
 10
3.938830909742743
 20
9.722588240388506
 10
3.937069796625325
 20
9.72287162587443
 10
3.932340497538525
 20
9.724776847079069
 10
3.931448645458166
 20
9.724950899703849
 10
3.925329666353466
 20
9.726163653476558
 10
3.921264695374614
 20
9.733177225641965
 10
3.920933499959296
 20
9.741829325474074
 10
3.920933499959296
 20
9.741829325474074
 10
3.920853893749444
 20
9.741826518173664
 10
3.920853893749444
 20
9.741826518173664
 97
        0
 97
        0
 75
     2
 76
     1
 98
        0
  0
SPLINE
  5
18C
330
186
100
AcDbEntity
  8
H1
 62
   250
420
  2301728
370
     5
100
AcDbSpline
210
0.0
220
0.0
230
1.0
 70
    11
 71
     3
 72
    17
 73
    13
 74
     0
 42
0.0000000001
 43
0.0000000001
 12
1.0
 22
0.0
 32
0.0
 13
1.0
 23
0.0
 33
0.0
 40
0.0
 40
0.0
 40
0.0
 40
0.0
 40
1.0
 40
1.0
 40
1.0
 40
2.0
 40
2.0
 40
2.0
 40
3.0
 40
3.0
 40
3.0
 40
4.0
 40
4.0
 40
4.0
 40
4.0
 10
3.928182819326442
 20
9.746779531845643
 30
0.0
 10
3.925429793401071
 20
9.735412772526994
 30
0.0
 10
3.929318840221551
 20
9.724615895189483
 30
0.0
 10
3.936870478296921
 20
9.722647977609249
 30
0.0
 10
3.944428666739908
 20
9.720693160764199
 30
0.0
 10
3.952774770828417
 20
9.728321531717167
 30
0.0
 10
3.955548383623384
 20
9.739655539197845
 30
0.0
 10
3.958301409548754
 20
9.751026977350495
 30
0.0
 10
3.954412362728274
 20
9.761826661988405
 30
0.0
 10
3.946853238518492
 20
9.76379457956864
 30
0.0
 10
3.93928475664072
 20
9.765740974512482
 30
0.0
 10
3.930922744516617
 20
9.758102310124714
 30
0.0
 10
3.928182819326442
 20
9.746779531845643
 30
0.0
  0
ENDBLK
  5
189
330
186
100
AcDbEntity
  8
0
100
AcDbBlockEnd
  0
BLOCK
  5
18F
330
18D
100
AcDbEntity
  8
0
100
AcDbBlockBegin
  2
block 19
 70
     0
 10
0.0
 20
0.0
 30
0.0
  3
block 19
  1

  0
SPLINE
  5
191
330
18D
100
AcDbEntity
  8
H1
 62
   250
420
  2301728
370
     9
100
AcDbSpline
210
0.0
220
0.0
230
1.0
 70
     8
 71
     3
 72
    17
 73
    13
 74
     0
 42
0.0000000001
 43
0.0000000001
 12
1.0
 22
0.0
 32
0.0
 13
1.0
 23
0.0
 33
0.0
 40
0.0
 40
0.0
 40
0.0
 40
0.0
 40
1.0
 40
1.0
 40
1.0
 40
2.0
 40
2.0
 40
2.0
 40
3.0
 40
3.0
 40
3.0
 40
4.0
 40
4.0
 40
4.0
 40
4.0
 10
3.044135896545362
 20
10.73867247888767
 30
0.0
 10
3.044135896545994
 20
10.70569239322493
 30
0.0
 10
3.045704677992401
 20
10.58491128067434
 30
0.0
 10
3.042881097280643
 20
10.52467832730757
 30
0.0
 10
3.040057516568873
 20
10.46444537394081
 30
0.0
 10
3.031586774434168
 20
10.2540644367441
 30
0.0
 10
3.032998564791708
 20
10.19843269070436
 30
0.0
 10
3.034410355149235
 20
10.14280094466466
 30
0.0
 10
3.047116468360842
 20
9.962022061235631
 30
0.0
 10
3.04146930693643
 20
9.887728274429934
 30
0.0
 10
3.035822145512005
 20
9.813434487624237
 30
0.0
 10
3.039958126547377
 20
9.445936978807708
 30
0.0
 10
3.006616156057842
 20
9.396925009601887
 30
0.0
  0
SPLINE
  5
192
330
18D
100
AcDbEntity
  8
H1
 62
   250
420
  2301728
370
     9
100
AcDbSpline
210
0.0
220
0.0
230
1.0
 70
     8
 71
     3
 72
    20
 73
    16
 74
     0
 42
0.0000000001
 43
0.0000000001
 12
1.0
 22
0.0
 32
0.0
 13
1.0
 23
0.0
 33
0.0
 40
0.0
 40
0.0
 40
0.0
 40
0.0
 40
1.0
 40
1.0
 40
1.0
 40
2.0
 40
2.0
 40
2.0
 40
3.0
 40
3.0
 40
3.0
 40
4.0
 40
4.0
 40
4.0
 40
5.0
 40
5.0
 40
5.0
 40
5.0
 10
3.080930541531845
 20
10.72472595225045
 30
0.0
 10
3.082342331889297
 20
10.67239221477702
 30
0.0
 10
3.088058388687487
 20
10.51879106269138
 30
0.0
 10
3.080999436906116
 20
10.47044694482894
 30
0.0
 10
3.073940485124745
 20
10.42210282696653
 30
0.0
 10
3.065469742988815
 20
10.27438405252899
 30
0.0
 10
3.06546974298951
 20
10.23810595829997
 30
0.0
 10
3.065469742990217
 20
10.201827864071
 30
0.0
 10
3.064057952636631
 20
10.05298307900179
 30
0.0
 10
3.069705114063456
 20
10.00195254028906
 30
0.0
 10
3.075352275490268
 20
9.950922001576373
 30
0.0
 10
3.083823017632211
 20
9.785329962218004
 30
0.0
 10
3.078175856207167
 20
9.74401626107504
 30
0.0
 10
3.072528694782111
 20
9.702689367897795
 30
0.0
 10
3.050370362786137
 20
9.354868930191374
 30
0.0
 10
3.051782153142969
 20
9.335515278380688
 30
0.0
  0
SPLINE
  5
193
330
18D
100
AcDbEntity
  8
H1
 62
   250
420
  2301728
370
     9
100
AcDbSpline
210
0.0
220
0.0
230
1.0
 70
     8
 71
     3
 72
    23
 73
    19
 74
     0
 42
0.0000000001
 43
0.0000000001
 12
1.0
 22
0.0
 32
0.0
 13
1.0
 23
0.0
 33
0.0
 40
0.0
 40
0.0
 40
0.0
 40
0.0
 40
1.0
 40
1.0
 40
1.0
 40
2.0
 40
2.0
 40
2.0
 40
3.0
 40
3.0
 40
3.0
 40
4.0
 40
4.0
 40
4.0
 40
5.0
 40
5.0
 40
5.0
 40
6.0
 40
6.0
 40
6.0
 40
6.0
 10
3.135487768067315
 20
10.70404487416767
 30
0.0
 10
3.136899558424261
 20
10.67809520522442
 30
0.0
 10
3.131823889737827
 20
10.51576740705452
 30
0.0
 10
3.129000309025691
 20
10.47532250508544
 30
0.0
 10
3.126176728313554
 20
10.43487760311631
 30
0.0
 10
3.11911777653356
 20
10.31397729679587
 30
0.0
 10
3.112058824752189
 20
10.26563317893345
 30
0.0
 10
3.104999872970817
 20
10.21728906107103
 30
0.0
 10
3.090881969409338
 20
10.0546406540207
 30
0.0
 10
3.093705550122877
 20
10.02252936753182
 30
0.0
 10
3.096529130836416
 20
9.990418081042902
 30
0.0
 10
3.123353147612925
 20
9.794195142085439
 30
0.0
 10
3.119117776544158
 20
9.763209866228268
 30
0.0
 10
3.114882405475365
 20
9.732211398336757
 30
0.0
 10
3.090881969419292
 20
9.536840117081523
 30
0.0
 10
3.092293759776819
 20
9.481208371041841
 30
0.0
 10
3.093489828567713
 20
9.434079794203866
 30
0.0
 10
3.088974358293171
 20
9.358400371943857
 30
0.0
 10
3.092716167454745
 20
9.316347792390843
 30
0.0
  0
SPLINE
  5
194
330
18D
100
AcDbEntity
  8
H1
 62
   250
420
  2301728
370
     9
100
AcDbSpline
210
0.0
220
0.0
230
1.0
 70
     8
 71
     3
 72
    23
 73
    19
 74
     0
 42
0.0000000001
 43
0.0000000001
 12
1.0
 22
0.0
 32
0.0
 13
1.0
 23
0.0
 33
0.0
 40
0.0
 40
0.0
 40
0.0
 40
0.0
 40
1.0
 40
1.0
 40
1.0
 40
2.0
 40
2.0
 40
2.0
 40
3.0
 40
3.0
 40
3.0
 40
4.0
 40
4.0
 40
4.0
 40
5.0
 40
5.0
 40
5.0
 40
6.0
 40
6.0
 40
6.0
 40
6.0
 10
3.179306352435295
 20
10.68743656462803
 30
0.0
 10
3.180718142792494
 20
10.64829486141963
 30
0.0
 10
3.164295067937827
 20
10.44330838339686
 30
0.0
 10
3.158647906512694
 20
10.4052926908202
 30
0.0
 10
3.153000745087588
 20
10.36727699824348
 30
0.0
 10
3.141706422238839
 20
10.21539141606589
 30
0.0
 10
3.137471051170551
 20
10.15802207167844
 30
0.0
 10
3.133235680102252
 20
10.10065272729106
 30
0.0
 10
3.131823889746784
 20
10.05074819921001
 30
0.0
 10
3.137471051173596
 20
9.999717660497316
 30
0.0
 10
3.143118212600408
 20
9.948687121784637
 30
0.0
 10
3.160059696880252
 20
9.828575591309319
 30
0.0
 10
3.158647906524442
 20
9.795161106059696
 30
0.0
 10
3.157236116168608
 20
9.761733428775743
 30
0.0
 10
3.157236116170957
 20
9.639707111823629
 30
0.0
 10
3.148765374033069
 20
9.594226602940529
 30
0.0
 10
3.140294631895181
 20
9.54874609405748
 30
0.0
 10
3.12407259598745
 20
9.340135824032574
 30
0.0
 10
3.129719757414086
 20
9.29899931101867
 30
0.0
  0
SPLINE
  5
195
330
18D
100
AcDbEntity
  8
H1
 62
   250
420
  2301728
370
     9
100
AcDbSpline
210
0.0
220
0.0
230
1.0
 70
     8
 71
     3
 72
    23
 73
    19
 74
     0
 42
0.0000000001
 43
0.0000000001
 12
1.0
 22
0.0
 32
0.0
 13
1.0
 23
0.0
 33
0.0
 40
0.0
 40
0.0
 40
0.0
 40
0.0
 40
1.0
 40
1.0
 40
1.0
 40
2.0
 40
2.0
 40
2.0
 40
3.0
 40
3.0
 40
3.0
 40
4.0
 40
4.0
 40
4.0
 40
5.0
 40
5.0
 40
5.0
 40
6.0
 40
6.0
 40
6.0
 40
6.0
 10
3.234785195715492
 20
10.66458798262912
 30
0.0
 10
3.227727373366469
 20
10.61294620372017
 30
0.0
 10
3.205236988274931
 20
10.45590597141754
 30
0.0
 10
3.202413407562921
 20
10.40886505231592
 30
0.0
 10
3.199589826850898
 20
10.36182413321425
 30
0.0
 10
3.185471923288206
 20
10.26183788892311
 30
0.0
 10
3.182648342576512
 20
10.19830692699011
 30
0.0
 10
3.179824761864804
 20
10.13477596505706
 30
0.0
 10
3.184060132936262
 20
10.0272448811308
 30
0.0
 10
3.186883713650041
 20
9.981941560376804
 30
0.0
 10
3.189707294363845
 20
9.936638239622804
 30
0.0
 10
3.212295940069755
 20
9.805072273230065
 30
0.0
 10
3.21088414971454
 20
9.738664510283405
 30
0.0
 10
3.209472359359375
 20
9.672269939371063
 30
0.0
 10
3.181236552232551
 20
9.548151647813091
 30
0.0
 10
3.178412971520212
 20
9.517600771542762
 30
0.0
 10
3.175589390807886
 20
9.48704989527251
 30
0.0
 10
3.168865880417115
 20
9.348658192244404
 30
0.0
 10
3.174513041844294
 20
9.27783960213407
 30
0.0
  0
SPLINE
  5
196
330
18D
100
AcDbEntity
  8
H1
 62
   250
420
  2301728
370
     9
100
AcDbSpline
210
0.0
220
0.0
230
1.0
 70
     8
 71
     3
 72
    11
 73
     7
 74
     0
 42
0.0000000001
 43
0.0000000001
 12
1.0
 22
0.0
 32
0.0
 13
1.0
 23
0.0
 33
0.0
 40
0.0
 40
0.0
 40
0.0
 40
0.0
 40
1.0
 40
1.0
 40
1.0
 40
2.0
 40
2.0
 40
2.0
 40
2.0
 10
3.261708602536184
 20
10.30838152658074
 30
0.0
 10
3.254649650755065
 20
10.2468453744532
 30
0.0
 10
3.243355327906291
 20
10.09495979227552
 30
0.0
 10
3.241943537551303
 20
10.01867119566432
 30
0.0
 10
3.240531747196302
 20
9.94238259905315
 30
0.0
 10
3.249002489338308
 20
9.77347935909419
 30
0.0
 10
3.261708602547843
 20
9.70153475835217
 30
0.0
  0
SPLINE
  5
197
330
18D
100
AcDbEntity
  8
H1
 62
   250
420
  2301728
370
     9
100
AcDbSpline
210
0.0
220
0.0
230
1.0
 70
     8
 71
     3
 72
     8
 73
     4
 74
     0
 42
0.0000000001
 43
0.0000000001
 12
1.0
 22
0.0
 32
0.0
 13
1.0
 23
0.0
 33
0.0
 40
0.0
 40
0.0
 40
0.0
 40
0.0
 40
1.0
 40
1.0
 40
1.0
 40
1.0
 10
3.261708602552984
 20
9.434396064484037
 30
0.0
 10
3.25220555930649
 20
9.387070285055136
 30
0.0
 10
3.235137713178712
 20
9.319708139934834
 30
0.0
 10
3.231288607952188
 20
9.250740482440177
 30
0.0
  0
ENDBLK
  5
190
330
18D
100
AcDbEntity
  8
0
100
AcDbBlockEnd
  0
BLOCK
  5
19B
330
199
100
AcDbEntity
  8
0
100
AcDbBlockBegin
  2
block 20
 70
     0
 10
0.0
 20
0.0
 30
0.0
  3
block 20
  1

  0
INSERT
  5
19E
330
199
100
AcDbEntity
  8
Callout
100
AcDbBlockReference
  2
block 21
 10
0.0
 20
0.0
 30
0.0
  0
INSERT
  5
1B4
330
199
100
AcDbEntity
  8
Callout
100
AcDbBlockReference
  2
block 22
 10
0.0
 20
0.0
 30
0.0
  0
ENDBLK
  5
19C
330
199
100
AcDbEntity
  8
0
100
AcDbBlockEnd
  0
BLOCK
  5
19F
330
19D
100
AcDbEntity
  8
0
100
AcDbBlockBegin
  2
block 21
 70
     0
 10
0.0
 20
0.0
 30
0.0
  3
block 21
  1

  0
POLYLINE
  5
1A1
330
19D
100
AcDbEntity
  8
Callout
 62
   250
420
  2301728
370
    70
100
AcDb2dPolyline
 66
     1
 10
0.0
 20
0.0
 30
0.0
  0
VERTEX
  5
1A2
330
1A1
100
AcDbEntity
  8
Callout
 62
   250
420
  2301728
370
    70
100
AcDbVertex
100
AcDb2dVertex
 10
4.838221646852035
 20
9.945174541387031
 30
0.0
  0
VERTEX
  5
1A3
330
1A1
100
AcDbEntity
  8
Callout
 62
   250
420
  2301728
370
    70
100
AcDbVertex
100
AcDb2dVertex
 10
5.195476824192913
 20
10.15715040719941
 30
0.0
  0
SEQEND
  5
1A4
330
1A1
100
AcDbEntity
  8
Callout
 62
   250
420
  2301728
370
    70
  0
POLYLINE
  5
1A5
330
19D
100
AcDbEntity
  8
Callout
370
     0
100
AcDb2dPolyline
 66
     1
 10
0.0
 20
0.0
 30
0.0
  0
VERTEX
  5
1A6
330
1A5
100
AcDbEntity
  8
Callout
370
     0
100
AcDbVertex
100
AcDb2dVertex
 10
5.159599525083877
 20
10.08345902743945
 30
0.0
  0
VERTEX
  5
1A7
330
1A5
100
AcDbEntity
  8
Callout
370
     0
100
AcDbVertex
100
AcDb2dVertex
 10
5.263365769760513
 20
10.1900705940427
 30
0.0
  0
VERTEX
  5
1A8
330
1A5
100
AcDbEntity
  8
Callout
370
     0
100
AcDbVertex
100
AcDb2dVertex
 10
5.158046152195993
 20
10.19140712494844
 30
0.0
  0
VERTEX
  5
1A9
330
1A5
100
AcDbEntity
  8
Callout
370
     0
100
AcDbVertex
100
AcDb2dVertex
 10
5.159599525083877
 20
10.08345902743945
 30
0.0
  0
SEQEND
  5
1AB
330
1A5
100
AcDbEntity
  8
Callout
370
     0
  0
HATCH
  5
1AA
330
19D
100
AcDbEntity
  8
Callout
 62
   250
420
  2301728
100
AcDbHatch
 10
0.0
 20
0.0
 30
0.0
210
0.0
220
0.0
230
1.0
  2
SOLID
 70
     1
 71
     0
 91
        1
 92
        1
 93
        3
 72
     1
 10
5.159599525083877
 20
10.08345902743945
 11
5.263365769760513
 21
10.1900705940427
 72
     1
 10
5.263365769760513
 20
10.1900705940427
 11
5.158046152195993
 21
10.19140712494844
 72
     1
 10
5.158046152195993
 20
10.19140712494844
 11
5.159599525083877
 21
10.08345902743945
 97
        0
 75
     2
 76
     1
 98
        0
  0
POLYLINE
  5
1AC
330
19D
100
AcDbEntity
  8
Callout
370
     0
100
AcDb2dPolyline
 66
     1
 10
0.0
 20
0.0
 30
0.0
  0
VERTEX
  5
1AD
330
1AC
100
AcDbEntity
  8
Callout
370
     0
100
AcDbVertex
100
AcDb2dVertex
 10
4.88656335973605
 20
10.02975050386381
 30
0.0
  0
VERTEX
  5
1AE
330
1AC
100
AcDbEntity
  8
Callout
370
     0
100
AcDbVertex
100
AcDb2dVertex
 10
4.745193326204521
 20
9.899790320045742
 30
0.0
  0
VERTEX
  5
1AF
330
1AC
100
AcDbEntity
  8
Callout
370
     0
100
AcDbVertex
100
AcDb2dVertex
 10
4.88656335973605
 20
9.915863941246029
 30
0.0
  0
VERTEX
  5
1B0
330
1AC
100
AcDbEntity
  8
Callout
370
     0
100
AcDbVertex
100
AcDb2dVertex
 10
4.88656335973605
 20
10.02975050386381
 30
0.0
  0
SEQEND
  5
1B2
330
1AC
100
AcDbEntity
  8
Callout
370
     0
  0
HATCH
  5
1B1
330
19D
100
AcDbEntity
  8
Callout
 62
   250
420
  2301728
100
AcDbHatch
 10
0.0
 20
0.0
 30
0.0
210
0.0
220
0.0
230
1.0
  2
SOLID
 70
     1
 71
     0
 91
        1
 92
        1
 93
        3
 72
     1
 10
4.88656335973605
 20
10.02975050386381
 11
4.745193326204521
 21
9.899790320045742
 72
     1
 10
4.745193326204521
 20
9.899790320045742
 11
4.88656335973605
 21
9.915863941246029
 72
     1
 10
4.88656335973605
 20
9.915863941246029
 11
4.88656335973605
 21
10.02975050386381
 97
        0
 75
     2
 76
     1
 98
        0
  0
ENDBLK
  5
1A0
330
19D
100
AcDbEntity
  8
0
100
AcDbBlockEnd
  0
BLOCK
  5
1B5
330
1B3
100
AcDbEntity
  8
0
100
AcDbBlockBegin
  2
block 22
 70
     0
 10
0.0
 20
0.0
 30
0.0
  3
block 22
  1

  0
POLYLINE
  5
1B7
330
1B3
100
AcDbEntity
  8
Callout
370
     0
100
AcDb2dPolyline
 66
     1
 10
0.0
 20
0.0
 30
0.0
  0
VERTEX
  5
1B8
330
1B7
100
AcDbEntity
  8
Callout
370
     0
100
AcDbVertex
100
AcDb2dVertex
 10
4.947756893850181
 20
10.11355325258013
 30
0.0
  0
VERTEX
  5
1B9
330
1B7
100
AcDbEntity
  8
Callout
370
     0
100
AcDbVertex
100
AcDb2dVertex
 10
4.933939361282531
 20
10.10555149245101
 30
0.0
  0
VERTEX
  5
1BA
330
1B7
100
AcDbEntity
  8
Callout
370
     0
100
AcDbVertex
100
AcDb2dVertex
 10
4.933939361282531
 20
10.24664734631014
 30
0.0
  0
VERTEX
  5
1BB
330
1B7
100
AcDbEntity
  8
Callout
370
     0
100
AcDbVertex
100
AcDb2dVertex
 10
5.004739477364688
 20
10.28763909333807
 30
0.0
  0
VERTEX
  5
1BC
330
1B7
100
AcDbEntity
  8
Callout
370
     0
100
AcDbVertex
100
AcDb2dVertex
 10
5.004739477364688
 20
10.27074195223187
 30
0.0
  0
VERTEX
  5
1BD
330
1B7
100
AcDbEntity
  8
Callout
370
     0
100
AcDbVertex
100
AcDb2dVertex
 10
4.947756893850181
 20
10.23774728649905
 30
0.0
  0
VERTEX
  5
1BE
330
1B7
100
AcDbEntity
  8
Callout
370
     0
100
AcDbVertex
100
AcDb2dVertex
 10
4.947756893850181
 20
10.19451392457583
 30
0.0
  0
VERTEX
  5
1BF
330
1B7
100
AcDbEntity
  8
Callout
370
     0
100
AcDbVertex
100
AcDb2dVertex
 10
4.997903700891229
 20
10.22354702452343
 30
0.0
  0
VERTEX
  5
1C0
330
1B7
100
AcDbEntity
  8
Callout
370
     0
100
AcDbVertex
100
AcDb2dVertex
 10
4.997903700891229
 20
10.20665098534696
 30
0.0
  0
VERTEX
  5
1C1
330
1B7
100
AcDbEntity
  8
Callout
370
     0
100
AcDbVertex
100
AcDb2dVertex
 10
4.947756893850181
 20
10.17761771923644
 30
0.0
  0
VERTEX
  5
1C2
330
1B7
100
AcDbEntity
  8
Callout
370
     0
100
AcDbVertex
100
AcDb2dVertex
 10
4.947756893850181
 20
10.11355325258013
 30
0.0
  0
SEQEND
  5
1C3
330
1B7
100
AcDbEntity
  8
Callout
370
     0
  0
HATCH
  5
1C4
330
1B3
100
AcDbEntity
  8
Callout
 62
   250
420
  2301728
100
AcDbHatch
 10
0.0
 20
0.0
 30
0.0
210
0.0
220
0.0
230
1.0
  2
SOLID
 70
     1
 71
     0
 91
        1
 92
        1
 93
       10
 72
     1
 10
4.947756893850181
 20
10.11355325258013
 11
4.933939361282531
 21
10.10555149245101
 72
     1
 10
4.933939361282531
 20
10.10555149245101
 11
4.933939361282531
 21
10.24664734631014
 72
     1
 10
4.933939361282531
 20
10.24664734631014
 11
5.004739477364688
 21
10.28763909333807
 72
     1
 10
5.004739477364688
 20
10.28763909333807
 11
5.004739477364688
 21
10.27074195223187
 72
     1
 10
5.004739477364688
 20
10.27074195223187
 11
4.947756893850181
 21
10.23774728649905
 72
     1
 10
4.947756893850181
 20
10.23774728649905
 11
4.947756893850181
 21
10.19451392457583
 72
     1
 10
4.947756893850181
 20
10.19451392457583
 11
4.997903700891229
 21
10.22354702452343
 72
     1
 10
4.997903700891229
 20
10.22354702452343
 11
4.997903700891229
 21
10.20665098534696
 72
     1
 10
4.997903700891229
 20
10.20665098534696
 11
4.947756893850181
 21
10.17761771923644
 72
     1
 10
4.947756893850181
 20
10.17761771923644
 11
4.947756893850181
 21
10.11355325258013
 97
        0
 75
     2
 76
     1
 98
        0
  0
SPLINE
  5
1C5
330
1B3
100
AcDbEntity
  8
Callout
370
     0
100
AcDbSpline
210
0.0
220
0.0
230
1.0
 70
    11
 71
     3
 72
    47
 73
    43
 74
     0
 42
0.0000000001
 43
0.0000000001
 12
1.0
 22
0.0
 32
0.0
 13
1.0
 23
0.0
 33
0.0
 40
0.0
 40
0.0
 40
0.0
 40
0.0
 40
1.0
 40
1.0
 40
1.0
 40
2.0
 40
2.0
 40
2.0
 40
3.0
 40
3.0
 40
3.0
 40
4.0
 40
4.0
 40
4.0
 40
5.0
 40
5.0
 40
5.0
 40
6.0
 40
6.0
 40
6.0
 40
7.0
 40
7.0
 40
7.0
 40
8.0
 40
8.0
 40
8.0
 40
9.0
 40
9.0
 40
9.0
 40
10.0
 40
10.0
 40
10.0
 40
11.0
 40
11.0
 40
11.0
 40
12.0
 40
12.0
 40
12.0
 40
13.0
 40
13.0
 40
13.0
 40
14.0
 40
14.0
 40
14.0
 40
14.0
 10
5.013429943635552
 20
10.18997631954201
 30
0.0
 10
5.013429943635552
 20
10.22372381341441
 30
0.0
 10
5.031272209209671
 20
10.23744579594746
 30
0.0
 10
5.039391857732602
 20
10.24214673390307
 30
0.0
 10
5.05242708925554
 20
10.24969434977003
 30
0.0
 10
5.062900281958642
 20
10.24411223070711
 30
0.0
 10
5.062900281958642
 20
10.22480268279071
 30
0.0
 10
5.062900281958642
 20
10.20623332641306
 30
0.0
 10
5.054030993550592
 20
10.19328962762768
 30
0.0
 10
5.042813956919923
 20
10.17853817384666
 30
0.0
 10
5.042813956919923
 20
10.17853817384666
 30
0.0
 10
5.035014430616481
 20
10.16812848855939
 30
0.0
 10
5.035014430616481
 20
10.16812848855939
 30
0.0
 10
5.024756464981818
 20
10.15437956058891
 30
0.0
 10
5.022513431962403
 20
10.14497577967414
 30
0.0
 10
5.022083915001227
 20
10.14074578803093
 30
0.0
 10
5.022083915001227
 20
10.14074578803093
 30
0.0
 10
5.062900281958642
 20
10.1643755416857
 30
0.0
 10
5.062900281958642
 20
10.1643755416857
 30
0.0
 10
5.062900281958642
 20
10.1643755416857
 30
0.0
 10
5.062900281958642
 20
10.15214429882961
 30
0.0
 10
5.062900281958642
 20
10.15214429882961
 30
0.0
 10
5.062900281958642
 20
10.15214429882961
 30
0.0
 10
5.011506007094921
 20
10.12238969230286
 30
0.0
 10
5.011506007094921
 20
10.12238969230286
 30
0.0
 10
5.012040329937665
 20
10.14422071025831
 30
0.0
 10
5.019095075842288
 20
10.15979751766886
 30
0.0
 10
5.029138660905851
 20
10.17371850025203
 30
0.0
 10
5.029138660905851
 20
10.17371850025203
 30
0.0
 10
5.039071825487048
 20
10.18742832918627
 30
0.0
 10
5.039071825487048
 20
10.18742832918627
 30
0.0
 10
5.047085822640434
 20
10.19840707618581
 30
0.0
 10
5.05285660621669
 20
10.20602040271111
 30
0.0
 10
5.05285660621669
 20
10.21957779210838
 30
0.0
 10
5.05285660621669
 20
10.22783422945103
 30
0.0
 10
5.049009668902221
 20
10.23606976367758
 30
0.0
 10
5.038002244034715
 20
10.22969974386265
 30
0.0
 10
5.023792625177899
 20
10.22147242906943
 30
0.0
 10
5.023152560686766
 20
10.20282558609791
 30
0.0
 10
5.022833464207982
 20
10.19541662966801
 30
0.0
 10
5.022833464207982
 20
10.19541662966801
 30
0.0
 10
5.013429943635552
 20
10.18997631954201
 30
0.0
 10
5.013429943635552
 20
10.18997631954201
 30
0.0
  0
HATCH
  5
1C6
330
1B3
100
AcDbEntity
  8
Callout
 62
   250
420
  2301728
100
AcDbHatch
 10
0.0
 20
0.0
 30
0.0
210
0.0
220
0.0
230
1.0
  2
SOLID
 70
     1
 71
     0
 91
        1
 92
        1
 93
        1
 72
     4
 94
        3
 73
     0
 74
     1
 95
       47
 96
       43
 40
0.0
 40
0.0
 40
0.0
 40
0.0
 40
1.0
 40
1.0
 40
1.0
 40
2.0
 40
2.0
 40
2.0
 40
3.0
 40
3.0
 40
3.0
 40
4.0
 40
4.0
 40
4.0
 40
5.0
 40
5.0
 40
5.0
 40
6.0
 40
6.0
 40
6.0
 40
7.0
 40
7.0
 40
7.0
 40
8.0
 40
8.0
 40
8.0
 40
9.0
 40
9.0
 40
9.0
 40
10.0
 40
10.0
 40
10.0
 40
11.0
 40
11.0
 40
11.0
 40
12.0
 40
12.0
 40
12.0
 40
13.0
 40
13.0
 40
13.0
 40
14.0
 40
14.0
 40
14.0
 40
14.0
 10
5.013429943635552
 20
10.18997631954201
 10
5.013429943635552
 20
10.22372381341441
 10
5.031272209209671
 20
10.23744579594746
 10
5.039391857732602
 20
10.24214673390307
 10
5.05242708925554
 20
10.24969434977003
 10
5.062900281958642
 20
10.24411223070711
 10
5.062900281958642
 20
10.22480268279071
 10
5.062900281958642
 20
10.20623332641306
 10
5.054030993550592
 20
10.19328962762768
 10
5.042813956919923
 20
10.17853817384666
 10
5.042813956919923
 20
10.17853817384666
 10
5.035014430616481
 20
10.16812848855939
 10
5.035014430616481
 20
10.16812848855939
 10
5.024756464981818
 20
10.15437956058891
 10
5.022513431962403
 20
10.14497577967414
 10
5.022083915001227
 20
10.14074578803093
 10
5.022083915001227
 20
10.14074578803093
 10
5.062900281958642
 20
10.1643755416857
 10
5.062900281958642
 20
10.1643755416857
 10
5.062900281958642
 20
10.1643755416857
 10
5.062900281958642
 20
10.15214429882961
 10
5.062900281958642
 20
10.15214429882961
 10
5.062900281958642
 20
10.15214429882961
 10
5.011506007094921
 20
10.12238969230286
 10
5.011506007094921
 20
10.12238969230286
 10
5.012040329937665
 20
10.14422071025831
 10
5.019095075842288
 20
10.15979751766886
 10
5.029138660905851
 20
10.17371850025203
 10
5.029138660905851
 20
10.17371850025203
 10
5.039071825487048
 20
10.18742832918627
 10
5.039071825487048
 20
10.18742832918627
 10
5.047085822640434
 20
10.19840707618581
 10
5.05285660621669
 20
10.20602040271111
 10
5.05285660621669
 20
10.21957779210838
 10
5.05285660621669
 20
10.22783422945103
 10
5.049009668902221
 20
10.23606976367758
 10
5.038002244034715
 20
10.22969974386265
 10
5.023792625177899
 20
10.22147242906943
 10
5.023152560686766
 20
10.20282558609791
 10
5.022833464207982
 20
10.19541662966801
 10
5.022833464207982
 20
10.19541662966801
 10
5.013429943635552
 20
10.18997631954201
 10
5.013429943635552
 20
10.18997631954201
 97
        0
 97
        0
 75
     2
 76
     1
 98
        0
  0
ENDBLK
  5
1B6
330
1B3
100
AcDbEntity
  8
0
100
AcDbBlockEnd
  0
BLOCK
  5
1C9
330
1C7
100
AcDbEntity
  8
0
100
AcDbBlockBegin
  2
block 23
 70
     0
 10
0.0
 20
0.0
 30
0.0
  3
block 23
  1

  0
INSERT
  5
1CC
330
1C7
100
AcDbEntity
  8
Callout
100
AcDbBlockReference
  2
block 24
 10
0.0
 20
0.0
 30
0.0
  0
INSERT
  5
1E2
330
1C7
100
AcDbEntity
  8
Callout
100
AcDbBlockReference
  2
block 25
 10
0.0
 20
0.0
 30
0.0
  0
ENDBLK
  5
1CA
330
1C7
100
AcDbEntity
  8
0
100
AcDbBlockEnd
  0
BLOCK
  5
1CD
330
1CB
100
AcDbEntity
  8
0
100
AcDbBlockBegin
  2
block 24
 70
     0
 10
0.0
 20
0.0
 30
0.0
  3
block 24
  1

  0
POLYLINE
  5
1CF
330
1CB
100
AcDbEntity
  8
Callout
 62
   250
420
  2301728
370
    70
100
AcDb2dPolyline
 66
     1
 10
0.0
 20
0.0
 30
0.0
  0
VERTEX
  5
1D0
330
1CF
100
AcDbEntity
  8
Callout
 62
   250
420
  2301728
370
    70
100
AcDbVertex
100
AcDb2dVertex
 10
4.639605143568436
 20
9.746013138836512
 30
0.0
  0
VERTEX
  5
1D1
330
1CF
100
AcDbEntity
  8
Callout
 62
   250
420
  2301728
370
    70
100
AcDbVertex
100
AcDb2dVertex
 10
5.007438228815645
 20
9.623748656059016
 30
0.0
  0
SEQEND
  5
1D2
330
1CF
100
AcDbEntity
  8
Callout
 62
   250
420
  2301728
370
    70
  0
POLYLINE
  5
1D3
330
1CB
100
AcDbEntity
  8
Callout
370
     0
100
AcDb2dPolyline
 66
     1
 10
0.0
 20
0.0
 30
0.0
  0
VERTEX
  5
1D4
330
1D3
100
AcDbEntity
  8
Callout
370
     0
100
AcDbVertex
100
AcDb2dVertex
 10
4.982490685929709
 20
9.583165385713174
 30
0.0
  0
VERTEX
  5
1D5
330
1D3
100
AcDbEntity
  8
Callout
370
     0
100
AcDbVertex
100
AcDb2dVertex
 10
5.125469302590292
 20
9.58459070691779
 30
0.0
  0
VERTEX
  5
1D6
330
1D3
100
AcDbEntity
  8
Callout
370
     0
100
AcDbVertex
100
AcDb2dVertex
 10
4.984044058817592
 20
9.687698959165736
 30
0.0
  0
VERTEX
  5
1D7
330
1D3
100
AcDbEntity
  8
Callout
370
     0
100
AcDbVertex
100
AcDb2dVertex
 10
4.982490685929709
 20
9.583165385713174
 30
0.0
  0
SEQEND
  5
1D9
330
1D3
100
AcDbEntity
  8
Callout
370
     0
  0
HATCH
  5
1D8
330
1CB
100
AcDbEntity
  8
Callout
 62
   250
420
  2301728
100
AcDbHatch
 10
0.0
 20
0.0
 30
0.0
210
0.0
220
0.0
230
1.0
  2
SOLID
 70
     1
 71
     0
 91
        1
 92
        1
 93
        3
 72
     1
 10
4.982490685929709
 20
9.583165385713174
 11
5.125469302590292
 21
9.58459070691779
 72
     1
 10
5.125469302590292
 20
9.58459070691779
 11
4.984044058817592
 21
9.687698959165736
 72
     1
 10
4.984044058817592
 20
9.687698959165736
 11
4.982490685929709
 21
9.583165385713174
 97
        0
 75
     2
 76
     1
 98
        0
  0
POLYLINE
  5
1DA
330
1CB
100
AcDbEntity
  8
Callout
370
     0
100
AcDb2dPolyline
 66
     1
 10
0.0
 20
0.0
 30
0.0
  0
VERTEX
  5
1DB
330
1DA
100
AcDbEntity
  8
Callout
370
     0
100
AcDbVertex
100
AcDb2dVertex
 10
4.666124774678261
 20
9.792764983927453
 30
0.0
  0
VERTEX
  5
1DC
330
1DA
100
AcDbEntity
  8
Callout
370
     0
100
AcDbVertex
100
AcDb2dVertex
 10
4.521574150999135
 20
9.785174979413277
 30
0.0
  0
VERTEX
  5
1DD
330
1DA
100
AcDbEntity
  8
Callout
370
     0
100
AcDbVertex
100
AcDb2dVertex
 10
4.6645620441224
 20
9.685156480770337
 30
0.0
  0
VERTEX
  5
1DE
330
1DA
100
AcDbEntity
  8
Callout
370
     0
100
AcDbVertex
100
AcDb2dVertex
 10
4.666124774678261
 20
9.792764983927453
 30
0.0
  0
SEQEND
  5
1E0
330
1DA
100
AcDbEntity
  8
Callout
370
     0
  0
HATCH
  5
1DF
330
1CB
100
AcDbEntity
  8
Callout
 62
   250
420
  2301728
100
AcDbHatch
 10
0.0
 20
0.0
 30
0.0
210
0.0
220
0.0
230
1.0
  2
SOLID
 70
     1
 71
     0
 91
        1
 92
        1
 93
        3
 72
     1
 10
4.666124774678261
 20
9.792764983927453
 11
4.521574150999135
 21
9.785174979413277
 72
     1
 10
4.521574150999135
 20
9.785174979413277
 11
4.6645620441224
 21
9.685156480770337
 72
     1
 10
4.6645620441224
 20
9.685156480770337
 11
4.666124774678261
 21
9.792764983927453
 97
        0
 75
     2
 76
     1
 98
        0
  0
ENDBLK
  5
1CE
330
1CB
100
AcDbEntity
  8
0
100
AcDbBlockEnd
  0
BLOCK
  5
1E3
330
1E1
100
AcDbEntity
  8
0
100
AcDbBlockBegin
  2
block 25
 70
     0
 10
0.0
 20
0.0
 30
0.0
  3
block 25
  1

  0
POLYLINE
  5
1E5
330
1E1
100
AcDbEntity
  8
Callout
370
     0
100
AcDb2dPolyline
 66
     1
 10
0.0
 20
0.0
 30
0.0
  0
VERTEX
  5
1E6
330
1E5
100
AcDbEntity
  8
Callout
370
     0
100
AcDbVertex
100
AcDb2dVertex
 10
4.771518317819957
 20
9.513872789945696
 30
0.0
  0
VERTEX
  5
1E7
330
1E5
100
AcDbEntity
  8
Callout
370
     0
100
AcDbVertex
100
AcDb2dVertex
 10
4.755649584426869
 20
9.519337668057258
 30
0.0
  0
VERTEX
  5
1E8
330
1E5
100
AcDbEntity
  8
Callout
370
     0
100
AcDbVertex
100
AcDb2dVertex
 10
4.755649584426869
 20
9.660429778849181
 30
0.0
  0
VERTEX
  5
1E9
330
1E5
100
AcDbEntity
  8
Callout
370
     0
100
AcDbVertex
100
AcDb2dVertex
 10
4.836949004004155
 20
9.632452223065103
 30
0.0
  0
VERTEX
  5
1EA
330
1E5
100
AcDbEntity
  8
Callout
370
     0
100
AcDbVertex
100
AcDb2dVertex
 10
4.836949004004155
 20
9.615551338891692
 30
0.0
  0
VERTEX
  5
1EB
330
1E5
100
AcDbEntity
  8
Callout
370
     0
100
AcDbVertex
100
AcDb2dVertex
 10
4.771518317819957
 20
9.638067759631427
 30
0.0
  0
VERTEX
  5
1EC
330
1E5
100
AcDbEntity
  8
Callout
370
     0
100
AcDbVertex
100
AcDb2dVertex
 10
4.771518317819957
 20
9.594839076542206
 30
0.0
  0
VERTEX
  5
1ED
330
1E5
100
AcDbEntity
  8
Callout
370
     0
100
AcDbVertex
100
AcDb2dVertex
 10
4.829098856319584
 20
9.57502234302025
 30
0.0
  0
VERTEX
  5
1EE
330
1E5
100
AcDbEntity
  8
Callout
370
     0
100
AcDbVertex
100
AcDb2dVertex
 10
4.829098856319584
 20
9.558121458846838
 30
0.0
  0
VERTEX
  5
1EF
330
1E5
100
AcDbEntity
  8
Callout
370
     0
100
AcDbVertex
100
AcDb2dVertex
 10
4.771518317819957
 20
9.577937404802254
 30
0.0
  0
VERTEX
  5
1F0
330
1E5
100
AcDbEntity
  8
Callout
370
     0
100
AcDbVertex
100
AcDb2dVertex
 10
4.771518317819957
 20
9.513872789945696
 30
0.0
  0
SEQEND
  5
1F1
330
1E5
100
AcDbEntity
  8
Callout
370
     0
  0
HATCH
  5
1F2
330
1E1
100
AcDbEntity
  8
Callout
 62
   250
420
  2301728
100
AcDbHatch
 10
0.0
 20
0.0
 30
0.0
210
0.0
220
0.0
230
1.0
  2
SOLID
 70
     1
 71
     0
 91
        1
 92
        1
 93
       10
 72
     1
 10
4.771518317819957
 20
9.513872789945696
 11
4.755649584426869
 21
9.519337668057258
 72
     1
 10
4.755649584426869
 20
9.519337668057258
 11
4.755649584426869
 21
9.660429778849181
 72
     1
 10
4.755649584426869
 20
9.660429778849181
 11
4.836949004004155
 21
9.632452223065103
 72
     1
 10
4.836949004004155
 20
9.632452223065103
 11
4.836949004004155
 21
9.615551338891692
 72
     1
 10
4.836949004004155
 20
9.615551338891692
 11
4.771518317819957
 21
9.638067759631427
 72
     1
 10
4.771518317819957
 20
9.638067759631427
 11
4.771518317819957
 21
9.594839076542206
 72
     1
 10
4.771518317819957
 20
9.594839076542206
 11
4.829098856319584
 21
9.57502234302025
 72
     1
 10
4.829098856319584
 20
9.57502234302025
 11
4.829098856319584
 21
9.558121458846838
 72
     1
 10
4.829098856319584
 20
9.558121458846838
 11
4.771518317819957
 21
9.577937404802254
 72
     1
 10
4.771518317819957
 20
9.577937404802254
 11
4.771518317819957
 21
9.513872789945696
 97
        0
 75
     2
 76
     1
 98
        0
  0
SPLINE
  5
1F3
330
1E1
100
AcDbEntity
  8
Callout
370
     0
100
AcDbSpline
210
0.0
220
0.0
230
1.0
 70
    11
 71
     3
 72
    26
 73
    22
 74
     0
 42
0.0000000001
 43
0.0000000001
 12
1.0
 22
0.0
 32
0.0
 13
1.0
 23
0.0
 33
0.0
 40
0.0
 40
0.0
 40
0.0
 40
0.0
 40
1.0
 40
1.0
 40
1.0
 40
2.0
 40
2.0
 40
2.0
 40
3.0
 40
3.0
 40
3.0
 40
4.0
 40
4.0
 40
4.0
 40
5.0
 40
5.0
 40
5.0
 40
6.0
 40
6.0
 40
6.0
 40
7.0
 40
7.0
 40
7.0
 40
7.0
 10
4.871537752229667
 20
9.451229753058504
 30
0.0
 10
4.871537752229667
 20
9.451229753058504
 30
0.0
 10
4.860004426420649
 20
9.45520021159056
 30
0.0
 10
4.860004426420649
 20
9.45520021159056
 30
0.0
 10
4.860004426420649
 20
9.45520021159056
 30
0.0
 10
4.860004426420649
 20
9.528745867463662
 30
0.0
 10
4.860004426420649
 20
9.528745867463662
 30
0.0
 10
4.860004426420649
 20
9.528745867463662
 30
0.0
 10
4.839886375989105
 20
9.535667734482697
 30
0.0
 10
4.839886375989105
 20
9.535667734482697
 30
0.0
 10
4.839886375989105
 20
9.535667734482697
 30
0.0
 10
4.839886375989105
 20
9.545985499218672
 30
0.0
 10
4.839886375989105
 20
9.545985499218672
 30
0.0
 10
4.853873282347548
 20
9.542352852501342
 30
0.0
 10
4.859634798534671
 20
9.54198696768257
 30
0.0
 10
4.863070934223995
 20
9.557755574028066
 30
0.0
 10
4.863070934223995
 20
9.557755574028066
 30
0.0
 10
4.871537752229667
 20
9.554840660446315
 30
0.0
 10
4.871537752229667
 20
9.554840660446315
 30
0.0
 10
4.871537752229667
 20
9.554840660446315
 30
0.0
 10
4.871537752229667
 20
9.451229753058504
 30
0.0
 10
4.871537752229667
 20
9.451229753058504
 30
0.0
  0
HATCH
  5
1F4
330
1E1
100
AcDbEntity
  8
Callout
 62
   250
420
  2301728
100
AcDbHatch
 10
0.0
 20
0.0
 30
0.0
210
0.0
220
0.0
230
1.0
  2
SOLID
 70
     1
 71
     0
 91
        1
 92
        1
 93
        1
 72
     4
 94
        3
 73
     0
 74
     1
 95
       26
 96
       22
 40
0.0
 40
0.0
 40
0.0
 40
0.0
 40
1.0
 40
1.0
 40
1.0
 40
2.0
 40
2.0
 40
2.0
 40
3.0
 40
3.0
 40
3.0
 40
4.0
 40
4.0
 40
4.0
 40
5.0
 40
5.0
 40
5.0
 40
6.0
 40
6.0
 40
6.0
 40
7.0
 40
7.0
 40
7.0
 40
7.0
 10
4.871537752229667
 20
9.451229753058504
 10
4.871537752229667
 20
9.451229753058504
 10
4.860004426420649
 20
9.45520021159056
 10
4.860004426420649
 20
9.45520021159056
 10
4.860004426420649
 20
9.45520021159056
 10
4.860004426420649
 20
9.528745867463662
 10
4.860004426420649
 20
9.528745867463662
 10
4.860004426420649
 20
9.528745867463662
 10
4.839886375989105
 20
9.535667734482697
 10
4.839886375989105
 20
9.535667734482697
 10
4.839886375989105
 20
9.535667734482697
 10
4.839886375989105
 20
9.545985499218672
 10
4.839886375989105
 20
9.545985499218672
 10
4.853873282347548
 20
9.542352852501342
 10
4.859634798534671
 20
9.54198696768257
 10
4.863070934223995
 20
9.557755574028066
 10
4.863070934223995
 20
9.557755574028066
 10
4.871537752229667
 20
9.554840660446315
 10
4.871537752229667
 20
9.554840660446315
 10
4.871537752229667
 20
9.554840660446315
 10
4.871537752229667
 20
9.451229753058504
 10
4.871537752229667
 20
9.451229753058504
 97
        0
 97
        0
 75
     2
 76
     1
 98
        0
  0
ENDBLK
  5
1E4
330
1E1
100
AcDbEntity
  8
0
100
AcDbBlockEnd
  0
ENDSEC
  0
SECTION
  2
ENTITIES
  0
INSERT
  5
42
330
1F
100
AcDbEntity
  8
H1
100
AcDbBlockReference
  2
block 2
 10
0.0
 20
0.0
 30
0.0
  0
INSERT
  5
CA
330
1F
100
AcDbEntity
  8
H1
100
AcDbBlockReference
  2
block 3
 10
0.0
 20
0.0
 30
0.0
  0
INSERT
  5
F5
330
1F
100
AcDbEntity
  8
H1
100
AcDbBlockReference
  2
block 4
 10
0.0
 20
0.0
 30
0.0
  0
INSERT
  5
18E
330
1F
100
AcDbEntity
  8
H1
100
AcDbBlockReference
  2
block 19
 10
0.0
 20
0.0
 30
0.0
  0
INSERT
  5
19A
330
1F
100
AcDbEntity
  8
Callout
100
AcDbBlockReference
  2
block 20
 10
0.0
 20
0.0
 30
0.0
  0
INSERT
  5
1C8
330
1F
100
AcDbEntity
  8
Callout
100
AcDbBlockReference
  2
block 23
 10
0.0
 20
0.0
 30
0.0
  0
MTEXT
  5
1F5
330
1F
100
AcDbEntity
  8
Callout
 62
   250
420
  2301728
100
AcDbMText
 10
3.322115262349446
 20
6.986075507269965
 30
0.0
 40
0.118
 41
0.0
 46
0.0
 71
     7
 72
     1
  1
\fHelvetica Neue LT Std 55 Roman|b0|i0|c0|p34;\W1;SIMPSON Strong-Tie\H0.068794;®\H0.118; ^C
 73
     1
 44
1.0
  0
MTEXT
  5
1F6
330
1F
100
AcDbEntity
  8
Callout
 62
   250
420
  2301728
100
AcDbMText
 10
2.67882506052653
 20
6.786083645290798
 30
0.0
 40
0.118
 41
0.0
 46
0.0
 71
     7
 72
     1
  1
\fHelvetica Neue LT Std 55 Roman|b0|i0|c0|p34;\W1;H1.81Z Bearer/Beam-to-Joist Tie Down
 73
     1
 44
1.0
  0
SPLINE
  5
1F7
330
1F
100
AcDbEntity
  8
Callout
 62
   250
420
  2301728
370
    30
100
AcDbSpline
210
0.0
220
0.0
230
1.0
 70
     8
 71
     3
 72
     8
 73
     4
 74
     0
 42
0.0000000001
 43
0.0000000001
 12
1.0
 22
0.0
 32
0.0
 13
1.0
 23
0.0
 33
0.0
 40
0.0
 40
0.0
 40
0.0
 40
0.0
 40
1.0
 40
1.0
 40
1.0
 40
1.0
 10
4.840162068416273
 20
11.03130738317398
 30
0.0
 10
4.840162068416273
 20
11.03130738317398
 30
0.0
 10
5.054927314362557
 20
11.1242536151588
 30
0.0
 10
5.225333560057733
 20
11.21719984714365
 30
0.0
  0
MTEXT
  5
1F8
330
1F
100
AcDbEntity
  8
Callout
 62
   250
420
  2301728
100
AcDbMText
 10
5.293436156378852
 20
11.16594568888346
 30
0.0
 40
0.118
 41
0.0
 46
0.0
 71
     7
 72
     1
  1
\fHelvetica LT Std Condensed|b0|i0|c0|p34;\W1;Joist
 73
     1
 44
1.0
  0
POLYLINE
  5
1F9
330
1F
100
AcDbEntity
  8
Callout
 62
   250
420
  2301728
370
    30
100
AcDb2dPolyline
 66
     1
 10
0.0
 20
0.0
 30
0.0
  0
VERTEX
  5
1FA
330
1F9
100
AcDbEntity
  8
Callout
 62
   250
420
  2301728
370
    30
100
AcDbVertex
100
AcDb2dVertex
 10
3.133215349410142
 20
8.175509205843063
 30
0.0
  0
VERTEX
  5
1FB
330
1F9
100
AcDbEntity
  8
Callout
 62
   250
420
  2301728
370
    30
100
AcDbVertex
100
AcDb2dVertex
 10
2.858500480651855
 20
7.70872134017769
 30
0.0
  0
SEQEND
  5
1FC
330
1F9
100
AcDbEntity
  8
Callout
 62
   250
420
  2301728
370
    30
  0
MTEXT
  5
1FD
330
1F
100
AcDbEntity
  8
Callout
 62
   250
420
  2301728
100
AcDbMText
 10
2.39567756652832
 20
7.526615354749891
 30
0.0
 40
0.118
 41
0.0
 46
0.0
 71
     7
 72
     1
  1
\fHelvetica LT Std Condensed|b0|i0|c0|p34;\W1;Bearer / Beam
 73
     1
 44
1.0
  0
POLYLINE
  5
1FE
330
1F
100
AcDbEntity
  8
Callout
 62
   250
420
  2301728
370
    30
100
AcDb2dPolyline
 66
     1
 10
0.0
 20
0.0
 30
0.0
  0
VERTEX
  5
1FF
330
1FE
100
AcDbEntity
  8
Callout
 62
   250
420
  2301728
370
    30
100
AcDbVertex
100
AcDb2dVertex
 10
3.893636180606892
 20
9.269522555849486
 30
0.0
  0
VERTEX
  5
200
330
1FE
100
AcDbEntity
  8
Callout
 62
   250
420
  2301728
370
    30
100
AcDbVertex
100
AcDb2dVertex
 10
4.018064678370188
 20
7.70872134017769
 30
0.0
  0
SEQEND
  5
201
330
1FE
100
AcDbEntity
  8
Callout
 62
   250
420
  2301728
370
    30
  0
MTEXT
  5
202
330
1F
100
AcDbEntity
  8
Callout
 62
   250
420
  2301728
100
AcDbMText
 10
3.697635332743327
 20
7.526613659328884
 30
0.0
 40
0.118
 41
0.0
 46
0.0
 71
     7
 72
     1
  1
\fHelvetica LT Std Condensed|b0|i0|c0|p34;\W1;H1.81Z
 73
     1
 44
1.0
  0
ENDSEC
  0
SECTION
  2
OBJECTS
  0
DICTIONARY
  5
C
330
0
100
AcDbDictionary
281
     1
  3
ACAD_GROUP
350
D
  3
ACAD_LAYOUT
350
1A
  3
ACAD_MATERIAL
350
3B
  3
ACAD_MLEADERSTYLE
350
207
  3
ACAD_MLINESTYLE
350
17
  3
ACAD_PLOTSETTINGS
350
19
  3
ACAD_PLOTSTYLENAME
350
E
  3
ACAD_TABLESTYLE
350
206
  3
ACAD_VISUALSTYLE
350
2A
  0
SUN
  5
3F
330
29
100
AcDbSun
 90
        1
290
     0
 63
     7
421
 16777215
 40
1.0
291
     1
 91
  2455826
 92
 54000000
292
     0
 70
     2
 71
   256
280
     1
  0
DICTIONARY
  5
D
102
{ACAD_REACTORS
330
C
102
}
330
C
100
AcDbDictionary
281
     1
  0
DICTIONARY
  5
1A
102
{ACAD_REACTORS
330
C
102
}
330
C
100
AcDbDictionary
281
     1
  3
Layout1
350
1E
  3
Layout2
350
26
  3
Model
350
22
  0
DICTIONARY
  5
3B
102
{ACAD_REACTORS
330
C
102
}
330
C
100
AcDbDictionary
281
     1
  3
ByBlock
350
3D
  3
ByLayer
350
3C
  3
Global
350
3E
  0
DICTIONARY
  5
207
102
{ACAD_REACTORS
330
C
102
}
330
C
100
AcDbDictionary
281
     1
  0
DICTIONARY
  5
17
102
{ACAD_REACTORS
330
C
102
}
330
C
100
AcDbDictionary
281
     1
  3
Standard
350
18
  0
DICTIONARY
  5
19
102
{ACAD_REACTORS
330
C
102
}
330
C
100
AcDbDictionary
281
     1
  0
ACDBDICTIONARYWDFLT
  5
E
102
{ACAD_REACTORS
330
C
102
}
330
C
100
AcDbDictionary
281
     1
  3
Normal
350
F
100
AcDbDictionaryWithDefault
340
F
  0
DICTIONARY
  5
206
102
{ACAD_REACTORS
330
C
102
}
330
C
100
AcDbDictionary
281
     1
  0
DICTIONARY
  5
2A
102
{ACAD_REACTORS
330
C
102
}
330
C
100
AcDbDictionary
281
     1
  3
2dWireframe
350
2F
  3
3D Hidden
350
31
  3
3dWireframe
350
30
  3
Basic
350
32
  3
Brighten
350
36
  3
ColorChange
350
3A
  3
Conceptual
350
34
  3
Dim
350
35
  3
Facepattern
350
39
  3
Flat
350
2B
  3
FlatWithEdges
350
2C
  3
Gouraud
350
2D
  3
GouraudWithEdges
350
2E
  3
Linepattern
350
38
  3
Realistic
350
33
  3
Thicken
350
37
  0
LAYOUT
  5
1E
102
{ACAD_REACTORS
330
1A
102
}
330
1A
100
AcDbPlotSettings
  1

  2
none_device
  4

  6

 40
0.0
 41
0.0
 42
0.0
 43
0.0
 44
0.0
 45
0.0
 46
0.0
 47
0.0
 48
0.0
 49
0.0
140
0.0
141
0.0
142
1.0
143
1.0
 70
   688
 72
     0
 73
     0
 74
     5
  7

 75
    16
 76
     0
 77
     2
 78
   300
147
1.0
148
0.0
149
0.0
100
AcDbLayout
  1
Layout1
 70
     1
 71
     1
 10
0.0
 20
0.0
 11
12.0
 21
9.0
 12
0.0
 22
0.0
 32
0.0
 14
1.000000000000000E+20
 24
1.000000000000000E+20
 34
1.000000000000000E+20
 15
-1.000000000000000E+20
 25
-1.000000000000000E+20
 35
-1.000000000000000E+20
146
0.0
 13
0.0
 23
0.0
 33
0.0
 16
1.0
 26
0.0
 36
0.0
 17
0.0
 27
1.0
 37
0.0
 76
     0
330
1B
  0
LAYOUT
  5
26
102
{ACAD_REACTORS
330
1A
102
}
330
1A
100
AcDbPlotSettings
  1

  2
none_device
  4

  6

 40
0.0
 41
0.0
 42
0.0
 43
0.0
 44
0.0
 45
0.0
 46
0.0
 47
0.0
 48
0.0
 49
0.0
140
0.0
141
0.0
142
1.0
143
1.0
 70
   688
 72
     0
 73
     0
 74
     5
  7

 75
    16
 76
     0
 77
     2
 78
   300
147
1.0
148
0.0
149
0.0
100
AcDbLayout
  1
Layout2
 70
     1
 71
     2
 10
0.0
 20
0.0
 11
0.0
 21
0.0
 12
0.0
 22
0.0
 32
0.0
 14
0.0
 24
0.0
 34
0.0
 15
0.0
 25
0.0
 35
0.0
146
0.0
 13
0.0
 23
0.0
 33
0.0
 16
1.0
 26
0.0
 36
0.0
 17
0.0
 27
1.0
 37
0.0
 76
     0
330
23
  0
LAYOUT
  5
22
102
{ACAD_REACTORS
330
1A
102
}
330
1A
100
AcDbPlotSettings
  1

  2
none_device
  4

  6

 40
0.0
 41
0.0
 42
0.0
 43
0.0
 44
0.0
 45
0.0
 46
0.0
 47
0.0
 48
0.0
 49
0.0
140
0.0
141
0.0
142
1.0
143
1.0
 70
  1712
 72
     0
 73
     0
 74
     0
  7

 75
     0
 76
     0
 77
     2
 78
   300
147
1.0
148
0.0
149
0.0
100
AcDbLayout
  1
Model
 70
     1
 71
     0
 10
0.0
 20
0.0
 11
12.0
 21
9.0
 12
0.0
 22
0.0
 32
0.0
 14
1.000000000000000E+20
 24
1.000000000000000E+20
 34
1.000000000000000E+20
 15
-1.000000000000000E+20
 25
-1.000000000000000E+20
 35
-1.000000000000000E+20
146
0.0
 13
0.0
 23
0.0
 33
0.0
 16
1.0
 26
0.0
 36
0.0
 17
0.0
 27
1.0
 37
0.0
 76
     0
330
1F
331
29
  0
MATERIAL
  5
3D
102
{ACAD_REACTORS
330
3B
102
}
330
3B
100
AcDbMaterial
  1
ByBlock
 72
     1
 94
      127
  0
MATERIAL
  5
3C
102
{ACAD_REACTORS
330
3B
102
}
330
3B
100
AcDbMaterial
  1
ByLayer
 72
     1
 94
      127
  0
MATERIAL
  5
3E
102
{ACAD_REACTORS
330
3B
102
}
330
3B
100
AcDbMaterial
  1
Global
 72
     1
 94
      127
  0
MLINESTYLE
  5
18
102
{ACAD_REACTORS
330
17
102
}
330
17
100
AcDbMlineStyle
  2
Standard
 70
     0
  3

 62
   256
 51
90.0
 52
90.0
 71
     2
 49
0.5
 62
   256
  6
BYLAYER
 49
-0.5
 62
   256
  6
BYLAYER
  0
ACDBPLACEHOLDER
  5
F
102
{ACAD_REACTORS
330
E
102
}
330
E
  0
VISUALSTYLE
  5
2F
102
{ACAD_REACTORS
330
2A
102
}
330
2A
100
AcDbVisualStyle
  2
2dWireframe
 70
     4
177
     2
291
     0
 71
     0
176
     1
 72
     2
176
     1
 73
     0
176
     1
 90
        0
176
     1
 40
-0.6
176
     1
 41
-30.0
176
     1
 62
     5
 63
     7
421
 16777215
176
     1
 74
     1
176
     1
 91
        4
176
     1
 64
     7
176
     1
 65
   257
176
     1
 75
     1
176
     1
175
     1
176
     1
 42
1.0
176
     1
 92
        0
176
     1
 66
   257
176
     1
 43
1.0
176
     1
 76
     1
176
     1
 77
     6
176
     1
 78
     2
176
     1
 67
     7
176
     1
 79
     5
176
     1
170
     0
176
     1
171
     0
176
     1
290
     0
176
     1
 93
        1
176
     1
 44
0.0
176
     1
173
     0
176
     1
  0
VISUALSTYLE
  5
31
102
{ACAD_REACTORS
330
2A
102
}
330
2A
100
AcDbVisualStyle
  2
3D Hidden
 70
     6
177
     2
291
     0
 71
     1
176
     1
 72
     2
176
     1
 73
     2
176
     1
 90
        0
176
     1
 40
-0.6
176
     1
 41
-30.0
176
     1
 62
     5
 63
     7
421
 16777215
176
     1
 74
     2
176
     1
 91
        2
176
     1
 64
     7
176
     1
 65
   257
176
     1
 75
     2
176
     1
175
     1
176
     1
 42
40.0
176
     1
 92
        0
176
     1
 66
   257
176
     1
 43
1.0
176
     1
 76
     1
176
     1
 77
     6
176
     1
 78
     2
176
     1
 67
     7
176
     1
 79
     3
176
     1
170
     0
176
     1
171
     0
176
     1
290
     0
176
     1
 93
        1
176
     1
 44
0.0
176
     1
173
     0
176
     1
  0
VISUALSTYLE
  5
30
102
{ACAD_REACTORS
330
2A
102
}
330
2A
100
AcDbVisualStyle
  2
3dWireframe
 70
     5
177
     2
291
     0
 71
     0
176
     1
 72
     2
176
     1
 73
     0
176
     1
 90
        0
176
     1
 40
-0.6
176
     1
 41
-30.0
176
     1
 62
     5
 63
     7
421
 16777215
176
     1
 74
     1
176
     1
 91
        4
176
     1
 64
     7
176
     1
 65
   257
176
     1
 75
     1
176
     1
175
     1
176
     1
 42
1.0
176
     1
 92
        0
176
     1
 66
   257
176
     1
 43
1.0
176
     1
 76
     1
176
     1
 77
     6
176
     1
 78
     2
176
     1
 67
     7
176
     1
 79
     5
176
     1
170
     0
176
     1
171
     0
176
     1
290
     0
176
     1
 93
        1
176
     1
 44
0.0
176
     1
173
     0
176
     1
  0
VISUALSTYLE
  5
32
102
{ACAD_REACTORS
330
2A
102
}
330
2A
100
AcDbVisualStyle
  2
Basic
 70
     7
177
     2
291
     1
 71
     1
176
     1
 72
     0
176
     1
 73
     1
176
     1
 90
        0
176
     1
 40
-0.6
176
     1
 41
-30.0
176
     1
 62
     5
 63
     7
421
 16777215
176
     1
 74
     0
176
     1
 91
        4
176
     1
 64
     7
176
     1
 65
   257
176
     1
 75
     1
176
     1
175
     1
176
     1
 42
1.0
176
     1
 92
        8
176
     1
 66
     7
176
     1
 43
1.0
176
     1
 76
     1
176
     1
 77
     6
176
     1
 78
     2
176
     1
 67
     7
176
     1
 79
     5
176
     1
170
     0
176
     1
171
     0
176
     1
290
     0
176
     1
 93
        1
176
     1
 44
0.0
176
     1
173
     0
176
     1
  0
VISUALSTYLE
  5
36
102
{ACAD_REACTORS
330
2A
102
}
330
2A
100
AcDbVisualStyle
  2
Brighten
 70
    12
177
     2
291
     1
 71
     2
176
     1
 72
     2
176
     1
 73
     0
176
     1
 90
        0
176
     1
 40
-0.6
176
     1
 41
-30.0
176
     1
 62
     5
 63
     7
421
 16777215
176
     1
 74
     1
176
     1
 91
        4
176
     1
 64
     7
176
     1
 65
   257
176
     1
 75
     1
176
     1
175
     1
176
     1
 42
1.0
176
     1
 92
        8
176
     1
 66
     7
176
     1
 43
1.0
176
     1
 76
     1
176
     1
 77
     6
176
     1
 78
     2
176
     1
 67
     7
176
     1
 79
     5
176
     1
170
     0
176
     1
171
     0
176
     1
290
     0
176
     1
 93
        1
176
     1
 44
50.0
176
     1
173
     0
176
     1
  0
VISUALSTYLE
  5
3A
102
{ACAD_REACTORS
330
2A
102
}
330
2A
100
AcDbVisualStyle
  2
ColorChange
 70
    16
177
     2
291
     1
 71
     2
176
     1
 72
     2
176
     1
 73
     3
176
     1
 90
        0
176
     1
 40
-0.6
176
     1
 41
-30.0
176
     1
 62
     5
 63
     8
421
  8421504
176
     1
 74
     1
176
     1
 91
        4
176
     1
 64
     7
176
     1
 65
   257
176
     1
 75
     1
176
     1
175
     1
176
     1
 42
1.0
176
     1
 92
        8
176
     1
 66
     8
424
  8421504
176
     1
 43
1.0
176
     1
 76
     1
176
     1
 77
     6
176
     1
 78
     2
176
     1
 67
     7
176
     1
 79
     5
176
     1
170
     0
176
     1
171
     0
176
     1
290
     0
176
     1
 93
        1
176
     1
 44
0.0
176
     1
173
     0
176
     1
  0
VISUALSTYLE
  5
34
102
{ACAD_REACTORS
330
2A
102
}
330
2A
100
AcDbVisualStyle
  2
Conceptual
 70
     9
177
     2
291
     0
 71
     3
176
     1
 72
     2
176
     1
 73
     0
176
     1
 90
        0
176
     1
 40
-0.6
176
     1
 41
-30.0
176
     1
 62
     5
 63
     7
421
 16777215
176
     1
 74
     2
176
     1
 91
        2
176
     1
 64
     7
176
     1
 65
   257
176
     1
 75
     1
176
     1
175
     1
176
     1
 42
40.0
176
     1
 92
        8
176
     1
 66
     7
176
     1
 43
1.0
176
     1
 76
     1
176
     1
 77
     6
176
     1
 78
     2
176
     1
 67
     7
176
     1
 79
     3
176
     1
170
     0
176
     1
171
     0
176
     1
290
     0
176
     1
 93
        1
176
     1
 44
0.0
176
     1
173
     0
176
     1
  0
VISUALSTYLE
  5
35
102
{ACAD_REACTORS
330
2A
102
}
330
2A
100
AcDbVisualStyle
  2
Dim
 70
    11
177
     2
291
     1
 71
     2
176
     1
 72
     2
176
     1
 73
     0
176
     1
 90
        0
176
     1
 40
-0.6
176
     1
 41
-30.0
176
     1
 62
     5
 63
     7
421
 16777215
176
     1
 74
     1
176
     1
 91
        4
176
     1
 64
     7
176
     1
 65
   257
176
     1
 75
     1
176
     1
175
     1
176
     1
 42
1.0
176
     1
 92
        8
176
     1
 66
     7
176
     1
 43
1.0
176
     1
 76
     1
176
     1
 77
     6
176
     1
 78
     2
176
     1
 67
     7
176
     1
 79
     5
176
     1
170
     0
176
     1
171
     0
176
     1
290
     0
176
     1
 93
        1
176
     1
 44
-50.0
176
     1
173
     0
176
     1
  0
VISUALSTYLE
  5
39
102
{ACAD_REACTORS
330
2A
102
}
330
2A
100
AcDbVisualStyle
  2
Facepattern
 70
    15
177
     2
291
     1
 71
     2
176
     1
 72
     2
176
     1
 73
     0
176
     1
 90
        0
176
     1
 40
-0.6
176
     1
 41
-30.0
176
     1
 62
     5
 63
     7
421
 16777215
176
     1
 74
     1
176
     1
 91
        4
176
     1
 64
     7
176
     1
 65
   257
176
     1
 75
     1
176
     1
175
     1
176
     1
 42
1.0
176
     1
 92
        8
176
     1
 66
     7
176
     1
 43
1.0
176
     1
 76
     1
176
     1
 77
     6
176
     1
 78
     2
176
     1
 67
     7
176
     1
 79
     5
176
     1
170
     0
176
     1
171
     0
176
     1
290
     0
176
     1
 93
        1
176
     1
 44
0.0
176
     1
173
     0
176
     1
  0
VISUALSTYLE
  5
2B
102
{ACAD_REACTORS
330
2A
102
}
330
2A
100
AcDbVisualStyle
  2
Flat
 70
     0
177
     2
291
     1
 71
     2
176
     1
 72
     1
176
     1
 73
     1
176
     1
 90
        2
176
     1
 40
-0.6
176
     1
 41
30.0
176
     1
 62
     5
 63
     7
421
 16777215
176
     1
 74
     0
176
     1
 91
        4
176
     1
 64
     7
176
     1
 65
   257
176
     1
 75
     1
176
     1
175
     1
176
     1
 42
1.0
176
     1
 92
        8
176
     1
 66
     7
176
     1
 43
1.0
176
     1
 76
     1
176
     1
 77
     6
176
     1
 78
     2
176
     1
 67
     7
176
     1
 79
     5
176
     1
170
     0
176
     1
171
     0
176
     1
290
     0
176
     1
 93
       13
176
     1
 44
0.0
176
     1
173
     0
176
     1
  0
VISUALSTYLE
  5
2C
102
{ACAD_REACTORS
330
2A
102
}
330
2A
100
AcDbVisualStyle
  2
FlatWithEdges
 70
     1
177
     2
291
     1
 71
     2
176
     1
 72
     1
176
     1
 73
     1
176
     1
 90
        2
176
     1
 40
-0.6
176
     1
 41
30.0
176
     1
 62
     5
 63
     7
421
 16777215
176
     1
 74
     1
176
     1
 91
        4
176
     1
 64
     7
176
     1
 65
   257
176
     1
 75
     1
176
     1
175
     1
176
     1
 42
1.0
176
     1
 92
        0
176
     1
 66
   257
176
     1
 43
1.0
176
     1
 76
     1
176
     1
 77
     6
176
     1
 78
     2
176
     1
 67
     7
176
     1
 79
     5
176
     1
170
     0
176
     1
171
     0
176
     1
290
     0
176
     1
 93
       13
176
     1
 44
0.0
176
     1
173
     0
176
     1
  0
VISUALSTYLE
  5
2D
102
{ACAD_REACTORS
330
2A
102
}
330
2A
100
AcDbVisualStyle
  2
Gouraud
 70
     2
177
     2
291
     1
 71
     2
176
     1
 72
     2
176
     1
 73
     1
176
     1
 90
        2
176
     1
 40
-0.6
176
     1
 41
30.0
176
     1
 62
     5
 63
     7
421
 16777215
176
     1
 74
     0
176
     1
 91
        4
176
     1
 64
     7
176
     1
 65
   257
176
     1
 75
     1
176
     1
175
     1
176
     1
 42
1.0
176
     1
 92
        0
176
     1
 66
     7
176
     1
 43
1.0
176
     1
 76
     1
176
     1
 77
     6
176
     1
 78
     2
176
     1
 67
     7
176
     1
 79
     5
176
     1
170
     0
176
     1
171
     0
176
     1
290
     0
176
     1
 93
       13
176
     1
 44
0.0
176
     1
173
     0
176
     1
  0
VISUALSTYLE
  5
2E
102
{ACAD_REACTORS
330
2A
102
}
330
2A
100
AcDbVisualStyle
  2
GouraudWithEdges
 70
     3
177
     2
291
     1
 71
     2
176
     1
 72
     2
176
     1
 73
     1
176
     1
 90
        2
176
     1
 40
-0.6
176
     1
 41
30.0
176
     1
 62
     5
 63
     7
421
 16777215
176
     1
 74
     1
176
     1
 91
        4
176
     1
 64
     7
176
     1
 65
   257
176
     1
 75
     1
176
     1
175
     1
176
     1
 42
1.0
176
     1
 92
        0
176
     1
 66
   257
176
     1
 43
1.0
176
     1
 76
     1
176
     1
 77
     6
176
     1
 78
     2
176
     1
 67
     7
176
     1
 79
     5
176
     1
170
     0
176
     1
171
     0
176
     1
290
     0
176
     1
 93
       13
176
     1
 44
0.0
176
     1
173
     0
176
     1
  0
VISUALSTYLE
  5
38
102
{ACAD_REACTORS
330
2A
102
}
330
2A
100
AcDbVisualStyle
  2
Linepattern
 70
    14
177
     2
291
     1
 71
     2
176
     1
 72
     2
176
     1
 73
     0
176
     1
 90
        0
176
     1
 40
-0.6
176
     1
 41
-30.0
176
     1
 62
     5
 63
     7
421
 16777215
176
     1
 74
     1
176
     1
 91
        4
176
     1
 64
     7
176
     1
 65
   257
176
     1
 75
     7
176
     1
175
     7
176
     1
 42
1.0
176
     1
 92
        8
176
     1
 66
     7
176
     1
 43
1.0
176
     1
 76
     1
176
     1
 77
     6
176
     1
 78
     2
176
     1
 67
     7
176
     1
 79
     5
176
     1
170
     0
176
     1
171
     0
176
     1
290
     0
176
     1
 93
        1
176
     1
 44
0.0
176
     1
173
     0
176
     1
  0
VISUALSTYLE
  5
33
102
{ACAD_REACTORS
330
2A
102
}
330
2A
100
AcDbVisualStyle
  2
Realistic
 70
     8
177
     2
291
     0
 71
     2
176
     1
 72
     2
176
     1
 73
     0
176
     1
 90
        0
176
     1
 40
-0.6
176
     1
 41
-30.0
176
     1
 62
     5
 63
     7
421
 16777215
176
     1
 74
     1
176
     1
 91
        0
176
     1
 64
     7
176
     1
 65
   257
176
     1
 75
     1
176
     1
175
     1
176
     1
 42
1.0
176
     1
 92
        8
176
     1
 66
     8
424
  7895160
176
     1
 43
1.0
176
     1
 76
     1
176
     1
 77
     6
176
     1
 78
     2
176
     1
 67
     7
176
     1
 79
     5
176
     1
170
     0
176
     1
171
     0
176
     1
290
     0
176
     1
 93
       13
176
     1
 44
0.0
176
     1
173
     0
176
     1
  0
VISUALSTYLE
  5
37
102
{ACAD_REACTORS
330
2A
102
}
330
2A
100
AcDbVisualStyle
  2
Thicken
 70
    13
177
     2
291
     1
 71
     2
176
     1
 72
     2
176
     1
 73
     0
176
     1
 90
        0
176
     1
 40
-0.6
176
     1
 41
-30.0
176
     1
 62
     5
 63
     7
421
 16777215
176
     1
 74
     1
176
     1
 91
        4
176
     1
 64
     7
176
     1
 65
   257
176
     1
 75
     1
176
     1
175
     1
176
     1
 42
1.0
176
     1
 92
       12
176
     1
 66
     7
176
     1
 43
1.0
176
     1
 76
     1
176
     1
 77
     6
176
     1
 78
     2
176
     1
 67
     7
176
     1
 79
     5
176
     1
170
     0
176
     1
171
     0
176
     1
290
     0
176
     1
 93
        1
176
     1
 44
0.0
176
     1
173
     0
176
     1
  0
ENDSEC
  0
EOF
