  0
SECTION
  2
HEADER
  9
$ACADVER
  1
AC1032
  9
$ACADMAINTVER
 90
      197
  9
$DWGCODEPAGE
  3
ANSI_1252
  9
$REQUIREDVERSIONS
160
                 0
  9
$INSBASE
 10
0.0
 20
0.0
 30
0.0
  9
$EXTMIN
 10
1.000000000000000E+20
 20
1.000000000000000E+20
 30
1.000000000000000E+20
  9
$EXTMAX
 10
-1.000000000000000E+20
 20
-1.000000000000000E+20
 30
-1.000000000000000E+20
  9
$LIMMIN
 10
0.0
 20
0.0
  9
$LIMMAX
 10
12.0
 20
9.0
  9
$ORTHOMODE
 70
     0
  9
$REGENMODE
 70
     1
  9
$FILLMODE
 70
     1
  9
$QTEXTMODE
 70
     0
  9
$MIRRTEXT
 70
     0
  9
$LTSCALE
 40
1.0
  9
$ATTMODE
 70
     1
  9
$TEXTSIZE
 40
0.2
  9
$TRACEWID
 40
0.05
  9
$TEXTSTYLE
  7
Standard
  9
$CLAYER
  8
0
  9
$CELTYPE
  6
ByLayer
  9
$CECOLOR
 62
   256
  9
$CELTSCALE
 40
1.0
  9
$DISPSILH
 70
     0
  9
$DIMSCALE
 40
1.0
  9
$DIMASZ
 40
0.18
  9
$DIMEXO
 40
0.0625
  9
$DIMDLI
 40
0.38
  9
$DIMRND
 40
0.0
  9
$DIMDLE
 40
0.0
  9
$DIMEXE
 40
0.18
  9
$DIMTP
 40
0.0
  9
$DIMTM
 40
0.0
  9
$DIMTXT
 40
0.18
  9
$DIMCEN
 40
0.09
  9
$DIMTSZ
 40
0.0
  9
$DIMTOL
 70
     0
  9
$DIMLIM
 70
     0
  9
$DIMTIH
 70
     1
  9
$DIMTOH
 70
     1
  9
$DIMSE1
 70
     0
  9
$DIMSE2
 70
     0
  9
$DIMTAD
 70
     0
  9
$DIMZIN
 70
     0
  9
$DIMBLK
  1

  9
$DIMASO
 70
     1
  9
$DIMSHO
 70
     1
  9
$DIMPOST
  1

  9
$DIMAPOST
  1

  9
$DIMALT
 70
     0
  9
$DIMALTD
 70
     2
  9
$DIMALTF
 40
25.4
  9
$DIMLFAC
 40
1.0
  9
$DIMTOFL
 70
     0
  9
$DIMTVP
 40
0.0
  9
$DIMTIX
 70
     0
  9
$DIMSOXD
 70
     0
  9
$DIMSAH
 70
     0
  9
$DIMBLK1
  1

  9
$DIMBLK2
  1

  9
$DIMSTYLE
  2
Standard
  9
$DIMCLRD
 70
     0
  9
$DIMCLRE
 70
     0
  9
$DIMCLRT
 70
     0
  9
$DIMTFAC
 40
1.0
  9
$DIMGAP
 40
0.09
  9
$DIMJUST
 70
     0
  9
$DIMSD1
 70
     0
  9
$DIMSD2
 70
     0
  9
$DIMTOLJ
 70
     1
  9
$DIMTZIN
 70
     0
  9
$DIMALTZ
 70
     0
  9
$DIMALTTZ
 70
     0
  9
$DIMUPT
 70
     0
  9
$DIMDEC
 70
     4
  9
$DIMTDEC
 70
     4
  9
$DIMALTU
 70
     2
  9
$DIMALTTD
 70
     2
  9
$DIMTXSTY
  7
Standard
  9
$DIMAUNIT
 70
     0
  9
$DIMADEC
 70
     0
  9
$DIMALTRND
 40
0.0
  9
$DIMAZIN
 70
     0
  9
$DIMDSEP
 70
    46
  9
$DIMATFIT
 70
     3
  9
$DIMFRAC
 70
     0
  9
$DIMLDRBLK
  1

  9
$DIMLUNIT
 70
     2
  9
$DIMLWD
 70
    -2
  9
$DIMLWE
 70
    -2
  9
$DIMTMOVE
 70
     0
  9
$DIMFXL
 40
1.0
  9
$DIMFXLON
 70
     0
  9
$DIMJOGANG
 40
0.7853981633974483
  9
$DIMTFILL
 70
     0
  9
$DIMTFILLCLR
 70
     0
  9
$DIMARCSYM
 70
     0
  9
$DIMLTYPE
  6

  9
$DIMLTEX1
  6

  9
$DIMLTEX2
  6

  9
$DIMTXTDIRECTION
 70
     0
  9
$LUNITS
 70
     2
  9
$LUPREC
 70
     4
  9
$SKETCHINC
 40
0.1
  9
$FILLETRAD
 40
0.0
  9
$AUNITS
 70
     0
  9
$AUPREC
 70
     0
  9
$MENU
  1
.
  9
$ELEVATION
 40
0.0
  9
$PELEVATION
 40
0.0
  9
$THICKNESS
 40
0.0
  9
$LIMCHECK
 70
     0
  9
$CHAMFERA
 40
0.0
  9
$CHAMFERB
 40
0.0
  9
$CHAMFERC
 40
0.0
  9
$CHAMFERD
 40
0.0
  9
$SKPOLY
 70
     0
  9
$TDCREATE
 40
2459607.592893519
  9
$TDUCREATE
 40
2459607.051226852
  9
$TDUPDATE
 40
2459607.592893519
  9
$TDUUPDATE
 40
2459607.051226852
  9
$TDINDWG
 40
0.0000000000
  9
$TDUSRTIMER
 40
0.0000000000
  9
$USRTIMER
 70
     1
  9
$ANGBASE
 50
0.0
  9
$ANGDIR
 70
     0
  9
$PDMODE
 70
     0
  9
$PDSIZE
 40
0.0
  9
$PLINEWID
 40
0.0
  9
$SPLFRAME
 70
     0
  9
$SPLINETYPE
 70
     6
  9
$SPLINESEGS
 70
     8
  9
$HANDSEED
  5
143
  9
$SURFTAB1
 70
     6
  9
$SURFTAB2
 70
     6
  9
$SURFTYPE
 70
     6
  9
$SURFU
 70
     6
  9
$SURFV
 70
     6
  9
$UCSBASE
  2

  9
$UCSNAME
  2

  9
$UCSORG
 10
0.0
 20
0.0
 30
0.0
  9
$UCSXDIR
 10
1.0
 20
0.0
 30
0.0
  9
$UCSYDIR
 10
0.0
 20
1.0
 30
0.0
  9
$UCSORTHOREF
  2

  9
$UCSORTHOVIEW
 70
     0
  9
$UCSORGTOP
 10
0.0
 20
0.0
 30
0.0
  9
$UCSORGBOTTOM
 10
0.0
 20
0.0
 30
0.0
  9
$UCSORGLEFT
 10
0.0
 20
0.0
 30
0.0
  9
$UCSORGRIGHT
 10
0.0
 20
0.0
 30
0.0
  9
$UCSORGFRONT
 10
0.0
 20
0.0
 30
0.0
  9
$UCSORGBACK
 10
0.0
 20
0.0
 30
0.0
  9
$PUCSBASE
  2

  9
$PUCSNAME
  2

  9
$PUCSORG
 10
0.0
 20
0.0
 30
0.0
  9
$PUCSXDIR
 10
1.0
 20
0.0
 30
0.0
  9
$PUCSYDIR
 10
0.0
 20
1.0
 30
0.0
  9
$PUCSORTHOREF
  2

  9
$PUCSORTHOVIEW
 70
     0
  9
$PUCSORGTOP
 10
0.0
 20
0.0
 30
0.0
  9
$PUCSORGBOTTOM
 10
0.0
 20
0.0
 30
0.0
  9
$PUCSORGLEFT
 10
0.0
 20
0.0
 30
0.0
  9
$PUCSORGRIGHT
 10
0.0
 20
0.0
 30
0.0
  9
$PUCSORGFRONT
 10
0.0
 20
0.0
 30
0.0
  9
$PUCSORGBACK
 10
0.0
 20
0.0
 30
0.0
  9
$USERI1
 70
     0
  9
$USERI2
 70
     0
  9
$USERI3
 70
     0
  9
$USERI4
 70
     0
  9
$USERI5
 70
     0
  9
$USERR1
 40
0.0
  9
$USERR2
 40
0.0
  9
$USERR3
 40
0.0
  9
$USERR4
 40
0.0
  9
$USERR5
 40
0.0
  9
$WORLDVIEW
 70
     1
  9
$SHADEDGE
 70
     3
  9
$SHADEDIF
 70
    70
  9
$TILEMODE
 70
     1
  9
$MAXACTVP
 70
    64
  9
$PINSBASE
 10
0.0
 20
0.0
 30
0.0
  9
$PLIMCHECK
 70
     0
  9
$PEXTMIN
 10
1.000000000000000E+20
 20
1.000000000000000E+20
 30
1.000000000000000E+20
  9
$PEXTMAX
 10
-1.000000000000000E+20
 20
-1.000000000000000E+20
 30
-1.000000000000000E+20
  9
$PLIMMIN
 10
0.0
 20
0.0
  9
$PLIMMAX
 10
12.0
 20
9.0
  9
$UNITMODE
 70
     0
  9
$VISRETAIN
 70
     1
  9
$PLINEGEN
 70
     0
  9
$PSLTSCALE
 70
     1
  9
$TREEDEPTH
 70
  3020
  9
$CMLSTYLE
  2
Standard
  9
$CMLJUST
 70
     0
  9
$CMLSCALE
 40
1.0
  9
$PROXYGRAPHICS
 70
     1
  9
$MEASUREMENT
 70
     0
  9
$CELWEIGHT
370
    -1
  9
$ENDCAPS
280
     0
  9
$JOINSTYLE
280
     0
  9
$LWDISPLAY
290
     1
  9
$INSUNITS
 70
     1
  9
$HYPERLINKBASE
  1

  9
$STYLESHEET
  1

  9
$XEDIT
290
     1
  9
$CEPSNTYPE
380
     0
  9
$PSTYLEMODE
290
     1
  9
$FINGERPRINTGUID
  2
{58CF116F-3624-1F4A-98CB-D9525CACD44E}
  9
$VERSIONGUID
  2
{5E431F02-EA35-A447-82B3-06361A03A926}
  9
$EXTNAMES
290
     1
  9
$PSVPSCALE
 40
0.0
  9
$OLESTARTUP
290
     0
  9
$SORTENTS
280
   127
  9
$INDEXCTL
280
     0
  9
$HIDETEXT
280
     1
  9
$XCLIPFRAME
280
     2
  9
$HALOGAP
280
     0
  9
$OBSCOLOR
 70
   257
  9
$OBSLTYPE
280
     0
  9
$INTERSECTIONDISPLAY
280
     0
  9
$INTERSECTIONCOLOR
 70
   257
  9
$DIMASSOC
280
     2
  9
$PROJECTNAME
  1

  9
$CAMERADISPLAY
290
     0
  9
$LENSLENGTH
 40
50.0
  9
$CAMERAHEIGHT
 40
0.0
  9
$STEPSPERSEC
 40
2.0
  9
$STEPSIZE
 40
6.0
  9
$3DDWFPREC
 40
2.0
  9
$PSOLWIDTH
 40
0.25
  9
$PSOLHEIGHT
 40
4.0
  9
$LOFTANG1
 40
1.570796326794896
  9
$LOFTANG2
 40
1.570796326794896
  9
$LOFTMAG1
 40
0.0
  9
$LOFTMAG2
 40
0.0
  9
$LOFTPARAM
 70
     7
  9
$LOFTNORMALS
280
     1
  9
$LATITUDE
 40
37.795
  9
$LONGITUDE
 40
-122.394
  9
$NORTHDIRECTION
 40
0.0
  9
$TIMEZONE
 70
 -8000
  9
$LIGHTGLYPHDISPLAY
280
     1
  9
$TILEMODELIGHTSYNCH
280
     1
  9
$CMATERIAL
347
11
  9
$SOLIDHIST
280
     0
  9
$SHOWHIST
280
     1
  9
$DWFFRAME
280
     2
  9
$DGNFRAME
280
     0
  9
$REALWORLDSCALE
290
     1
  9
$INTERFERECOLOR
 62
     1
  9
$INTERFEREOBJVS
345
33
  9
$INTERFEREVPVS
346
30
  9
$CSHADOW
280
     0
  9
$SHADOWPLANELOCATION
 40
0.0
  0
ENDSEC
  0
SECTION
  2
CLASSES
  0
CLASS
  1
ACDBDICTIONARYWDFLT
  2
AcDbDictionaryWithDefault
  3
ObjectDBX Classes
 90
        0
 91
        1
280
     0
281
     0
  0
CLASS
  1
MATERIAL
  2
AcDbMaterial
  3
ObjectDBX Classes
 90
     1153
 91
        3
280
     0
281
     0
  0
CLASS
  1
VISUALSTYLE
  2
AcDbVisualStyle
  3
ObjectDBX Classes
 90
     4095
 91
       24
280
     0
281
     0
  0
CLASS
  1
SCALE
  2
AcDbScale
  3
ObjectDBX Classes
 90
     1153
 91
       17
280
     0
281
     0
  0
CLASS
  1
TABLESTYLE
  2
AcDbTableStyle
  3
ObjectDBX Classes
 90
     4095
 91
        1
280
     0
281
     0
  0
CLASS
  1
MLEADERSTYLE
  2
AcDbMLeaderStyle
  3
ACDB_MLEADERSTYLE_CLASS
 90
     4095
 91
        1
280
     0
281
     0
  0
CLASS
  1
ACDBSECTIONVIEWSTYLE
  2
AcDbSectionViewStyle
  3
ObjectDBX Classes
 90
     1025
 91
        1
280
     0
281
     0
  0
CLASS
  1
ACDBDETAILVIEWSTYLE
  2
AcDbDetailViewStyle
  3
ObjectDBX Classes
 90
     1025
 91
        1
280
     0
281
     0
  0
CLASS
  1
DICTIONARYVAR
  2
AcDbDictionaryVar
  3
ObjectDBX Classes
 90
        0
 91
        5
280
     0
281
     0
  0
CLASS
  1
CELLSTYLEMAP
  2
AcDbCellStyleMap
  3
ObjectDBX Classes
 90
     1152
 91
        1
280
     0
281
     0
  0
ENDSEC
  0
SECTION
  2
TABLES
  0
TABLE
  2
VPORT
  5
8
330
0
100
AcDbSymbolTable
 70
     1
  0
VPORT
  5
57
330
8
100
AcDbSymbolTableRecord
100
AcDbViewportTableRecord
  2
*Active
 70
     0
 10
0.0
 20
0.0
 11
1.0
 21
1.0
 12
0.0
 22
0.0
 13
0.0
 23
0.0
 14
1.0
 24
1.0
 15
0.0
 25
0.0
 16
0.0
 26
0.0
 36
1.0
 17
0.991897201698287
 27
1.521495138888894
 37
0.0
 40
11.9267716535433
 41
0.7070707070707077
 42
50.0
 43
0.0
 44
0.0
 50
0.0
 51
0.0
 71
     0
 72
   100
 73
     1
 74
     1
 75
     0
 76
     0
 77
     0
 78
     0
281
     0
 65
     1
110
0.0
120
0.0
130
0.0
111
1.0
121
0.0
131
0.0
112
0.0
122
1.0
132
0.0
 79
     0
146
0.0
 60
     3
 61
     5
292
     1
282
     1
141
0.0
142
0.0
 63
   250
421
  3355443
  0
ENDTAB
  0
TABLE
  2
LTYPE
  5
5
330
0
100
AcDbSymbolTable
 70
     1
  0
LTYPE
  5
5B
330
5
100
AcDbSymbolTableRecord
100
AcDbLinetypeTableRecord
  2
ByBlock
 70
     0
  3

 72
    65
 73
     0
 40
0.0
  0
LTYPE
  5
5C
330
5
100
AcDbSymbolTableRecord
100
AcDbLinetypeTableRecord
  2
ByLayer
 70
     0
  3

 72
    65
 73
     0
 40
0.0
  0
LTYPE
  5
5D
330
5
100
AcDbSymbolTableRecord
100
AcDbLinetypeTableRecord
  2
Continuous
 70
     0
  3
Solid line
 72
    65
 73
     0
 40
0.0
  0
ENDTAB
  0
TABLE
  2
LAYER
  5
2
330
0
100
AcDbSymbolTable
 70
     3
  0
LAYER
  5
54
330
2
100
AcDbSymbolTableRecord
100
AcDbLayerTableRecord
  2
0
 70
     0
 62
     7
  6
Continuous
370
    -3
390
F
347
21
348
0
  0
LAYER
  5
78
330
2
100
AcDbSymbolTableRecord
100
AcDbLayerTableRecord
  2
Layer 1
 70
     0
 62
     7
  6
Continuous
370
     0
390
F
347
21
348
0
  0
LAYER
  5
131
330
2
100
AcDbSymbolTableRecord
100
AcDbLayerTableRecord
  2
Layer 2
 70
     0
 62
     7
  6
Continuous
370
     0
390
F
347
21
348
0
  0
ENDTAB
  0
TABLE
  2
STYLE
  5
3
330
0
100
AcDbSymbolTable
 70
     2
  0
STYLE
  5
55
330
3
100
AcDbSymbolTableRecord
100
AcDbTextStyleTableRecord
  2
Standard
 70
     0
 40
0.0
 41
1.0
 50
0.0
 71
     0
 42
0.2
  3
txt
  4

  0
STYLE
  5
5A
330
3
100
AcDbSymbolTableRecord
100
AcDbTextStyleTableRecord
  2
Annotative
 70
     0
 40
0.0
 41
1.0
 50
0.0
 71
     0
 42
0.2
  3
txt
  4

1001
AcadAnnotative
1000
AnnotativeData
1002
{
1070
     1
1070
     1
1002
}
  0
ENDTAB
  0
TABLE
  2
VIEW
  5
6
330
0
100
AcDbSymbolTable
 70
     0
  0
ENDTAB
  0
TABLE
  2
UCS
  5
7
330
0
100
AcDbSymbolTable
 70
     0
  0
ENDTAB
  0
TABLE
  2
APPID
  5
9
330
0
100
AcDbSymbolTable
 70
     2
  0
APPID
  5
56
330
9
100
AcDbSymbolTableRecord
100
AcDbRegAppTableRecord
  2
ACAD
 70
     0
  0
APPID
  5
5E
330
9
100
AcDbSymbolTableRecord
100
AcDbRegAppTableRecord
  2
AcadAnnotative
 70
     0
  0
ENDTAB
  0
TABLE
  2
DIMSTYLE
  5
A
330
0
100
AcDbSymbolTable
 70
     2
100
AcDbDimStyleTable
 71
     0
  0
DIMSTYLE
105
58
330
A
100
AcDbSymbolTableRecord
100
AcDbDimStyleTableRecord
  2
Standard
 70
     0
340
55
  0
DIMSTYLE
105
59
330
A
100
AcDbSymbolTableRecord
100
AcDbDimStyleTableRecord
  2
Annotative
 70
     0
340
55
1001
AcadAnnotative
1000
AnnotativeData
1002
{
1070
     1
1070
     1
1002
}
  0
ENDTAB
  0
TABLE
  2
BLOCK_RECORD
  5
1
330
0
100
AcDbSymbolTable
 70
    14
  0
BLOCK_RECORD
  5
70
330
1
100
AcDbSymbolTableRecord
100
AcDbBlockTableRecord
  2
*Model_Space
340
73
 70
     0
280
     1
281
     0
  0
BLOCK_RECORD
  5
6C
330
1
100
AcDbSymbolTableRecord
100
AcDbBlockTableRecord
  2
*Paper_Space
340
6F
 70
     0
280
     1
281
     0
  0
BLOCK_RECORD
  5
74
330
1
100
AcDbSymbolTableRecord
100
AcDbBlockTableRecord
  2
*Paper_Space0
340
77
 70
     0
280
     1
281
     0
  0
BLOCK_RECORD
  5
79
330
1
100
AcDbSymbolTableRecord
100
AcDbBlockTableRecord
  2
Block_0
340
0
102
{BLKREFS
331
7A
102
}
 70
     0
280
     1
281
     0
  0
BLOCK_RECORD
  5
D1
330
1
100
AcDbSymbolTableRecord
100
AcDbBlockTableRecord
  2
Block_1
340
0
102
{BLKREFS
331
D2
102
}
 70
     0
280
     1
281
     0
  0
BLOCK_RECORD
  5
D9
330
1
100
AcDbSymbolTableRecord
100
AcDbBlockTableRecord
  2
Block_2
340
0
102
{BLKREFS
331
DA
102
}
 70
     0
280
     1
281
     0
  0
BLOCK_RECORD
  5
F7
330
1
100
AcDbSymbolTableRecord
100
AcDbBlockTableRecord
  2
Block_3
340
0
102
{BLKREFS
331
F8
102
}
 70
     0
280
     1
281
     0
  0
BLOCK_RECORD
  5
FB
330
1
100
AcDbSymbolTableRecord
100
AcDbBlockTableRecord
  2
Block_4
340
0
102
{BLKREFS
331
FC
102
}
 70
     0
280
     1
281
     0
  0
BLOCK_RECORD
  5
102
330
1
100
AcDbSymbolTableRecord
100
AcDbBlockTableRecord
  2
Block_5
340
0
102
{BLKREFS
331
103
102
}
 70
     0
280
     1
281
     0
  0
BLOCK_RECORD
  5
108
330
1
100
AcDbSymbolTableRecord
100
AcDbBlockTableRecord
  2
Block_6
340
0
102
{BLKREFS
331
109
102
}
 70
     0
280
     1
281
     0
  0
BLOCK_RECORD
  5
10E
330
1
100
AcDbSymbolTableRecord
100
AcDbBlockTableRecord
  2
Block_7
340
0
102
{BLKREFS
331
10F
102
}
 70
     0
280
     1
281
     0
  0
BLOCK_RECORD
  5
114
330
1
100
AcDbSymbolTableRecord
100
AcDbBlockTableRecord
  2
Block_8
340
0
102
{BLKREFS
331
115
102
}
 70
     0
280
     1
281
     0
  0
BLOCK_RECORD
  5
118
330
1
100
AcDbSymbolTableRecord
100
AcDbBlockTableRecord
  2
Block_9
340
0
102
{BLKREFS
331
119
102
}
 70
     0
280
     1
281
     0
  0
BLOCK_RECORD
  5
11F
330
1
100
AcDbSymbolTableRecord
100
AcDbBlockTableRecord
  2
Block_10
340
0
102
{BLKREFS
331
120
102
}
 70
     0
280
     1
281
     0
  0
BLOCK_RECORD
  5
125
330
1
100
AcDbSymbolTableRecord
100
AcDbBlockTableRecord
  2
Block_11
340
0
102
{BLKREFS
331
126
102
}
 70
     0
280
     1
281
     0
  0
BLOCK_RECORD
  5
12B
330
1
100
AcDbSymbolTableRecord
100
AcDbBlockTableRecord
  2
Block_12
340
0
102
{BLKREFS
331
12C
102
}
 70
     0
280
     1
281
     0
  0
ENDTAB
  0
ENDSEC
  0
SECTION
  2
BLOCKS
  0
BLOCK
  5
71
330
70
100
AcDbEntity
  8
0
100
AcDbBlockBegin
  2
*Model_Space
 70
     0
 10
0.0
 20
0.0
 30
0.0
  3
*Model_Space
  1

  0
ENDBLK
  5
72
330
70
100
AcDbEntity
  8
0
100
AcDbBlockEnd
  0
BLOCK
  5
6D
330
6C
100
AcDbEntity
 67
     1
  8
0
100
AcDbBlockBegin
  2
*Paper_Space
 70
     0
 10
0.0
 20
0.0
 30
0.0
  3
*Paper_Space
  1

  0
ENDBLK
  5
6E
330
6C
100
AcDbEntity
 67
     1
  8
0
100
AcDbBlockEnd
  0
BLOCK
  5
75
330
74
100
AcDbEntity
 67
     1
  8
0
100
AcDbBlockBegin
  2
*Paper_Space0
 70
     0
 10
0.0
 20
0.0
 30
0.0
  3
*Paper_Space0
  1

  0
ENDBLK
  5
76
330
74
100
AcDbEntity
 67
     1
  8
0
100
AcDbBlockEnd
  0
BLOCK
  5
7B
330
79
100
AcDbEntity
  8
0
100
AcDbBlockBegin
  2
Block_0
 70
     0
 10
0.0
 20
0.0
 30
0.0
  3
Block_0
  1

  0
SPLINE
  5
7D
330
79
100
AcDbEntity
  8
Layer 1
 62
    18
420
        0
370
    35
100
AcDbSpline
210
0.0
220
0.0
230
1.0
 70
    11
 71
     3
 72
   335
 73
   331
 74
     0
 42
0.0000000001
 43
0.0000000001
 40
0.0
 40
0.0
 40
0.0
 40
0.0
 40
1.0
 40
1.0
 40
1.0
 40
2.0
 40
2.0
 40
2.0
 40
3.0
 40
3.0
 40
3.0
 40
4.0
 40
4.0
 40
4.0
 40
5.0
 40
5.0
 40
5.0
 40
6.0
 40
6.0
 40
6.0
 40
7.0
 40
7.0
 40
7.0
 40
8.0
 40
8.0
 40
8.0
 40
9.0
 40
9.0
 40
9.0
 40
10.0
 40
10.0
 40
10.0
 40
11.0
 40
11.0
 40
11.0
 40
12.0
 40
12.0
 40
12.0
 40
13.0
 40
13.0
 40
13.0
 40
14.0
 40
14.0
 40
14.0
 40
15.0
 40
15.0
 40
15.0
 40
16.0
 40
16.0
 40
16.0
 40
17.0
 40
17.0
 40
17.0
 40
18.0
 40
18.0
 40
18.0
 40
19.0
 40
19.0
 40
19.0
 40
20.0
 40
20.0
 40
20.0
 40
21.0
 40
21.0
 40
21.0
 40
22.0
 40
22.0
 40
22.0
 40
23.0
 40
23.0
 40
23.0
 40
24.0
 40
24.0
 40
24.0
 40
25.0
 40
25.0
 40
25.0
 40
26.0
 40
26.0
 40
26.0
 40
27.0
 40
27.0
 40
27.0
 40
28.0
 40
28.0
 40
28.0
 40
29.0
 40
29.0
 40
29.0
 40
30.0
 40
30.0
 40
30.0
 40
31.0
 40
31.0
 40
31.0
 40
32.0
 40
32.0
 40
32.0
 40
33.0
 40
33.0
 40
33.0
 40
34.0
 40
34.0
 40
34.0
 40
35.0
 40
35.0
 40
35.0
 40
36.0
 40
36.0
 40
36.0
 40
37.0
 40
37.0
 40
37.0
 40
38.0
 40
38.0
 40
38.0
 40
39.0
 40
39.0
 40
39.0
 40
40.0
 40
40.0
 40
40.0
 40
41.0
 40
41.0
 40
41.0
 40
42.0
 40
42.0
 40
42.0
 40
43.0
 40
43.0
 40
43.0
 40
44.0
 40
44.0
 40
44.0
 40
45.0
 40
45.0
 40
45.0
 40
46.0
 40
46.0
 40
46.0
 40
47.0
 40
47.0
 40
47.0
 40
48.0
 40
48.0
 40
48.0
 40
49.0
 40
49.0
 40
49.0
 40
50.0
 40
50.0
 40
50.0
 40
51.0
 40
51.0
 40
51.0
 40
52.0
 40
52.0
 40
52.0
 40
53.0
 40
53.0
 40
53.0
 40
54.0
 40
54.0
 40
54.0
 40
55.0
 40
55.0
 40
55.0
 40
56.0
 40
56.0
 40
56.0
 40
57.0
 40
57.0
 40
57.0
 40
58.0
 40
58.0
 40
58.0
 40
59.0
 40
59.0
 40
59.0
 40
60.0
 40
60.0
 40
60.0
 40
61.0
 40
61.0
 40
61.0
 40
62.0
 40
62.0
 40
62.0
 40
63.0
 40
63.0
 40
63.0
 40
64.0
 40
64.0
 40
64.0
 40
65.0
 40
65.0
 40
65.0
 40
66.0
 40
66.0
 40
66.0
 40
67.0
 40
67.0
 40
67.0
 40
68.0
 40
68.0
 40
68.0
 40
69.0
 40
69.0
 40
69.0
 40
70.0
 40
70.0
 40
70.0
 40
71.0
 40
71.0
 40
71.0
 40
72.0
 40
72.0
 40
72.0
 40
73.0
 40
73.0
 40
73.0
 40
74.0
 40
74.0
 40
74.0
 40
75.0
 40
75.0
 40
75.0
 40
76.0
 40
76.0
 40
76.0
 40
77.0
 40
77.0
 40
77.0
 40
78.0
 40
78.0
 40
78.0
 40
79.0
 40
79.0
 40
79.0
 40
80.0
 40
80.0
 40
80.0
 40
81.0
 40
81.0
 40
81.0
 40
82.0
 40
82.0
 40
82.0
 40
83.0
 40
83.0
 40
83.0
 40
84.0
 40
84.0
 40
84.0
 40
85.0
 40
85.0
 40
85.0
 40
86.0
 40
86.0
 40
86.0
 40
87.0
 40
87.0
 40
87.0
 40
88.0
 40
88.0
 40
88.0
 40
89.0
 40
89.0
 40
89.0
 40
90.0
 40
90.0
 40
90.0
 40
91.0
 40
91.0
 40
91.0
 40
92.0
 40
92.0
 40
92.0
 40
93.0
 40
93.0
 40
93.0
 40
94.0
 40
94.0
 40
94.0
 40
95.0
 40
95.0
 40
95.0
 40
96.0
 40
96.0
 40
96.0
 40
97.0
 40
97.0
 40
97.0
 40
98.0
 40
98.0
 40
98.0
 40
99.0
 40
99.0
 40
99.0
 40
100.0
 40
100.0
 40
100.0
 40
101.0
 40
101.0
 40
101.0
 40
102.0
 40
102.0
 40
102.0
 40
103.0
 40
103.0
 40
103.0
 40
104.0
 40
104.0
 40
104.0
 40
105.0
 40
105.0
 40
105.0
 40
106.0
 40
106.0
 40
106.0
 40
107.0
 40
107.0
 40
107.0
 40
108.0
 40
108.0
 40
108.0
 40
109.0
 40
109.0
 40
109.0
 40
110.0
 40
110.0
 40
110.0
 40
110.0
 10
1.844014460473166
 20
2.217278940326637
 30
0.0
 10
1.844014460473166
 20
2.217278940326637
 30
0.0
 10
1.851360369603904
 20
2.256482308592744
 30
0.0
 10
1.927395128513833
 20
2.222187163924192
 30
0.0
 10
1.927395128513833
 20
2.222187163924192
 30
0.0
 10
1.978826348300066
 20
2.219749478576545
 30
0.0
 10
2.015657737953511
 20
2.249152826098666
 30
0.0
 10
2.015657737953511
 20
2.249152826098666
 30
0.0
 10
2.049952883488458
 20
2.222187163924192
 30
0.0
 10
2.049952883488458
 20
2.222187163924192
 30
0.0
 10
2.049952883488458
 20
2.222187163924192
 30
0.0
 10
2.081810343614102
 20
2.227078961070598
 30
0.0
 10
2.103884209199804
 20
2.214791975625606
 30
0.0
 10
2.103884209199804
 20
2.214791975625606
 30
0.0
 10
2.129292644449075
 20
2.239352805354719
 30
0.0
 10
2.158745272068649
 20
2.224624941238491
 30
0.0
 10
2.158745272068649
 20
2.224624941238491
 30
0.0
 10
2.161186242768204
 20
2.155998421742234
 30
0.0
 10
2.178381452245149
 20
2.131473730205622
 30
0.0
 10
2.195514241206183
 20
2.106929326927658
 30
0.0
 10
2.185694508472806
 20
2.070193211621219
 30
0.0
 10
2.185694508472806
 20
2.070193211621219
 30
0.0
 10
2.185694508472806
 20
2.070193211621219
 30
0.0
 10
2.143987748000907
 20
1.962330562923271
 30
0.0
 10
2.148928824625575
 20
1.898582791379188
 30
0.0
 10
2.148928824625575
 20
1.898582791379188
 30
0.0
 10
2.161153389865123
 20
1.874038388101199
 30
0.0
 10
2.161153389865123
 20
1.874038388101199
 30
0.0
 10
2.161153389865123
 20
1.874038388101199
 30
0.0
 10
2.178381452245149
 20
1.592062003995806
 30
0.0
 10
2.178381452245149
 20
1.592062003995806
 30
0.0
 10
2.178381452245149
 20
1.592062003995806
 30
0.0
 10
2.146458286313241
 20
1.511181441880252
 30
0.0
 10
2.146458286313241
 20
1.511181441880252
 30
0.0
 10
2.146458286313241
 20
1.511181441880252
 30
0.0
 10
2.168499298995862
 20
1.486669890885322
 30
0.0
 10
2.168499298995862
 20
1.486669890885322
 30
0.0
 10
2.168499298995862
 20
1.486669890885322
 30
0.0
 10
2.143987748000907
 20
1.346916926433727
 30
0.0
 10
2.163623928177407
 20
1.310151242586496
 30
0.0
 10
2.163623928177407
 20
1.310151242586496
 30
0.0
 10
2.12441727363062
 20
1.234178904192478
 30
0.0
 10
2.131763182761409
 20
1.194909829129882
 30
0.0
 10
2.131763182761409
 20
1.194909829129882
 30
0.0
 10
2.161186242768204
 20
1.091955401428574
 30
0.0
 10
2.15380419544403
 20
1.03314541960847
 30
0.0
 10
2.15380419544403
 20
1.03314541960847
 30
0.0
 10
2.15380419544403
 20
0.9620517373231853
 30
0.0
 10
2.166094466489741
 20
0.9522648574928906
 30
0.0
 10
2.166094466489741
 20
0.9522648574928906
 30
0.0
 10
2.148928824625575
 20
0.9276908859820498
 30
0.0
 10
2.170969837308196
 20
0.9056498732994795
 30
0.0
 10
2.170969837308196
 20
0.9056498732994795
 30
0.0
 10
2.185694508472806
 20
0.8419316677577374
 30
0.0
 10
2.18078628475127
 20
0.8198578021720599
 30
0.0
 10
2.18078628475127
 20
0.8198578021720599
 30
0.0
 10
2.163623928177407
 20
0.7879674891432842
 30
0.0
 10
2.151366510034828
 20
0.7830921183248291
 30
0.0
 10
2.151366510034828
 20
0.7830921183248291
 30
0.0
 10
2.17344037562048
 20
0.729127939710275
 30
0.0
 10
2.17344037562048
 20
0.7070869270277046
 30
0.0
 10
2.17344037562048
 20
0.7070869270277046
 30
0.0
 10
2.148928824625575
 20
0.6310817357306052
 30
0.0
 10
2.161153389865123
 20
0.6090111554352057
 30
0.0
 10
2.161153389865123
 20
0.6090111554352057
 30
0.0
 10
2.170969837308196
 20
0.5844996044402503
 30
0.0
 10
2.170969837308196
 20
0.5844996044402503
 30
0.0
 10
2.170969837308196
 20
0.5844996044402503
 30
0.0
 10
2.15380419544403
 20
0.513369783961606
 30
0.0
 10
2.163623928177407
 20
0.4814499033200769
 30
0.0
 10
2.163623928177407
 20
0.4814499033200769
 30
0.0
 10
2.195514241206183
 20
0.3073656551402008
 30
0.0
 10
2.183194402547693
 20
0.204444080341975
 30
0.0
 10
2.183194402547693
 20
0.204444080341975
 30
0.0
 10
2.146458286313241
 20
0.1848407530685563
 30
0.0
 10
2.158745272068649
 20
0.1578290961485891
 30
0.0
 10
2.158745272068649
 20
0.1578290961485891
 30
0.0
 10
2.178381452245149
 20
0.0990191143284341
 30
0.0
 10
2.18078628475127
 20
0.0524369830381046
 30
0.0
 10
2.18078628475127
 20
0.0524369830381046
 30
0.0
 10
2.168532151898943
 20
-0.0137517608158962
 30
0.0
 10
2.156274733756314
 20
-0.030914117389759
 30
0.0
 10
2.143987748000907
 20
-0.0480797592539754
 30
0.0
 10
2.156274733756314
 20
-0.0848487283914589
 30
0.0
 10
2.156274733756314
 20
-0.0848487283914589
 30
0.0
 10
2.156274733756314
 20
-0.0848487283914589
 30
0.0
 10
2.087651589783389
 20
-0.082378190079175
 30
0.0
 10
2.087651589783389
 20
-0.1069193086868583
 30
0.0
 10
2.087651589783389
 20
-0.1069193086868583
 30
0.0
 10
2.136608985967086
 20
-0.1485636486428979
 30
0.0
 10
2.077802289437234
 20
-0.2245688399399973
 30
0.0
 10
2.077802289437234
 20
-0.2245688399399973
 30
0.0
 10
1.62212595300798
 20
-0.2343852873830454
 30
0.0
 10
1.580484898342294
 20
-0.1878327237055449
 30
0.0
 10
1.580484898342294
 20
-0.1878327237055449
 30
0.0
 10
1.529024110943181
 20
-0.1755457379501371
 30
0.0
 10
1.504479707045144
 20
-0.2000572889450925
 30
0.0
 10
1.504479707045144
 20
-0.2000572889450925
 30
0.0
 10
1.465243484885629
 20
-0.1902704091147219
 30
0.0
 10
1.465243484885629
 20
-0.1902704091147219
 30
0.0
 10
1.465243484885629
 20
-0.1902704091147219
 30
0.0
 10
1.372138357530527
 20
-0.244201734826144
 30
0.0
 10
1.372138357530527
 20
-0.244201734826144
 30
0.0
 10
1.372138357530527
 20
-0.244201734826144
 30
0.0
 10
1.325520088046788
 20
-0.244201734826144
 30
0.0
 10
1.325520088046788
 20
-0.244201734826144
 30
0.0
 10
1.325520088046788
 20
-0.244201734826144
 30
0.0
 10
1.26421000030157
 20
-0.2221311545307698
 30
0.0
 10
1.26421000030157
 20
-0.2221311545307698
 30
0.0
 10
1.26421000030157
 20
-0.2221311545307698
 30
0.0
 10
1.17107530533369
 20
-0.2343852873830454
 30
0.0
 10
1.17107530533369
 20
-0.2343852873830454
 30
0.0
 10
1.17107530533369
 20
-0.2343852873830454
 30
0.0
 10
1.141639104165682
 20
-0.2564263000656916
 30
0.0
 10
1.058301144899056
 20
-0.2000572889450925
 30
0.0
 10
1.058301144899056
 20
-0.2000572889450925
 30
0.0
 10
0.9847697772045824
 20
-0.2221311545307698
 30
0.0
 10
0.9676369882435235
 20
-0.2196606162184606
 30
0.0
 10
0.9676369882435235
 20
-0.2196606162184606
 30
0.0
 10
0.8450168127529625
 20
-0.2662756004118465
 30
0.0
 10
0.8008690815815826
 20
-0.244201734826144
 30
0.0
 10
0.8008690815815826
 20
-0.244201734826144
 30
0.0
 10
0.7494247206340484
 20
-0.2221311545307698
 30
0.0
 10
0.7346836230178598
 20
-0.2221311545307698
 30
0.0
 10
0.7346836230178598
 20
-0.2221311545307698
 30
0.0
 10
0.0570760703494418
 20
-0.2343852873830454
 30
0.0
 10
0.0570760703494418
 20
-0.2343852873830454
 30
0.0
 10
0.0570760703494418
 20
-0.2343852873830454
 30
0.0
 10
0.0105235066719034
 20
-0.1951490652235306
 30
0.0
 10
0.0129447656295775
 20
-0.1632883198075079
 30
0.0
 10
0.0129447656295775
 20
-0.1632883198075079
 30
0.0
 10
-0.0507865810733645
 20
-0.1485636486428979
 30
0.0
 10
-0.0483324692125962
 20
-0.1289603213695298
 30
0.0
 10
-0.0483324692125962
 20
-0.1289603213695298
 30
0.0
 10
-0.0483324692125962
 20
-0.0603043244934977
 30
0.0
 10
-0.0483324692125962
 20
-0.0603043244934977
 30
0.0
 10
-0.0483324692125962
 20
-0.0603043244934977
 30
0.0
 10
-0.0728440202075136
 20
-0.0137517608158962
 30
0.0
 10
-0.0998261095147781
 20
0.0009761956390169
 30
0.0
 10
-0.0998261095147781
 20
0.0009761956390169
 30
0.0
 10
-0.1464115260953981
 20
0.0328008028616296
 30
0.0
 10
-0.1316835696404471
 20
0.0990191143284341
 30
0.0
 10
-0.1316835696404471
 20
0.0990191143284341
 30
0.0
 10
-0.1193965838850646
 20
0.1848736059716632
 30
0.0
 10
-0.1047179067847613
 20
0.1848736059716632
 30
0.0
 10
-0.1047179067847613
 20
0.1848736059716632
 30
0.0
 10
-0.1292294577796787
 20
0.2191391838938064
 30
0.0
 10
-0.1365950786523247
 20
0.233863855058467
 30
0.0
 10
-0.1365950786523247
 20
0.233863855058467
 30
0.0
 10
-0.1316835696404471
 20
0.2804492716390743
 30
0.0
 10
-0.1316835696404471
 20
0.2804492716390743
 30
0.0
 10
-0.1316835696404471
 20
0.2804492716390743
 30
0.0
 10
-0.1071884450970704
 20
0.4079448179480652
 30
0.0
 10
-0.1169917513789313
 20
0.4373678779548603
 30
0.0
 10
-0.1169917513789313
 20
0.4373678779548603
 30
0.0
 10
-0.102263794923993
 20
0.5010499453031167
 30
0.0
 10
-0.1145212130665969
 20
0.5402894527529851
 30
0.0
 10
-0.1145212130665969
 20
0.5402894527529851
 30
0.0
 10
-0.1341541079527688
 20
0.5918126606679582
 30
0.0
 10
-0.1218835486489272
 20
0.62614394439629
 30
0.0
 10
-0.1218835486489272
 20
0.62614394439629
 30
0.0
 10
-0.1169917513789313
 20
0.6849177880230096
 30
0.0
 10
-0.119413010336618
 20
0.6971752061656641
 30
0.0
 10
-0.119413010336618
 20
0.6971752061656641
 30
0.0
 10
-0.0973391447509029
 20
0.7413853578529547
 30
0.0
 10
-0.102263794923993
 20
0.7732099650755168
 30
0.0
 10
-0.1072048715486112
 20
0.8050674252012615
 30
0.0
 10
-0.1341376815012407
 20
0.8736938544644898
 30
0.0
 10
-0.1169917513789313
 20
0.8982382583625268
 30
0.0
 10
-0.0998261095147781
 20
0.9227498093574569
 30
0.0
 10
-0.1096294157966011
 20
0.9423531366308502
 30
0.0
 10
-0.1169917513789313
 20
0.9766811350688284
 30
0.0
 10
-0.1169917513789313
 20
0.9766811350688284
 30
0.0
 10
-0.1292294577796787
 20
1.042866593632551
 30
0.0
 10
-0.1145212130665969
 20
1.055153579387933
 30
0.0
 10
-0.1145212130665969
 20
1.055153579387933
 30
0.0
 10
-0.0998261095147781
 20
1.089419157310077
 30
0.0
 10
-0.0826473264893871
 20
1.089419157310077
 30
0.0
 10
-0.0826473264893871
 20
1.089419157310077
 30
0.0
 10
-0.0973719976539971
 20
1.221888633146818
 30
0.0
 10
-0.087539123759383
 20
1.268441196824344
 30
0.0
 10
-0.087539123759383
 20
1.268441196824344
 30
0.0
 10
-0.1096294157966011
 20
1.334662793581426
 30
0.0
 10
-0.1145212130665969
 20
1.342041555615272
 30
0.0
 10
-0.1145212130665969
 20
1.342041555615272
 30
0.0
 10
-0.0949178857932162
 20
1.371428477428682
 30
0.0
 10
-0.0949178857932162
 20
1.371428477428682
 30
0.0
 10
-0.0949178857932162
 20
1.371428477428682
 30
0.0
 10
-0.1243705134127771
 20
1.459654948675001
 30
0.0
 10
-0.119413010336618
 20
1.513619127289504
 30
0.0
 10
-0.119413010336618
 20
1.513619127289504
 30
0.0
 10
-0.1193965838850646
 20
1.550388096427038
 30
0.0
 10
-0.1292294577796787
 20
1.562642229279314
 30
0.0
 10
-0.1292294577796787
 20
1.562642229279314
 30
0.0
 10
-0.1316835696404471
 20
1.596970227717368
 30
0.0
 10
-0.1316835696404471
 20
1.596970227717368
 30
0.0
 10
-0.1316835696404471
 20
1.596970227717368
 30
0.0
 10
-0.1169917513789313
 20
1.611665331269225
 30
0.0
 10
-0.1169917513789313
 20
1.611665331269225
 30
0.0
 10
-0.1169917513789313
 20
1.611665331269225
 30
0.0
 10
-0.1145212130665969
 20
1.6313015114457
 30
0.0
 10
-0.1145212130665969
 20
1.6313015114457
 30
0.0
 10
-0.1145212130665969
 20
1.6313015114457
 30
0.0
 10
-0.1439574142346297
 20
1.702395193730896
 30
0.0
 10
-0.1145212130665969
 20
1.756359372345438
 30
0.0
 10
-0.1145212130665969
 20
1.756359372345438
 30
0.0
 10
-0.0826473264893871
 20
1.807820159744526
 30
0.0
 10
-0.102263794923993
 20
1.869163100392875
 30
0.0
 10
-0.102263794923993
 20
1.869163100392875
 30
0.0
 10
-0.1316835696404471
 20
1.950076430380527
 30
0.0
 10
-0.1096294157966011
 20
2.004040607631774
 30
0.0
 10
-0.1096294157966011
 20
2.004040607631774
 30
0.0
 10
-0.1193965838850646
 20
2.033427528702759
 30
0.0
 10
-0.1267753459189104
 20
2.055501393730815
 30
0.0
 10
-0.1267753459189104
 20
2.055501393730815
 30
0.0
 10
-0.1365950786523247
 20
2.094737614899195
 30
0.0
 10
-0.1292294577796787
 20
2.111903256329722
 30
0.0
 10
-0.1292294577796787
 20
2.111903256329722
 30
0.0
 10
-0.1390491905130931
 20
2.217278940326637
 30
0.0
 10
-0.1390491905130931
 20
2.217278940326637
 30
0.0
 10
-0.1390491905130931
 20
2.217278940326637
 30
0.0
 10
-0.1385826792892178
 20
2.219749478576545
 30
0.0
 10
-0.1385826792892178
 20
2.219749478576545
 30
0.0
 10
-0.1385826792892178
 20
2.219749478576545
 30
0.0
 10
-0.1189793520158244
 20
2.212387143180219
 30
0.0
 10
-0.1189793520158244
 20
2.212387143180219
 30
0.0
 10
-0.1189793520158244
 20
2.212387143180219
 30
0.0
 10
-0.0993464571296525
 20
2.239352805354719
 30
0.0
 10
-0.0993464571296525
 20
2.239352805354719
 30
0.0
 10
-0.0993464571296525
 20
2.239352805354719
 30
0.0
 10
-0.0822136681685935
 20
2.241790490702366
 30
0.0
 10
-0.0625774879921058
 20
2.232020037570413
 30
0.0
 10
-0.0429741607187124
 20
2.222187163924192
 30
0.0
 10
-0.03561182513642
 20
2.232020037570413
 30
0.0
 10
-0.0233741187356347
 20
2.232020037570413
 30
0.0
 10
-0.0233741187356347
 20
2.232020037570413
 30
0.0
 10
0.0134112768534654
 20
2.212387143180219
 30
0.0
 10
0.0281195215665346
 20
2.229533072869394
 30
0.0
 10
0.0281195215665346
 20
2.229533072869394
 30
0.0
 10
0.062447520004538
 20
2.234490575820321
 30
0.0
 10
0.0722672527379271
 20
2.229533072869394
 30
0.0
 10
0.0722672527379271
 20
2.229533072869394
 30
0.0
 10
0.1139247338551665
 20
2.217390640194328
 30
0.0
 10
0.128619837406998
 20
2.222187163924192
 30
0.0
 10
0.1317802866841981
 20
2.223199033313777
 30
0.0
 10
0.1537720200121966
 20
2.223967883176719
 30
0.0
 10
0.1905409891497432
 20
2.224496722953012
 30
0.0
 10
0.1905409891497432
 20
2.224496722953012
 30
0.0
 10
0.1998285048530685
 20
2.116394248068571
 30
0.0
 10
0.1859185856850445
 20
2.093229666685488
 30
0.0
 10
0.1719955253558333
 20
2.070065085302404
 30
0.0
 10
0.162740862555577
 20
2.046900503919333
 30
0.0
 10
0.162740862555577
 20
2.014435265906614
 30
0.0
 10
0.162740862555577
 20
2.014435265906614
 30
0.0
 10
0.2090995941048656
 20
1.870670965619612
 30
0.0
 10
0.2044969023820739
 20
1.824312317095341
 30
0.0
 10
0.2044969023820739
 20
1.824312317095341
 30
0.0
 10
0.213767991633871
 20
1.777950300255699
 30
0.0
 10
0.213767991633871
 20
1.777950300255699
 30
0.0
 10
0.213767991633871
 20
1.777950300255699
 30
0.0
 10
0.1905409891497432
 20
1.699090191680145
 30
0.0
 10
0.1905409891497432
 20
1.699090191680145
 30
0.0
 10
0.1905409891497432
 20
1.699090191680145
 30
0.0
 10
0.1905574156012714
 20
1.666654520460092
 30
0.0
 10
0.2183706833567006
 20
1.652698607227724
 30
0.0
 10
0.2183706833567006
 20
1.652698607227724
 30
0.0
 10
0.2090995941048656
 20
1.550644349071136
 30
0.0
 10
0.195209386678736
 20
1.513619127289504
 30
0.0
 10
0.195209386678736
 20
1.513619127289504
 30
0.0
 10
0.241584544679578
 20
1.379129197912789
 30
0.0
 10
0.3064887400228018
 20
1.374506794448128
 30
0.0
 10
0.3064887400228018
 20
1.374506794448128
 30
0.0
 10
0.3203953739005227
 20
1.346660673789655
 30
0.0
 10
0.3203953739005227
 20
1.346660673789655
 30
0.0
 10
0.3203953739005227
 20
1.346660673789655
 30
0.0
 10
0.3852995692437338
 20
1.379129197912789
 30
0.0
 10
0.4270391826187153
 20
1.36982525575791
 30
0.0
 10
0.4270391826187153
 20
1.36982525575791
 30
0.0
 10
0.5615291119953806
 20
1.30495391331778
 30
0.0
 10
0.5800745757893032
 20
1.309540178589056
 30
0.0
 10
0.5986660336475199
 20
1.314192149666496
 30
0.0
 10
0.7145973580690503
 20
1.342071123228101
 30
0.0
 10
0.8119536510839047
 20
1.309540178589056
 30
0.0
 10
0.8119536510839047
 20
1.309540178589056
 30
0.0
 10
1.271043404144115
 20
1.300269089337259
 30
0.0
 10
1.271043404144115
 20
1.300269089337259
 30
0.0
 10
1.271043404144115
 20
1.300269089337259
 30
0.0
 10
1.373068094687924
 20
1.328085642382903
 30
0.0
 10
1.373068094687924
 20
1.328085642382903
 30
0.0
 10
1.373068094687924
 20
1.328085642382903
 30
0.0
 10
1.405503765908027
 20
1.30495391331778
 30
0.0
 10
1.433320318953772
 20
1.30495391331778
 30
0.0
 10
1.433320318953772
 20
1.30495391331778
 30
0.0
 10
1.521451516781123
 20
1.323496091821374
 30
0.0
 10
1.521451516781123
 20
1.323496091821374
 30
0.0
 10
1.521451516781123
 20
1.323496091821374
 30
0.0
 10
1.614201832782833
 20
1.323463238918268
 30
0.0
 10
1.646637504002885
 20
1.360550881215835
 30
0.0
 10
1.646637504002885
 20
1.360550881215835
 30
0.0
 10
1.720845641501
 20
1.351279791963987
 30
0.0
 10
1.744043076372387
 20
1.337419152150611
 30
0.0
 10
1.744043076372387
 20
1.337419152150611
 30
0.0
 10
1.827489450219167
 20
1.328085642382903
 30
0.0
 10
1.855306003264912
 20
1.379129197912789
 30
0.0
 10
1.855306003264912
 20
1.379129197912789
 30
0.0
 10
1.87385146705886
 20
1.508934303308933
 30
0.0
 10
1.87385146705886
 20
1.508934303308933
 30
0.0
 10
1.87385146705886
 20
1.508934303308933
 30
0.0
 10
1.846002061110033
 20
1.615610964930232
 30
0.0
 10
1.846002061110033
 20
1.615610964930232
 30
0.0
 10
1.846002061110033
 20
1.615610964930232
 30
0.0
 10
1.878503438136249
 20
1.671276923924753
 30
0.0
 10
1.878503438136249
 20
1.671276923924753
 30
0.0
 10
1.878503438136249
 20
1.671276923924753
 30
0.0
 10
1.864547524903931
 20
1.750071326694144
 30
0.0
 10
1.864547524903931
 20
1.750071326694144
 30
0.0
 10
1.864547524903931
 20
1.750071326694144
 30
0.0
 10
1.878503438136249
 20
1.782539850817278
 30
0.0
 10
1.878503438136249
 20
1.782539850817278
 30
0.0
 10
1.878503438136249
 20
1.782539850817278
 30
0.0
 10
1.850686885090554
 20
1.889183576042771
 30
0.0
 10
1.887774527388096
 20
1.944846248340809
 30
0.0
 10
1.887774527388096
 20
1.944846248340809
 30
0.0
 10
1.841445363451586
 20
2.056142025324864
 30
0.0
 10
1.841445363451586
 20
2.056142025324864
 30
0.0
 10
1.841445363451586
 20
2.056142025324864
 30
0.0
 10
1.832141421296657
 20
2.16281868425128
 30
0.0
 10
1.832141421296657
 20
2.16281868425128
 30
0.0
 10
1.832141421296657
 20
2.16281868425128
 30
0.0
 10
1.844014460473166
 20
2.217278940326637
 30
0.0
 10
1.844014460473166
 20
2.217278940326637
 30
0.0
  0
HATCH
  5
7E
330
79
100
AcDbEntity
  8
Layer 1
 62
    33
420
 13603936
440
 33554687
100
AcDbHatch
 10
0.0
 20
0.0
 30
0.0
210
0.0
220
0.0
230
1.0
  2
SOLID
 70
     1
 71
     1
 91
        1
 92
        1
 93
        1
 72
     4
 94
        3
 73
     0
 74
     0
 95
      335
 96
      331
 40
0.0
 40
0.0
 40
0.0
 40
0.0
 40
1.0
 40
1.0
 40
1.0
 40
2.0
 40
2.0
 40
2.0
 40
3.0
 40
3.0
 40
3.0
 40
4.0
 40
4.0
 40
4.0
 40
5.0
 40
5.0
 40
5.0
 40
6.0
 40
6.0
 40
6.0
 40
7.0
 40
7.0
 40
7.0
 40
8.0
 40
8.0
 40
8.0
 40
9.0
 40
9.0
 40
9.0
 40
10.0
 40
10.0
 40
10.0
 40
11.0
 40
11.0
 40
11.0
 40
12.0
 40
12.0
 40
12.0
 40
13.0
 40
13.0
 40
13.0
 40
14.0
 40
14.0
 40
14.0
 40
15.0
 40
15.0
 40
15.0
 40
16.0
 40
16.0
 40
16.0
 40
17.0
 40
17.0
 40
17.0
 40
18.0
 40
18.0
 40
18.0
 40
19.0
 40
19.0
 40
19.0
 40
20.0
 40
20.0
 40
20.0
 40
21.0
 40
21.0
 40
21.0
 40
22.0
 40
22.0
 40
22.0
 40
23.0
 40
23.0
 40
23.0
 40
24.0
 40
24.0
 40
24.0
 40
25.0
 40
25.0
 40
25.0
 40
26.0
 40
26.0
 40
26.0
 40
27.0
 40
27.0
 40
27.0
 40
28.0
 40
28.0
 40
28.0
 40
29.0
 40
29.0
 40
29.0
 40
30.0
 40
30.0
 40
30.0
 40
31.0
 40
31.0
 40
31.0
 40
32.0
 40
32.0
 40
32.0
 40
33.0
 40
33.0
 40
33.0
 40
34.0
 40
34.0
 40
34.0
 40
35.0
 40
35.0
 40
35.0
 40
36.0
 40
36.0
 40
36.0
 40
37.0
 40
37.0
 40
37.0
 40
38.0
 40
38.0
 40
38.0
 40
39.0
 40
39.0
 40
39.0
 40
40.0
 40
40.0
 40
40.0
 40
41.0
 40
41.0
 40
41.0
 40
42.0
 40
42.0
 40
42.0
 40
43.0
 40
43.0
 40
43.0
 40
44.0
 40
44.0
 40
44.0
 40
45.0
 40
45.0
 40
45.0
 40
46.0
 40
46.0
 40
46.0
 40
47.0
 40
47.0
 40
47.0
 40
48.0
 40
48.0
 40
48.0
 40
49.0
 40
49.0
 40
49.0
 40
50.0
 40
50.0
 40
50.0
 40
51.0
 40
51.0
 40
51.0
 40
52.0
 40
52.0
 40
52.0
 40
53.0
 40
53.0
 40
53.0
 40
54.0
 40
54.0
 40
54.0
 40
55.0
 40
55.0
 40
55.0
 40
56.0
 40
56.0
 40
56.0
 40
57.0
 40
57.0
 40
57.0
 40
58.0
 40
58.0
 40
58.0
 40
59.0
 40
59.0
 40
59.0
 40
60.0
 40
60.0
 40
60.0
 40
61.0
 40
61.0
 40
61.0
 40
62.0
 40
62.0
 40
62.0
 40
63.0
 40
63.0
 40
63.0
 40
64.0
 40
64.0
 40
64.0
 40
65.0
 40
65.0
 40
65.0
 40
66.0
 40
66.0
 40
66.0
 40
67.0
 40
67.0
 40
67.0
 40
68.0
 40
68.0
 40
68.0
 40
69.0
 40
69.0
 40
69.0
 40
70.0
 40
70.0
 40
70.0
 40
71.0
 40
71.0
 40
71.0
 40
72.0
 40
72.0
 40
72.0
 40
73.0
 40
73.0
 40
73.0
 40
74.0
 40
74.0
 40
74.0
 40
75.0
 40
75.0
 40
75.0
 40
76.0
 40
76.0
 40
76.0
 40
77.0
 40
77.0
 40
77.0
 40
78.0
 40
78.0
 40
78.0
 40
79.0
 40
79.0
 40
79.0
 40
80.0
 40
80.0
 40
80.0
 40
81.0
 40
81.0
 40
81.0
 40
82.0
 40
82.0
 40
82.0
 40
83.0
 40
83.0
 40
83.0
 40
84.0
 40
84.0
 40
84.0
 40
85.0
 40
85.0
 40
85.0
 40
86.0
 40
86.0
 40
86.0
 40
87.0
 40
87.0
 40
87.0
 40
88.0
 40
88.0
 40
88.0
 40
89.0
 40
89.0
 40
89.0
 40
90.0
 40
90.0
 40
90.0
 40
91.0
 40
91.0
 40
91.0
 40
92.0
 40
92.0
 40
92.0
 40
93.0
 40
93.0
 40
93.0
 40
94.0
 40
94.0
 40
94.0
 40
95.0
 40
95.0
 40
95.0
 40
96.0
 40
96.0
 40
96.0
 40
97.0
 40
97.0
 40
97.0
 40
98.0
 40
98.0
 40
98.0
 40
99.0
 40
99.0
 40
99.0
 40
100.0
 40
100.0
 40
100.0
 40
101.0
 40
101.0
 40
101.0
 40
102.0
 40
102.0
 40
102.0
 40
103.0
 40
103.0
 40
103.0
 40
104.0
 40
104.0
 40
104.0
 40
105.0
 40
105.0
 40
105.0
 40
106.0
 40
106.0
 40
106.0
 40
107.0
 40
107.0
 40
107.0
 40
108.0
 40
108.0
 40
108.0
 40
109.0
 40
109.0
 40
109.0
 40
110.0
 40
110.0
 40
110.0
 40
110.0
 10
1.844014460473166
 20
2.217278940326637
 10
1.844014460473166
 20
2.217278940326637
 10
1.851360369603904
 20
2.256482308592744
 10
1.927395128513833
 20
2.222187163924192
 10
1.927395128513833
 20
2.222187163924192
 10
1.978826348300066
 20
2.219749478576545
 10
2.015657737953511
 20
2.249152826098666
 10
2.015657737953511
 20
2.249152826098666
 10
2.049952883488458
 20
2.222187163924192
 10
2.049952883488458
 20
2.222187163924192
 10
2.049952883488458
 20
2.222187163924192
 10
2.081810343614102
 20
2.227078961070598
 10
2.103884209199804
 20
2.214791975625606
 10
2.103884209199804
 20
2.214791975625606
 10
2.129292644449075
 20
2.239352805354719
 10
2.158745272068649
 20
2.224624941238491
 10
2.158745272068649
 20
2.224624941238491
 10
2.161186242768204
 20
2.155998421742234
 10
2.178381452245149
 20
2.131473730205622
 10
2.195514241206183
 20
2.106929326927658
 10
2.185694508472806
 20
2.070193211621219
 10
2.185694508472806
 20
2.070193211621219
 10
2.185694508472806
 20
2.070193211621219
 10
2.143987748000907
 20
1.962330562923271
 10
2.148928824625575
 20
1.898582791379188
 10
2.148928824625575
 20
1.898582791379188
 10
2.161153389865123
 20
1.874038388101199
 10
2.161153389865123
 20
1.874038388101199
 10
2.161153389865123
 20
1.874038388101199
 10
2.178381452245149
 20
1.592062003995806
 10
2.178381452245149
 20
1.592062003995806
 10
2.178381452245149
 20
1.592062003995806
 10
2.146458286313241
 20
1.511181441880252
 10
2.146458286313241
 20
1.511181441880252
 10
2.146458286313241
 20
1.511181441880252
 10
2.168499298995862
 20
1.486669890885322
 10
2.168499298995862
 20
1.486669890885322
 10
2.168499298995862
 20
1.486669890885322
 10
2.143987748000907
 20
1.346916926433727
 10
2.163623928177407
 20
1.310151242586496
 10
2.163623928177407
 20
1.310151242586496
 10
2.12441727363062
 20
1.234178904192478
 10
2.131763182761409
 20
1.194909829129882
 10
2.131763182761409
 20
1.194909829129882
 10
2.161186242768204
 20
1.091955401428574
 10
2.15380419544403
 20
1.03314541960847
 10
2.15380419544403
 20
1.03314541960847
 10
2.15380419544403
 20
0.9620517373231853
 10
2.166094466489741
 20
0.9522648574928906
 10
2.166094466489741
 20
0.9522648574928906
 10
2.148928824625575
 20
0.9276908859820498
 10
2.170969837308196
 20
0.9056498732994795
 10
2.170969837308196
 20
0.9056498732994795
 10
2.185694508472806
 20
0.8419316677577374
 10
2.18078628475127
 20
0.8198578021720599
 10
2.18078628475127
 20
0.8198578021720599
 10
2.163623928177407
 20
0.7879674891432842
 10
2.151366510034828
 20
0.7830921183248291
 10
2.151366510034828
 20
0.7830921183248291
 10
2.17344037562048
 20
0.729127939710275
 10
2.17344037562048
 20
0.7070869270277046
 10
2.17344037562048
 20
0.7070869270277046
 10
2.148928824625575
 20
0.6310817357306052
 10
2.161153389865123
 20
0.6090111554352057
 10
2.161153389865123
 20
0.6090111554352057
 10
2.170969837308196
 20
0.5844996044402503
 10
2.170969837308196
 20
0.5844996044402503
 10
2.170969837308196
 20
0.5844996044402503
 10
2.15380419544403
 20
0.513369783961606
 10
2.163623928177407
 20
0.4814499033200769
 10
2.163623928177407
 20
0.4814499033200769
 10
2.195514241206183
 20
0.3073656551402008
 10
2.183194402547693
 20
0.204444080341975
 10
2.183194402547693
 20
0.204444080341975
 10
2.146458286313241
 20
0.1848407530685563
 10
2.158745272068649
 20
0.1578290961485891
 10
2.158745272068649
 20
0.1578290961485891
 10
2.178381452245149
 20
0.0990191143284341
 10
2.18078628475127
 20
0.0524369830381046
 10
2.18078628475127
 20
0.0524369830381046
 10
2.168532151898943
 20
-0.0137517608158962
 10
2.156274733756314
 20
-0.030914117389759
 10
2.143987748000907
 20
-0.0480797592539754
 10
2.156274733756314
 20
-0.0848487283914589
 10
2.156274733756314
 20
-0.0848487283914589
 10
2.156274733756314
 20
-0.0848487283914589
 10
2.087651589783389
 20
-0.082378190079175
 10
2.087651589783389
 20
-0.1069193086868583
 10
2.087651589783389
 20
-0.1069193086868583
 10
2.136608985967086
 20
-0.1485636486428979
 10
2.077802289437234
 20
-0.2245688399399973
 10
2.077802289437234
 20
-0.2245688399399973
 10
1.62212595300798
 20
-0.2343852873830454
 10
1.580484898342294
 20
-0.1878327237055449
 10
1.580484898342294
 20
-0.1878327237055449
 10
1.529024110943181
 20
-0.1755457379501371
 10
1.504479707045144
 20
-0.2000572889450925
 10
1.504479707045144
 20
-0.2000572889450925
 10
1.465243484885629
 20
-0.1902704091147219
 10
1.465243484885629
 20
-0.1902704091147219
 10
1.465243484885629
 20
-0.1902704091147219
 10
1.372138357530527
 20
-0.244201734826144
 10
1.372138357530527
 20
-0.244201734826144
 10
1.372138357530527
 20
-0.244201734826144
 10
1.325520088046788
 20
-0.244201734826144
 10
1.325520088046788
 20
-0.244201734826144
 10
1.325520088046788
 20
-0.244201734826144
 10
1.26421000030157
 20
-0.2221311545307698
 10
1.26421000030157
 20
-0.2221311545307698
 10
1.26421000030157
 20
-0.2221311545307698
 10
1.17107530533369
 20
-0.2343852873830454
 10
1.17107530533369
 20
-0.2343852873830454
 10
1.17107530533369
 20
-0.2343852873830454
 10
1.141639104165682
 20
-0.2564263000656916
 10
1.058301144899056
 20
-0.2000572889450925
 10
1.058301144899056
 20
-0.2000572889450925
 10
0.9847697772045824
 20
-0.2221311545307698
 10
0.9676369882435235
 20
-0.2196606162184606
 10
0.9676369882435235
 20
-0.2196606162184606
 10
0.8450168127529625
 20
-0.2662756004118465
 10
0.8008690815815826
 20
-0.244201734826144
 10
0.8008690815815826
 20
-0.244201734826144
 10
0.7494247206340484
 20
-0.2221311545307698
 10
0.7346836230178598
 20
-0.2221311545307698
 10
0.7346836230178598
 20
-0.2221311545307698
 10
0.0570760703494418
 20
-0.2343852873830454
 10
0.0570760703494418
 20
-0.2343852873830454
 10
0.0570760703494418
 20
-0.2343852873830454
 10
0.0105235066719034
 20
-0.1951490652235306
 10
0.0129447656295775
 20
-0.1632883198075079
 10
0.0129447656295775
 20
-0.1632883198075079
 10
-0.0507865810733645
 20
-0.1485636486428979
 10
-0.0483324692125962
 20
-0.1289603213695298
 10
-0.0483324692125962
 20
-0.1289603213695298
 10
-0.0483324692125962
 20
-0.0603043244934977
 10
-0.0483324692125962
 20
-0.0603043244934977
 10
-0.0483324692125962
 20
-0.0603043244934977
 10
-0.0728440202075136
 20
-0.0137517608158962
 10
-0.0998261095147781
 20
0.0009761956390169
 10
-0.0998261095147781
 20
0.0009761956390169
 10
-0.1464115260953981
 20
0.0328008028616296
 10
-0.1316835696404471
 20
0.0990191143284341
 10
-0.1316835696404471
 20
0.0990191143284341
 10
-0.1193965838850646
 20
0.1848736059716632
 10
-0.1047179067847613
 20
0.1848736059716632
 10
-0.1047179067847613
 20
0.1848736059716632
 10
-0.1292294577796787
 20
0.2191391838938064
 10
-0.1365950786523247
 20
0.233863855058467
 10
-0.1365950786523247
 20
0.233863855058467
 10
-0.1316835696404471
 20
0.2804492716390743
 10
-0.1316835696404471
 20
0.2804492716390743
 10
-0.1316835696404471
 20
0.2804492716390743
 10
-0.1071884450970704
 20
0.4079448179480652
 10
-0.1169917513789313
 20
0.4373678779548603
 10
-0.1169917513789313
 20
0.4373678779548603
 10
-0.102263794923993
 20
0.5010499453031167
 10
-0.1145212130665969
 20
0.5402894527529851
 10
-0.1145212130665969
 20
0.5402894527529851
 10
-0.1341541079527688
 20
0.5918126606679582
 10
-0.1218835486489272
 20
0.62614394439629
 10
-0.1218835486489272
 20
0.62614394439629
 10
-0.1169917513789313
 20
0.6849177880230096
 10
-0.119413010336618
 20
0.6971752061656641
 10
-0.119413010336618
 20
0.6971752061656641
 10
-0.0973391447509029
 20
0.7413853578529547
 10
-0.102263794923993
 20
0.7732099650755168
 10
-0.1072048715486112
 20
0.8050674252012615
 10
-0.1341376815012407
 20
0.8736938544644898
 10
-0.1169917513789313
 20
0.8982382583625268
 10
-0.0998261095147781
 20
0.9227498093574569
 10
-0.1096294157966011
 20
0.9423531366308502
 10
-0.1169917513789313
 20
0.9766811350688284
 10
-0.1169917513789313
 20
0.9766811350688284
 10
-0.1292294577796787
 20
1.042866593632551
 10
-0.1145212130665969
 20
1.055153579387933
 10
-0.1145212130665969
 20
1.055153579387933
 10
-0.0998261095147781
 20
1.089419157310077
 10
-0.0826473264893871
 20
1.089419157310077
 10
-0.0826473264893871
 20
1.089419157310077
 10
-0.0973719976539971
 20
1.221888633146818
 10
-0.087539123759383
 20
1.268441196824344
 10
-0.087539123759383
 20
1.268441196824344
 10
-0.1096294157966011
 20
1.334662793581426
 10
-0.1145212130665969
 20
1.342041555615272
 10
-0.1145212130665969
 20
1.342041555615272
 10
-0.0949178857932162
 20
1.371428477428682
 10
-0.0949178857932162
 20
1.371428477428682
 10
-0.0949178857932162
 20
1.371428477428682
 10
-0.1243705134127771
 20
1.459654948675001
 10
-0.119413010336618
 20
1.513619127289504
 10
-0.119413010336618
 20
1.513619127289504
 10
-0.1193965838850646
 20
1.550388096427038
 10
-0.1292294577796787
 20
1.562642229279314
 10
-0.1292294577796787
 20
1.562642229279314
 10
-0.1316835696404471
 20
1.596970227717368
 10
-0.1316835696404471
 20
1.596970227717368
 10
-0.1316835696404471
 20
1.596970227717368
 10
-0.1169917513789313
 20
1.611665331269225
 10
-0.1169917513789313
 20
1.611665331269225
 10
-0.1169917513789313
 20
1.611665331269225
 10
-0.1145212130665969
 20
1.6313015114457
 10
-0.1145212130665969
 20
1.6313015114457
 10
-0.1145212130665969
 20
1.6313015114457
 10
-0.1439574142346297
 20
1.702395193730896
 10
-0.1145212130665969
 20
1.756359372345438
 10
-0.1145212130665969
 20
1.756359372345438
 10
-0.0826473264893871
 20
1.807820159744526
 10
-0.102263794923993
 20
1.869163100392875
 10
-0.102263794923993
 20
1.869163100392875
 10
-0.1316835696404471
 20
1.950076430380527
 10
-0.1096294157966011
 20
2.004040607631774
 10
-0.1096294157966011
 20
2.004040607631774
 10
-0.1193965838850646
 20
2.033427528702759
 10
-0.1267753459189104
 20
2.055501393730815
 10
-0.1267753459189104
 20
2.055501393730815
 10
-0.1365950786523247
 20
2.094737614899195
 10
-0.1292294577796787
 20
2.111903256329722
 10
-0.1292294577796787
 20
2.111903256329722
 10
-0.1390491905130931
 20
2.217278940326637
 10
-0.1390491905130931
 20
2.217278940326637
 10
-0.1390491905130931
 20
2.217278940326637
 10
-0.1385826792892178
 20
2.219749478576545
 10
-0.1385826792892178
 20
2.219749478576545
 10
-0.1385826792892178
 20
2.219749478576545
 10
-0.1189793520158244
 20
2.212387143180219
 10
-0.1189793520158244
 20
2.212387143180219
 10
-0.1189793520158244
 20
2.212387143180219
 10
-0.0993464571296525
 20
2.239352805354719
 10
-0.0993464571296525
 20
2.239352805354719
 10
-0.0993464571296525
 20
2.239352805354719
 10
-0.0822136681685935
 20
2.241790490702366
 10
-0.0625774879921058
 20
2.232020037570413
 10
-0.0429741607187124
 20
2.222187163924192
 10
-0.03561182513642
 20
2.232020037570413
 10
-0.0233741187356347
 20
2.232020037570413
 10
-0.0233741187356347
 20
2.232020037570413
 10
0.0134112768534654
 20
2.212387143180219
 10
0.0281195215665346
 20
2.229533072869394
 10
0.0281195215665346
 20
2.229533072869394
 10
0.062447520004538
 20
2.234490575820321
 10
0.0722672527379271
 20
2.229533072869394
 10
0.0722672527379271
 20
2.229533072869394
 10
0.1139247338551665
 20
2.217390640194328
 10
0.128619837406998
 20
2.222187163924192
 10
0.1317802866841981
 20
2.223199033313777
 10
0.1537720200121966
 20
2.223967883176719
 10
0.1905409891497432
 20
2.224496722953012
 10
0.1905409891497432
 20
2.224496722953012
 10
0.1998285048530685
 20
2.116394248068571
 10
0.1859185856850445
 20
2.093229666685488
 10
0.1719955253558333
 20
2.070065085302404
 10
0.162740862555577
 20
2.046900503919333
 10
0.162740862555577
 20
2.014435265906614
 10
0.162740862555577
 20
2.014435265906614
 10
0.2090995941048656
 20
1.870670965619612
 10
0.2044969023820739
 20
1.824312317095341
 10
0.2044969023820739
 20
1.824312317095341
 10
0.213767991633871
 20
1.777950300255699
 10
0.213767991633871
 20
1.777950300255699
 10
0.213767991633871
 20
1.777950300255699
 10
0.1905409891497432
 20
1.699090191680145
 10
0.1905409891497432
 20
1.699090191680145
 10
0.1905409891497432
 20
1.699090191680145
 10
0.1905574156012714
 20
1.666654520460092
 10
0.2183706833567006
 20
1.652698607227724
 10
0.2183706833567006
 20
1.652698607227724
 10
0.2090995941048656
 20
1.550644349071136
 10
0.195209386678736
 20
1.513619127289504
 10
0.195209386678736
 20
1.513619127289504
 10
0.241584544679578
 20
1.379129197912789
 10
0.3064887400228018
 20
1.374506794448128
 10
0.3064887400228018
 20
1.374506794448128
 10
0.3203953739005227
 20
1.346660673789655
 10
0.3203953739005227
 20
1.346660673789655
 10
0.3203953739005227
 20
1.346660673789655
 10
0.3852995692437338
 20
1.379129197912789
 10
0.4270391826187153
 20
1.36982525575791
 10
0.4270391826187153
 20
1.36982525575791
 10
0.5615291119953806
 20
1.30495391331778
 10
0.5800745757893032
 20
1.309540178589056
 10
0.5986660336475199
 20
1.314192149666496
 10
0.7145973580690503
 20
1.342071123228101
 10
0.8119536510839047
 20
1.309540178589056
 10
0.8119536510839047
 20
1.309540178589056
 10
1.271043404144115
 20
1.300269089337259
 10
1.271043404144115
 20
1.300269089337259
 10
1.271043404144115
 20
1.300269089337259
 10
1.373068094687924
 20
1.328085642382903
 10
1.373068094687924
 20
1.328085642382903
 10
1.373068094687924
 20
1.328085642382903
 10
1.405503765908027
 20
1.30495391331778
 10
1.433320318953772
 20
1.30495391331778
 10
1.433320318953772
 20
1.30495391331778
 10
1.521451516781123
 20
1.323496091821374
 10
1.521451516781123
 20
1.323496091821374
 10
1.521451516781123
 20
1.323496091821374
 10
1.614201832782833
 20
1.323463238918268
 10
1.646637504002885
 20
1.360550881215835
 10
1.646637504002885
 20
1.360550881215835
 10
1.720845641501
 20
1.351279791963987
 10
1.744043076372387
 20
1.337419152150611
 10
1.744043076372387
 20
1.337419152150611
 10
1.827489450219167
 20
1.328085642382903
 10
1.855306003264912
 20
1.379129197912789
 10
1.855306003264912
 20
1.379129197912789
 10
1.87385146705886
 20
1.508934303308933
 10
1.87385146705886
 20
1.508934303308933
 10
1.87385146705886
 20
1.508934303308933
 10
1.846002061110033
 20
1.615610964930232
 10
1.846002061110033
 20
1.615610964930232
 10
1.846002061110033
 20
1.615610964930232
 10
1.878503438136249
 20
1.671276923924753
 10
1.878503438136249
 20
1.671276923924753
 10
1.878503438136249
 20
1.671276923924753
 10
1.864547524903931
 20
1.750071326694144
 10
1.864547524903931
 20
1.750071326694144
 10
1.864547524903931
 20
1.750071326694144
 10
1.878503438136249
 20
1.782539850817278
 10
1.878503438136249
 20
1.782539850817278
 10
1.878503438136249
 20
1.782539850817278
 10
1.850686885090554
 20
1.889183576042771
 10
1.887774527388096
 20
1.944846248340809
 10
1.887774527388096
 20
1.944846248340809
 10
1.841445363451586
 20
2.056142025324864
 10
1.841445363451586
 20
2.056142025324864
 10
1.841445363451586
 20
2.056142025324864
 10
1.832141421296657
 20
2.16281868425128
 10
1.832141421296657
 20
2.16281868425128
 10
1.832141421296657
 20
2.16281868425128
 10
1.844014460473166
 20
2.217278940326637
 10
1.844014460473166
 20
2.217278940326637
 97
        0
 97
        1
330
7D
 75
     2
 76
     1
 98
        1
 10
0.0
 20
0.0
450
        0
451
        0
460
0.0
461
0.0
452
        0
462
0.0
453
        0
470

  0
SPLINE
  5
7F
330
79
100
AcDbEntity
  8
Layer 1
 62
    18
420
        0
370
     0
100
AcDbSpline
210
0.0
220
0.0
230
1.0
 70
     9
 71
     3
 72
    14
 73
    10
 74
     0
 42
0.0000000001
 43
0.0000000001
 40
0.0
 40
0.0
 40
0.0
 40
0.0
 40
1.0
 40
1.0
 40
1.0
 40
2.0
 40
2.0
 40
2.0
 40
3.0
 40
3.0
 40
3.0
 40
3.0
 10
-0.0460886159316058
 20
2.155630469236939
 30
0.0
 10
-0.0460886159316058
 20
2.155630469236939
 30
0.0
 10
-0.0566278272426265
 20
2.131986235480869
 30
0.0
 10
-0.0355658310720754
 20
2.124095057785249
 30
0.0
 10
-0.0145334025143282
 20
2.116200415945235
 30
0.0
 10
0.0012491321297906
 20
2.126723290032385
 30
0.0
 10
-0.0092736527297145
 20
2.142476167172288
 30
0.0
 10
-0.019796437589207
 20
2.158278413159021
 30
0.0
 10
-0.0329507399861768
 20
2.166169680281755
 30
0.0
 10
-0.0460886159316058
 20
2.155630469236939
 30
0.0
  0
SPLINE
  5
80
330
79
100
AcDbEntity
  8
Layer 1
 62
    18
420
        0
370
     0
100
AcDbSpline
210
0.0
220
0.0
230
1.0
 70
     9
 71
     3
 72
    14
 73
    10
 74
     0
 42
0.0000000001
 43
0.0000000001
 40
0.0
 40
0.0
 40
0.0
 40
0.0
 40
1.0
 40
1.0
 40
1.0
 40
2.0
 40
2.0
 40
2.0
 40
3.0
 40
3.0
 40
3.0
 40
3.0
 10
-0.0092736527297145
 20
2.076737509751296
 30
0.0
 10
-0.0092736527297145
 20
2.076737509751296
 30
0.0
 10
-0.0408420073082425
 20
2.03990940631853
 30
0.0
 10
-0.003994191203257
 20
2.032047706807866
 30
0.0
 10
0.0327879190955274
 20
2.024186007297203
 30
0.0
 10
0.0459586479440254
 20
2.037310741749832
 30
0.0
 10
0.0380805217831848
 20
2.053093275995226
 30
0.0
 10
0.0301728280096162
 20
2.068846242628574
 30
0.0
 10
0.0091601111936875
 20
2.084632062164208
 30
0.0
 10
-0.0092736527297145
 20
2.076737509751296
 30
0.0
  0
SPLINE
  5
81
330
79
100
AcDbEntity
  8
Layer 1
 62
    18
420
        0
370
     0
100
AcDbSpline
210
0.0
220
0.0
230
1.0
 70
     9
 71
     3
 72
    14
 73
    10
 74
     0
 42
0.0000000001
 43
0.0000000001
 40
0.0
 40
0.0
 40
0.0
 40
0.0
 40
1.0
 40
1.0
 40
1.0
 40
2.0
 40
2.0
 40
2.0
 40
3.0
 40
3.0
 40
3.0
 40
3.0
 10
0.0512183977286137
 20
1.966309049386861
 30
0.0
 10
0.0512183977286137
 20
1.966309049386861
 30
0.0
 10
0.040695612869096
 20
1.945263480199526
 30
0.0
 10
0.0617280414268938
 20
1.94000044525756
 30
0.0
 10
0.082773611145904
 20
1.934740695605847
 30
0.0
 10
0.0932799695538683
 20
1.942599109826283
 30
0.0
 10
0.082773611145904
 20
1.955786264793181
 30
0.0
 10
0.0722672527379271
 20
1.968940566857857
 30
0.0
 10
0.0591129503409952
 20
1.974203601799811
 30
0.0
 10
0.0512183977286137
 20
1.966309049386861
 30
0.0
  0
SPLINE
  5
82
330
79
100
AcDbEntity
  8
Layer 1
 62
    18
420
        0
370
     0
100
AcDbSpline
210
0.0
220
0.0
230
1.0
 70
     9
 71
     3
 72
    14
 73
    10
 74
     0
 42
0.0000000001
 43
0.0000000001
 40
0.0
 40
0.0
 40
0.0
 40
0.0
 40
1.0
 40
1.0
 40
1.0
 40
2.0
 40
2.0
 40
2.0
 40
3.0
 40
3.0
 40
3.0
 40
3.0
 10
0.1196050007993234
 20
1.942697668533052
 30
0.0
 10
0.1196050007993234
 20
1.942697668533052
 30
0.0
 10
0.1116973070257169
 20
1.918954876070225
 30
0.0
 10
0.1274634152182822
 20
1.918954876070225
 30
0.0
 10
0.1432656616042323
 20
1.918954876070225
 30
0.0
 10
0.1484958437760547
 20
1.926846227637042
 30
0.0
 10
0.1459136055932251
 20
1.934740695605847
 30
0.0
 10
0.1432656616042323
 20
1.942697668533052
 30
0.0
 10
0.1327428767447019
 20
1.953154747322236
 30
0.0
 10
0.1196050007993234
 20
1.942697668533052
 30
0.0
  0
SPLINE
  5
83
330
79
100
AcDbEntity
  8
Layer 1
 62
    18
420
        0
370
     0
100
AcDbSpline
210
0.0
220
0.0
230
1.0
 70
     9
 71
     3
 72
    14
 73
    10
 74
     0
 42
0.0000000001
 43
0.0000000001
 40
0.0
 40
0.0
 40
0.0
 40
0.0
 40
1.0
 40
1.0
 40
1.0
 40
2.0
 40
2.0
 40
2.0
 40
3.0
 40
3.0
 40
3.0
 40
3.0
 10
-0.0802884880475479
 20
1.784783704098294
 30
0.0
 10
-0.0802884880475479
 20
1.784783704098294
 30
0.0
 10
-0.0855186702193578
 20
1.769001169454213
 30
0.0
 10
-0.0697657031880554
 20
1.76630394611056
 30
0.0
 10
-0.0539798832536336
 20
1.763705281476177
 30
0.0
 10
-0.0539798832536336
 20
1.76630394611056
 30
0.0
 10
-0.0539798832536336
 20
1.779491101410586
 30
0.0
 10
-0.0539798832536336
 20
1.792678256710663
 30
0.0
 10
-0.0697657031880554
 20
1.800569524032678
 30
0.0
 10
-0.0802884880475479
 20
1.784783704098294
 30
0.0
  0
SPLINE
  5
84
330
79
100
AcDbEntity
  8
Layer 1
 62
    18
420
        0
370
     0
100
AcDbSpline
210
0.0
220
0.0
230
1.0
 70
     9
 71
     3
 72
    14
 73
    10
 74
     0
 42
0.0000000001
 43
0.0000000001
 40
0.0
 40
0.0
 40
0.0
 40
0.0
 40
1.0
 40
1.0
 40
1.0
 40
2.0
 40
2.0
 40
2.0
 40
3.0
 40
3.0
 40
3.0
 40
3.0
 10
-0.0513319392646534
 20
1.650645300784668
 30
0.0
 10
-0.0513319392646534
 20
1.650645300784668
 30
0.0
 10
-0.0802884880475479
 20
1.613784343518469
 30
0.0
 10
-0.0487201334690326
 20
1.60332397917485
 30
0.0
 10
-0.0171649200517802
 20
1.592768341412263
 30
0.0
 10
-0.003994191203257
 20
1.598093797003027
 30
0.0
 10
-0.003994191203257
 20
1.613784343518469
 30
0.0
 10
-0.003994191203257
 20
1.629632583968714
 30
0.0
 10
-0.0224279551266717
 20
1.663799603181637
 30
0.0
 10
-0.0513319392646534
 20
1.650645300784668
 30
0.0
  0
SPLINE
  5
85
330
79
100
AcDbEntity
  8
Layer 1
 62
    18
420
        0
370
     0
100
AcDbSpline
210
0.0
220
0.0
230
1.0
 70
     9
 71
     3
 72
    14
 73
    10
 74
     0
 42
0.0000000001
 43
0.0000000001
 40
0.0
 40
0.0
 40
0.0
 40
0.0
 40
1.0
 40
1.0
 40
1.0
 40
2.0
 40
2.0
 40
2.0
 40
3.0
 40
3.0
 40
3.0
 40
3.0
 10
0.0275413104721515
 20
1.697969907684814
 30
0.0
 10
0.0275413104721515
 20
1.697969907684814
 30
0.0
 10
0.0170349520641872
 20
1.658539853397011
 30
0.0
 10
0.0380805217831848
 20
1.661138518031369
 30
0.0
 10
0.0591129503409952
 20
1.663799603181637
 30
0.0
 10
0.0696193087489089
 20
1.666463973622158
 30
0.0
 10
0.0591129503409952
 20
1.682246508266264
 30
0.0
 10
0.0485901654814648
 20
1.697969907684814
 30
0.0
 10
0.0459586479440254
 20
1.705861175006879
 30
0.0
 10
0.0275413104721515
 20
1.697969907684814
 30
0.0
  0
SPLINE
  5
86
330
79
100
AcDbEntity
  8
Layer 1
 62
    18
420
        0
370
     0
100
AcDbSpline
210
0.0
220
0.0
230
1.0
 70
     9
 71
     3
 72
    14
 73
    10
 74
     0
 42
0.0000000001
 43
0.0000000001
 40
0.0
 40
0.0
 40
0.0
 40
0.0
 40
1.0
 40
1.0
 40
1.0
 40
2.0
 40
2.0
 40
2.0
 40
3.0
 40
3.0
 40
3.0
 40
3.0
 10
0.1353579678306258
 20
1.56386107198394
 30
0.0
 10
0.1353579678306258
 20
1.56386107198394
 30
0.0
 10
0.1196214272508642
 20
1.542815502264956
 30
0.0
 10
0.1406177176152268
 20
1.542815502264956
 30
0.0
 10
0.1616337197214458
 20
1.542815502264956
 30
0.0
 10
0.1642783784201356
 20
1.54544701980237
 30
0.0
 10
0.1616337197214458
 20
1.555969804661925
 30
0.0
 10
0.1590514815386162
 20
1.566492589521405
 30
0.0
 10
0.1511405024747319
 20
1.56918652757473
 30
0.0
 10
0.1353579678306258
 20
1.56386107198394
 30
0.0
  0
SPLINE
  5
87
330
79
100
AcDbEntity
  8
Layer 1
 62
    18
420
        0
370
     0
100
AcDbSpline
210
0.0
220
0.0
230
1.0
 70
     9
 71
     3
 72
    14
 73
    10
 74
     0
 42
0.0000000001
 43
0.0000000001
 40
0.0
 40
0.0
 40
0.0
 40
0.0
 40
1.0
 40
1.0
 40
1.0
 40
2.0
 40
2.0
 40
2.0
 40
3.0
 40
3.0
 40
3.0
 40
3.0
 10
0.1353579678306258
 20
1.435015271358022
 30
0.0
 10
0.1353579678306258
 20
1.435015271358022
 30
0.0
 10
0.0801256671568985
 20
1.427124004035956
 30
0.0
 10
0.1116973070257169
 20
1.408709951854411
 30
0.0
 10
0.1432656616042323
 20
1.390292614382537
 30
0.0
 10
0.1564035375496612
 20
1.377138311985618
 30
0.0
 10
0.1590514815386162
 20
1.395489943651252
 30
0.0
 10
0.1616337197214458
 20
1.413969701638986
 30
0.0
 10
0.1590514815386162
 20
1.442876971067335
 30
0.0
 10
0.1353579678306258
 20
1.435015271358022
 30
0.0
  0
SPLINE
  5
88
330
79
100
AcDbEntity
  8
Layer 1
 62
    18
420
        0
370
     0
100
AcDbSpline
210
0.0
220
0.0
230
1.0
 70
     9
 71
     3
 72
    14
 73
    10
 74
     0
 42
0.0000000001
 43
0.0000000001
 40
0.0
 40
0.0
 40
0.0
 40
0.0
 40
1.0
 40
1.0
 40
1.0
 40
2.0
 40
2.0
 40
2.0
 40
3.0
 40
3.0
 40
3.0
 40
3.0
 10
0.5981371019077844
 20
1.096607372506039
 30
0.0
 10
0.5981371019077844
 20
1.096607372506039
 30
0.0
 10
0.5929069197359619
 20
1.049253197993114
 30
0.0
 10
0.6217813362611525
 20
1.05451294777769
 30
0.0
 10
0.6507543114956257
 20
1.059805550465423
 30
0.0
 10
0.6612113905489423
 20
1.06766725017466
 30
0.0
 10
0.6533529761299835
 20
1.086084587646559
 30
0.0
 10
0.6454912764207089
 20
1.104498639828079
 30
0.0
 10
0.611307830756295
 20
1.109761674903009
 30
0.0
 10
0.5981371019077844
 20
1.096607372506039
 30
0.0
  0
SPLINE
  5
89
330
79
100
AcDbEntity
  8
Layer 1
 62
    18
420
        0
370
     0
100
AcDbSpline
210
0.0
220
0.0
230
1.0
 70
     9
 71
     3
 72
    14
 73
    10
 74
     0
 42
0.0000000001
 43
0.0000000001
 40
0.0
 40
0.0
 40
0.0
 40
0.0
 40
1.0
 40
1.0
 40
1.0
 40
2.0
 40
2.0
 40
2.0
 40
3.0
 40
3.0
 40
3.0
 40
3.0
 10
0.5465481881866481
 20
0.9172633745414865
 30
0.0
 10
0.5465481881866481
 20
0.9172633745414865
 30
0.0
 10
0.5333774593381628
 20
0.8856917346727186
 30
0.0
 10
0.5544066026056069
 20
0.8883232522101327
 30
0.0
 10
0.5754554576149454
 20
0.8909547697476227
 30
0.0
 10
0.5833467249369733
 20
0.8883232522101327
 30
0.0
 10
0.5754554576149454
 20
0.9014775546071025
 30
0.0
 10
0.5675444785510359
 20
0.9146318570040723
 30
0.0
 10
0.5596860641320771
 20
0.9198948920789764
 30
0.0
 10
0.5465481881866481
 20
0.9172633745414865
 30
0.0
  0
SPLINE
  5
8A
330
79
100
AcDbEntity
  8
Layer 1
 62
    18
420
        0
370
     0
100
AcDbSpline
210
0.0
220
0.0
230
1.0
 70
     9
 71
     3
 72
    14
 73
    10
 74
     0
 42
0.0000000001
 43
0.0000000001
 40
0.0
 40
0.0
 40
0.0
 40
0.0
 40
1.0
 40
1.0
 40
1.0
 40
2.0
 40
2.0
 40
2.0
 40
3.0
 40
3.0
 40
3.0
 40
3.0
 10
0.6332995640842935
 20
0.8935534343819552
 30
0.0
 10
0.6332995640842935
 20
0.8935534343819552
 30
0.0
 10
0.6280398142996799
 20
0.883063502425557
 30
0.0
 10
0.6438223489437734
 20
0.8778004673506529
 30
0.0
 10
0.6595588895235602
 20
0.8725702851788051
 30
0.0
 10
0.6753611359095101
 20
0.8672776824911478
 30
0.0
 10
0.664871203953074
 20
0.883063502425557
 30
0.0
 10
0.6543451338032785
 20
0.8988460370696632
 30
0.0
 10
0.646437440029672
 20
0.9014775546071025
 30
0.0
 10
0.6332995640842935
 20
0.8935534343819552
 30
0.0
  0
SPLINE
  5
8B
330
79
100
AcDbEntity
  8
Layer 1
 62
    18
420
        0
370
     0
100
AcDbSpline
210
0.0
220
0.0
230
1.0
 70
     9
 71
     3
 72
    14
 73
    10
 74
     0
 42
0.0000000001
 43
0.0000000001
 40
0.0
 40
0.0
 40
0.0
 40
0.0
 40
1.0
 40
1.0
 40
1.0
 40
2.0
 40
2.0
 40
2.0
 40
3.0
 40
3.0
 40
3.0
 40
3.0
 10
0.512348316070706
 20
0.8015718763125379
 30
0.0
 10
0.512348316070706
 20
0.8015718763125379
 30
0.0
 10
0.4939309785988195
 20
0.7831545388406641
 30
0.0
 10
0.5175784982425285
 20
0.7831545388406641
 30
0.0
 10
0.5412391590474246
 20
0.7831545388406641
 30
0.0
 10
0.5517619439069297
 20
0.7858189092812356
 30
0.0
 10
0.5412391590474246
 20
0.7963088412376339
 30
0.0
 10
0.5307295153491573
 20
0.8068349113874672
 30
0.0
 10
0.5281012831020082
 20
0.8094631436346036
 30
0.0
 10
0.512348316070706
 20
0.8015718763125379
 30
0.0
  0
SPLINE
  5
8C
330
79
100
AcDbEntity
  8
Layer 1
 62
    18
420
        0
370
     0
100
AcDbSpline
210
0.0
220
0.0
230
1.0
 70
     9
 71
     3
 72
    14
 73
    10
 74
     0
 42
0.0000000001
 43
0.0000000001
 40
0.0
 40
0.0
 40
0.0
 40
0.0
 40
1.0
 40
1.0
 40
1.0
 40
2.0
 40
2.0
 40
2.0
 40
3.0
 40
3.0
 40
3.0
 40
3.0
 10
0.6543451338032785
 20
0.7726317539811842
 30
0.0
 10
0.6543451338032785
 20
0.7726317539811842
 30
0.0
 10
0.6358982287186513
 20
0.7410633994026689
 30
0.0
 10
0.6674830097486949
 20
0.7410633994026689
 30
0.0
 10
0.6990217967144443
 20
0.7410633994026689
 30
0.0
 10
0.7385011303568314
 20
0.7489546667247092
 30
0.0
 10
0.7200509399818884
 20
0.7700035217340479
 30
0.0
 10
0.7016861671549652
 20
0.7910490914530834
 30
0.0
 10
0.6753611359095101
 20
0.7831545388406641
 30
0.0
 10
0.6543451338032785
 20
0.7726317539811842
 30
0.0
  0
SPLINE
  5
8D
330
79
100
AcDbEntity
  8
Layer 1
 62
    18
420
        0
370
     0
100
AcDbSpline
210
0.0
220
0.0
230
1.0
 70
     9
 71
     3
 72
    14
 73
    10
 74
     0
 42
0.0000000001
 43
0.0000000001
 40
0.0
 40
0.0
 40
0.0
 40
0.0
 40
1.0
 40
1.0
 40
1.0
 40
2.0
 40
2.0
 40
2.0
 40
3.0
 40
3.0
 40
3.0
 40
3.0
 10
0.5412391590474246
 20
0.7410633994026689
 30
0.0
 10
0.5412391590474246
 20
0.7410633994026689
 30
0.0
 10
0.5175784982425285
 20
0.7252775794682849
 30
0.0
 10
0.5386240679615259
 20
0.7226789148338765
 30
0.0
 10
0.5596860641320771
 20
0.7200178296836586
 30
0.0
 10
0.5728239400775061
 20
0.7173863121461939
 30
0.0
 10
0.5701759960885006
 20
0.7331721320806032
 30
0.0
 10
0.5675444785510359
 20
0.7489546667247092
 30
0.0
 10
0.5517619439069297
 20
0.7463560020903262
 30
0.0
 10
0.5412391590474246
 20
0.7410633994026689
 30
0.0
  0
SPLINE
  5
8E
330
79
100
AcDbEntity
  8
Layer 1
 62
    18
420
        0
370
     0
100
AcDbSpline
210
0.0
220
0.0
230
1.0
 70
     9
 71
     3
 72
    14
 73
    10
 74
     0
 42
0.0000000001
 43
0.0000000001
 40
0.0
 40
0.0
 40
0.0
 40
0.0
 40
1.0
 40
1.0
 40
1.0
 40
2.0
 40
2.0
 40
2.0
 40
3.0
 40
3.0
 40
3.0
 40
3.0
 10
1.980206170229798
 20
2.123933989137097
 30
0.0
 10
1.980206170229798
 20
2.123933989137097
 30
0.0
 10
1.940776115942046
 20
2.068750969212032
 30
0.0
 10
1.980206170229798
 20
2.068750969212032
 30
0.0
 10
2.0196362245176
 20
2.068750969212032
 30
0.0
 10
2.040681794236661
 20
2.074010718863759
 30
0.0
 10
2.030159009377105
 20
2.092362350065829
 30
0.0
 10
2.0196362245176
 20
2.110779687072434
 30
0.0
 10
2.006544342636516
 20
2.142364467304597
 30
0.0
 10
1.980206170229798
 20
2.123933989137097
 30
0.0
  0
SPLINE
  5
8F
330
79
100
AcDbEntity
  8
Layer 1
 62
    18
420
        0
370
     0
100
AcDbSpline
210
0.0
220
0.0
230
1.0
 70
     9
 71
     3
 72
    14
 73
    10
 74
     0
 42
0.0000000001
 43
0.0000000001
 40
0.0
 40
0.0
 40
0.0
 40
0.0
 40
1.0
 40
1.0
 40
1.0
 40
2.0
 40
2.0
 40
2.0
 40
3.0
 40
3.0
 40
3.0
 40
3.0
 10
1.938144598404606
 20
2.005643829261998
 30
0.0
 10
1.938144598404606
 20
2.005643829261998
 30
0.0
 10
1.911835993610667
 20
1.984598260074638
 30
0.0
 10
1.940776115942046
 20
1.979302372230449
 30
0.0
 10
1.969712952983122
 20
1.974072190190743
 30
0.0
 10
1.980235737842627
 20
1.976703707661727
 30
0.0
 10
1.974975988058051
 20
1.992423821392826
 30
0.0
 10
1.969712952983122
 20
2.008209640928448
 30
0.0
 10
1.961755979854893
 20
2.013472675870439
 30
0.0
 10
1.938144598404606
 20
2.005643829261998
 30
0.0
  0
SPLINE
  5
90
330
79
100
AcDbEntity
  8
Layer 1
 62
    18
420
        0
370
     0
100
AcDbSpline
210
0.0
220
0.0
230
1.0
 70
     9
 71
     3
 72
    14
 73
    10
 74
     0
 42
0.0000000001
 43
0.0000000001
 40
0.0
 40
0.0
 40
0.0
 40
0.0
 40
1.0
 40
1.0
 40
1.0
 40
2.0
 40
2.0
 40
2.0
 40
3.0
 40
3.0
 40
3.0
 40
3.0
 10
1.924990296007662
 20
1.766208672691568
 30
0.0
 10
1.924990296007662
 20
1.766208672691568
 30
0.0
 10
1.909204476073227
 20
1.750455705660265
 30
0.0
 10
1.932881563329727
 20
1.739867214994597
 30
0.0
 10
1.956496230070317
 20
1.729410135941305
 30
0.0
 10
1.969712952983122
 20
1.739867214994597
 30
0.0
 10
1.964420350295414
 20
1.753021517391567
 30
0.0
 10
1.959157315220484
 20
1.766208672691568
 30
0.0
 10
1.938144598404606
 20
1.774099940013633
 30
0.0
 10
1.924990296007662
 20
1.766208672691568
 30
0.0
  0
SPLINE
  5
91
330
79
100
AcDbEntity
  8
Layer 1
 62
    18
420
        0
370
     0
100
AcDbSpline
210
0.0
220
0.0
230
1.0
 70
     9
 71
     3
 72
    14
 73
    10
 74
     0
 42
0.0000000001
 43
0.0000000001
 40
0.0
 40
0.0
 40
0.0
 40
0.0
 40
1.0
 40
1.0
 40
1.0
 40
2.0
 40
2.0
 40
2.0
 40
3.0
 40
3.0
 40
3.0
 40
3.0
 10
2.022264456764787
 20
1.766208672691568
 30
0.0
 10
2.022264456764787
 20
1.766208672691568
 30
0.0
 10
1.990696102186272
 20
1.705700195781724
 30
0.0
 10
2.0433133117741
 20
1.700437160706845
 30
0.0
 10
2.095894383168544
 20
1.6952102638253
 30
0.0
 10
2.095894383168544
 20
1.708364566222257
 30
0.0
 10
2.095894383168544
 20
1.734669885725869
 30
0.0
 10
2.095894383168544
 20
1.760945637616714
 30
0.0
 10
2.0433133117741
 20
1.784655577776283
 30
0.0
 10
2.022264456764787
 20
1.766208672691568
 30
0.0
  0
SPLINE
  5
92
330
79
100
AcDbEntity
  8
Layer 1
 62
    18
420
        0
370
     0
100
AcDbSpline
210
0.0
220
0.0
230
1.0
 70
     9
 71
     3
 72
    14
 73
    10
 74
     0
 42
0.0000000001
 43
0.0000000001
 40
0.0
 40
0.0
 40
0.0
 40
0.0
 40
1.0
 40
1.0
 40
1.0
 40
2.0
 40
2.0
 40
2.0
 40
3.0
 40
3.0
 40
3.0
 40
3.0
 10
2.040681794236661
 20
1.432193206982649
 30
0.0
 10
2.040681794236661
 20
1.432193206982649
 30
0.0
 10
2.024863121399094
 20
1.411180490166695
 30
0.0
 10
2.048573061558625
 20
1.405917455091866
 30
0.0
 10
2.072250148815126
 20
1.400654420016937
 30
0.0
 10
2.08540445121207
 20
1.411180490166695
 30
0.0
 10
2.077513183890005
 20
1.421732842639029
 30
0.0
 10
2.069618631277686
 20
1.432193206982649
 30
0.0
 10
2.064326028590029
 20
1.440084474304689
 30
0.0
 10
2.040681794236661
 20
1.432193206982649
 30
0.0
  0
SPLINE
  5
93
330
79
100
AcDbEntity
  8
Layer 1
 62
    18
420
        0
370
     0
100
AcDbSpline
210
0.0
220
0.0
230
1.0
 70
     9
 71
     3
 72
    14
 73
    10
 74
     0
 42
0.0000000001
 43
0.0000000001
 40
0.0
 40
0.0
 40
0.0
 40
0.0
 40
1.0
 40
1.0
 40
1.0
 40
2.0
 40
2.0
 40
2.0
 40
3.0
 40
3.0
 40
3.0
 40
3.0
 10
1.524789371734995
 20
1.19862877775957
 30
0.0
 10
1.524789371734995
 20
1.19862877775957
 30
0.0
 10
1.522157854197505
 20
1.164428905643565
 30
0.0
 10
1.543203423916515
 20
1.169691940718495
 30
0.0
 10
1.564248993635576
 20
1.175017396309284
 30
0.0
 10
1.569512028710454
 20
1.175017396309284
 30
0.0
 10
1.564248993635576
 20
1.188138845803122
 30
0.0
 10
1.558989243850949
 20
1.20126029529701
 30
0.0
 10
1.545802088550923
 20
1.214414597693954
 30
0.0
 10
1.524789371734995
 20
1.19862877775957
 30
0.0
  0
SPLINE
  5
94
330
79
100
AcDbEntity
  8
Layer 1
 62
    18
420
        0
370
     0
100
AcDbSpline
210
0.0
220
0.0
230
1.0
 70
     9
 71
     3
 72
    14
 73
    10
 74
     0
 42
0.0000000001
 43
0.0000000001
 40
0.0
 40
0.0
 40
0.0
 40
0.0
 40
1.0
 40
1.0
 40
1.0
 40
2.0
 40
2.0
 40
2.0
 40
3.0
 40
3.0
 40
3.0
 40
3.0
 10
1.603679047923328
 20
1.077677529745996
 30
0.0
 10
1.603679047923328
 20
1.077677529745996
 30
0.0
 10
1.595787780601262
 20
1.038214622555061
 30
0.0
 10
1.619464867857711
 20
1.051368924952056
 30
0.0
 10
1.643141955114161
 20
1.064523227349026
 30
0.0
 10
1.661526439682953
 20
1.075046012208506
 30
0.0
 10
1.643141955114161
 20
1.082907711917793
 30
0.0
 10
1.624695050029559
 20
1.090831832142965
 30
0.0
 10
1.619464867857711
 20
1.088200314605475
 30
0.0
 10
1.603679047923328
 20
1.077677529745996
 30
0.0
  0
SPLINE
  5
95
330
79
100
AcDbEntity
  8
Layer 1
 62
    18
420
        0
370
     0
100
AcDbSpline
210
0.0
220
0.0
230
1.0
 70
     9
 71
     3
 72
    14
 73
    10
 74
     0
 42
0.0000000001
 43
0.0000000001
 40
0.0
 40
0.0
 40
0.0
 40
0.0
 40
1.0
 40
1.0
 40
1.0
 40
2.0
 40
2.0
 40
2.0
 40
3.0
 40
3.0
 40
3.0
 40
3.0
 10
1.561620761388439
 20
0.8856917346727186
 30
0.0
 10
1.561620761388439
 20
0.8856917346727186
 30
0.0
 10
1.55372620877602
 20
0.8646790178567901
 30
0.0
 10
1.569512028710454
 20
0.8646790178567901
 30
0.0
 10
1.585232142838675
 20
0.8646790178567901
 30
0.0
 10
1.593156263063822
 20
0.8672776824911478
 30
0.0
 10
1.593156263063822
 20
0.8778004673506529
 30
0.0
 10
1.593156263063822
 20
0.8883232522101327
 30
0.0
 10
1.582633478204317
 20
0.8988460370696632
 30
0.0
 10
1.561620761388439
 20
0.8856917346727186
 30
0.0
  0
SPLINE
  5
96
330
79
100
AcDbEntity
  8
Layer 1
 62
    18
420
        0
370
     0
100
AcDbSpline
210
0.0
220
0.0
230
1.0
 70
     9
 71
     3
 72
    14
 73
    10
 74
     0
 42
0.0000000001
 43
0.0000000001
 40
0.0
 40
0.0
 40
0.0
 40
0.0
 40
1.0
 40
1.0
 40
1.0
 40
2.0
 40
2.0
 40
2.0
 40
3.0
 40
3.0
 40
3.0
 40
3.0
 10
0.6655446884664241
 20
0.5865200579802502
 30
0.0
 10
0.6655446884664241
 20
0.5865200579802502
 30
0.0
 10
0.6445122599086642
 20
0.541797401004841
 30
0.0
 10
0.676034620422835
 20
0.5470900036924983
 30
0.0
 10
0.7076194014529165
 20
0.5523530387673772
 30
0.0
 10
0.7207408509467541
 20
0.5549812710145388
 30
0.0
 10
0.7049878839154518
 20
0.5707342380458664
 30
0.0
 10
0.6892053492713456
 20
0.5865200579802502
 30
0.0
 10
0.6865902581854345
 20
0.5944441782053975
 30
0.0
 10
0.6655446884664241
 20
0.5865200579802502
 30
0.0
  0
SPLINE
  5
97
330
79
100
AcDbEntity
  8
Layer 1
 62
    18
420
        0
370
     0
100
AcDbSpline
210
0.0
220
0.0
230
1.0
 70
     9
 71
     3
 72
    14
 73
    10
 74
     0
 42
0.0000000001
 43
0.0000000001
 40
0.0
 40
0.0
 40
0.0
 40
0.0
 40
1.0
 40
1.0
 40
1.0
 40
2.0
 40
2.0
 40
2.0
 40
3.0
 40
3.0
 40
3.0
 40
3.0
 10
0.6076808702552322
 20
0.4866143796857109
 30
0.0
 10
0.6076808702552322
 20
0.4866143796857109
 30
0.0
 10
0.5945265678582751
 20
0.428737420313256
 30
0.0
 10
0.6392360836725226
 20
0.428737420313256
 30
0.0
 10
0.683942314196429
 20
0.428737420313256
 30
0.0
 10
0.7076194014529165
 20
0.4444903873445835
 30
0.0
 10
0.6892053492713456
 20
0.4629701453323429
 30
0.0
 10
0.6708044382510378
 20
0.4813513446108068
 30
0.0
 10
0.6365552867804101
 20
0.5076270965016394
 30
0.0
 10
0.6076808702552322
 20
0.4866143796857109
 30
0.0
  0
SPLINE
  5
98
330
79
100
AcDbEntity
  8
Layer 1
 62
    18
420
        0
370
     0
100
AcDbSpline
210
0.0
220
0.0
230
1.0
 70
     9
 71
     3
 72
    14
 73
    10
 74
     0
 42
0.0000000001
 43
0.0000000001
 40
0.0
 40
0.0
 40
0.0
 40
0.0
 40
1.0
 40
1.0
 40
1.0
 40
2.0
 40
2.0
 40
2.0
 40
3.0
 40
3.0
 40
3.0
 40
3.0
 10
0.6227932056763291
 20
0.20460505956708
 30
0.0
 10
0.6227932056763291
 20
0.20460505956708
 30
0.0
 10
0.5991161184198543
 20
0.1835594898481203
 30
0.0
 10
0.6307008994499104
 20
0.1756649372357515
 30
0.0
 10
0.6622396864156599
 20
0.1677736699137363
 30
0.0
 10
0.6727460448235863
 20
0.1678065228167674
 30
0.0
 10
0.6753611359095101
 20
0.1862205749983887
 30
0.0
 10
0.6780090798985031
 20
0.20460505956708
 30
0.0
 10
0.6569930777922839
 20
0.215094991523554
 30
0.0
 10
0.6227932056763291
 20
0.20460505956708
 30
0.0
  0
SPLINE
  5
99
330
79
100
AcDbEntity
  8
Layer 1
 62
    18
420
        0
370
     0
100
AcDbSpline
210
0.0
220
0.0
230
1.0
 70
     9
 71
     3
 72
    14
 73
    10
 74
     0
 42
0.0000000001
 43
0.0000000001
 40
0.0
 40
0.0
 40
0.0
 40
0.0
 40
1.0
 40
1.0
 40
1.0
 40
2.0
 40
2.0
 40
2.0
 40
3.0
 40
3.0
 40
3.0
 40
3.0
 10
0.6280398142996799
 20
0.136205315335221
 30
0.0
 10
0.6280398142996799
 20
0.136205315335221
 30
0.0
 10
0.6043627270432176
 20
0.1020350108320448
 30
0.0
 10
0.6307008994499104
 20
0.0994034932945548
 30
0.0
 10
0.6569930777922839
 20
0.0967752610473932
 30
0.0
 10
0.6569930777922839
 20
0.1020350108320448
 30
0.0
 10
0.664871203953074
 20
0.1178208307664287
 30
0.0
 10
0.6727460448235863
 20
0.1336066507008127
 30
0.0
 10
0.6517004751046013
 20
0.149389185344944
 30
0.0
 10
0.6280398142996799
 20
0.136205315335221
 30
0.0
  0
SPLINE
  5
9A
330
79
100
AcDbEntity
  8
Layer 1
 62
    18
420
        0
370
     0
100
AcDbSpline
210
0.0
220
0.0
230
1.0
 70
     9
 71
     3
 72
    14
 73
    10
 74
     0
 42
0.0000000001
 43
0.0000000001
 40
0.0
 40
0.0
 40
0.0
 40
0.0
 40
1.0
 40
1.0
 40
1.0
 40
2.0
 40
2.0
 40
2.0
 40
3.0
 40
3.0
 40
3.0
 40
3.0
 10
0.664871203953074
 20
0.0126521173969599
 30
0.0
 10
0.664871203953074
 20
0.0126521173969599
 30
0.0
 10
0.6490689575671366
 20
-0.0189819429877187
 30
0.0
 10
0.6727460448235863
 20
-0.016284719644116
 30
0.0
 10
0.6964231320800738
 20
-0.0136860550097329
 30
0.0
 10
0.7200509399818884
 20
-0.016284719644116
 30
0.0
 10
0.7121925255629169
 20
-0.0005317526128137
 30
0.0
 10
0.704330825853655
 20
0.0152179291282108
 30
0.0
 10
0.6858839207690153
 20
0.0179151524718135
 30
0.0
 10
0.664871203953074
 20
0.0126521173969599
 30
0.0
  0
SPLINE
  5
9B
330
79
100
AcDbEntity
  8
Layer 1
 62
    18
420
        0
370
     0
100
AcDbSpline
210
0.0
220
0.0
230
1.0
 70
     9
 71
     3
 72
    14
 73
    10
 74
     0
 42
0.0000000001
 43
0.0000000001
 40
0.0
 40
0.0
 40
0.0
 40
0.0
 40
1.0
 40
1.0
 40
1.0
 40
2.0
 40
2.0
 40
2.0
 40
3.0
 40
3.0
 40
3.0
 40
3.0
 10
0.9172833436785039
 20
-0.1031018013478741
 30
0.0
 10
0.9172833436785039
 20
-0.1031018013478741
 30
0.0
 10
0.9041914617974446
 20
-0.1215191388197733
 30
0.0
 10
0.9225759463662118
 20
-0.1267460357012927
 30
0.0
 10
0.9410064249992981
 20
-0.1320419236792532
 30
0.0
 10
0.9567593920306256
 20
-0.1267460357012927
 30
0.0
 10
0.9488681247085853
 20
-0.1135950185946513
 30
0.0
 10
0.9410064249992981
 20
-0.1004702838104852
 30
0.0
 10
0.9330987312257168
 20
-0.0978420515633237
 30
0.0
 10
0.9172833436785039
 20
-0.1031018013478741
 30
0.0
  0
SPLINE
  5
9C
330
79
100
AcDbEntity
  8
Layer 1
 62
    18
420
        0
370
     0
100
AcDbSpline
210
0.0
220
0.0
230
1.0
 70
     9
 71
     3
 72
    14
 73
    10
 74
     0
 42
0.0000000001
 43
0.0000000001
 40
0.0
 40
0.0
 40
0.0
 40
0.0
 40
1.0
 40
1.0
 40
1.0
 40
2.0
 40
2.0
 40
2.0
 40
3.0
 40
3.0
 40
3.0
 40
3.0
 10
1.897173742961917
 20
-0.0565163847672668
 30
0.0
 10
1.897173742961917
 20
-0.0565163847672668
 30
0.0
 10
1.891943560790119
 20
-0.0091622102543675
 30
0.0
 10
1.920850830218417
 20
-0.0144580982323785
 30
0.0
 10
1.949725246743582
 20
-0.0196882804041757
 30
0.0
 10
1.960280884506169
 20
-0.0275795477262414
 30
0.0
 10
1.952452037700014
 20
-0.0459935999077869
 30
0.0
 10
1.944527917474816
 20
-0.0644109373796861
 30
0.0
 10
1.910360898261993
 20
-0.0696706871642366
 30
0.0
 10
1.897173742961917
 20
-0.0565163847672668
 30
0.0
  0
SPLINE
  5
9D
330
79
100
AcDbEntity
  8
Layer 1
 62
    18
420
        0
370
     0
100
AcDbSpline
210
0.0
220
0.0
230
1.0
 70
     9
 71
     3
 72
    14
 73
    10
 74
     0
 42
0.0000000001
 43
0.0000000001
 40
0.0
 40
0.0
 40
0.0
 40
0.0
 40
1.0
 40
1.0
 40
1.0
 40
2.0
 40
2.0
 40
2.0
 40
3.0
 40
3.0
 40
3.0
 40
3.0
 10
1.71048383586665
 20
0.2800944602857069
 30
0.0
 10
1.71048383586665
 20
0.2800944602857069
 30
0.0
 10
1.697329533469706
 20
0.3116661001545759
 30
0.0
 10
1.718375103188716
 20
0.3090345826170606
 30
0.0
 10
1.739391105294897
 20
0.3064030650796718
 30
0.0
 10
1.747315225520095
 20
0.3090345826170606
 30
0.0
 10
1.739391105294897
 20
0.2958802802200908
 30
0.0
 10
1.731466985069801
 20
0.2827259778231968
 30
0.0
 10
1.723638138263595
 20
0.2774662280385453
 30
0.0
 10
1.71048383586665
 20
0.2800944602857069
 30
0.0
  0
SPLINE
  5
9E
330
79
100
AcDbEntity
  8
Layer 1
 62
    18
420
        0
370
     0
100
AcDbSpline
210
0.0
220
0.0
230
1.0
 70
     9
 71
     3
 72
    14
 73
    10
 74
     0
 42
0.0000000001
 43
0.0000000001
 40
0.0
 40
0.0
 40
0.0
 40
0.0
 40
1.0
 40
1.0
 40
1.0
 40
2.0
 40
2.0
 40
2.0
 40
3.0
 40
3.0
 40
3.0
 40
3.0
 10
1.797235211764321
 20
0.3037748328325102
 30
0.0
 10
1.797235211764321
 20
0.3037748328325102
 30
0.0
 10
1.791942609076563
 20
0.31429761769199
 30
0.0
 10
1.807757996623776
 20
0.3195573674765658
 30
0.0
 10
1.82354381655816
 20
0.3247875496483882
 30
0.0
 10
1.839296783589462
 20
0.3300801523361214
 30
0.0
 10
1.828806851633089
 20
0.31429761769199
 30
0.0
 10
1.818284066773584
 20
0.2984789448544992
 30
0.0
 10
1.810389514161215
 20
0.2958802802200908
 30
0.0
 10
1.797235211764321
 20
0.3037748328325102
 30
0.0
  0
SPLINE
  5
9F
330
79
100
AcDbEntity
  8
Layer 1
 62
    18
420
        0
370
     0
100
AcDbSpline
210
0.0
220
0.0
230
1.0
 70
     9
 71
     3
 72
    14
 73
    10
 74
     0
 42
0.0000000001
 43
0.0000000001
 40
0.0
 40
0.0
 40
0.0
 40
0.0
 40
1.0
 40
1.0
 40
1.0
 40
2.0
 40
2.0
 40
2.0
 40
3.0
 40
3.0
 40
3.0
 40
3.0
 10
1.676283963750696
 20
0.3957859585147313
 30
0.0
 10
1.676283963750696
 20
0.3957859585147313
 30
0.0
 10
1.657866626278822
 20
0.4142032959865548
 30
0.0
 10
1.681543713535271
 20
0.4142032959865548
 30
0.0
 10
1.705158380275911
 20
0.4142032959865548
 30
0.0
 10
1.71574687094158
 20
0.4115717784491153
 30
0.0
 10
1.705158380275911
 20
0.4010489935896354
 30
0.0
 10
1.694698015932266
 20
0.3905590616331867
 30
0.0
 10
1.692036930781998
 20
0.3878946911926656
 30
0.0
 10
1.676283963750696
 20
0.3957859585147313
 30
0.0
  0
SPLINE
  5
A0
330
79
100
AcDbEntity
  8
Layer 1
 62
    18
420
        0
370
     0
100
AcDbSpline
210
0.0
220
0.0
230
1.0
 70
     9
 71
     3
 72
    14
 73
    10
 74
     0
 42
0.0000000001
 43
0.0000000001
 40
0.0
 40
0.0
 40
0.0
 40
0.0
 40
1.0
 40
1.0
 40
1.0
 40
2.0
 40
2.0
 40
2.0
 40
3.0
 40
3.0
 40
3.0
 40
3.0
 10
1.818284066773584
 20
0.4247260808460598
 30
0.0
 10
1.818284066773584
 20
0.4247260808460598
 30
0.0
 10
1.799833876398628
 20
0.4562648678117967
 30
0.0
 10
1.831405516267497
 20
0.4562648678117967
 30
0.0
 10
1.862973870846013
 20
0.4562648678117967
 30
0.0
 10
1.902436778036846
 20
0.4484031681025347
 30
0.0
 10
1.883989872952194
 20
0.4273575983834993
 30
0.0
 10
1.865638241286534
 20
0.4063087433741859
 30
0.0
 10
1.839329636492594
 20
0.4142032959865548
 30
0.0
 10
1.818284066773584
 20
0.4247260808460598
 30
0.0
  0
SPLINE
  5
A1
330
79
100
AcDbEntity
  8
Layer 1
 62
    18
420
        0
370
     0
100
AcDbSpline
210
0.0
220
0.0
230
1.0
 70
     9
 71
     3
 72
    14
 73
    10
 74
     0
 42
0.0000000001
 43
0.0000000001
 40
0.0
 40
0.0
 40
0.0
 40
0.0
 40
1.0
 40
1.0
 40
1.0
 40
2.0
 40
2.0
 40
2.0
 40
3.0
 40
3.0
 40
3.0
 40
3.0
 10
1.705158380275911
 20
0.4562648678117967
 30
0.0
 10
1.705158380275911
 20
0.4562648678117967
 30
0.0
 10
1.681543713535271
 20
0.4720802553590097
 30
0.0
 10
1.702592568544585
 20
0.474678919993317
 30
0.0
 10
1.723638138263595
 20
0.4773432904339138
 30
0.0
 10
1.736759587757508
 20
0.4799715226810501
 30
0.0
 10
1.734128070220018
 20
0.464188988036944
 30
0.0
 10
1.731466985069801
 20
0.4484031681025347
 30
0.0
 10
1.71574687094158
 20
0.4510346856399742
 30
0.0
 10
1.705158380275911
 20
0.4562648678117967
 30
0.0
  0
SPLINE
  5
A2
330
79
100
AcDbEntity
  8
Layer 1
 62
    18
420
        0
370
     0
100
AcDbSpline
210
0.0
220
0.0
230
1.0
 70
     9
 71
     3
 72
    14
 73
    10
 74
     0
 42
0.0000000001
 43
0.0000000001
 40
0.0
 40
0.0
 40
0.0
 40
0.0
 40
1.0
 40
1.0
 40
1.0
 40
2.0
 40
2.0
 40
2.0
 40
3.0
 40
3.0
 40
3.0
 40
3.0
 10
1.912992415799433
 20
0.6061858057695292
 30
0.0
 10
1.912992415799433
 20
0.6061858057695292
 30
0.0
 10
1.891943560790119
 20
0.6508788951322105
 30
0.0
 10
1.923449494852775
 20
0.6456487129604131
 30
0.0
 10
1.955021134721593
 20
0.6403856778854839
 30
0.0
 10
1.968175437118538
 20
0.6377245927352658
 30
0.0
 10
1.952452037700014
 20
0.6219716257039383
 30
0.0
 10
1.936636650152801
 20
0.6061858057695292
 30
0.0
 10
1.934005132615362
 20
0.5982945384474886
 30
0.0
 10
1.912992415799433
 20
0.6061858057695292
 30
0.0
  0
SPLINE
  5
A3
330
79
100
AcDbEntity
  8
Layer 1
 62
    18
420
        0
370
     0
100
AcDbSpline
210
0.0
220
0.0
230
1.0
 70
     9
 71
     3
 72
    14
 73
    10
 74
     0
 42
0.0000000001
 43
0.0000000001
 40
0.0
 40
0.0
 40
0.0
 40
0.0
 40
1.0
 40
1.0
 40
1.0
 40
2.0
 40
2.0
 40
2.0
 40
3.0
 40
3.0
 40
3.0
 40
3.0
 10
1.855112171136675
 20
0.7061243369671754
 30
0.0
 10
1.855112171136675
 20
0.7061243369671754
 30
0.0
 10
1.841961154030084
 20
0.7639717287268266
 30
0.0
 10
1.88661810519933
 20
0.7639717287268266
 30
0.0
 10
1.931373615077871
 20
0.7639717287268266
 30
0.0
 10
1.955021134721593
 20
0.7481859087924426
 30
0.0
 10
1.936636650152801
 20
0.7298014242236251
 30
0.0
 10
1.918189745068149
 20
0.7113545191389978
 30
0.0
 10
1.883989872952194
 20
0.6850459143450582
 30
0.0
 10
1.855112171136675
 20
0.7061243369671754
 30
0.0
  0
SPLINE
  5
A4
330
79
100
AcDbEntity
  8
Layer 1
 62
    18
420
        0
370
     0
100
AcDbSpline
210
0.0
220
0.0
230
1.0
 70
     9
 71
     3
 72
    14
 73
    10
 74
     0
 42
0.0000000001
 43
0.0000000001
 40
0.0
 40
0.0
 40
0.0
 40
0.0
 40
1.0
 40
1.0
 40
1.0
 40
2.0
 40
2.0
 40
2.0
 40
3.0
 40
3.0
 40
3.0
 40
3.0
 10
1.786712426904765
 20
0.9927527752601134
 30
0.0
 10
1.786712426904765
 20
0.9927527752601134
 30
0.0
 10
1.763035339648265
 20
1.01383119788223
 30
0.0
 10
1.794669400032994
 20
1.021725750494599
 30
0.0
 10
1.826175334095649
 20
1.029584164913532
 30
0.0
 10
1.836698118955155
 20
1.029551312010451
 30
0.0
 10
1.839296783589462
 20
1.011137259828905
 30
0.0
 10
1.841961154030084
 20
0.9927527752601134
 30
0.0
 10
1.820912299020771
 20
0.9822628433037152
 30
0.0
 10
1.786712426904765
 20
0.9927527752601134
 30
0.0
  0
SPLINE
  5
A5
330
79
100
AcDbEntity
  8
Layer 1
 62
    18
420
        0
370
     0
100
AcDbSpline
210
0.0
220
0.0
230
1.0
 70
     9
 71
     3
 72
    14
 73
    10
 74
     0
 42
0.0000000001
 43
0.0000000001
 40
0.0
 40
0.0
 40
0.0
 40
0.0
 40
1.0
 40
1.0
 40
1.0
 40
2.0
 40
2.0
 40
2.0
 40
3.0
 40
3.0
 40
3.0
 40
3.0
 10
1.791942609076563
 20
1.06112295187932
 30
0.0
 10
1.791942609076563
 20
1.06112295187932
 30
0.0
 10
1.768298374723195
 20
1.095322823995224
 30
0.0
 10
1.794669400032994
 20
1.097954341532663
 30
0.0
 10
1.820912299020771
 20
1.100585859070153
 30
0.0
 10
1.820912299020771
 20
1.095322823995224
 30
0.0
 10
1.828806851633089
 20
1.07953700406084
 30
0.0
 10
1.836698118955155
 20
1.063754469416709
 30
0.0
 10
1.815652549236144
 20
1.047968649482325
 30
0.0
 10
1.791942609076563
 20
1.06112295187932
 30
0.0
  0
SPLINE
  5
A6
330
79
100
AcDbEntity
  8
Layer 1
 62
    18
420
        0
370
     0
100
AcDbSpline
210
0.0
220
0.0
230
1.0
 70
     9
 71
     3
 72
    14
 73
    10
 74
     0
 42
0.0000000001
 43
0.0000000001
 40
0.0
 40
0.0
 40
0.0
 40
0.0
 40
1.0
 40
1.0
 40
1.0
 40
2.0
 40
2.0
 40
2.0
 40
3.0
 40
3.0
 40
3.0
 40
3.0
 10
1.828806851633089
 20
1.184705717430309
 30
0.0
 10
1.828806851633089
 20
1.184705717430309
 30
0.0
 10
1.813021031698705
 20
1.216306924911906
 30
0.0
 10
1.836698118955155
 20
1.213675407374491
 30
0.0
 10
1.860375206211604
 20
1.211076742740083
 30
0.0
 10
1.883989872952194
 20
1.213675407374491
 30
0.0
 10
1.876161026145988
 20
1.19789287273036
 30
0.0
 10
1.86826647353367
 20
1.182107052795976
 30
0.0
 10
1.849852421352099
 20
1.179442682355405
 30
0.0
 10
1.828806851633089
 20
1.184705717430309
 30
0.0
  0
SPLINE
  5
A7
330
79
100
AcDbEntity
  8
Layer 1
 62
    18
420
        0
370
     0
100
AcDbSpline
210
0.0
220
0.0
230
1.0
 70
     9
 71
     3
 72
    14
 73
    10
 74
     0
 42
0.0000000001
 43
0.0000000001
 40
0.0
 40
0.0
 40
0.0
 40
0.0
 40
1.0
 40
1.0
 40
1.0
 40
2.0
 40
2.0
 40
2.0
 40
3.0
 40
3.0
 40
3.0
 40
3.0
 10
2.081235417810047
 20
1.300459636175168
 30
0.0
 10
2.081235417810047
 20
1.300459636175168
 30
0.0
 10
2.068143535928963
 20
1.318844120743935
 30
0.0
 10
2.086495167594623
 20
1.324074302915758
 30
0.0
 10
2.104912505066547
 20
1.329399758506522
 30
0.0
 10
2.120695039710628
 20
1.324074302915758
 30
0.0
 10
2.112803772388562
 20
1.310952853421895
 30
0.0
 10
2.104912505066547
 20
1.297831403928006
 30
0.0
 10
2.097083658260342
 20
1.295232739293624
 30
0.0
 10
2.081235417810047
 20
1.300459636175168
 30
0.0
  0
SPLINE
  5
A8
330
79
100
AcDbEntity
  8
Layer 1
 62
    18
420
        0
370
     0
100
AcDbSpline
210
0.0
220
0.0
230
1.0
 70
     9
 71
     3
 72
    14
 73
    10
 74
     0
 42
0.0000000001
 43
0.0000000001
 40
0.0
 40
0.0
 40
0.0
 40
0.0
 40
1.0
 40
1.0
 40
1.0
 40
2.0
 40
2.0
 40
2.0
 40
3.0
 40
3.0
 40
3.0
 40
3.0
 10
-0.0783961608296345
 20
1.038214622555061
 30
0.0
 10
-0.0783961608296345
 20
1.038214622555061
 30
0.0
 10
-0.1099480889565964
 20
0.9776437251293575
 30
0.0
 10
-0.0573473058202833
 20
0.9724135429575349
 30
0.0
 10
-0.0047662344258646
 20
0.9671505078826056
 30
0.0
 10
-0.0047662344258646
 20
0.9803376631826823
 30
0.0
 10
-0.0047662344258646
 20
1.006580562170433
 30
0.0
 10
-0.0047662344258646
 20
1.032922019867404
 30
0.0
 10
-0.0573177382074922
 20
1.056599107123878
 30
0.0
 10
-0.0783961608296345
 20
1.038214622555061
 30
0.0
  0
SPLINE
  5
A9
330
79
100
AcDbEntity
  8
Layer 1
 62
    18
420
        0
370
     0
100
AcDbSpline
210
0.0
220
0.0
230
1.0
 70
     9
 71
     3
 72
    14
 73
    10
 74
     0
 42
0.0000000001
 43
0.0000000001
 40
0.0
 40
0.0
 40
0.0
 40
0.0
 40
1.0
 40
1.0
 40
1.0
 40
2.0
 40
2.0
 40
2.0
 40
3.0
 40
3.0
 40
3.0
 40
3.0
 10
-0.059945970454679
 20
0.7041695892333893
 30
0.0
 10
-0.059945970454679
 20
0.7041695892333893
 30
0.0
 10
-0.075748216840629
 20
0.683120734224076
 30
0.0
 10
-0.0520875560357202
 20
0.6778609844394497
 30
0.0
 10
-0.0284268952307735
 20
0.6725979493645202
 30
0.0
 10
-0.0152725928338416
 20
0.683120734224076
 30
0.0
 10
-0.0231310072528004
 20
0.6936435190835557
 30
0.0
 10
-0.0310584127682255
 20
0.7041695892333893
 30
0.0
 10
-0.0363017361012857
 20
0.712060856555455
 30
0.0
 10
-0.059945970454679
 20
0.7041695892333893
 30
0.0
  0
SPLINE
  5
AA
330
79
100
AcDbEntity
  8
Layer 1
 62
    18
420
        0
370
     0
100
AcDbSpline
210
0.0
220
0.0
230
1.0
 70
     9
 71
     3
 72
    14
 73
    10
 74
     0
 42
0.0000000001
 43
0.0000000001
 40
0.0
 40
0.0
 40
0.0
 40
0.0
 40
1.0
 40
1.0
 40
1.0
 40
2.0
 40
2.0
 40
2.0
 40
3.0
 40
3.0
 40
3.0
 40
3.0
 10
-0.0193956321715455
 20
0.572403165522802
 30
0.0
 10
-0.0193956321715455
 20
0.572403165522802
 30
0.0
 10
-0.0325335081169366
 20
0.5908205029946505
 30
0.0
 10
-0.0140997441935345
 20
0.5960473998761952
 30
0.0
 10
0.004281455084942
 20
0.6013104349510993
 30
0.0
 10
0.0200672750193386
 20
0.5960473998761952
 30
0.0
 10
0.0121595812457321
 20
0.5828930974792002
 30
0.0
 10
0.004281455084942
 20
0.5697420803725587
 30
0.0
 10
-0.003609812237111
 20
0.5671105628350688
 30
0.0
 10
-0.0193956321715455
 20
0.572403165522802
 30
0.0
  0
SPLINE
  5
AB
330
79
100
AcDbEntity
  8
Layer 1
 62
    18
420
        0
370
     0
100
AcDbSpline
210
0.0
220
0.0
230
1.0
 70
     9
 71
     3
 72
    14
 73
    10
 74
     0
 42
0.0000000001
 43
0.0000000001
 40
0.0
 40
0.0
 40
0.0
 40
0.0
 40
1.0
 40
1.0
 40
1.0
 40
2.0
 40
2.0
 40
2.0
 40
3.0
 40
3.0
 40
3.0
 40
3.0
 10
1.072467316711127
 20
-0.0083934523220756
 30
0.0
 10
1.072467316711127
 20
-0.0083934523220756
 30
0.0
 10
1.051451314604946
 20
-0.0347020571160152
 30
0.0
 10
1.072467316711127
 20
-0.0373335746534041
 30
0.0
 10
1.093496459978571
 20
-0.0399618069005909
 30
0.0
 10
1.096144403967577
 20
-0.0425933244380051
 30
0.0
 10
1.098792347956582
 20
-0.0295047278472996
 30
0.0
 10
1.101391012590991
 20
-0.016284719644116
 30
0.0
 10
1.093529312881704
 20
-0.0005317526128137
 30
0.0
 10
1.072467316711127
 20
-0.0083934523220756
 30
0.0
  0
SPLINE
  5
AC
330
79
100
AcDbEntity
  8
Layer 1
 62
    18
420
        0
370
     0
100
AcDbSpline
210
0.0
220
0.0
230
1.0
 70
     9
 71
     3
 72
    14
 73
    10
 74
     0
 42
0.0000000001
 43
0.0000000001
 40
0.0
 40
0.0
 40
0.0
 40
0.0
 40
1.0
 40
1.0
 40
1.0
 40
2.0
 40
2.0
 40
2.0
 40
3.0
 40
3.0
 40
3.0
 40
3.0
 10
1.109249427009924
 20
-0.0820562316289145
 30
0.0
 10
1.109249427009924
 20
-0.0820562316289145
 30
0.0
 10
1.090897795344214
 20
-0.1083648364228035
 30
0.0
 10
1.111930223902011
 20
-0.1083648364228035
 30
0.0
 10
1.13294294071794
 20
-0.1083648364228035
 30
0.0
 10
1.138235543405648
 20
-0.1188547683792523
 30
0.0
 10
1.143498578480527
 20
-0.1004702838104852
 30
0.0
 10
1.148695907749293
 20
-0.0820562316289145
 30
0.0
 10
1.127696332094577
 20
-0.0767307760381249
 30
0.0
 10
1.109249427009924
 20
-0.0820562316289145
 30
0.0
  0
SPLINE
  5
AD
330
79
100
AcDbEntity
  8
Layer 1
 62
    18
420
        0
370
     0
100
AcDbSpline
210
0.0
220
0.0
230
1.0
 70
     9
 71
     3
 72
    17
 73
    13
 74
     0
 42
0.0000000001
 43
0.0000000001
 40
0.0
 40
0.0
 40
0.0
 40
0.0
 40
1.0
 40
1.0
 40
1.0
 40
2.0
 40
2.0
 40
2.0
 40
3.0
 40
3.0
 40
3.0
 40
4.0
 40
4.0
 40
4.0
 40
4.0
 10
1.303879880781854
 20
-0.0295047278472996
 30
0.0
 10
1.303879880781854
 20
-0.0295047278472996
 30
0.0
 10
1.285482255051899
 20
-0.0610106619099042
 30
0.0
 10
1.306494971867778
 20
-0.0662704116945305
 30
0.0
 10
1.327556968038354
 20
-0.0715005938663277
 30
0.0
 10
1.335467947102289
 20
-0.0767931965540103
 30
0.0
 10
1.348589396596101
 20
-0.0610106619099042
 30
0.0
 10
1.361743698993096
 20
-0.045224841975495
 30
0.0
 10
1.372266483852551
 20
-0.0241792722564595
 30
0.0
 10
1.353849146380727
 20
-0.0189162371815554
 30
0.0
 10
1.335467947102289
 20
-0.0136860550097329
 30
0.0
 10
1.327556968038354
 20
-0.0189162371815554
 30
0.0
 10
1.303879880781854
 20
-0.0295047278472996
 30
0.0
  0
SPLINE
  5
AE
330
79
100
AcDbEntity
  8
Layer 1
 62
    18
420
        0
370
     0
100
AcDbSpline
210
0.0
220
0.0
230
1.0
 70
     9
 71
     3
 72
    14
 73
    10
 74
     0
 42
0.0000000001
 43
0.0000000001
 40
0.0
 40
0.0
 40
0.0
 40
0.0
 40
1.0
 40
1.0
 40
1.0
 40
2.0
 40
2.0
 40
2.0
 40
3.0
 40
3.0
 40
3.0
 40
3.0
 10
1.53004912151957
 20
-0.0083934523220756
 30
0.0
 10
1.53004912151957
 20
-0.0083934523220756
 30
0.0
 10
1.522157854197505
 20
-0.0478563595129092
 30
0.0
 10
1.545802088550923
 20
-0.0425933244380051
 30
0.0
 10
1.569512028710454
 20
-0.0373335746534041
 30
0.0
 10
1.58003481356996
 20
-0.0347020571160152
 30
0.0
 10
1.57477177849503
 20
-0.0215477547190201
 30
0.0
 10
1.569512028710454
 20
-0.0083934523220756
 30
0.0
 10
1.551094691238581
 20
-0.0031632701502531
 30
0.0
 10
1.53004912151957
 20
-0.0083934523220756
 30
0.0
  0
SPLINE
  5
AF
330
79
100
AcDbEntity
  8
Layer 1
 62
    18
420
        0
370
     0
100
AcDbSpline
210
0.0
220
0.0
230
1.0
 70
     9
 71
     3
 72
    14
 73
    10
 74
     0
 42
0.0000000001
 43
0.0000000001
 40
0.0
 40
0.0
 40
0.0
 40
0.0
 40
1.0
 40
1.0
 40
1.0
 40
2.0
 40
2.0
 40
2.0
 40
3.0
 40
3.0
 40
3.0
 40
3.0
 10
1.608974935901338
 20
0.0468519895128894
 30
0.0
 10
1.608974935901338
 20
0.0468519895128894
 30
0.0
 10
1.611540747632615
 20
0.0310366019657269
 30
0.0
 10
1.624695050029559
 20
0.0310366019657269
 30
0.0
 10
1.637878920039333
 20
0.0310366019657269
 30
0.0
 10
1.653664739973717
 20
0.0310366019657269
 30
0.0
 10
1.645773472651651
 20
0.0441909043626715
 30
0.0
 10
1.637878920039333
 20
0.0573123538565344
 30
0.0
 10
1.61943201495463
 20
0.0599438713939738
 30
0.0
 10
1.608974935901338
 20
0.0468519895128894
 30
0.0
  0
SPLINE
  5
B0
330
79
100
AcDbEntity
  8
Layer 1
 62
    18
420
        0
370
     0
100
AcDbSpline
210
0.0
220
0.0
230
1.0
 70
     9
 71
     3
 72
    14
 73
    10
 74
     0
 42
0.0000000001
 43
0.0000000001
 40
0.0
 40
0.0
 40
0.0
 40
0.0
 40
1.0
 40
1.0
 40
1.0
 40
2.0
 40
2.0
 40
2.0
 40
3.0
 40
3.0
 40
3.0
 40
3.0
 10
1.637878920039333
 20
0.1257120980884944
 30
0.0
 10
1.637878920039333
 20
0.1257120980884944
 30
0.0
 10
1.629954799814186
 20
0.0915122259724891
 30
0.0
 10
1.651033222436227
 20
0.0941437435099791
 30
0.0
 10
1.672049224542458
 20
0.0967752610473932
 30
0.0
 10
1.682572009402014
 20
0.0994034932945548
 30
0.0
 10
1.677308974327085
 20
0.1151893132289388
 30
0.0
 10
1.672049224542458
 20
0.1309751331633985
 30
0.0
 10
1.653664739973717
 20
0.1414979180228784
 30
0.0
 10
1.637878920039333
 20
0.1257120980884944
 30
0.0
  0
SPLINE
  5
B1
330
79
100
AcDbEntity
  8
Layer 1
 62
    18
420
        0
370
     0
100
AcDbSpline
210
0.0
220
0.0
230
1.0
 70
     9
 71
     3
 72
    14
 73
    10
 74
     0
 42
0.0000000001
 43
0.0000000001
 40
0.0
 40
0.0
 40
0.0
 40
0.0
 40
1.0
 40
1.0
 40
1.0
 40
2.0
 40
2.0
 40
2.0
 40
3.0
 40
3.0
 40
3.0
 40
3.0
 10
1.469540644609676
 20
0.194115127610707
 30
0.0
 10
1.469540644609676
 20
0.194115127610707
 30
0.0
 10
1.456452048018895
 20
0.149389185344944
 30
0.0
 10
1.485359317447192
 20
0.1546522204198734
 30
0.0
 10
1.514263301585136
 20
0.1598824025916706
 30
0.0
 10
1.537940388841636
 20
0.1704051874511757
 30
0.0
 10
1.522157854197505
 20
0.188819239632696
 30
0.0
 10
1.506372034263121
 20
0.2072037242014883
 30
0.0
 10
1.482694947006621
 20
0.2124667592763924
 30
0.0
 10
1.469540644609676
 20
0.194115127610707
 30
0.0
  0
SPLINE
  5
B2
330
79
100
AcDbEntity
  8
Layer 1
 62
    18
420
        0
370
     0
100
AcDbSpline
210
0.0
220
0.0
230
1.0
 70
     9
 71
     3
 72
    14
 73
    10
 74
     0
 42
0.0000000001
 43
0.0000000001
 40
0.0
 40
0.0
 40
0.0
 40
0.0
 40
1.0
 40
1.0
 40
1.0
 40
2.0
 40
2.0
 40
2.0
 40
3.0
 40
3.0
 40
3.0
 40
3.0
 10
1.57477177849503
 20
0.2966523234427364
 30
0.0
 10
1.57477177849503
 20
0.2966523234427364
 30
0.0
 10
1.561620761388439
 20
0.2756034684334483
 30
0.0
 10
1.582666331107399
 20
0.2756034684334483
 30
0.0
 10
1.603679047923328
 20
0.2756034684334483
 30
0.0
 10
1.616800497417191
 20
0.270343718648822
 30
0.0
 10
1.611603168148475
 20
0.2860638327770681
 30
0.0
 10
1.606343418363849
 20
0.3018792203242305
 30
0.0
 10
1.60108038328897
 20
0.3045435907647768
 30
0.0
 10
1.57477177849503
 20
0.2966523234427364
 30
0.0
  0
SPLINE
  5
B3
330
79
100
AcDbEntity
  8
Layer 1
 62
    18
420
        0
370
     0
100
AcDbSpline
210
0.0
220
0.0
230
1.0
 70
     9
 71
     3
 72
    14
 73
    10
 74
     0
 42
0.0000000001
 43
0.0000000001
 40
0.0
 40
0.0
 40
0.0
 40
0.0
 40
1.0
 40
1.0
 40
1.0
 40
2.0
 40
2.0
 40
2.0
 40
3.0
 40
3.0
 40
3.0
 40
3.0
 10
1.64843455780192
 20
0.2308808114579379
 30
0.0
 10
1.64843455780192
 20
0.2308808114579379
 30
0.0
 10
1.614201832782833
 20
0.1756649372357515
 30
0.0
 10
1.64047758467364
 20
0.1730038520855588
 30
0.0
 10
1.66678618946758
 20
0.1704380403542574
 30
0.0
 10
1.682572009402014
 20
0.1704380403542574
 30
0.0
 10
1.682572009402014
 20
0.194115127610707
 30
0.0
 10
1.682572009402014
 20
0.2177265090609681
 30
0.0
 10
1.669417707005019
 20
0.2519263811769481
 30
0.0
 10
1.64843455780192
 20
0.2308808114579379
 30
0.0
  0
SPLINE
  5
B4
330
79
100
AcDbEntity
  8
Layer 1
 62
    18
420
        0
370
     0
100
AcDbSpline
210
0.0
220
0.0
230
1.0
 70
     9
 71
     3
 72
    14
 73
    10
 74
     0
 42
0.0000000001
 43
0.0000000001
 40
0.0
 40
0.0
 40
0.0
 40
0.0
 40
1.0
 40
1.0
 40
1.0
 40
2.0
 40
2.0
 40
2.0
 40
3.0
 40
3.0
 40
3.0
 40
3.0
 10
1.464310462437879
 20
0.4360176236378569
 30
0.0
 10
1.464310462437879
 20
0.4360176236378569
 30
0.0
 10
1.453754824675292
 20
0.4149720539188467
 30
0.0
 10
1.474803679684605
 20
0.4123405363814073
 30
0.0
 10
1.495882102306697
 20
0.4097123041342457
 30
0.0
 10
1.506372034263121
 20
0.4097123041342457
 30
0.0
 10
1.503740516725681
 20
0.4281263563158165
 30
0.0
 10
1.501112284478545
 20
0.4465436937876904
 30
0.0
 10
1.482694947006621
 20
0.4518034435722408
 30
0.0
 10
1.464310462437879
 20
0.4360176236378569
 30
0.0
  0
SPLINE
  5
B5
330
79
100
AcDbEntity
  8
Layer 1
 62
    18
420
        0
370
     0
100
AcDbSpline
210
0.0
220
0.0
230
1.0
 70
     9
 71
     3
 72
    14
 73
    10
 74
     0
 42
0.0000000001
 43
0.0000000001
 40
0.0
 40
0.0
 40
0.0
 40
0.0
 40
1.0
 40
1.0
 40
1.0
 40
2.0
 40
2.0
 40
2.0
 40
3.0
 40
3.0
 40
3.0
 40
3.0
 10
1.590524745526332
 20
0.4675892635066754
 30
0.0
 10
1.590524745526332
 20
0.4675892635066754
 30
0.0
 10
1.590524745526332
 20
0.4491423584220229
 30
0.0
 10
1.603679047923328
 20
0.4491423584220229
 30
0.0
 10
1.616800497417191
 20
0.4491423584220229
 30
0.0
 10
1.627326567567049
 20
0.4491423584220229
 30
0.0
 10
1.624695050029559
 20
0.4596651432815785
 30
0.0
 10
1.62212595300798
 20
0.4702207810441652
 30
0.0
 10
1.60108038328897
 20
0.4780791954630988
 30
0.0
 10
1.590524745526332
 20
0.4675892635066754
 30
0.0
  0
SPLINE
  5
B6
330
79
100
AcDbEntity
  8
Layer 1
 62
    18
420
        0
370
     0
100
AcDbSpline
210
0.0
220
0.0
230
1.0
 70
     9
 71
     3
 72
    14
 73
    10
 74
     0
 42
0.0000000001
 43
0.0000000001
 40
0.0
 40
0.0
 40
0.0
 40
0.0
 40
1.0
 40
1.0
 40
1.0
 40
2.0
 40
2.0
 40
2.0
 40
3.0
 40
3.0
 40
3.0
 40
3.0
 10
1.53268063905706
 20
0.6568778352363248
 30
0.0
 10
1.53268063905706
 20
0.6568778352363248
 30
0.0
 10
1.474803679684605
 20
0.6700321376333199
 30
0.0
 10
1.485359317447192
 20
0.6385262035706394
 30
0.0
 10
1.495882102306697
 20
0.6069578489921242
 30
0.0
 10
1.490619067231818
 20
0.6043263314546846
 30
0.0
 10
1.516894819122626
 20
0.6122175987767503
 30
0.0
 10
1.543203423916515
 20
0.620112151389094
 30
0.0
 10
1.566880511173015
 20
0.6516805059676092
 30
0.0
 10
1.53268063905706
 20
0.6568778352363248
 30
0.0
  0
SPLINE
  5
B7
330
79
100
AcDbEntity
  8
Layer 1
 62
    18
420
        0
370
     0
100
AcDbSpline
210
0.0
220
0.0
230
1.0
 70
     9
 71
     3
 72
    14
 73
    10
 74
     0
 42
0.0000000001
 43
0.0000000001
 40
0.0
 40
0.0
 40
0.0
 40
0.0
 40
1.0
 40
1.0
 40
1.0
 40
2.0
 40
2.0
 40
2.0
 40
3.0
 40
3.0
 40
3.0
 40
3.0
 10
1.60108038328897
 20
0.578017726660745
 30
0.0
 10
1.60108038328897
 20
0.578017726660745
 30
0.0
 10
1.60108038328897
 20
0.5517091218668561
 30
0.0
 10
1.619464867857711
 20
0.5570050098448166
 30
0.0
 10
1.637878920039333
 20
0.5622319067263612
 30
0.0
 10
1.661526439682953
 20
0.56749494180124
 30
0.0
 10
1.651033222436227
 20
0.5806820971012662
 30
0.0
 10
1.64047758467364
 20
0.5938035465951544
 30
0.0
 10
1.614201832782833
 20
0.6016948139171947
 30
0.0
 10
1.60108038328897
 20
0.578017726660745
 30
0.0
  0
SPLINE
  5
B8
330
79
100
AcDbEntity
  8
Layer 1
 62
    18
420
        0
370
     0
100
AcDbSpline
210
0.0
220
0.0
230
1.0
 70
     9
 71
     3
 72
    17
 73
    13
 74
     0
 42
0.0000000001
 43
0.0000000001
 40
0.0
 40
0.0
 40
0.0
 40
0.0
 40
1.0
 40
1.0
 40
1.0
 40
2.0
 40
2.0
 40
2.0
 40
3.0
 40
3.0
 40
3.0
 40
4.0
 40
4.0
 40
4.0
 40
4.0
 10
1.66678618946758
 20
0.6516805059676092
 30
0.0
 10
1.66678618946758
 20
0.6516805059676092
 30
0.0
 10
1.711512131733393
 20
0.6280034187111343
 30
0.0
 10
1.714140363980479
 20
0.6543120235050234
 30
0.0
 10
1.716771881517918
 20
0.6805549224927745
 30
0.0
 10
1.719403399055408
 20
0.7042320097492495
 30
0.0
 10
1.693094794261469
 20
0.7042320097492495
 30
0.0
 10
1.66678618946758
 20
0.7042320097492495
 30
0.0
 10
1.64843455780192
 20
0.7094950448241536
 30
0.0
 10
1.64843455780192
 20
0.6779891107614731
 30
0.0
 10
1.64843455780192
 20
0.6463879032798761
 30
0.0
 10
1.643141955114161
 20
0.6700321376333199
 30
0.0
 10
1.66678618946758
 20
0.6516805059676092
 30
0.0
  0
SPLINE
  5
B9
330
79
100
AcDbEntity
  8
Layer 1
 62
    18
420
        0
370
     0
100
AcDbSpline
210
0.0
220
0.0
230
1.0
 70
     9
 71
     3
 72
    14
 73
    10
 74
     0
 42
0.0000000001
 43
0.0000000001
 40
0.0
 40
0.0
 40
0.0
 40
0.0
 40
1.0
 40
1.0
 40
1.0
 40
2.0
 40
2.0
 40
2.0
 40
3.0
 40
3.0
 40
3.0
 40
3.0
 10
0.2217413912136155
 20
-0.1663042163111186
 30
0.0
 10
0.2217413912136155
 20
-0.1663042163111186
 30
0.0
 10
0.2191098736762013
 20
-0.1321043441951638
 30
0.0
 10
0.2401225904921047
 20
-0.1374002321731243
 30
0.0
 10
0.261171445501418
 20
-0.1426599819577505
 30
0.0
 10
0.266431195286019
 20
-0.1426599819577505
 30
0.0
 10
0.261171445501418
 20
-0.1557814314516135
 30
0.0
 10
0.2559248368780547
 20
-0.1689357338485833
 30
0.0
 10
0.2427541080295694
 20
-0.1820900362455025
 30
0.0
 10
0.2217413912136155
 20
-0.1663042163111186
 30
0.0
  0
SPLINE
  5
BA
330
79
100
AcDbEntity
  8
Layer 1
 62
    18
420
        0
370
     0
100
AcDbSpline
210
0.0
220
0.0
230
1.0
 70
     9
 71
     3
 72
    14
 73
    10
 74
     0
 42
0.0000000001
 43
0.0000000001
 40
0.0
 40
0.0
 40
0.0
 40
0.0
 40
1.0
 40
1.0
 40
1.0
 40
2.0
 40
2.0
 40
2.0
 40
3.0
 40
3.0
 40
3.0
 40
3.0
 10
0.3006146409504329
 20
-0.0453529682975437
 30
0.0
 10
0.3006146409504329
 20
-0.0453529682975437
 30
0.0
 10
0.2927562265314742
 20
-0.0058900611066848
 30
0.0
 10
0.3164004608848421
 20
-0.0190443635036546
 30
0.0
 10
0.3400939745928579
 20
-0.0321986659005486
 30
0.0
 10
0.3584620327100841
 20
-0.0427214507601043
 30
0.0
 10
0.3400939745928579
 20
-0.0506160033724478
 30
0.0
 10
0.3216306430566647
 20
-0.0585072706944882
 30
0.0
 10
0.3164004608848421
 20
-0.0558757531569983
 30
0.0
 10
0.3006146409504329
 20
-0.0453529682975437
 30
0.0
  0
SPLINE
  5
BB
330
79
100
AcDbEntity
  8
Layer 1
 62
    18
420
        0
370
     0
100
AcDbSpline
210
0.0
220
0.0
230
1.0
 70
     9
 71
     3
 72
    14
 73
    10
 74
     0
 42
0.0000000001
 43
0.0000000001
 40
0.0
 40
0.0
 40
0.0
 40
0.0
 40
1.0
 40
1.0
 40
1.0
 40
2.0
 40
2.0
 40
2.0
 40
3.0
 40
3.0
 40
3.0
 40
3.0
 10
0.2585563544155068
 20
0.1466295414854307
 30
0.0
 10
0.2585563544155068
 20
0.1466295414854307
 30
0.0
 10
0.2506618018031632
 20
0.1676783964947188
 30
0.0
 10
0.266431195286019
 20
0.1676783964947188
 30
0.0
 10
0.2822005887689127
 20
0.1676783964947188
 30
0.0
 10
0.2901082825424813
 20
0.1650468789573046
 30
0.0
 10
0.2901082825424813
 20
0.1545240940978248
 30
0.0
 10
0.2901082825424813
 20
0.1440013092382944
 30
0.0
 10
0.2795690712314354
 20
0.1334785243787893
 30
0.0
 10
0.2585563544155068
 20
0.1466295414854307
 30
0.0
  0
SPLINE
  5
BC
330
79
100
AcDbEntity
  8
Layer 1
 62
    18
420
        0
370
     0
100
AcDbSpline
210
0.0
220
0.0
230
1.0
 70
     9
 71
     3
 72
    17
 73
    13
 74
     0
 42
0.0000000001
 43
0.0000000001
 40
0.0
 40
0.0
 40
0.0
 40
0.0
 40
1.0
 40
1.0
 40
1.0
 40
2.0
 40
2.0
 40
2.0
 40
3.0
 40
3.0
 40
3.0
 40
4.0
 40
4.0
 40
4.0
 40
4.0
 10
0.0008319002605504
 20
1.061763583489487
 30
0.0
 10
0.0008319002605504
 20
1.061763583489487
 30
0.0
 10
-0.017598578372536
 20
1.093335223358356
 30
0.0
 10
0.0034469913464616
 20
1.098594973142932
 30
0.0
 10
0.0245122728073284
 20
1.10388757583064
 30
0.0
 10
0.032387113677828
 20
1.109117758002462
 30
0.0
 10
0.0455414160747725
 20
1.093335223358356
 30
0.0
 10
0.0586792920202015
 20
1.077549403423947
 30
0.0
 10
0.0692020768797066
 20
1.056503833704911
 30
0.0
 10
0.050771598246595
 20
1.051306504436196
 30
0.0
 10
0.032387113677828
 20
1.046043469361267
 30
0.0
 10
0.0245122728073284
 20
1.051306504436196
 30
0.0
 10
0.0008319002605504
 20
1.061763583489487
 30
0.0
  0
SPLINE
  5
BD
330
79
100
AcDbEntity
  8
Layer 1
 62
    18
420
        0
370
     0
100
AcDbSpline
210
0.0
220
0.0
230
1.0
 70
     9
 71
     3
 72
    14
 73
    10
 74
     0
 42
0.0000000001
 43
0.0000000001
 40
0.0
 40
0.0
 40
0.0
 40
0.0
 40
1.0
 40
1.0
 40
1.0
 40
2.0
 40
2.0
 40
2.0
 40
3.0
 40
3.0
 40
3.0
 40
3.0
 10
0.2269715733854506
 20
1.040780434286388
 30
0.0
 10
0.2269715733854506
 20
1.040780434286388
 30
0.0
 10
0.2190934472246605
 20
1.080180920961361
 30
0.0
 10
0.2427541080295694
 20
1.074950738789564
 30
0.0
 10
0.266431195286019
 20
1.069687703714635
 30
0.0
 10
0.2769704065970775
 20
1.067026618564417
 30
0.0
 10
0.2716942303609231
 20
1.053905169070554
 30
0.0
 10
0.266431195286019
 20
1.040780434286388
 30
0.0
 10
0.2480171431044861
 20
1.035520684501812
 30
0.0
 10
0.2269715733854506
 20
1.040780434286388
 30
0.0
  0
SPLINE
  5
BE
330
79
100
AcDbEntity
  8
Layer 1
 62
    18
420
        0
370
     0
100
AcDbSpline
210
0.0
220
0.0
230
1.0
 70
     9
 71
     3
 72
    14
 73
    10
 74
     0
 42
0.0000000001
 43
0.0000000001
 40
0.0
 40
0.0
 40
0.0
 40
0.0
 40
1.0
 40
1.0
 40
1.0
 40
2.0
 40
2.0
 40
2.0
 40
3.0
 40
3.0
 40
3.0
 40
3.0
 10
0.3058941024769031
 20
0.9855349924514232
 30
0.0
 10
0.3058941024769031
 20
0.9855349924514232
 30
0.0
 10
0.3084927671112736
 20
1.001320812385807
 30
0.0
 10
0.3216306430566647
 20
1.001320812385807
 30
0.0
 10
0.3348013719051753
 20
1.001320812385807
 30
0.0
 10
0.3505839065492688
 20
1.0012879594827
 30
0.0
 10
0.34272549213031
 20
0.9881665099888879
 30
0.0
 10
0.3348013719051753
 20
0.9750122075919181
 30
0.0
 10
0.3163840344333266
 20
0.972380690054428
 30
0.0
 10
0.3058941024769031
 20
0.9855349924514232
 30
0.0
  0
SPLINE
  5
BF
330
79
100
AcDbEntity
  8
Layer 1
 62
    18
420
        0
370
     0
100
AcDbSpline
210
0.0
220
0.0
230
1.0
 70
     9
 71
     3
 72
    14
 73
    10
 74
     0
 42
0.0000000001
 43
0.0000000001
 40
0.0
 40
0.0
 40
0.0
 40
0.0
 40
1.0
 40
1.0
 40
1.0
 40
2.0
 40
2.0
 40
2.0
 40
3.0
 40
3.0
 40
3.0
 40
3.0
 10
0.3348013719051753
 20
0.9066420309727366
 30
0.0
 10
0.3348013719051753
 20
0.9066420309727366
 30
0.0
 10
0.3269232457443473
 20
0.9408123354759128
 30
0.0
 10
0.3479556743021197
 20
0.9381808179384734
 30
0.0
 10
0.3689848175695892
 20
0.9355493004009833
 30
0.0
 10
0.3795404553321886
 20
0.9329177828635945
 30
0.0
 10
0.3742774202572718
 20
0.9171352482194631
 30
0.0
 10
0.3689848175695892
 20
0.9014151340912423
 30
0.0
 10
0.3505839065492688
 20
0.8908890639414341
 30
0.0
 10
0.3348013719051753
 20
0.9066420309727366
 30
0.0
  0
SPLINE
  5
C0
330
79
100
AcDbEntity
  8
Layer 1
 62
    18
420
        0
370
     0
100
AcDbSpline
210
0.0
220
0.0
230
1.0
 70
     9
 71
     3
 72
    14
 73
    10
 74
     0
 42
0.0000000001
 43
0.0000000001
 40
0.0
 40
0.0
 40
0.0
 40
0.0
 40
1.0
 40
1.0
 40
1.0
 40
2.0
 40
2.0
 40
2.0
 40
3.0
 40
3.0
 40
3.0
 40
3.0
 10
0.1664926640883727
 20
0.8382751396439591
 30
0.0
 10
0.1664926640883727
 20
0.8382751396439591
 30
0.0
 10
0.1533547881429437
 20
0.8829353761035083
 30
0.0
 10
0.1823113369258635
 20
0.8777051939317111
 30
0.0
 10
0.2112021799025948
 20
0.8724750117598887
 30
0.0
 10
0.2348792671590698
 20
0.8619522269003836
 30
0.0
 10
0.2190934472246605
 20
0.8435348894285096
 30
0.0
 10
0.2033076272902261
 20
0.8251208372469641
 30
0.0
 10
0.1796469664853172
 20
0.8198578021720599
 30
0.0
 10
0.1664926640883727
 20
0.8382751396439591
 30
0.0
  0
SPLINE
  5
C1
330
79
100
AcDbEntity
  8
Layer 1
 62
    18
420
        0
370
     0
100
AcDbSpline
210
0.0
220
0.0
230
1.0
 70
     9
 71
     3
 72
    14
 73
    10
 74
     0
 42
0.0000000001
 43
0.0000000001
 40
0.0
 40
0.0
 40
0.0
 40
0.0
 40
1.0
 40
1.0
 40
1.0
 40
2.0
 40
2.0
 40
2.0
 40
3.0
 40
3.0
 40
3.0
 40
3.0
 10
0.2716942303609231
 20
0.7357050909087977
 30
0.0
 10
0.2716942303609231
 20
0.7357050909087977
 30
0.0
 10
0.2585727808670602
 20
0.7567210930150293
 30
0.0
 10
0.2795854976829888
 20
0.7567210930150293
 30
0.0
 10
0.3006146409504329
 20
0.7567210930150293
 30
0.0
 10
0.3137689433474154
 20
0.7619808427996051
 30
0.0
 10
0.3085091935628144
 20
0.746195022865196
 30
0.0
 10
0.3032625849394384
 20
0.7304453411241968
 30
0.0
 10
0.2980028351548374
 20
0.7278466764898642
 30
0.0
 10
0.2716942303609231
 20
0.7357050909087977
 30
0.0
  0
SPLINE
  5
C2
330
79
100
AcDbEntity
  8
Layer 1
 62
    18
420
        0
370
     0
100
AcDbSpline
210
0.0
220
0.0
230
1.0
 70
     9
 71
     3
 72
    14
 73
    10
 74
     0
 42
0.0000000001
 43
0.0000000001
 40
0.0
 40
0.0
 40
0.0
 40
0.0
 40
1.0
 40
1.0
 40
1.0
 40
2.0
 40
2.0
 40
2.0
 40
3.0
 40
3.0
 40
3.0
 40
3.0
 10
0.3453241567646677
 20
0.8014437499905145
 30
0.0
 10
0.3453241567646677
 20
0.8014437499905145
 30
0.0
 10
0.3111407111002791
 20
0.8566891918254794
 30
0.0
 10
0.3374460306038776
 20
0.8593207093629189
 30
0.0
 10
0.363721782494685
 20
0.8619522269003836
 30
0.0
 10
0.3795404553321886
 20
0.8619522269003836
 30
0.0
 10
0.3795404553321886
 20
0.8382751396439591
 30
0.0
 10
0.3795404553321886
 20
0.8145980523874085
 30
0.0
 10
0.3663697264836906
 20
0.780427747884308
 30
0.0
 10
0.3453241567646677
 20
0.8014437499905145
 30
0.0
  0
SPLINE
  5
C3
330
79
100
AcDbEntity
  8
Layer 1
 62
    18
420
        0
370
     0
100
AcDbSpline
210
0.0
220
0.0
230
1.0
 70
     9
 71
     3
 72
    14
 73
    10
 74
     0
 42
0.0000000001
 43
0.0000000001
 40
0.0
 40
0.0
 40
0.0
 40
0.0
 40
1.0
 40
1.0
 40
1.0
 40
2.0
 40
2.0
 40
2.0
 40
3.0
 40
3.0
 40
3.0
 40
3.0
 10
0.1612493407553251
 20
0.596303652520242
 30
0.0
 10
0.1612493407553251
 20
0.596303652520242
 30
0.0
 10
0.1507232706055043
 20
0.6173525075295553
 30
0.0
 10
0.1717556991632642
 20
0.6199840250670706
 30
0.0
 10
0.192801268882287
 20
0.6226122573141816
 30
0.0
 10
0.2033240537417669
 20
0.6226122573141816
 30
0.0
 10
0.2006793950430898
 20
0.6041982051326614
 30
0.0
 10
0.1980643039571785
 20
0.5858465734669506
 30
0.0
 10
0.179663392936858
 20
0.5805211178761358
 30
0.0
 10
0.1612493407553251
 20
0.596303652520242
 30
0.0
  0
SPLINE
  5
C4
330
79
100
AcDbEntity
  8
Layer 1
 62
    18
420
        0
370
     0
100
AcDbSpline
210
0.0
220
0.0
230
1.0
 70
     9
 71
     3
 72
    14
 73
    10
 74
     0
 42
0.0000000001
 43
0.0000000001
 40
0.0
 40
0.0
 40
0.0
 40
0.0
 40
1.0
 40
1.0
 40
1.0
 40
2.0
 40
2.0
 40
2.0
 40
3.0
 40
3.0
 40
3.0
 40
3.0
 10
0.2874767650050165
 20
0.5647352979417266
 30
0.0
 10
0.2874767650050165
 20
0.5647352979417266
 30
0.0
 10
0.2874767650050165
 20
0.5831822030263791
 30
0.0
 10
0.3006146409504329
 20
0.5831822030263791
 30
0.0
 10
0.3137689433474154
 20
0.5831822030263791
 30
0.0
 10
0.3242785870456575
 20
0.5831822030263791
 30
0.0
 10
0.3216306430566647
 20
0.5726922710699808
 30
0.0
 10
0.3190319784223068
 20
0.5621694862105262
 30
0.0
 10
0.2980028351548374
 20
0.5542125130822468
 30
0.0
 10
0.2874767650050165
 20
0.5647352979417266
 30
0.0
  0
SPLINE
  5
C5
330
79
100
AcDbEntity
  8
Layer 1
 62
    18
420
        0
370
     0
100
AcDbSpline
210
0.0
220
0.0
230
1.0
 70
     9
 71
     3
 72
    14
 73
    10
 74
     0
 42
0.0000000001
 43
0.0000000001
 40
0.0
 40
0.0
 40
0.0
 40
0.0
 40
1.0
 40
1.0
 40
1.0
 40
2.0
 40
2.0
 40
2.0
 40
3.0
 40
3.0
 40
3.0
 40
3.0
 10
0.2296162320841404
 20
0.3754138733090207
 30
0.0
 10
0.2296162320841404
 20
0.3754138733090207
 30
0.0
 10
0.1717556991632642
 20
0.3622924238151578
 30
0.0
 10
0.1823113369258635
 20
0.3938607783936732
 30
0.0
 10
0.192801268882287
 20
0.42539956535941
 30
0.0
 10
0.1875250926461452
 20
0.4280310828968494
 30
0.0
 10
0.2138468386012846
 20
0.4201069626717021
 30
0.0
 10
0.2401225904921047
 20
0.4122781158655471
 30
0.0
 10
0.2638161042001204
 20
0.3807064759966781
 30
0.0
 10
0.2296162320841404
 20
0.3754138733090207
 30
0.0
  0
SPLINE
  5
C6
330
79
100
AcDbEntity
  8
Layer 1
 62
    18
420
        0
370
     0
100
AcDbSpline
210
0.0
220
0.0
230
1.0
 70
     9
 71
     3
 72
    14
 73
    10
 74
     0
 42
0.0000000001
 43
0.0000000001
 40
0.0
 40
0.0
 40
0.0
 40
0.0
 40
1.0
 40
1.0
 40
1.0
 40
2.0
 40
2.0
 40
2.0
 40
3.0
 40
3.0
 40
3.0
 40
3.0
 10
0.2979864087032966
 20
0.4543068347877326
 30
0.0
 10
0.2979864087032966
 20
0.4543068347877326
 30
0.0
 10
0.2979864087032966
 20
0.4805825866784895
 30
0.0
 10
0.3164004608848421
 20
0.4753524045066671
 30
0.0
 10
0.3348013719051753
 20
0.4700926547221166
 30
0.0
 10
0.3584620327100841
 20
0.4648296196471872
 30
0.0
 10
0.3479556743021197
 20
0.4517081701533244
 30
0.0
 10
0.3374460306038776
 20
0.4385210148532224
 30
0.0
 10
0.3111407111002791
 20
0.4306297475312073
 30
0.0
 10
0.2979864087032966
 20
0.4543068347877326
 30
0.0
  0
SPLINE
  5
C7
330
79
100
AcDbEntity
  8
Layer 1
 62
    18
420
        0
370
     0
100
AcDbSpline
210
0.0
220
0.0
230
1.0
 70
     9
 71
     3
 72
    17
 73
    13
 74
     0
 42
0.0000000001
 43
0.0000000001
 40
0.0
 40
0.0
 40
0.0
 40
0.0
 40
1.0
 40
1.0
 40
1.0
 40
2.0
 40
2.0
 40
2.0
 40
3.0
 40
3.0
 40
3.0
 40
4.0
 40
4.0
 40
4.0
 40
4.0
 10
0.363721782494685
 20
0.3807064759966781
 30
0.0
 10
0.363721782494685
 20
0.3807064759966781
 30
0.0
 10
0.4084477247604607
 20
0.4043539956403998
 30
0.0
 10
0.4110792422979128
 20
0.3780782437495671
 30
0.0
 10
0.4137239009965899
 20
0.3517696389556527
 30
0.0
 10
0.4163389920825138
 20
0.3280925516992283
 30
0.0
 10
0.3900303872885994
 20
0.3280925516992283
 30
0.0
 10
0.363721782494685
 20
0.3280925516992283
 30
0.0
 10
0.3453241567646677
 20
0.322829516624299
 30
0.0
 10
0.3453241567646677
 20
0.3544011564930921
 30
0.0
 10
0.3453241567646677
 20
0.3859695110716075
 30
0.0
 10
0.3400939745928579
 20
0.3622267180089693
 30
0.0
 10
0.363721782494685
 20
0.3807064759966781
 30
0.0
  0
SPLINE
  5
C8
330
79
100
AcDbEntity
  8
Layer 1
 62
    18
420
        0
370
     0
100
AcDbSpline
210
0.0
220
0.0
230
1.0
 70
     9
 71
     3
 72
    14
 73
    10
 74
     0
 42
0.0000000001
 43
0.0000000001
 40
0.0
 40
0.0
 40
0.0
 40
0.0
 40
1.0
 40
1.0
 40
1.0
 40
2.0
 40
2.0
 40
2.0
 40
3.0
 40
3.0
 40
3.0
 40
3.0
 10
-0.0416271916920752
 20
0.1098638576381745
 30
0.0
 10
-0.0416271916920752
 20
0.1098638576381745
 30
0.0
 10
-0.0652878524969841
 20
0.130879859744381
 30
0.0
 10
-0.033752350821563
 20
0.1387711270664719
 30
0.0
 10
-0.0021971374042854
 20
0.1466623943885123
 30
0.0
 10
0.0083092210036789
 20
0.1466623943885123
 30
0.0
 10
0.010940738541131
 20
0.1282811951100737
 30
0.0
 10
0.0136018236913742
 20
0.1098638576381745
 30
0.0
 10
-0.0074765989307177
 20
0.0993410727786947
 30
0.0
 10
-0.0416271916920752
 20
0.1098638576381745
 30
0.0
  0
SPLINE
  5
C9
330
79
100
AcDbEntity
  8
Layer 1
 62
    18
420
        0
370
     0
100
AcDbSpline
210
0.0
220
0.0
230
1.0
 70
     9
 71
     3
 72
    14
 73
    10
 74
     0
 42
0.0000000001
 43
0.0000000001
 40
0.0
 40
0.0
 40
0.0
 40
0.0
 40
1.0
 40
1.0
 40
1.0
 40
2.0
 40
2.0
 40
2.0
 40
3.0
 40
3.0
 40
3.0
 40
3.0
 10
-0.0364134359717936
 20
0.1782011813542744
 30
0.0
 10
-0.0364134359717936
 20
0.1782011813542744
 30
0.0
 10
-0.06006095561549
 20
0.2124010534702039
 30
0.0
 10
-0.033752350821563
 20
0.2150325710076433
 30
0.0
 10
-0.0074765989307177
 20
0.2176640885451333
 30
0.0
 10
-0.0074765989307177
 20
0.2124010534702039
 30
0.0
 10
0.0004310948428636
 20
0.1966809393419832
 30
0.0
 10
0.0083092210036789
 20
0.1808951194075487
 30
0.0
 10
-0.0127363487153187
 20
0.1651092994731395
 30
0.0
 10
-0.0364134359717936
 20
0.1782011813542744
 30
0.0
  0
SPLINE
  5
CA
330
79
100
AcDbEntity
  8
Layer 1
 62
    18
420
        0
370
     0
100
AcDbSpline
210
0.0
220
0.0
230
1.0
 70
     9
 71
     3
 72
    14
 73
    10
 74
     0
 42
0.0000000001
 43
0.0000000001
 40
0.0
 40
0.0
 40
0.0
 40
0.0
 40
1.0
 40
1.0
 40
1.0
 40
2.0
 40
2.0
 40
2.0
 40
3.0
 40
3.0
 40
3.0
 40
3.0
 10
0.0004310948428636
 20
0.3018167998083451
 30
0.0
 10
0.0004310948428636
 20
0.3018167998083451
 30
0.0
 10
-0.0153514398012299
 20
0.3334180072899926
 30
0.0
 10
0.0083092210036789
 20
0.3307864897524774
 30
0.0
 10
0.0319698818085751
 20
0.3281254046022594
 30
0.0
 10
0.0556633955165909
 20
0.3307864897524774
 30
0.0
 10
0.0477721281945378
 20
0.3150006698180934
 30
0.0
 10
0.0398775755821943
 20
0.2992181351739873
 30
0.0
 10
0.0214635234006235
 20
0.2965209118303594
 30
0.0
 10
0.0004310948428636
 20
0.3018167998083451
 30
0.0
  0
SPLINE
  5
CB
330
79
100
AcDbEntity
  8
Layer 1
 62
    18
420
        0
370
     0
100
AcDbSpline
210
0.0
220
0.0
230
1.0
 70
     9
 71
     3
 72
    14
 73
    10
 74
     0
 42
0.0000000001
 43
0.0000000001
 40
0.0
 40
0.0
 40
0.0
 40
0.0
 40
1.0
 40
1.0
 40
1.0
 40
2.0
 40
2.0
 40
2.0
 40
3.0
 40
3.0
 40
3.0
 40
3.0
 10
2.031184019953494
 20
0.0310366019657269
 30
0.0
 10
2.031184019953494
 20
0.0310366019657269
 30
0.0
 10
2.007506932697045
 20
0.0520493187816303
 30
0.0
 10
2.039078572565864
 20
0.0599438713939738
 30
0.0
 10
2.070646927144379
 20
0.0678351387160395
 30
0.0
 10
2.081107291488024
 20
0.0678351387160395
 30
0.0
 10
2.083768376638241
 20
0.0494210865344687
 30
0.0
 10
2.086399894175681
 20
0.0310366019657269
 30
0.0
 10
2.0653838920695
 20
0.0205138171062218
 30
0.0
 10
2.031184019953494
 20
0.0310366019657269
 30
0.0
  0
SPLINE
  5
CC
330
79
100
AcDbEntity
  8
Layer 1
 62
    18
420
        0
370
     0
100
AcDbSpline
210
0.0
220
0.0
230
1.0
 70
     9
 71
     3
 72
    14
 73
    10
 74
     0
 42
0.0000000001
 43
0.0000000001
 40
0.0
 40
0.0
 40
0.0
 40
0.0
 40
1.0
 40
1.0
 40
1.0
 40
2.0
 40
2.0
 40
2.0
 40
3.0
 40
3.0
 40
3.0
 40
3.0
 10
2.036447055028424
 20
0.0994034932945548
 30
0.0
 10
2.036447055028424
 20
0.0994034932945548
 30
0.0
 10
2.012769967771924
 20
0.1335409448946241
 30
0.0
 10
2.039078572565864
 20
0.136205315335221
 30
0.0
 10
2.0653838920695
 20
0.1388039799695282
 30
0.0
 10
2.0653838920695
 20
0.1336066507008127
 30
0.0
 10
2.073278444681818
 20
0.1178208307664287
 30
0.0
 10
2.081107291488024
 20
0.1020350108320448
 30
0.0
 10
2.060124142284874
 20
0.0862820438006919
 30
0.0
 10
2.036447055028424
 20
0.0994034932945548
 30
0.0
  0
SPLINE
  5
CD
330
79
100
AcDbEntity
  8
Layer 1
 62
    18
420
        0
370
     0
100
AcDbSpline
210
0.0
220
0.0
230
1.0
 70
     9
 71
     3
 72
    14
 73
    10
 74
     0
 42
0.0000000001
 43
0.0000000001
 40
0.0
 40
0.0
 40
0.0
 40
0.0
 40
1.0
 40
1.0
 40
1.0
 40
2.0
 40
2.0
 40
2.0
 40
3.0
 40
3.0
 40
3.0
 40
3.0
 10
2.073278444681818
 20
0.2229895441358975
 30
0.0
 10
2.073278444681818
 20
0.2229895441358975
 30
0.0
 10
2.057492624747434
 20
0.2545578987144129
 30
0.0
 10
2.081107291488024
 20
0.2519263811769481
 30
0.0
 10
2.104846799260333
 20
0.2492948636395087
 30
0.0
 10
2.128491033613701
 20
0.2519263811769481
 30
0.0
 10
2.120566913388604
 20
0.2361438465328673
 30
0.0
 10
2.112708498969621
 20
0.2203580265984834
 30
0.0
 10
2.094291161497747
 20
0.2177265090609681
 30
0.0
 10
2.073278444681818
 20
0.2229895441358975
 30
0.0
  0
SPLINE
  5
CE
330
79
100
AcDbEntity
  8
Layer 1
 62
    18
420
        0
370
     0
100
AcDbSpline
210
0.0
220
0.0
230
1.0
 70
     9
 71
     3
 72
    17
 73
    13
 74
     0
 42
0.0000000001
 43
0.0000000001
 40
0.0
 40
0.0
 40
0.0
 40
0.0
 40
1.0
 40
1.0
 40
1.0
 40
2.0
 40
2.0
 40
2.0
 40
3.0
 40
3.0
 40
3.0
 40
4.0
 40
4.0
 40
4.0
 40
4.0
 10
0.328831999413852
 20
1.146461652944051
 30
0.0
 10
0.328831999413852
 20
1.146461652944051
 30
0.0
 10
0.3104015207807657
 20
1.114959004171724
 30
0.0
 10
0.3314470904997632
 20
1.10969596909682
 30
0.0
 10
0.352463092605995
 20
1.104432934021891
 30
0.0
 10
0.3603543599280354
 20
1.099107478431126
 30
0.0
 10
0.3734922358734644
 20
1.114893298365536
 30
0.0
 10
0.3866465382703836
 20
1.130679118299945
 30
0.0
 10
0.3971364702268323
 20
1.151724688018955
 30
0.0
 10
0.3787848385611217
 20
1.156987723093884
 30
0.0
 10
0.3603543599280354
 20
1.16224747287846
 30
0.0
 10
0.352463092605995
 20
1.156987723093884
 30
0.0
 10
0.328831999413852
 20
1.146461652944051
 30
0.0
  0
SPLINE
  5
CF
330
79
100
AcDbEntity
  8
Layer 1
 62
    18
420
        0
370
     0
100
AcDbSpline
210
0.0
220
0.0
230
1.0
 70
     9
 71
     3
 72
    14
 73
    10
 74
     0
 42
0.0000000001
 43
0.0000000001
 40
0.0
 40
0.0
 40
0.0
 40
0.0
 40
1.0
 40
1.0
 40
1.0
 40
2.0
 40
2.0
 40
2.0
 40
3.0
 40
3.0
 40
3.0
 40
3.0
 10
0.5549388196356581
 20
1.167510507953364
 30
0.0
 10
0.5549388196356581
 20
1.167510507953364
 30
0.0
 10
0.547060693474868
 20
1.128047600762505
 30
0.0
 10
0.5707377807313176
 20
1.133310635837435
 30
0.0
 10
0.5943820150846856
 20
1.138570385621985
 30
0.0
 10
0.604937652847285
 20
1.14126432367531
 30
0.0
 10
0.5996943295142375
 20
1.154356205556395
 30
0.0
 10
0.5943820150846856
 20
1.167510507953364
 30
0.0
 10
0.5760172422577878
 20
1.172770257737991
 30
0.0
 10
0.5549388196356581
 20
1.167510507953364
 30
0.0
  0
SPLINE
  5
D0
330
79
100
AcDbEntity
  8
Layer 1
 62
    18
420
        0
370
     0
100
AcDbSpline
210
0.0
220
0.0
230
1.0
 70
     9
 71
     3
 72
    14
 73
    10
 74
     0
 42
0.0000000001
 43
0.0000000001
 40
0.0
 40
0.0
 40
0.0
 40
0.0
 40
1.0
 40
1.0
 40
1.0
 40
2.0
 40
2.0
 40
2.0
 40
3.0
 40
3.0
 40
3.0
 40
3.0
 10
0.6338284958240163
 20
1.222755949788329
 30
0.0
 10
0.6338284958240163
 20
1.222755949788329
 30
0.0
 10
0.6364764398130217
 20
1.20697012985392
 30
0.0
 10
0.6496471686615198
 20
1.20697012985392
 30
0.0
 10
0.6628014710584896
 20
1.20697012985392
 30
0.0
 10
0.6785675792510296
 20
1.20697012985392
 30
0.0
 10
0.6706763119289639
 20
1.220124432250915
 30
0.0
 10
0.6628014710584896
 20
1.233278734647809
 30
0.0
 10
0.6443677071350496
 20
1.235877399282218
 30
0.0
 10
0.6338284958240163
 20
1.222755949788329
 30
0.0
  0
INSERT
  5
D2
330
79
100
AcDbEntity
  8
Layer 1
100
AcDbBlockReference
  2
Block_1
 10
0.0
 20
0.0
 30
0.0
  0
INSERT
  5
DA
330
79
100
AcDbEntity
  8
Layer 1
100
AcDbBlockReference
  2
Block_2
 10
0.0
 20
0.0
 30
0.0
  0
SPLINE
  5
DF
330
79
100
AcDbEntity
  8
Layer 1
100
AcDbSpline
210
0.0
220
0.0
230
1.0
 70
    11
 71
     3
 72
    23
 73
    19
 74
     0
 42
0.0000000001
 43
0.0000000001
 40
0.0
 40
0.0
 40
0.0
 40
0.0
 40
1.0
 40
1.0
 40
1.0
 40
2.0
 40
2.0
 40
2.0
 40
3.0
 40
3.0
 40
3.0
 40
4.0
 40
4.0
 40
4.0
 40
5.0
 40
5.0
 40
5.0
 40
6.0
 40
6.0
 40
6.0
 40
6.0
 10
2.718400952221398
 20
2.686779766515289
 30
0.0
 10
2.718400952221398
 20
2.686779766515289
 30
0.0
 10
2.508963700317912
 20
2.900918268732084
 30
0.0
 10
2.442745390523921
 20
2.962691580850382
 30
0.0
 10
2.380824240345494
 20
3.020427271280987
 30
0.0
 10
2.03368741116891
 20
3.375504724190477
 30
0.0
 10
1.997434232609874
 20
3.436269452209406
 30
0.0
 10
1.997434232609874
 20
3.436269452209406
 30
0.0
 10
2.065771556325924
 20
3.505970169642877
 30
0.0
 10
2.065771556325924
 20
3.505970169642877
 30
0.0
 10
2.065771556325924
 20
3.505970169642877
 30
0.0
 10
2.290127233078035
 20
3.306927576014269
 30
0.0
 10
2.357531532643608
 20
3.246386247730697
 30
0.0
 10
2.420477693372554
 20
3.189790553008479
 30
0.0
 10
2.774162279189011
 20
2.841178551263636
 30
0.0
 10
2.811506077224445
 20
2.781103734192166
 30
0.0
 10
2.811506077224445
 20
2.781103734192166
 30
0.0
 10
2.718400952221398
 20
2.686779766515289
 30
0.0
 10
2.718400952221398
 20
2.686779766515289
 30
0.0
  0
HATCH
  5
E0
330
79
100
AcDbEntity
  8
Layer 1
 62
    31
420
 16042906
440
 33554687
100
AcDbHatch
 10
0.0
 20
0.0
 30
0.0
210
0.0
220
0.0
230
1.0
  2
SOLID
 70
     1
 71
     1
 91
        1
 92
        1
 93
        1
 72
     4
 94
        3
 73
     0
 74
     0
 95
       23
 96
       19
 40
0.0
 40
0.0
 40
0.0
 40
0.0
 40
1.0
 40
1.0
 40
1.0
 40
2.0
 40
2.0
 40
2.0
 40
3.0
 40
3.0
 40
3.0
 40
4.0
 40
4.0
 40
4.0
 40
5.0
 40
5.0
 40
5.0
 40
6.0
 40
6.0
 40
6.0
 40
6.0
 10
2.718400952221398
 20
2.686779766515289
 10
2.718400952221398
 20
2.686779766515289
 10
2.508963700317912
 20
2.900918268732084
 10
2.442745390523921
 20
2.962691580850382
 10
2.380824240345494
 20
3.020427271280987
 10
2.03368741116891
 20
3.375504724190477
 10
1.997434232609874
 20
3.436269452209406
 10
1.997434232609874
 20
3.436269452209406
 10
2.065771556325924
 20
3.505970169642877
 10
2.065771556325924
 20
3.505970169642877
 10
2.065771556325924
 20
3.505970169642877
 10
2.290127233078035
 20
3.306927576014269
 10
2.357531532643608
 20
3.246386247730697
 10
2.420477693372554
 20
3.189790553008479
 10
2.774162279189011
 20
2.841178551263636
 10
2.811506077224445
 20
2.781103734192166
 10
2.811506077224445
 20
2.781103734192166
 10
2.718400952221398
 20
2.686779766515289
 10
2.718400952221398
 20
2.686779766515289
 97
        0
 97
        1
330
DF
 75
     2
 76
     1
 98
        1
 10
0.0
 20
0.0
450
        0
451
        0
460
0.0
461
0.0
452
        0
462
0.0
453
        0
470

  0
LWPOLYLINE
  5
E1
330
79
100
AcDbEntity
  8
Layer 1
100
AcDbPolyline
 90
        8
 70
     1
 43
0.0
 10
1.684559610038882
 20
3.439492444577858
 10
1.82084987850486
 20
3.292682557594616
 10
1.946870329465127
 20
3.388593320450606
 10
2.150403919974299
 20
3.592639411093323
 10
2.244343511067806
 20
3.709533322622392
 10
2.102280987529108
 20
3.855304935237427
 10
1.974525903285666
 20
3.762695889058502
 10
1.776639726817595
 20
3.567904460982238
  0
HATCH
  5
E2
330
79
100
AcDbEntity
  8
Layer 1
 62
   254
420
 13358815
440
 33554687
100
AcDbHatch
 10
0.0
 20
0.0
 30
0.0
210
0.0
220
0.0
230
1.0
  2
SOLID
 70
     1
 71
     1
 91
        1
 92
        1
 93
        8
 72
     1
 10
1.684559610038882
 20
3.439492444577858
 11
1.82084987850486
 21
3.292682557594616
 72
     1
 10
1.82084987850486
 20
3.292682557594616
 11
1.946870329465127
 21
3.388593320450606
 72
     1
 10
1.946870329465127
 20
3.388593320450606
 11
2.150403919974299
 21
3.592639411093323
 72
     1
 10
2.150403919974299
 20
3.592639411093323
 11
2.244343511067806
 21
3.709533322622392
 72
     1
 10
2.244343511067806
 20
3.709533322622392
 11
2.102280987529108
 21
3.855304935237427
 72
     1
 10
2.102280987529108
 20
3.855304935237427
 11
1.974525903285666
 21
3.762695889058502
 72
     1
 10
1.974525903285666
 20
3.762695889058502
 11
1.776639726817595
 21
3.567904460982238
 72
     1
 10
1.776639726817595
 20
3.567904460982238
 11
1.684559610038882
 21
3.439492444577858
 97
        1
330
E1
 75
     2
 76
     1
 98
        1
 10
0.0
 20
0.0
450
        0
451
        0
460
0.0
461
0.0
452
        0
462
0.0
453
        0
470

  0
SPLINE
  5
E3
330
79
100
AcDbEntity
  8
Layer 1
 62
    18
420
        0
370
     0
100
AcDbSpline
210
0.0
220
0.0
230
1.0
 70
    11
 71
     3
 72
    26
 73
    22
 74
     0
 42
0.0000000001
 43
0.0000000001
 40
0.0
 40
0.0
 40
0.0
 40
0.0
 40
1.0
 40
1.0
 40
1.0
 40
2.0
 40
2.0
 40
2.0
 40
3.0
 40
3.0
 40
3.0
 40
4.0
 40
4.0
 40
4.0
 40
5.0
 40
5.0
 40
5.0
 40
6.0
 40
6.0
 40
6.0
 40
7.0
 40
7.0
 40
7.0
 40
7.0
 10
1.712409015987709
 20
3.3070064229797
 30
0.0
 10
1.712409015987709
 20
3.3070064229797
 30
0.0
 10
1.668231717203525
 20
3.350943894461376
 30
0.0
 10
1.668231717203525
 20
3.350943894461376
 30
0.0
 10
1.603583774504386
 20
3.296210959297265
 30
0.0
 10
1.550454059628363
 20
3.213004530680184
 30
0.0
 10
1.528156794301644
 20
3.175305708402321
 30
0.0
 10
1.528156794301644
 20
3.175305708402321
 30
0.0
 10
1.475059932328753
 20
3.207005473792416
 30
0.0
 10
1.475059932328753
 20
3.207005473792416
 30
0.0
 10
1.475059932328753
 20
3.207005473792416
 30
0.0
 10
1.509453636572894
 20
3.077965844298053
 30
0.0
 10
1.509453636572894
 20
3.077965844298053
 30
0.0
 10
1.509453636572894
 20
3.077965844298053
 30
0.0
 10
1.619142909407451
 20
3.121118131415717
 30
0.0
 10
1.619142909407451
 20
3.121118131415717
 30
0.0
 10
1.619142909407451
 20
3.121118131415717
 30
0.0
 10
1.56771497491147
 20
3.151789600965078
 30
0.0
 10
1.56771497491147
 20
3.151789600965078
 30
0.0
 10
1.626521671441322
 20
3.248712233210678
 30
0.0
 10
1.712409015987709
 20
3.3070064229797
 30
0.0
 10
1.712409015987709
 20
3.3070064229797
 30
0.0
  0
HATCH
  5
E4
330
79
100
AcDbEntity
  8
Layer 1
 62
    18
420
        0
440
 33554687
100
AcDbHatch
 10
0.0
 20
0.0
 30
0.0
210
0.0
220
0.0
230
1.0
  2
SOLID
 70
     1
 71
     1
 91
        1
 92
        1
 93
        1
 72
     4
 94
        3
 73
     0
 74
     0
 95
       26
 96
       22
 40
0.0
 40
0.0
 40
0.0
 40
0.0
 40
1.0
 40
1.0
 40
1.0
 40
2.0
 40
2.0
 40
2.0
 40
3.0
 40
3.0
 40
3.0
 40
4.0
 40
4.0
 40
4.0
 40
5.0
 40
5.0
 40
5.0
 40
6.0
 40
6.0
 40
6.0
 40
7.0
 40
7.0
 40
7.0
 40
7.0
 10
1.712409015987709
 20
3.3070064229797
 10
1.712409015987709
 20
3.3070064229797
 10
1.668231717203525
 20
3.350943894461376
 10
1.668231717203525
 20
3.350943894461376
 10
1.603583774504386
 20
3.296210959297265
 10
1.550454059628363
 20
3.213004530680184
 10
1.528156794301644
 20
3.175305708402321
 10
1.528156794301644
 20
3.175305708402321
 10
1.475059932328753
 20
3.207005473792416
 10
1.475059932328753
 20
3.207005473792416
 10
1.475059932328753
 20
3.207005473792416
 10
1.509453636572894
 20
3.077965844298053
 10
1.509453636572894
 20
3.077965844298053
 10
1.509453636572894
 20
3.077965844298053
 10
1.619142909407451
 20
3.121118131415717
 10
1.619142909407451
 20
3.121118131415717
 10
1.619142909407451
 20
3.121118131415717
 10
1.56771497491147
 20
3.151789600965078
 10
1.56771497491147
 20
3.151789600965078
 10
1.626521671441322
 20
3.248712233210678
 10
1.712409015987709
 20
3.3070064229797
 10
1.712409015987709
 20
3.3070064229797
 97
        0
 97
        1
330
E3
 75
     2
 76
     1
 98
        1
 10
0.0
 20
0.0
450
        0
451
        0
460
0.0
461
0.0
452
        0
462
0.0
453
        0
470

  0
LWPOLYLINE
  5
E5
330
79
100
AcDbEntity
  8
Layer 1
 62
    18
420
        0
370
    35
100
AcDbPolyline
 90
        8
 70
     1
 43
0.0
 10
1.684559610038882
 20
3.439492444577858
 10
1.82084987850486
 20
3.292682557594616
 10
1.946870329465127
 20
3.388593320450606
 10
2.150403919974299
 20
3.592639411093323
 10
2.244343511067806
 20
3.709533322622392
 10
2.102280987529108
 20
3.855304935237427
 10
1.974525903285666
 20
3.762695889058502
 10
1.776639726817595
 20
3.567904460982238
  0
SPLINE
  5
E6
330
79
100
AcDbEntity
  8
Layer 1
 62
    18
420
        0
370
    18
100
AcDbSpline
210
0.0
220
0.0
230
1.0
 70
     8
 71
     3
 72
    14
 73
    10
 74
     0
 42
0.0000000001
 43
0.0000000001
 40
0.0
 40
0.0
 40
0.0
 40
0.0
 40
1.0
 40
1.0
 40
1.0
 40
2.0
 40
2.0
 40
2.0
 40
3.0
 40
3.0
 40
3.0
 40
3.0
 10
1.776639726817595
 20
3.567904460982238
 30
0.0
 10
1.776639726817595
 20
3.567904460982238
 30
0.0
 10
1.809298797778662
 20
3.557782481796139
 30
0.0
 10
1.821746762759175
 20
3.518175147476717
 30
0.0
 10
1.821746762759175
 20
3.518175147476717
 30
0.0
 10
1.883027282891665
 20
3.493679898907657
 30
0.0
 10
1.903461788613235
 20
3.435067035986725
 30
0.0
 10
1.903461788613235
 20
3.435067035986725
 30
0.0
 10
1.939557273237419
 20
3.418364620478061
 30
0.0
 10
1.946870329465127
 20
3.388593320450606
 30
0.0
  0
LINE
  5
E7
330
79
100
AcDbEntity
  8
Layer 1
 62
    18
420
        0
370
    18
100
AcDbLine
 10
1.821746762759175
 20
3.518175147476717
 30
0.0
 11
1.716032691198456
 21
3.407730136016703
 31
0.0
  0
LINE
  5
E8
330
79
100
AcDbEntity
  8
Layer 1
 62
    18
420
        0
370
    18
100
AcDbLine
 10
1.903461788613235
 20
3.435067035986725
 30
0.0
 11
1.793644389456656
 21
3.320400670879128
 31
0.0
  0
SPLINE
  5
E9
330
79
100
AcDbEntity
  8
Layer 1
 62
    18
420
        0
370
    18
100
AcDbSpline
210
0.0
220
0.0
230
1.0
 70
     8
 71
     3
 72
    14
 73
    10
 74
     0
 42
0.0000000001
 43
0.0000000001
 40
0.0
 40
0.0
 40
0.0
 40
0.0
 40
1.0
 40
1.0
 40
1.0
 40
2.0
 40
2.0
 40
2.0
 40
3.0
 40
3.0
 40
3.0
 40
3.0
 10
2.145528549155844
 20
3.58591783364688
 30
0.0
 10
2.145528549155844
 20
3.58591783364688
 30
0.0
 10
2.112866192904423
 20
3.596010118865137
 30
0.0
 10
2.10035580740805
 20
3.635663571892185
 30
0.0
 10
2.10035580740805
 20
3.635663571892185
 30
0.0
 10
2.039140993081724
 20
3.66010941646338
 30
0.0
 10
2.018736054972931
 20
3.718758417576812
 30
0.0
 10
2.018736054972931
 20
3.718758417576812
 30
0.0
 10
1.982611002735969
 20
3.735424694893001
 30
0.0
 10
1.975294661217958
 20
3.765215706661794
 30
0.0
  0
LINE
  5
EA
330
79
100
AcDbEntity
  8
Layer 1
 62
    18
420
        0
370
    18
100
AcDbLine
 10
2.10035580740805
 20
3.635663571892185
 30
0.0
 11
2.212870429908282
 21
3.74126594091471
 31
0.0
  0
LINE
  5
EB
330
79
100
AcDbEntity
  8
Layer 1
 62
    18
420
        0
370
    18
100
AcDbLine
 10
2.018736054972931
 20
3.718758417576812
 30
0.0
 11
2.135262016940436
 21
3.828562672798309
 31
0.0
  0
SPLINE
  5
EC
330
79
100
AcDbEntity
  8
Layer 1
 62
    18
420
        0
370
    35
100
AcDbSpline
210
0.0
220
0.0
230
1.0
 70
    11
 71
     3
 72
    23
 73
    19
 74
     0
 42
0.0000000001
 43
0.0000000001
 40
0.0
 40
0.0
 40
0.0
 40
0.0
 40
1.0
 40
1.0
 40
1.0
 40
2.0
 40
2.0
 40
2.0
 40
3.0
 40
3.0
 40
3.0
 40
4.0
 40
4.0
 40
4.0
 40
5.0
 40
5.0
 40
5.0
 40
6.0
 40
6.0
 40
6.0
 40
6.0
 10
2.718400952221398
 20
2.686779766515289
 30
0.0
 10
2.718400952221398
 20
2.686779766515289
 30
0.0
 10
2.508963700317912
 20
2.900918268732084
 30
0.0
 10
2.442745390523921
 20
2.962691580850382
 30
0.0
 10
2.380824240345494
 20
3.020427271280987
 30
0.0
 10
2.03368741116891
 20
3.375504724190477
 30
0.0
 10
1.997434232609874
 20
3.436269452209406
 30
0.0
 10
1.997434232609874
 20
3.436269452209406
 30
0.0
 10
2.065771556325924
 20
3.505970169642877
 30
0.0
 10
2.065771556325924
 20
3.505970169642877
 30
0.0
 10
2.065771556325924
 20
3.505970169642877
 30
0.0
 10
2.290127233078035
 20
3.306927576014269
 30
0.0
 10
2.357531532643608
 20
3.246386247730697
 30
0.0
 10
2.420477693372554
 20
3.189790553008479
 30
0.0
 10
2.774162279189011
 20
2.841178551263636
 30
0.0
 10
2.811506077224445
 20
2.781103734192166
 30
0.0
 10
2.811506077224445
 20
2.781103734192166
 30
0.0
 10
2.718400952221398
 20
2.686779766515289
 30
0.0
 10
2.718400952221398
 20
2.686779766515289
 30
0.0
  0
SPLINE
  5
ED
330
79
100
AcDbEntity
  8
Layer 1
 62
    18
420
        0
370
     0
100
AcDbSpline
210
0.0
220
0.0
230
1.0
 70
     9
 71
     3
 72
    17
 73
    13
 74
     0
 42
0.0000000001
 43
0.0000000001
 40
0.0
 40
0.0
 40
0.0
 40
0.0
 40
1.0
 40
1.0
 40
1.0
 40
2.0
 40
2.0
 40
2.0
 40
3.0
 40
3.0
 40
3.0
 40
4.0
 40
4.0
 40
4.0
 40
4.0
 10
0.8824395546620028
 20
3.542430320570322
 30
0.0
 10
0.8748998134030014
 20
3.542430320570322
 30
0.0
 10
0.8687234676222411
 20
3.536237548494442
 30
0.0
 10
0.8687234676222411
 20
3.528697807425916
 30
0.0
 10
0.8687234676222411
 20
3.521128498745358
 30
0.0
 10
0.8748998134030014
 20
3.514985006022849
 30
0.0
 10
0.8824395546620028
 20
3.514985006022849
 30
0.0
 10
0.8900285752756264
 20
3.514985006022849
 30
0.0
 10
0.8961884946048712
 20
3.521128498745358
 30
0.0
 10
0.8961884946048712
 20
3.528697807425916
 30
0.0
 10
0.8961884946048712
 20
3.536237548494442
 30
0.0
 10
0.8900285752756264
 20
3.542430320570322
 30
0.0
 10
0.8824395546620028
 20
3.542430320570322
 30
0.0
  0
SPLINE
  5
EE
330
79
100
AcDbEntity
  8
Layer 1
 62
    18
420
        0
370
     0
100
AcDbSpline
210
0.0
220
0.0
230
1.0
 70
     9
 71
     3
 72
    17
 73
    13
 74
     0
 42
0.0000000001
 43
0.0000000001
 40
0.0
 40
0.0
 40
0.0
 40
0.0
 40
1.0
 40
1.0
 40
1.0
 40
2.0
 40
2.0
 40
2.0
 40
3.0
 40
3.0
 40
3.0
 40
4.0
 40
4.0
 40
4.0
 40
4.0
 10
0.8824395546620028
 20
3.166179172154683
 30
0.0
 10
0.8748998134030014
 20
3.166179172154683
 30
0.0
 10
0.8687234676222411
 20
3.160035679432174
 30
0.0
 10
0.8687234676222411
 20
3.152446659010264
 30
0.0
 10
0.8687234676222411
 20
3.144860923878569
 30
0.0
 10
0.8748998134030014
 20
3.138701004704949
 30
0.0
 10
0.8824395546620028
 20
3.138701004704949
 30
0.0
 10
0.8900285752756264
 20
3.138701004704949
 30
0.0
 10
0.8961884946048712
 20
3.144860923878569
 30
0.0
 10
0.8961884946048712
 20
3.152446659010264
 30
0.0
 10
0.8961884946048712
 20
3.160035679432174
 30
0.0
 10
0.8900285752756264
 20
3.166179172154683
 30
0.0
 10
0.8824395546620028
 20
3.166179172154683
 30
0.0
  0
SPLINE
  5
EF
330
79
100
AcDbEntity
  8
Layer 1
 62
    18
420
        0
370
     0
100
AcDbSpline
210
0.0
220
0.0
230
1.0
 70
     9
 71
     3
 72
    17
 73
    13
 74
     0
 42
0.0000000001
 43
0.0000000001
 40
0.0
 40
0.0
 40
0.0
 40
0.0
 40
1.0
 40
1.0
 40
1.0
 40
2.0
 40
2.0
 40
2.0
 40
3.0
 40
3.0
 40
3.0
 40
4.0
 40
4.0
 40
4.0
 40
4.0
 10
0.8824395546620028
 20
2.771300428157954
 30
0.0
 10
0.8748998134030014
 20
2.771300428157954
 30
0.0
 10
0.8687234676222411
 20
2.765156935435457
 30
0.0
 10
0.8687234676222411
 20
2.757604053206035
 30
0.0
 10
0.8687234676222411
 20
2.750015032784125
 30
0.0
 10
0.8748998134030014
 20
2.74385511361048
 30
0.0
 10
0.8824395546620028
 20
2.74385511361048
 30
0.0
 10
0.8900285752756264
 20
2.74385511361048
 30
0.0
 10
0.8961884946048712
 20
2.750015032784125
 30
0.0
 10
0.8961884946048712
 20
2.757604053206035
 30
0.0
 10
0.8961884946048712
 20
2.765156935435457
 30
0.0
 10
0.8900285752756264
 20
2.771300428157954
 30
0.0
 10
0.8824395546620028
 20
2.771300428157954
 30
0.0
  0
SPLINE
  5
F0
330
79
100
AcDbEntity
  8
Layer 1
 62
    18
420
        0
370
     0
100
AcDbSpline
210
0.0
220
0.0
230
1.0
 70
    11
 71
     3
 72
    50
 73
    46
 74
     0
 42
0.0000000001
 43
0.0000000001
 40
0.0
 40
0.0
 40
0.0
 40
0.0
 40
1.0
 40
1.0
 40
1.0
 40
2.0
 40
2.0
 40
2.0
 40
3.0
 40
3.0
 40
3.0
 40
4.0
 40
4.0
 40
4.0
 40
5.0
 40
5.0
 40
5.0
 40
6.0
 40
6.0
 40
6.0
 40
7.0
 40
7.0
 40
7.0
 40
8.0
 40
8.0
 40
8.0
 40
9.0
 40
9.0
 40
9.0
 40
10.0
 40
10.0
 40
10.0
 40
11.0
 40
11.0
 40
11.0
 40
12.0
 40
12.0
 40
12.0
 40
13.0
 40
13.0
 40
13.0
 40
14.0
 40
14.0
 40
14.0
 40
15.0
 40
15.0
 40
15.0
 40
15.0
 10
0.7669583150128069
 20
1.634379828465158
 30
0.0
 10
0.7669583150128069
 20
1.634379828465158
 30
0.0
 10
0.6926680452569624
 20
2.270760179914658
 30
0.0
 10
0.6926680452569624
 20
2.270760179914658
 30
0.0
 10
0.689478028367009
 20
2.306293878998391
 30
0.0
 10
0.7185594181816239
 20
2.307897100628653
 30
0.0
 10
0.7185594181816239
 20
2.307897100628653
 30
0.0
 10
0.7185594181816239
 20
2.307897100628653
 30
0.0
 10
0.7411457890555337
 20
2.311103543889177
 30
0.0
 10
0.7411457890555337
 20
2.311103543889177
 30
0.0
 10
0.7847317355841091
 20
2.317601847956085
 30
0.0
 10
0.7911807604605454
 20
2.364410663095213
 30
0.0
 10
0.7911807604605454
 20
2.364410663095213
 30
0.0
 10
0.7911807604605454
 20
2.364410663095213
 30
0.0
 10
0.7911807604605454
 20
3.720877559537711
 30
0.0
 10
0.7911807604605454
 20
3.720877559537711
 30
0.0
 10
0.7911807604605454
 20
3.720877559537711
 30
0.0
 10
0.9292483709836258
 20
3.720877559537711
 30
0.0
 10
0.9292483709836258
 20
3.720877559537711
 30
0.0
 10
0.9292483709836258
 20
3.720877559537711
 30
0.0
 10
0.9292483709836258
 20
2.573637656424251
 30
0.0
 10
0.9292483709836258
 20
2.573637656424251
 30
0.0
 10
0.9292483709836258
 20
2.573637656424251
 30
0.0
 10
0.8945984140953617
 20
2.425096544148737
 30
0.0
 10
0.8951601987381788
 20
2.14499598477558
 30
0.0
 10
0.8957219833810212
 20
1.86496121408772
 30
0.0
 10
0.9292483709836258
 20
1.682055961428305
 30
0.0
 10
0.9292483709836258
 20
1.682055961428305
 30
0.0
 10
0.9292483709836258
 20
1.682055961428305
 30
0.0
 10
0.9292483709836258
 20
0.5433677697724559
 30
0.0
 10
0.9292483709836258
 20
0.5433677697724559
 30
0.0
 10
0.9292483709836258
 20
0.5433677697724559
 30
0.0
 10
0.8173908065452021
 20
0.2884062447673285
 30
0.0
 10
0.8173908065452021
 20
0.2884062447673285
 30
0.0
 10
0.8173908065452021
 20
0.2884062447673285
 30
0.0
 10
0.816829021902385
 20
0.1489423858629127
 30
0.0
 10
0.816829021902385
 20
0.1489423858629127
 30
0.0
 10
0.816829021902385
 20
0.1489423858629127
 30
0.0
 10
0.7911807604605454
 20
0.1489423858629127
 30
0.0
 10
0.7911807604605454
 20
0.1489423858629127
 30
0.0
 10
0.7911807604605454
 20
0.1489423858629127
 30
0.0
 10
0.7911807604605454
 20
1.619845704138419
 30
0.0
 10
0.7911807604605454
 20
1.619845704138419
 30
0.0
 10
0.7734073398892179
 20
1.619845704138419
 30
0.0
 10
0.7669583150128069
 20
1.634379828465158
 30
0.0
 10
0.7669583150128069
 20
1.634379828465158
 30
0.0
  0
HATCH
  5
F1
330
79
100
AcDbEntity
  8
Layer 1
 62
    18
420
        0
440
 33554687
100
AcDbHatch
 10
0.0
 20
0.0
 30
0.0
210
0.0
220
0.0
230
1.0
  2
SOLID
 70
     1
 71
     1
 91
        4
 92
        1
 93
        1
 72
     4
 94
        3
 73
     0
 74
     0
 95
       17
 96
       13
 40
0.0
 40
0.0
 40
0.0
 40
0.0
 40
1.0
 40
1.0
 40
1.0
 40
2.0
 40
2.0
 40
2.0
 40
3.0
 40
3.0
 40
3.0
 40
4.0
 40
4.0
 40
4.0
 40
4.0
 10
0.8824395546620028
 20
3.542430320570322
 10
0.8748998134030014
 20
3.542430320570322
 10
0.8687234676222411
 20
3.536237548494442
 10
0.8687234676222411
 20
3.528697807425916
 10
0.8687234676222411
 20
3.521128498745358
 10
0.8748998134030014
 20
3.514985006022849
 10
0.8824395546620028
 20
3.514985006022849
 10
0.8900285752756264
 20
3.514985006022849
 10
0.8961884946048712
 20
3.521128498745358
 10
0.8961884946048712
 20
3.528697807425916
 10
0.8961884946048712
 20
3.536237548494442
 10
0.8900285752756264
 20
3.542430320570322
 10
0.8824395546620028
 20
3.542430320570322
 97
        0
 97
        1
330
ED
 92
        1
 93
        1
 72
     4
 94
        3
 73
     0
 74
     0
 95
       17
 96
       13
 40
0.0
 40
0.0
 40
0.0
 40
0.0
 40
1.0
 40
1.0
 40
1.0
 40
2.0
 40
2.0
 40
2.0
 40
3.0
 40
3.0
 40
3.0
 40
4.0
 40
4.0
 40
4.0
 40
4.0
 10
0.8824395546620028
 20
3.166179172154683
 10
0.8748998134030014
 20
3.166179172154683
 10
0.8687234676222411
 20
3.160035679432174
 10
0.8687234676222411
 20
3.152446659010264
 10
0.8687234676222411
 20
3.144860923878569
 10
0.8748998134030014
 20
3.138701004704949
 10
0.8824395546620028
 20
3.138701004704949
 10
0.8900285752756264
 20
3.138701004704949
 10
0.8961884946048712
 20
3.144860923878569
 10
0.8961884946048712
 20
3.152446659010264
 10
0.8961884946048712
 20
3.160035679432174
 10
0.8900285752756264
 20
3.166179172154683
 10
0.8824395546620028
 20
3.166179172154683
 97
        0
 97
        1
330
EE
 92
        1
 93
        1
 72
     4
 94
        3
 73
     0
 74
     0
 95
       17
 96
       13
 40
0.0
 40
0.0
 40
0.0
 40
0.0
 40
1.0
 40
1.0
 40
1.0
 40
2.0
 40
2.0
 40
2.0
 40
3.0
 40
3.0
 40
3.0
 40
4.0
 40
4.0
 40
4.0
 40
4.0
 10
0.8824395546620028
 20
2.771300428157954
 10
0.8748998134030014
 20
2.771300428157954
 10
0.8687234676222411
 20
2.765156935435457
 10
0.8687234676222411
 20
2.757604053206035
 10
0.8687234676222411
 20
2.750015032784125
 10
0.8748998134030014
 20
2.74385511361048
 10
0.8824395546620028
 20
2.74385511361048
 10
0.8900285752756264
 20
2.74385511361048
 10
0.8961884946048712
 20
2.750015032784125
 10
0.8961884946048712
 20
2.757604053206035
 10
0.8961884946048712
 20
2.765156935435457
 10
0.8900285752756264
 20
2.771300428157954
 10
0.8824395546620028
 20
2.771300428157954
 97
        0
 97
        1
330
EF
 92
        1
 93
        1
 72
     4
 94
        3
 73
     0
 74
     0
 95
       50
 96
       46
 40
0.0
 40
0.0
 40
0.0
 40
0.0
 40
1.0
 40
1.0
 40
1.0
 40
2.0
 40
2.0
 40
2.0
 40
3.0
 40
3.0
 40
3.0
 40
4.0
 40
4.0
 40
4.0
 40
5.0
 40
5.0
 40
5.0
 40
6.0
 40
6.0
 40
6.0
 40
7.0
 40
7.0
 40
7.0
 40
8.0
 40
8.0
 40
8.0
 40
9.0
 40
9.0
 40
9.0
 40
10.0
 40
10.0
 40
10.0
 40
11.0
 40
11.0
 40
11.0
 40
12.0
 40
12.0
 40
12.0
 40
13.0
 40
13.0
 40
13.0
 40
14.0
 40
14.0
 40
14.0
 40
15.0
 40
15.0
 40
15.0
 40
15.0
 10
0.7669583150128069
 20
1.634379828465158
 10
0.7669583150128069
 20
1.634379828465158
 10
0.6926680452569624
 20
2.270760179914658
 10
0.6926680452569624
 20
2.270760179914658
 10
0.689478028367009
 20
2.306293878998391
 10
0.7185594181816239
 20
2.307897100628653
 10
0.7185594181816239
 20
2.307897100628653
 10
0.7185594181816239
 20
2.307897100628653
 10
0.7411457890555337
 20
2.311103543889177
 10
0.7411457890555337
 20
2.311103543889177
 10
0.7847317355841091
 20
2.317601847956085
 10
0.7911807604605454
 20
2.364410663095213
 10
0.7911807604605454
 20
2.364410663095213
 10
0.7911807604605454
 20
2.364410663095213
 10
0.7911807604605454
 20
3.720877559537711
 10
0.7911807604605454
 20
3.720877559537711
 10
0.7911807604605454
 20
3.720877559537711
 10
0.9292483709836258
 20
3.720877559537711
 10
0.9292483709836258
 20
3.720877559537711
 10
0.9292483709836258
 20
3.720877559537711
 10
0.9292483709836258
 20
2.573637656424251
 10
0.9292483709836258
 20
2.573637656424251
 10
0.9292483709836258
 20
2.573637656424251
 10
0.8945984140953617
 20
2.425096544148737
 10
0.8951601987381788
 20
2.14499598477558
 10
0.8957219833810212
 20
1.86496121408772
 10
0.9292483709836258
 20
1.682055961428305
 10
0.9292483709836258
 20
1.682055961428305
 10
0.9292483709836258
 20
1.682055961428305
 10
0.9292483709836258
 20
0.5433677697724559
 10
0.9292483709836258
 20
0.5433677697724559
 10
0.9292483709836258
 20
0.5433677697724559
 10
0.8173908065452021
 20
0.2884062447673285
 10
0.8173908065452021
 20
0.2884062447673285
 10
0.8173908065452021
 20
0.2884062447673285
 10
0.816829021902385
 20
0.1489423858629127
 10
0.816829021902385
 20
0.1489423858629127
 10
0.816829021902385
 20
0.1489423858629127
 10
0.7911807604605454
 20
0.1489423858629127
 10
0.7911807604605454
 20
0.1489423858629127
 10
0.7911807604605454
 20
0.1489423858629127
 10
0.7911807604605454
 20
1.619845704138419
 10
0.7911807604605454
 20
1.619845704138419
 10
0.7734073398892179
 20
1.619845704138419
 10
0.7669583150128069
 20
1.634379828465158
 10
0.7669583150128069
 20
1.634379828465158
 97
        0
 97
        1
330
F0
 75
     2
 76
     1
 98
        1
 10
0.0
 20
0.0
450
        0
451
        0
460
0.0
461
0.0
452
        0
462
0.0
453
        0
470

  0
SPLINE
  5
F2
330
79
100
AcDbEntity
  8
Layer 1
 62
    18
420
        0
370
     0
100
AcDbSpline
210
0.0
220
0.0
230
1.0
 70
     9
 71
     3
 72
    17
 73
    13
 74
     0
 42
0.0000000001
 43
0.0000000001
 40
0.0
 40
0.0
 40
0.0
 40
0.0
 40
1.0
 40
1.0
 40
1.0
 40
2.0
 40
2.0
 40
2.0
 40
3.0
 40
3.0
 40
3.0
 40
4.0
 40
4.0
 40
4.0
 40
4.0
 10
1.399215720256759
 20
4.206578022065286
 30
0.0
 10
1.398732782581343
 20
4.199008713384728
 30
0.0
 10
1.404475470041335
 20
4.19247755641556
 30
0.0
 10
1.412048064203392
 20
4.19201433049371
 30
0.0
 10
1.419587805462419
 20
4.191501825218463
 30
0.0
 10
1.426102536145056
 20
4.197211801429526
 30
0.0
 10
1.4266150414332
 20
4.204767969140081
 30
0.0
 10
1.427127546721395
 20
4.212353562282475
 30
0.0
 10
1.421352006358271
 20
4.218914286863675
 30
0.0
 10
1.413782697486567
 20
4.219413650978026
 30
0.0
 10
1.406272523840319
 20
4.219876876899888
 30
0.0
 10
1.399728225544903
 20
4.214150616036072
 30
0.0
 10
1.399215720256759
 20
4.206578022065286
 30
0.0
  0
SPLINE
  5
F3
330
79
100
AcDbEntity
  8
Layer 1
 62
    18
420
        0
370
     0
100
AcDbSpline
210
0.0
220
0.0
230
1.0
 70
     9
 71
     3
 72
    17
 73
    13
 74
     0
 42
0.0000000001
 43
0.0000000001
 40
0.0
 40
0.0
 40
0.0
 40
0.0
 40
1.0
 40
1.0
 40
1.0
 40
2.0
 40
2.0
 40
2.0
 40
3.0
 40
3.0
 40
3.0
 40
4.0
 40
4.0
 40
4.0
 40
4.0
 10
1.378170150537749
 20
3.82790561475311
 30
0.0
 10
1.377720065765414
 20
3.820349447233461
 30
0.0
 10
1.383429900322375
 20
3.813851275280449
 30
0.0
 10
1.391002494484433
 20
3.81333863789132
 30
0.0
 10
1.39857508864649
 20
3.812826132616073
 30
0.0
 10
1.405119386941856
 20
3.818552393479876
 30
0.0
 10
1.405599039326969
 20
3.826124987450662
 30
0.0
 10
1.406114829905466
 20
3.833694428746399
 30
0.0
 10
1.400339289542393
 20
3.840241879551513
 30
0.0
 10
1.392799548283366
 20
3.840721531924499
 30
0.0
 10
1.385226954121309
 20
3.841171616685452
 30
0.0
 10
1.378682655825943
 20
3.835461782272785
 30
0.0
 10
1.378170150537749
 20
3.82790561475311
 30
0.0
  0
SPLINE
  5
F4
330
79
100
AcDbEntity
  8
Layer 1
 62
    18
420
        0
370
     0
100
AcDbSpline
210
0.0
220
0.0
230
1.0
 70
     9
 71
     3
 72
    17
 73
    13
 74
     0
 42
0.0000000001
 43
0.0000000001
 40
0.0
 40
0.0
 40
0.0
 40
0.0
 40
1.0
 40
1.0
 40
1.0
 40
2.0
 40
2.0
 40
2.0
 40
3.0
 40
3.0
 40
3.0
 40
4.0
 40
4.0
 40
4.0
 40
4.0
 10
1.351220914133591
 20
3.435658388227377
 30
0.0
 10
1.350705123555093
 20
3.428118647158864
 30
0.0
 10
1.356447811015035
 20
3.421574349028787
 30
0.0
 10
1.363987552274112
 20
3.421078270204677
 30
0.0
 10
1.371592999339251
 20
3.420611758992587
 30
0.0
 10
1.378104444731535
 20
3.426338019856403
 30
0.0
 10
1.378616950019729
 20
3.433877760924929
 30
0.0
 10
1.379099887695146
 20
3.441450354895702
 30
0.0
 10
1.373390053138235
 20
3.447978226574643
 30
0.0
 10
1.365784606073045
 20
3.44849073184989
 30
0.0
 10
1.358212011910988
 20
3.448957243061967
 30
0.0
 10
1.351733419421735
 20
3.443198129295903
 30
0.0
 10
1.351220914133591
 20
3.435658388227377
 30
0.0
  0
SPLINE
  5
F5
330
79
100
AcDbEntity
  8
Layer 1
 62
    18
420
        0
370
     0
100
AcDbSpline
210
0.0
220
0.0
230
1.0
 70
     9
 71
     3
 72
    50
 73
    46
 74
     0
 42
0.0000000001
 43
0.0000000001
 40
0.0
 40
0.0
 40
0.0
 40
0.0
 40
1.0
 40
1.0
 40
1.0
 40
2.0
 40
2.0
 40
2.0
 40
3.0
 40
3.0
 40
3.0
 40
4.0
 40
4.0
 40
4.0
 40
5.0
 40
5.0
 40
5.0
 40
6.0
 40
6.0
 40
6.0
 40
7.0
 40
7.0
 40
7.0
 40
8.0
 40
8.0
 40
8.0
 40
9.0
 40
9.0
 40
9.0
 40
10.0
 40
10.0
 40
10.0
 40
11.0
 40
11.0
 40
11.0
 40
12.0
 40
12.0
 40
12.0
 40
13.0
 40
13.0
 40
13.0
 40
14.0
 40
14.0
 40
14.0
 40
15.0
 40
15.0
 40
15.0
 40
15.0
 10
1.384201943544919
 20
2.3146647984941
 30
0.0
 10
1.384201943544919
 20
2.3146647984941
 30
0.0
 10
1.287998787428528
 20
0.8468070385761922
 30
0.0
 10
1.287998787428528
 20
0.8468070385761922
 30
0.0
 10
1.287998787428528
 20
0.8468070385761922
 30
0.0
 10
1.262462225857234
 20
0.8484463984403493
 30
0.0
 10
1.262462225857234
 20
0.8484463984403493
 30
0.0
 10
1.262462225857234
 20
0.8484463984403493
 30
0.0
 10
1.270964557176739
 20
0.9876540047006679
 30
0.0
 10
1.270964557176739
 20
0.9876540047006679
 30
0.0
 10
1.270964557176739
 20
0.9876540047006679
 30
0.0
 10
1.176045949571087
 20
1.249416080645283
 30
0.0
 10
1.176045949571087
 20
1.249416080645283
 30
0.0
 10
1.176045949571087
 20
1.249416080645283
 30
0.0
 10
1.250398639842842
 20
2.385761764273587
 30
0.0
 10
1.250398639842842
 20
2.385761764273587
 30
0.0
 10
1.250398639842842
 20
2.385761764273587
 30
0.0
 10
1.295781640170389
 20
2.565969789036911
 30
0.0
 10
1.314675344737022
 20
2.845380545110906
 30
0.0
 10
1.333559193432746
 20
3.124823938790591
 30
0.0
 10
1.308659978181417
 20
3.275355936943014
 30
0.0
 10
1.308659978181417
 20
3.275355936943014
 30
0.0
 10
1.308659978181417
 20
3.275355936943014
 30
0.0
 10
1.383686152966422
 20
4.420105460300066
 30
0.0
 10
1.383686152966422
 20
4.420105460300066
 30
0.0
 10
1.383686152966422
 20
4.420105460300066
 30
0.0
 10
1.521451516781123
 20
4.411123476822366
 30
0.0
 10
1.521451516781123
 20
4.411123476822366
 30
0.0
 10
1.521451516781123
 20
4.411123476822366
 30
0.0
 10
1.432837381278356
 20
3.057560906704755
 30
0.0
 10
1.432837381278356
 20
3.057560906704755
 30
0.0
 10
1.432837381278356
 20
3.057560906704755
 30
0.0
 10
1.436175236232227
 20
3.010384139060306
 30
0.0
 10
1.47929467153694
 20
3.001113050042704
 30
0.0
 10
1.47929467153694
 20
3.001113050042704
 30
0.0
 10
1.501624789766689
 20
2.996395373278258
 30
0.0
 10
1.501624789766689
 20
2.996395373278258
 30
0.0
 10
1.501624789766689
 20
2.996395373278258
 30
0.0
 10
1.530532059194986
 20
2.992899824477856
 30
0.0
 10
1.524979918572878
 20
2.957655230934013
 30
0.0
 10
1.524979918572878
 20
2.957655230934013
 30
0.0
 10
1.409288420343929
 20
2.327612127274505
 30
0.0
 10
1.409288420343929
 20
2.327612127274505
 30
0.0
 10
1.409288420343929
 20
2.327612127274505
 30
0.0
 10
1.401909658310109
 20
2.313478808722518
 30
0.0
 10
1.384201943544919
 20
2.3146647984941
 30
0.0
  0
HATCH
  5
F6
330
79
100
AcDbEntity
  8
Layer 1
 62
    18
420
        0
440
 33554687
100
AcDbHatch
 10
0.0
 20
0.0
 30
0.0
210
0.0
220
0.0
230
1.0
  2
SOLID
 70
     1
 71
     1
 91
        4
 92
        1
 93
        1
 72
     4
 94
        3
 73
     0
 74
     0
 95
       17
 96
       13
 40
0.0
 40
0.0
 40
0.0
 40
0.0
 40
1.0
 40
1.0
 40
1.0
 40
2.0
 40
2.0
 40
2.0
 40
3.0
 40
3.0
 40
3.0
 40
4.0
 40
4.0
 40
4.0
 40
4.0
 10
1.399215720256759
 20
4.206578022065286
 10
1.398732782581343
 20
4.199008713384728
 10
1.404475470041335
 20
4.19247755641556
 10
1.412048064203392
 20
4.19201433049371
 10
1.419587805462419
 20
4.191501825218463
 10
1.426102536145056
 20
4.197211801429526
 10
1.4266150414332
 20
4.204767969140081
 10
1.427127546721395
 20
4.212353562282475
 10
1.421352006358271
 20
4.218914286863675
 10
1.413782697486567
 20
4.219413650978026
 10
1.406272523840319
 20
4.219876876899888
 10
1.399728225544903
 20
4.214150616036072
 10
1.399215720256759
 20
4.206578022065286
 97
        0
 97
        1
330
F2
 92
        1
 93
        1
 72
     4
 94
        3
 73
     0
 74
     0
 95
       17
 96
       13
 40
0.0
 40
0.0
 40
0.0
 40
0.0
 40
1.0
 40
1.0
 40
1.0
 40
2.0
 40
2.0
 40
2.0
 40
3.0
 40
3.0
 40
3.0
 40
4.0
 40
4.0
 40
4.0
 40
4.0
 10
1.378170150537749
 20
3.82790561475311
 10
1.377720065765414
 20
3.820349447233461
 10
1.383429900322375
 20
3.813851275280449
 10
1.391002494484433
 20
3.81333863789132
 10
1.39857508864649
 20
3.812826132616073
 10
1.405119386941856
 20
3.818552393479876
 10
1.405599039326969
 20
3.826124987450662
 10
1.406114829905466
 20
3.833694428746399
 10
1.400339289542393
 20
3.840241879551513
 10
1.392799548283366
 20
3.840721531924499
 10
1.385226954121309
 20
3.841171616685452
 10
1.378682655825943
 20
3.835461782272785
 10
1.378170150537749
 20
3.82790561475311
 97
        0
 97
        1
330
F3
 92
        1
 93
        1
 72
     4
 94
        3
 73
     0
 74
     0
 95
       17
 96
       13
 40
0.0
 40
0.0
 40
0.0
 40
0.0
 40
1.0
 40
1.0
 40
1.0
 40
2.0
 40
2.0
 40
2.0
 40
3.0
 40
3.0
 40
3.0
 40
4.0
 40
4.0
 40
4.0
 40
4.0
 10
1.351220914133591
 20
3.435658388227377
 10
1.350705123555093
 20
3.428118647158864
 10
1.356447811015035
 20
3.421574349028787
 10
1.363987552274112
 20
3.421078270204677
 10
1.371592999339251
 20
3.420611758992587
 10
1.378104444731535
 20
3.426338019856403
 10
1.378616950019729
 20
3.433877760924929
 10
1.379099887695146
 20
3.441450354895702
 10
1.373390053138235
 20
3.447978226574643
 10
1.365784606073045
 20
3.44849073184989
 10
1.358212011910988
 20
3.448957243061967
 10
1.351733419421735
 20
3.443198129295903
 10
1.351220914133591
 20
3.435658388227377
 97
        0
 97
        1
330
F4
 92
        1
 93
        1
 72
     4
 94
        3
 73
     0
 74
     0
 95
       50
 96
       46
 40
0.0
 40
0.0
 40
0.0
 40
0.0
 40
1.0
 40
1.0
 40
1.0
 40
2.0
 40
2.0
 40
2.0
 40
3.0
 40
3.0
 40
3.0
 40
4.0
 40
4.0
 40
4.0
 40
5.0
 40
5.0
 40
5.0
 40
6.0
 40
6.0
 40
6.0
 40
7.0
 40
7.0
 40
7.0
 40
8.0
 40
8.0
 40
8.0
 40
9.0
 40
9.0
 40
9.0
 40
10.0
 40
10.0
 40
10.0
 40
11.0
 40
11.0
 40
11.0
 40
12.0
 40
12.0
 40
12.0
 40
13.0
 40
13.0
 40
13.0
 40
14.0
 40
14.0
 40
14.0
 40
15.0
 40
15.0
 40
15.0
 40
15.0
 10
1.384201943544919
 20
2.3146647984941
 10
1.384201943544919
 20
2.3146647984941
 10
1.287998787428528
 20
0.8468070385761922
 10
1.287998787428528
 20
0.8468070385761922
 10
1.287998787428528
 20
0.8468070385761922
 10
1.262462225857234
 20
0.8484463984403493
 10
1.262462225857234
 20
0.8484463984403493
 10
1.262462225857234
 20
0.8484463984403493
 10
1.270964557176739
 20
0.9876540047006679
 10
1.270964557176739
 20
0.9876540047006679
 10
1.270964557176739
 20
0.9876540047006679
 10
1.176045949571087
 20
1.249416080645283
 10
1.176045949571087
 20
1.249416080645283
 10
1.176045949571087
 20
1.249416080645283
 10
1.250398639842842
 20
2.385761764273587
 10
1.250398639842842
 20
2.385761764273587
 10
1.250398639842842
 20
2.385761764273587
 10
1.295781640170389
 20
2.565969789036911
 10
1.314675344737022
 20
2.845380545110906
 10
1.333559193432746
 20
3.124823938790591
 10
1.308659978181417
 20
3.275355936943014
 10
1.308659978181417
 20
3.275355936943014
 10
1.308659978181417
 20
3.275355936943014
 10
1.383686152966422
 20
4.420105460300066
 10
1.383686152966422
 20
4.420105460300066
 10
1.383686152966422
 20
4.420105460300066
 10
1.521451516781123
 20
4.411123476822366
 10
1.521451516781123
 20
4.411123476822366
 10
1.521451516781123
 20
4.411123476822366
 10
1.432837381278356
 20
3.057560906704755
 10
1.432837381278356
 20
3.057560906704755
 10
1.432837381278356
 20
3.057560906704755
 10
1.436175236232227
 20
3.010384139060306
 10
1.47929467153694
 20
3.001113050042704
 10
1.47929467153694
 20
3.001113050042704
 10
1.501624789766689
 20
2.996395373278258
 10
1.501624789766689
 20
2.996395373278258
 10
1.501624789766689
 20
2.996395373278258
 10
1.530532059194986
 20
2.992899824477856
 10
1.524979918572878
 20
2.957655230934013
 10
1.524979918572878
 20
2.957655230934013
 10
1.409288420343929
 20
2.327612127274505
 10
1.409288420343929
 20
2.327612127274505
 10
1.409288420343929
 20
2.327612127274505
 10
1.401909658310109
 20
2.313478808722518
 10
1.384201943544919
 20
2.3146647984941
 97
        0
 97
        1
330
F5
 75
     2
 76
     1
 98
        1
 10
0.0
 20
0.0
450
        0
451
        0
460
0.0
461
0.0
452
        0
462
0.0
453
        0
470

  0
INSERT
  5
F8
330
79
100
AcDbEntity
  8
Layer 1
100
AcDbBlockReference
  2
Block_3
 10
0.0
 20
0.0
 30
0.0
  0
INSERT
  5
115
330
79
100
AcDbEntity
  8
Layer 1
100
AcDbBlockReference
  2
Block_8
 10
0.0
 20
0.0
 30
0.0
  0
ENDBLK
  5
7C
330
79
100
AcDbEntity
  8
0
100
AcDbBlockEnd
  0
BLOCK
  5
D3
330
D1
100
AcDbEntity
  8
0
100
AcDbBlockBegin
  2
Block_1
 70
     0
 10
0.0
 20
0.0
 30
0.0
  3
Block_1
  1

  0
LWPOLYLINE
  5
D5
330
D1
100
AcDbEntity
  8
Layer 1
 62
    18
420
        0
370
    35
100
AcDbPolyline
 90
        8
 70
     1
 43
0.0
 10
1.26104955102437
 20
4.199008713384728
 10
1.076590356048857
 20
4.199008713384728
 10
1.054917295880841
 20
4.27858844238176
 10
1.017428848165663
 20
4.119491548756147
 10
0.9878645206755688
 20
4.199008713384728
 10
0.8175189328672255
 20
4.199008713384728
 10
0.8175189328672255
 20
4.600927834335632
 10
1.26104955102437
 20
4.600927834335632
  0
HATCH
  5
D6
330
D1
100
AcDbEntity
  8
Layer 1
 62
    43
420
 15575901
440
 33554687
100
AcDbHatch
 10
0.0
 20
0.0
 30
0.0
210
0.0
220
0.0
230
1.0
  2
SOLID
 70
     1
 71
     1
 91
        1
 92
        1
 93
        8
 72
     1
 10
1.26104955102437
 20
4.199008713384728
 11
1.076590356048857
 21
4.199008713384728
 72
     1
 10
1.076590356048857
 20
4.199008713384728
 11
1.054917295880841
 21
4.27858844238176
 72
     1
 10
1.054917295880841
 20
4.27858844238176
 11
1.017428848165663
 21
4.119491548756147
 72
     1
 10
1.017428848165663
 20
4.119491548756147
 11
0.9878645206755688
 21
4.199008713384728
 72
     1
 10
0.9878645206755688
 20
4.199008713384728
 11
0.8175189328672255
 21
4.199008713384728
 72
     1
 10
0.8175189328672255
 20
4.199008713384728
 11
0.8175189328672255
 21
4.600927834335632
 72
     1
 10
0.8175189328672255
 20
4.600927834335632
 11
1.26104955102437
 21
4.600927834335632
 72
     1
 10
1.26104955102437
 20
4.600927834335632
 11
1.26104955102437
 21
4.199008713384728
 97
        1
330
D5
 75
     2
 76
     1
 98
        1
 10
0.0
 20
0.0
450
        0
451
        0
460
0.0
461
0.0
452
        0
462
0.0
453
        0
470

  0
LWPOLYLINE
  5
D7
330
D1
100
AcDbEntity
  8
Layer 1
100
AcDbPolyline
 90
        8
 70
     1
 43
0.0
 10
1.26104955102437
 20
0.0827864949120188
 10
0.8175189328672255
 20
0.0827864949120188
 10
0.8175189328672255
 20
4.101892249015817
 10
0.9917937278850608
 20
4.101892249015817
 10
1.017428848165663
 20
4.022358657936099
 10
1.054917295880841
 20
4.18144240794667
 10
1.076590356048857
 20
4.101892249015817
 10
1.26104955102437
 20
4.101892249015817
  0
HATCH
  5
D8
330
D1
100
AcDbEntity
  8
Layer 1
 62
    43
420
 15575901
440
 33554687
100
AcDbHatch
 10
0.0
 20
0.0
 30
0.0
210
0.0
220
0.0
230
1.0
  2
SOLID
 70
     1
 71
     1
 91
        1
 92
        1
 93
        8
 72
     1
 10
1.26104955102437
 20
0.0827864949120188
 11
0.8175189328672255
 21
0.0827864949120188
 72
     1
 10
0.8175189328672255
 20
0.0827864949120188
 11
0.8175189328672255
 21
4.101892249015817
 72
     1
 10
0.8175189328672255
 20
4.101892249015817
 11
0.9917937278850608
 21
4.101892249015817
 72
     1
 10
0.9917937278850608
 20
4.101892249015817
 11
1.017428848165663
 21
4.022358657936099
 72
     1
 10
1.017428848165663
 20
4.022358657936099
 11
1.054917295880841
 21
4.18144240794667
 72
     1
 10
1.054917295880841
 20
4.18144240794667
 11
1.076590356048857
 21
4.101892249015817
 72
     1
 10
1.076590356048857
 20
4.101892249015817
 11
1.26104955102437
 21
4.101892249015817
 72
     1
 10
1.26104955102437
 20
4.101892249015817
 11
1.26104955102437
 21
0.0827864949120185
 97
        1
330
D7
 75
     2
 76
     1
 98
        1
 10
0.0
 20
0.0
450
        0
451
        0
460
0.0
461
0.0
452
        0
462
0.0
453
        0
470

  0
ENDBLK
  5
D4
330
D1
100
AcDbEntity
  8
0
100
AcDbBlockEnd
  0
BLOCK
  5
DB
330
D9
100
AcDbEntity
  8
0
100
AcDbBlockBegin
  2
Block_2
 70
     0
 10
0.0
 20
0.0
 30
0.0
  3
Block_2
  1

  0
LWPOLYLINE
  5
DD
330
D9
100
AcDbEntity
  8
Layer 1
 62
    18
420
        0
370
     9
100
AcDbPolyline
 90
        8
 70
     1
 43
0.0
 10
1.26104955102437
 20
4.199008713384728
 10
1.076590356048857
 20
4.199008713384728
 10
1.054917295880841
 20
4.27858844238176
 10
1.017428848165663
 20
4.119491548756147
 10
0.9878645206755688
 20
4.199008713384728
 10
0.8175189328672255
 20
4.199008713384728
 10
0.8175189328672255
 20
4.600927834335632
 10
1.26104955102437
 20
4.600927834335632
  0
LWPOLYLINE
  5
DE
330
D9
100
AcDbEntity
  8
Layer 1
 62
    18
420
        0
370
    35
100
AcDbPolyline
 90
        8
 70
     1
 43
0.0
 10
1.26104955102437
 20
0.0827864949120188
 10
0.8175189328672255
 20
0.0827864949120188
 10
0.8175189328672255
 20
4.101892249015817
 10
0.9917937278850608
 20
4.101892249015817
 10
1.017428848165663
 20
4.022358657936099
 10
1.054917295880841
 20
4.18144240794667
 10
1.076590356048857
 20
4.101892249015817
 10
1.26104955102437
 20
4.101892249015817
  0
ENDBLK
  5
DC
330
D9
100
AcDbEntity
  8
0
100
AcDbBlockEnd
  0
BLOCK
  5
F9
330
F7
100
AcDbEntity
  8
0
100
AcDbBlockBegin
  2
Block_3
 70
     0
 10
0.0
 20
0.0
 30
0.0
  3
Block_3
  1

  0
INSERT
  5
FC
330
F7
100
AcDbEntity
  8
Layer 1
100
AcDbBlockReference
  2
Block_4
 10
0.0
 20
0.0
 30
0.0
  0
INSERT
  5
103
330
F7
100
AcDbEntity
  8
Layer 1
100
AcDbBlockReference
  2
Block_5
 10
0.0
 20
0.0
 30
0.0
  0
INSERT
  5
109
330
F7
100
AcDbEntity
  8
Layer 1
100
AcDbBlockReference
  2
Block_6
 10
0.0
 20
0.0
 30
0.0
  0
INSERT
  5
10F
330
F7
100
AcDbEntity
  8
Layer 1
100
AcDbBlockReference
  2
Block_7
 10
0.0
 20
0.0
 30
0.0
  0
ENDBLK
  5
FA
330
F7
100
AcDbEntity
  8
0
100
AcDbBlockEnd
  0
BLOCK
  5
FD
330
FB
100
AcDbEntity
  8
0
100
AcDbBlockBegin
  2
Block_4
 70
     0
 10
0.0
 20
0.0
 30
0.0
  3
Block_4
  1

  0
LINE
  5
FF
330
FB
100
AcDbEntity
  8
Layer 1
 62
     7
420
 16777215
370
     0
100
AcDbLine
 10
0.783112087461796
 20
1.661779149641637
 30
0.0
 11
0.783112087461796
 21
1.642432075012341
 31
0.0
  0
LINE
  5
100
330
FB
100
AcDbEntity
  8
Layer 1
 62
     7
420
 16777215
370
     0
100
AcDbLine
 10
0.783112087461796
 20
2.267537310203023
 30
0.0
 11
0.783112087461796
 21
1.679618276019153
 31
0.0
  0
LINE
  5
101
330
FB
100
AcDbEntity
  8
Layer 1
 62
     7
420
 16777215
370
     0
100
AcDbLine
 10
0.783112087461796
 20
2.31437569295421
 30
0.0
 11
0.783112087461796
 21
2.286881192592734
 31
0.0
  0
ENDBLK
  5
FE
330
FB
100
AcDbEntity
  8
0
100
AcDbBlockEnd
  0
BLOCK
  5
104
330
102
100
AcDbEntity
  8
0
100
AcDbBlockBegin
  2
Block_5
 70
     0
 10
0.0
 20
0.0
 30
0.0
  3
Block_5
  1

  0
SPLINE
  5
106
330
102
100
AcDbEntity
  8
Layer 1
 62
     7
420
 16777215
370
     0
100
AcDbSpline
210
0.0
220
0.0
230
1.0
 70
     8
 71
     3
 72
    14
 73
    10
 74
     0
 42
0.0000000001
 43
0.0000000001
 40
0.0
 40
0.0
 40
0.0
 40
0.0
 40
1.0
 40
1.0
 40
1.0
 40
2.0
 40
2.0
 40
2.0
 40
3.0
 40
3.0
 40
3.0
 40
3.0
 10
0.8675210513691556
 20
2.596000626992197
 30
0.0
 10
0.875317045272229
 20
2.592679198573768
 30
0.0
 10
0.8808199065397149
 20
2.584948910672146
 30
0.0
 10
0.8808199065397149
 20
2.575950500743311
 30
0.0
 10
0.8808199065397149
 20
2.563903341484799
 30
0.0
 10
0.8710658796124764
 20
2.554116461901723
 30
0.0
 10
0.8590351465011659
 20
2.554116461901723
 30
0.0
 10
0.8539330906514173
 20
2.554116461901723
 30
0.0
 10
0.8492811195739779
 20
2.555880763087972
 30
0.0
 10
0.8455753121055016
 20
2.5587355799594
 30
0.0
  0
SPLINE
  5
107
330
102
100
AcDbEntity
  8
Layer 1
 62
     7
420
 16777215
370
     0
100
AcDbSpline
210
0.0
220
0.0
230
1.0
 70
     8
 71
     3
 72
     8
 73
     4
 74
     0
 42
0.0000000001
 43
0.0000000001
 40
0.0
 40
0.0
 40
0.0
 40
0.0
 40
1.0
 40
1.0
 40
1.0
 40
1.0
 10
0.8385677878765388
 20
2.583457388909563
 30
0.0
 10
0.8403155623209006
 20
2.588253912639439
 30
0.0
 10
0.8437322642421728
 20
2.592232399103042
 30
0.0
 10
0.8480622768693516
 20
2.59474893141612
 30
0.0
  0
ENDBLK
  5
105
330
102
100
AcDbEntity
  8
0
100
AcDbBlockEnd
  0
BLOCK
  5
10A
330
108
100
AcDbEntity
  8
0
100
AcDbBlockBegin
  2
Block_6
 70
     0
 10
0.0
 20
0.0
 30
0.0
  3
Block_6
  1

  0
SPLINE
  5
10C
330
108
100
AcDbEntity
  8
Layer 1
 62
     7
420
 16777215
370
     0
100
AcDbSpline
210
0.0
220
0.0
230
1.0
 70
     8
 71
     3
 72
    14
 73
    10
 74
     0
 42
0.0000000001
 43
0.0000000001
 40
0.0
 40
0.0
 40
0.0
 40
0.0
 40
1.0
 40
1.0
 40
1.0
 40
2.0
 40
2.0
 40
2.0
 40
3.0
 40
3.0
 40
3.0
 40
3.0
 10
0.8675210513691556
 20
2.981220617724652
 30
0.0
 10
0.875317045272229
 20
2.97791561575736
 30
0.0
 10
0.8808199065397149
 20
2.970119622051217
 30
0.0
 10
0.8808199065397149
 20
2.961121322694478
 30
0.0
 10
0.8808199065397149
 20
2.949090479314993
 30
0.0
 10
0.8710658796124764
 20
2.93930359973193
 30
0.0
 10
0.8590351465011659
 20
2.93930359973193
 30
0.0
 10
0.8539330906514173
 20
2.93930359973193
 30
0.0
 10
0.8492811195739779
 20
2.941038232971221
 30
0.0
 10
0.8455753121055016
 20
2.943955570691855
 30
0.0
  0
SPLINE
  5
10D
330
108
100
AcDbEntity
  8
Layer 1
 62
     7
420
 16777215
370
     0
100
AcDbSpline
210
0.0
220
0.0
230
1.0
 70
     8
 71
     3
 72
     8
 73
     4
 74
     0
 42
0.0000000001
 43
0.0000000001
 40
0.0
 40
0.0
 40
0.0
 40
0.0
 40
1.0
 40
1.0
 40
1.0
 40
1.0
 10
0.8385677878765388
 20
2.96869052080294
 30
0.0
 10
0.8403155623209006
 20
2.973457476920783
 30
0.0
 10
0.8437322642421728
 20
2.97745238983551
 30
0.0
 10
0.8480622768693516
 20
2.979985348599699
 30
0.0
  0
ENDBLK
  5
10B
330
108
100
AcDbEntity
  8
0
100
AcDbBlockEnd
  0
BLOCK
  5
110
330
10E
100
AcDbEntity
  8
0
100
AcDbBlockBegin
  2
Block_7
 70
     0
 10
0.0
 20
0.0
 30
0.0
  3
Block_7
  1

  0
SPLINE
  5
112
330
10E
100
AcDbEntity
  8
Layer 1
 62
     7
420
 16777215
370
     0
100
AcDbSpline
210
0.0
220
0.0
230
1.0
 70
     8
 71
     3
 72
    14
 73
    10
 74
     0
 42
0.0000000001
 43
0.0000000001
 40
0.0
 40
0.0
 40
0.0
 40
0.0
 40
1.0
 40
1.0
 40
1.0
 40
2.0
 40
2.0
 40
2.0
 40
3.0
 40
3.0
 40
3.0
 40
3.0
 10
0.8675210513691556
 20
3.364722401668952
 30
0.0
 10
0.875317045272229
 20
3.361404258540763
 30
0.0
 10
0.8808199065397149
 20
3.353654258897765
 30
0.0
 10
0.8808199065397149
 20
3.344622996066668
 30
0.0
 10
0.8808199065397149
 20
3.332592263259293
 30
0.0
 10
0.8710658796124764
 20
3.322838236578465
 30
0.0
 10
0.8590351465011659
 20
3.322838236578465
 30
0.0
 10
0.8539330906514173
 20
3.322838236578465
 30
0.0
 10
0.8492811195739779
 20
3.324589296268906
 30
0.0
 10
0.8455753121055016
 20
3.327460639926369
 30
0.0
  0
SPLINE
  5
113
330
10E
100
AcDbEntity
  8
Layer 1
 62
     7
420
 16777215
370
     0
100
AcDbSpline
210
0.0
220
0.0
230
1.0
 70
     8
 71
     3
 72
     8
 73
     4
 74
     0
 42
0.0000000001
 43
0.0000000001
 40
0.0
 40
0.0
 40
0.0
 40
0.0
 40
1.0
 40
1.0
 40
1.0
 40
1.0
 10
0.8385677878765388
 20
3.352179163586318
 30
0.0
 10
0.8403155623209006
 20
3.356959260865058
 30
0.0
 10
0.8437322642421728
 20
3.360937747328686
 30
0.0
 10
0.8480622768693516
 20
3.363441138480841
 30
0.0
  0
ENDBLK
  5
111
330
10E
100
AcDbEntity
  8
0
100
AcDbBlockEnd
  0
BLOCK
  5
116
330
114
100
AcDbEntity
  8
0
100
AcDbBlockBegin
  2
Block_8
 70
     0
 10
0.0
 20
0.0
 30
0.0
  3
Block_8
  1

  0
INSERT
  5
119
330
114
100
AcDbEntity
  8
Layer 1
100
AcDbBlockReference
  2
Block_9
 10
0.0
 20
0.0
 30
0.0
  0
INSERT
  5
120
330
114
100
AcDbEntity
  8
Layer 1
100
AcDbBlockReference
  2
Block_10
 10
0.0
 20
0.0
 30
0.0
  0
INSERT
  5
126
330
114
100
AcDbEntity
  8
Layer 1
100
AcDbBlockReference
  2
Block_11
 10
0.0
 20
0.0
 30
0.0
  0
INSERT
  5
12C
330
114
100
AcDbEntity
  8
Layer 1
100
AcDbBlockReference
  2
Block_12
 10
0.0
 20
0.0
 30
0.0
  0
ENDBLK
  5
117
330
114
100
AcDbEntity
  8
0
100
AcDbBlockEnd
  0
BLOCK
  5
11A
330
118
100
AcDbEntity
  8
0
100
AcDbBlockBegin
  2
Block_9
 70
     0
 10
0.0
 20
0.0
 30
0.0
  3
Block_9
  1

  0
LINE
  5
11C
330
118
100
AcDbEntity
  8
Layer 1
 62
     7
420
 16777215
370
     0
100
AcDbLine
 10
1.394980981048572
 20
2.356003700692617
 30
0.0
 11
1.393696432537783
 21
2.336676243007862
 31
0.0
  0
LINE
  5
11D
330
118
100
AcDbEntity
  8
Layer 1
 62
     7
420
 16777215
370
     0
100
AcDbLine
 10
1.434506308755266
 20
2.96034916891929
 30
0.0
 11
1.396134117946985
 21
2.373763884368473
 31
0.0
  0
LINE
  5
11E
330
118
100
AcDbEntity
  8
Layer 1
 62
     7
420
 16777215
370
     0
100
AcDbLine
 10
1.43758791106504
 20
3.007062710641876
 30
0.0
 11
1.435853277781966
 21
2.97966339015756
 31
0.0
  0
ENDBLK
  5
11B
330
118
100
AcDbEntity
  8
0
100
AcDbBlockEnd
  0
BLOCK
  5
121
330
11F
100
AcDbEntity
  8
0
100
AcDbBlockBegin
  2
Block_10
 70
     0
 10
0.0
 20
0.0
 30
0.0
  3
Block_10
  1

  0
SPLINE
  5
123
330
11F
100
AcDbEntity
  8
Layer 1
 62
     7
420
 16777215
370
     0
100
AcDbSpline
210
0.0
220
0.0
230
1.0
 70
     8
 71
     3
 72
    14
 73
    10
 74
     0
 42
0.0000000001
 43
0.0000000001
 40
0.0
 40
0.0
 40
0.0
 40
0.0
 40
1.0
 40
1.0
 40
1.0
 40
2.0
 40
2.0
 40
2.0
 40
3.0
 40
3.0
 40
3.0
 40
3.0
 10
1.371753978564407
 20
3.293628721179667
 30
0.0
 10
1.363731299629964
 20
3.290852650938758
 30
0.0
 10
1.357765212428956
 20
3.283457462640171
 30
0.0
 10
1.357187001334599
 20
3.274459052711335
 30
0.0
 10
1.356352537596143
 20
3.262444746355084
 30
0.0
 10
1.365528353428948
 20
3.252079655692252
 30
0.0
 10
1.377496666024399
 20
3.251294471328264
 30
0.0
 10
1.38256586897104
 20
3.250956086434977
 30
0.0
 10
1.387345966370553
 20
3.252335908329882
 30
0.0
 10
1.391291600031611
 20
3.255033131605374
 30
0.0
  0
SPLINE
  5
124
330
11F
100
AcDbEntity
  8
Layer 1
 62
     7
420
 16777215
370
     0
100
AcDbSpline
210
0.0
220
0.0
230
1.0
 70
     8
 71
     3
 72
     8
 73
     4
 74
     0
 42
0.0000000001
 43
0.0000000001
 40
0.0
 40
0.0
 40
0.0
 40
0.0
 40
1.0
 40
1.0
 40
1.0
 40
1.0
 10
1.399856351867027
 20
3.279239149990063
 30
0.0
 10
1.398381256518304
 20
3.28411452068537
 30
0.0
 10
1.395302939498833
 20
3.288319692174556
 30
0.0
 10
1.391130620806456
 20
3.291125330027524
 30
0.0
  0
ENDBLK
  5
122
330
11F
100
AcDbEntity
  8
0
100
AcDbBlockEnd
  0
BLOCK
  5
127
330
125
100
AcDbEntity
  8
0
100
AcDbBlockBegin
  2
Block_11
 70
     0
 10
0.0
 20
0.0
 30
0.0
  3
Block_11
  1

  0
SPLINE
  5
129
330
125
100
AcDbEntity
  8
Layer 1
 62
     7
420
 16777215
370
     0
100
AcDbSpline
210
0.0
220
0.0
230
1.0
 70
     8
 71
     3
 72
    14
 73
    10
 74
     0
 42
0.0000000001
 43
0.0000000001
 40
0.0
 40
0.0
 40
0.0
 40
0.0
 40
1.0
 40
1.0
 40
1.0
 40
2.0
 40
2.0
 40
2.0
 40
3.0
 40
3.0
 40
3.0
 40
3.0
 10
1.39696858168544
 20
3.678014248194762
 30
0.0
 10
1.388949188041351
 20
3.675221751502704
 30
0.0
 10
1.38291739503413
 20
3.667826563204117
 30
0.0
 10
1.382339183939721
 20
3.658844579726405
 30
0.0
 10
1.38157042600748
 20
3.64681384691903
 30
0.0
 10
1.390680536034172
 20
3.636465182707322
 30
0.0
 10
1.402681701532653
 20
3.635663571892185
 30
0.0
 10
1.407750904479346
 20
3.635328599893189
 30
0.0
 10
1.412531001878859
 20
3.636721435344952
 30
0.0
 10
1.416410929733703
 20
3.639418658620444
 30
0.0
  0
SPLINE
  5
12A
330
125
100
AcDbEntity
  8
Layer 1
 62
     7
420
 16777215
370
     0
100
AcDbSpline
210
0.0
220
0.0
230
1.0
 70
     8
 71
     3
 72
     8
 73
     4
 74
     0
 42
0.0000000001
 43
0.0000000001
 40
0.0
 40
0.0
 40
0.0
 40
0.0
 40
1.0
 40
1.0
 40
1.0
 40
1.0
 10
1.425041387375232
 20
3.663608250554034
 30
0.0
 10
1.42359914492959
 20
3.668500047700439
 30
0.0
 10
1.420422269200874
 20
3.672701933899411
 30
0.0
 10
1.41628280341168
 20
3.675494430591457
 30
0.0
  0
ENDBLK
  5
128
330
125
100
AcDbEntity
  8
0
100
AcDbBlockEnd
  0
BLOCK
  5
12D
330
12B
100
AcDbEntity
  8
0
100
AcDbBlockBegin
  2
Block_12
 70
     0
 10
0.0
 20
0.0
 30
0.0
  3
Block_12
  1

  0
SPLINE
  5
12F
330
12B
100
AcDbEntity
  8
Layer 1
 62
     7
420
 16777215
370
     0
100
AcDbSpline
210
0.0
220
0.0
230
1.0
 70
     8
 71
     3
 72
    14
 73
    10
 74
     0
 42
0.0000000001
 43
0.0000000001
 40
0.0
 40
0.0
 40
0.0
 40
0.0
 40
1.0
 40
1.0
 40
1.0
 40
2.0
 40
2.0
 40
2.0
 40
3.0
 40
3.0
 40
3.0
 40
3.0
 10
1.421995923258893
 20
4.060714421323912
 30
0.0
 10
1.41397324432445
 20
4.057905498180755
 30
0.0
 10
1.408007157123443
 20
4.05052673633328
 30
0.0
 10
1.407428946029085
 20
4.041495473502183
 30
0.0
 10
1.406627335193712
 20
4.02951402004818
 30
0.0
 10
1.415737445220353
 20
4.019152214675588
 30
0.0
 10
1.427738610718835
 20
4.018380171472497
 30
0.0
 10
1.432774960762445
 20
4.018028645418338
 30
0.0
 10
1.43758791106504
 20
4.019438034925238
 30
0.0
 10
1.441500691822966
 20
4.022069552396222
 30
0.0
  0
SPLINE
  5
130
330
12B
100
AcDbEntity
  8
Layer 1
 62
     7
420
 16777215
370
     0
100
AcDbSpline
210
0.0
220
0.0
230
1.0
 70
     8
 71
     3
 72
     8
 73
     4
 74
     0
 42
0.0000000001
 43
0.0000000001
 40
0.0
 40
0.0
 40
0.0
 40
0.0
 40
1.0
 40
1.0
 40
1.0
 40
1.0
 10
1.450098296561413
 20
4.046324850134308
 30
0.0
 10
1.448656054115821
 20
4.051187079668705
 30
0.0
 10
1.445541598902966
 20
4.055356112965404
 30
0.0
 10
1.441339712597861
 20
4.058178315555601
 30
0.0
  0
ENDBLK
  5
12E
330
12B
100
AcDbEntity
  8
0
100
AcDbBlockEnd
  0
ENDSEC
  0
SECTION
  2
ENTITIES
  0
INSERT
  5
7A
330
70
100
AcDbEntity
  8
Layer 1
100
AcDbBlockReference
  2
Block_0
 10
0.0
 20
0.0
 30
0.0
  0
MTEXT
  5
132
330
70
100
AcDbEntity
  8
Layer 2
100
AcDbMText
 10
0.2681405809190538
 20
-0.9428185356987846
 30
0.0
 40
0.2
 41
0.0
 46
0.0
 71
     7
 72
     1
  1
\C250;\c2105123;\FHelvetica Neue LT Std 55 Roman|b0|i0|c1;\H0.118000;\W1.000000;SIMPSON Strong-Tie\H0.068794;®\H0.118000; ^C
 73
     1
 44
1.0
  0
MTEXT
  5
133
330
70
100
AcDbEntity
  8
Layer 2
100
AcDbMText
 10
-0.0079010857476128
 20
-1.142823961046006
 30
0.0
 40
0.2
 41
0.0
 46
0.0
 71
     7
 72
     1
  1
\C250;\c2105123;\FHelvetica Neue LT Std 55 Roman|b0|i0|c1;\H0.118000;\W1.000000;E-Z Mender Installation in Dirt
 73
     1
 44
1.0
  0
MTEXT
  5
134
330
70
100
AcDbEntity
  8
Layer 2
100
AcDbMText
 10
0.0533779991997613
 20
3.906738069322373
 30
0.0
 40
0.2
 41
0.0
 46
0.0
 71
     7
 72
     1
  1
\C250;\c2105123;\FHelvetica Neue LT Std 57 Condensed|b0|i0|c1;\H0.118000;\W1.000000;Post
 73
     1
 44
1.0
  0
MTEXT
  5
135
330
70
100
AcDbEntity
  8
Layer 2
100
AcDbMText
 10
0.0014067755805122
 20
3.086552408006455
 30
0.0
 40
0.2
 41
0.0
 46
0.0
 71
     7
 72
     1
  1
\C250;\c2105123;\FHelvetica Neue LT Std 57 Condensed|b0|i0|c1;\H0.118000;\W1.000000;FPBM 
 73
     1
 44
1.0
  0
MTEXT
  5
136
330
70
100
AcDbEntity
  8
Layer 2
100
AcDbMText
 10
2.62309095594618
 20
1.672673371103074
 30
0.0
 40
0.2
 41
0.0
 46
0.0
 71
     7
 72
     1
  1
\C250;\c2105123;\FHelvetica Neue LT Std 57 Condensed|b0|i0|c1;\H0.118000;\W1.000000;Dirt
 73
     1
 44
1.0
  0
LINE
  5
137
330
70
100
AcDbEntity
  8
Layer 2
 62
   250
420
  2301728
370
    18
100
AcDbLine
 10
2.544172415829784
 20
1.719402290974358
 30
0.0
 11
2.171914601355031
 21
1.519369500148678
 31
0.0
  0
LINE
  5
138
330
70
100
AcDbEntity
  8
Layer 2
 62
   250
420
  2301728
370
    18
100
AcDbLine
 10
0.4135397105292971
 20
3.08655233105738
 30
0.0
 11
0.7901287813100831
 21
2.815107285692571
 31
0.0
  0
LINE
  5
139
330
70
100
AcDbEntity
  8
Layer 2
 62
   250
420
  2301728
370
    18
100
AcDbLine
 10
0.4060824571195477
 20
3.970229601734735
 30
0.0
 11
0.8098510179235693
 21
3.843243181668185
 31
0.0
  0
ENDSEC
  0
SECTION
  2
OBJECTS
  0
DICTIONARY
  5
C
330
0
100
AcDbDictionary
281
     1
  3
ACAD_COLOR
350
63
  3
ACAD_DETAILVIEWSTYLE
350
6A
  3
ACAD_GROUP
350
D
  3
ACAD_LAYOUT
350
62
  3
ACAD_MATERIAL
350
10
  3
ACAD_MLEADERSTYLE
350
66
  3
ACAD_MLINESTYLE
350
5F
  3
ACAD_PLOTSETTINGS
350
61
  3
ACAD_PLOTSTYLENAME
350
E
  3
ACAD_SCALELIST
350
42
  3
ACAD_SECTIONVIEWSTYLE
350
68
  3
ACAD_TABLESTYLE
350
64
  3
ACAD_VISUALSTYLE
350
29
  3
ACDB_RECOMPOSE_DATA
350
142
  3
AcDbVariableDictionary
350
13A
  0
DICTIONARY
  5
63
102
{ACAD_REACTORS
330
C
102
}
330
C
100
AcDbDictionary
281
     1
  0
DICTIONARY
  5
6A
102
{ACAD_REACTORS
330
C
102
}
330
C
100
AcDbDictionary
281
     1
  3
Imperial24
350
6B
  0
DICTIONARY
  5
D
102
{ACAD_REACTORS
330
C
102
}
330
C
100
AcDbDictionary
281
     1
  0
DICTIONARY
  5
62
102
{ACAD_REACTORS
330
C
102
}
330
C
100
AcDbDictionary
281
     1
  3
Layout1
350
6F
  3
Layout2
350
77
  3
Model
350
73
  0
DICTIONARY
  5
10
102
{ACAD_REACTORS
330
C
102
}
330
C
100
AcDbDictionary
281
     1
  3
ByBlock
350
19
  3
ByLayer
350
11
  3
Global
350
21
  0
DICTIONARY
  5
66
102
{ACAD_REACTORS
330
C
102
}
330
C
100
AcDbDictionary
281
     1
  3
Standard
350
67
  0
DICTIONARY
  5
5F
102
{ACAD_REACTORS
330
C
102
}
330
C
100
AcDbDictionary
281
     1
  3
Standard
350
60
  0
DICTIONARY
  5
61
102
{ACAD_REACTORS
330
C
102
}
330
C
100
AcDbDictionary
281
     1
  0
ACDBDICTIONARYWDFLT
  5
E
102
{ACAD_REACTORS
330
C
102
}
330
C
100
AcDbDictionary
281
     1
  3
Normal
350
F
100
AcDbDictionaryWithDefault
340
F
  0
DICTIONARY
  5
42
102
{ACAD_REACTORS
330
C
102
}
330
C
100
AcDbDictionary
281
     1
  3
A0
350
43
  3
A1
350
44
  3
A2
350
45
  3
A3
350
46
  3
A4
350
47
  3
A5
350
48
  3
A6
350
49
  3
A7
350
4A
  3
A8
350
4B
  3
A9
350
4C
  3
B0
350
4D
  3
B1
350
4E
  3
B2
350
4F
  3
B3
350
50
  3
B4
350
51
  3
B5
350
52
  3
B6
350
53
  0
DICTIONARY
  5
68
102
{ACAD_REACTORS
330
C
102
}
330
C
100
AcDbDictionary
281
     1
  3
Imperial24
350
69
  0
DICTIONARY
  5
64
102
{ACAD_REACTORS
330
C
102
}
330
C
100
AcDbDictionary
281
     1
  3
Standard
350
65
  0
DICTIONARY
  5
29
102
{ACAD_REACTORS
330
C
102
}
330
C
100
AcDbDictionary
281
     1
  3
2dWireframe
350
2F
  3
Basic
350
2E
  3
Brighten
350
35
  3
ColorChange
350
39
  3
Conceptual
350
32
  3
Dim
350
34
  3
EdgeColorOff
350
41
  3
Facepattern
350
38
  3
Flat
350
2A
  3
FlatWithEdges
350
2B
  3
Gouraud
350
2C
  3
GouraudWithEdges
350
2D
  3
Hidden
350
31
  3
JitterOff
350
3F
  3
Linepattern
350
37
  3
OverhangOff
350
40
  3
Realistic
350
33
  3
Shaded
350
3E
  3
Shaded with edges
350
3D
  3
Shades of Gray
350
3A
  3
Sketchy
350
3B
  3
Thicken
350
36
  3
Wireframe
350
30
  3
X-Ray
350
3C
  0
XRECORD
  5
142
102
{ACAD_REACTORS
330
C
102
}
330
C
100
AcDbXrecord
280
     1
 90
        1
330
65
  0
DICTIONARY
  5
13A
102
{ACAD_REACTORS
330
C
102
}
330
C
100
AcDbDictionary
281
     1
  3
CANNOSCALE
350
13F
  3
CMLEADERSTYLE
350
13C
  3
CTABLESTYLE
350
13B
  3
CVIEWDETAILSTYLE
350
13D
  3
CVIEWSECTIONSTYLE
350
13E
  0
ACDBDETAILVIEWSTYLE
  5
6B
102
{ACAD_REACTORS
330
6A
102
}
330
6A
100
AcDbModelDocViewStyle
 70
     0
  3
Imperial24
290
     1
300
Imperial24
 90
        0
100
AcDbDetailViewStyle
 70
     0
 71
     0
 90
        3
 71
     1
340
55
 62
   256
 40
0.24
340
0
 62
   256
 40
0.24
300

 40
0.36
280
     3
 71
     2
340
5D
 90
       25
 62
   256
 71
     3
340
55
 62
   256
 40
0.24
 90
        1
 40
0.75
 90
        1
300
%<\AcVar ViewType \f "%tc1">% %<\AcVar ViewDetailId>%\PSCALE %<\AcVar ViewScale \f "%sn">%
 71
     4
340
5D
 90
       25
 62
   256
340
5D
 90
       25
 62
   256
280
     0
  0
LAYOUT
  5
6F
102
{ACAD_REACTORS
330
62
102
}
330
62
100
AcDbPlotSettings
  1

  2

  4

  6

 40
0.0
 41
0.0
 42
0.0
 43
0.0
 44
0.0
 45
0.0
 46
0.0
 47
0.0
 48
0.0
 49
0.0
140
0.0
141
0.0
142
1.0
143
1.0
 70
   688
 72
     0
 73
     0
 74
     5
  7

 75
    16
147
1.0
 76
     0
 77
     2
 78
   300
148
0.0
149
0.0
100
AcDbLayout
  1
Layout1
 70
     1
 71
     1
 10
0.0
 20
0.0
 11
12.0
 21
9.0
 12
0.0
 22
0.0
 32
0.0
 14
0.0
 24
0.0
 34
0.0
 15
0.0
 25
0.0
 35
0.0
146
0.0
 13
0.0
 23
0.0
 33
0.0
 16
1.0
 26
0.0
 36
0.0
 17
0.0
 27
1.0
 37
0.0
 76
     0
330
6C
  0
LAYOUT
  5
77
102
{ACAD_REACTORS
330
62
102
}
330
62
100
AcDbPlotSettings
  1

  2

  4

  6

 40
0.0
 41
0.0
 42
0.0
 43
0.0
 44
0.0
 45
0.0
 46
0.0
 47
0.0
 48
0.0
 49
0.0
140
0.0
141
0.0
142
1.0
143
1.0
 70
   688
 72
     0
 73
     0
 74
     5
  7

 75
    16
147
1.0
 76
     0
 77
     2
 78
   300
148
0.0
149
0.0
100
AcDbLayout
  1
Layout2
 70
     1
 71
     2
 10
0.0
 20
0.0
 11
12.0
 21
9.0
 12
0.0
 22
0.0
 32
0.0
 14
0.0
 24
0.0
 34
0.0
 15
0.0
 25
0.0
 35
0.0
146
0.0
 13
0.0
 23
0.0
 33
0.0
 16
1.0
 26
0.0
 36
0.0
 17
0.0
 27
1.0
 37
0.0
 76
     0
330
74
  0
LAYOUT
  5
73
102
{ACAD_REACTORS
330
62
102
}
330
62
100
AcDbPlotSettings
  1

  2

  4

  6

 40
0.0
 41
0.0
 42
0.0
 43
0.0
 44
0.0
 45
0.0
 46
0.0
 47
0.0
 48
0.0
 49
0.0
140
0.0
141
0.0
142
1.0
143
1.0
 70
  1712
 72
     0
 73
     0
 74
     0
  7

 75
     0
147
1.0
 76
     0
 77
     2
 78
   300
148
0.0
149
0.0
100
AcDbLayout
  1
Model
 70
     1
 71
     0
 10
0.0
 20
0.0
 11
12.0
 21
9.0
 12
0.0
 22
0.0
 32
0.0
 14
0.0
 24
0.0
 34
0.0
 15
0.0
 25
0.0
 35
0.0
146
0.0
 13
0.0
 23
0.0
 33
0.0
 16
1.0
 26
0.0
 36
0.0
 17
0.0
 27
1.0
 37
0.0
 76
     0
330
70
  0
MATERIAL
  5
19
102
{ACAD_XDICTIONARY
360
1A
102
}
102
{ACAD_REACTORS
330
10
102
}
330
10
100
AcDbMaterial
  1
ByBlock
 72
     0
 43
0.0208333333333333
 43
0.0
 43
0.0
 43
0.0
 43
0.0
 43
0.0208333333333333
 43
0.0
 43
0.0
 43
0.0
 43
0.0
 43
1.0
 43
0.0
 43
0.0
 43
0.0
 43
0.0
 43
1.0
 77
     0
 47
0.0208333333333333
 47
0.0
 47
0.0
 47
0.0
 47
0.0
 47
0.0208333333333333
 47
0.0
 47
0.0
 47
0.0
 47
0.0
 47
1.0
 47
0.0
 47
0.0
 47
0.0
 47
0.0
 47
1.0
171
     0
 49
0.0208333333333333
 49
0.0
 49
0.0
 49
0.0
 49
0.0
 49
0.0208333333333333
 49
0.0
 49
0.0
 49
0.0
 49
0.0
 49
1.0
 49
0.0
 49
0.0
 49
0.0
 49
0.0
 49
1.0
175
     0
142
0.0208333333333333
142
0.0
142
0.0
142
0.0
142
0.0
142
0.0208333333333333
142
0.0
142
0.0
142
0.0
142
0.0
142
1.0
142
0.0
142
0.0
142
0.0
142
0.0
142
1.0
179
     0
144
0.0208333333333333
144
0.0
144
0.0
144
0.0
144
0.0
144
0.0208333333333333
144
0.0
144
0.0
144
0.0
144
0.0
144
1.0
144
0.0
144
0.0
144
0.0
144
0.0
144
1.0
147
0.0208333333333333
147
0.0
147
0.0
147
0.0
147
0.0
147
0.0208333333333333
147
0.0
147
0.0
147
0.0
147
0.0
147
1.0
147
0.0
147
0.0
147
0.0
147
0.0
147
1.0
  0
MATERIAL
  5
11
102
{ACAD_XDICTIONARY
360
12
102
}
102
{ACAD_REACTORS
330
10
102
}
330
10
100
AcDbMaterial
  1
ByLayer
 72
     0
 43
0.0208333333333333
 43
0.0
 43
0.0
 43
0.0
 43
0.0
 43
0.0208333333333333
 43
0.0
 43
0.0
 43
0.0
 43
0.0
 43
1.0
 43
0.0
 43
0.0
 43
0.0
 43
0.0
 43
1.0
 77
     0
 47
0.0208333333333333
 47
0.0
 47
0.0
 47
0.0
 47
0.0
 47
0.0208333333333333
 47
0.0
 47
0.0
 47
0.0
 47
0.0
 47
1.0
 47
0.0
 47
0.0
 47
0.0
 47
0.0
 47
1.0
171
     0
 49
0.0208333333333333
 49
0.0
 49
0.0
 49
0.0
 49
0.0
 49
0.0208333333333333
 49
0.0
 49
0.0
 49
0.0
 49
0.0
 49
1.0
 49
0.0
 49
0.0
 49
0.0
 49
0.0
 49
1.0
175
     0
142
0.0208333333333333
142
0.0
142
0.0
142
0.0
142
0.0
142
0.0208333333333333
142
0.0
142
0.0
142
0.0
142
0.0
142
1.0
142
0.0
142
0.0
142
0.0
142
0.0
142
1.0
179
     0
144
0.0208333333333333
144
0.0
144
0.0
144
0.0
144
0.0
144
0.0208333333333333
144
0.0
144
0.0
144
0.0
144
0.0
144
1.0
144
0.0
144
0.0
144
0.0
144
0.0
144
1.0
147
0.0208333333333333
147
0.0
147
0.0
147
0.0
147
0.0
147
0.0208333333333333
147
0.0
147
0.0
147
0.0
147
0.0
147
1.0
147
0.0
147
0.0
147
0.0
147
0.0
147
1.0
  0
MATERIAL
  5
21
102
{ACAD_XDICTIONARY
360
22
102
}
102
{ACAD_REACTORS
330
10
102
}
330
10
100
AcDbMaterial
  1
Global
 72
     0
 43
0.0208333333333333
 43
0.0
 43
0.0
 43
0.0
 43
0.0
 43
0.0208333333333333
 43
0.0
 43
0.0
 43
0.0
 43
0.0
 43
1.0
 43
0.0
 43
0.0
 43
0.0
 43
0.0
 43
1.0
 77
     0
 47
0.0208333333333333
 47
0.0
 47
0.0
 47
0.0
 47
0.0
 47
0.0208333333333333
 47
0.0
 47
0.0
 47
0.0
 47
0.0
 47
1.0
 47
0.0
 47
0.0
 47
0.0
 47
0.0
 47
1.0
171
     0
 49
0.0208333333333333
 49
0.0
 49
0.0
 49
0.0
 49
0.0
 49
0.0208333333333333
 49
0.0
 49
0.0
 49
0.0
 49
0.0
 49
1.0
 49
0.0
 49
0.0
 49
0.0
 49
0.0
 49
1.0
175
     0
142
0.0208333333333333
142
0.0
142
0.0
142
0.0
142
0.0
142
0.0208333333333333
142
0.0
142
0.0
142
0.0
142
0.0
142
1.0
142
0.0
142
0.0
142
0.0
142
0.0
142
1.0
179
     0
144
0.0208333333333333
144
0.0
144
0.0
144
0.0
144
0.0
144
0.0208333333333333
144
0.0
144
0.0
144
0.0
144
0.0
144
1.0
144
0.0
144
0.0
144
0.0
144
0.0
144
1.0
147
0.0208333333333333
147
0.0
147
0.0
147
0.0
147
0.0
147
0.0208333333333333
147
0.0
147
0.0
147
0.0
147
0.0
147
1.0
147
0.0
147
0.0
147
0.0
147
0.0
147
1.0
  0
MLEADERSTYLE
  5
67
102
{ACAD_REACTORS
330
66
102
}
330
66
100
AcDbMLeaderStyle
179
     2
170
     2
171
     1
172
     0
 90
        2
 40
0.0
 41
0.0
173
     1
 91
-1056964608
340
5B
 92
       -2
290
     1
 42
0.09
291
     1
 43
0.36
  3
Standard
 44
0.18
300

342
55
174
     1
178
     6
175
     1
176
     0
 93
-1056964608
 45
0.18
292
     0
297
     0
 46
0.18
 94
-1056964608
 47
1.0
 49
1.0
140
1.0
293
     1
141
0.0
294
     1
177
     0
142
1.0
295
     1
296
     0
143
0.125
271
     0
272
     9
273
     9
298
     1
  0
MLINESTYLE
  5
60
102
{ACAD_REACTORS
330
5F
102
}
330
5F
100
AcDbMlineStyle
  2
STANDARD
 70
     0
  3

 62
   256
 51
90.0
 52
90.0
 71
     2
 49
0.5
 62
   256
  6
BYLAYER
 49
-0.5
 62
   256
  6
BYLAYER
  0
ACDBPLACEHOLDER
  5
F
102
{ACAD_REACTORS
330
E
102
}
330
E
  0
SCALE
  5
43
102
{ACAD_REACTORS
330
42
102
}
330
42
100
AcDbScale
 70
     0
300
1:1
140
1.0
141
1.0
290
     1
  0
SCALE
  5
44
102
{ACAD_REACTORS
330
42
102
}
330
42
100
AcDbScale
 70
     0
300
1/128" = 1'-0"
140
0.0078125
141
12.0
290
     0
  0
SCALE
  5
45
102
{ACAD_REACTORS
330
42
102
}
330
42
100
AcDbScale
 70
     0
300
1/64" = 1'-0"
140
0.015625
141
12.0
290
     0
  0
SCALE
  5
46
102
{ACAD_REACTORS
330
42
102
}
330
42
100
AcDbScale
 70
     0
300
1/32" = 1'-0"
140
0.03125
141
12.0
290
     0
  0
SCALE
  5
47
102
{ACAD_REACTORS
330
42
102
}
330
42
100
AcDbScale
 70
     0
300
1/16" = 1'-0"
140
0.0625
141
12.0
290
     0
  0
SCALE
  5
48
102
{ACAD_REACTORS
330
42
102
}
330
42
100
AcDbScale
 70
     0
300
3/32" = 1'-0"
140
0.09375
141
12.0
290
     0
  0
SCALE
  5
49
102
{ACAD_REACTORS
330
42
102
}
330
42
100
AcDbScale
 70
     0
300
1/8" = 1'-0"
140
0.125
141
12.0
290
     0
  0
SCALE
  5
4A
102
{ACAD_REACTORS
330
42
102
}
330
42
100
AcDbScale
 70
     0
300
3/16" = 1'-0"
140
0.1875
141
12.0
290
     0
  0
SCALE
  5
4B
102
{ACAD_REACTORS
330
42
102
}
330
42
100
AcDbScale
 70
     0
300
1/4" = 1'-0"
140
0.25
141
12.0
290
     0
  0
SCALE
  5
4C
102
{ACAD_REACTORS
330
42
102
}
330
42
100
AcDbScale
 70
     0
300
3/8" = 1'-0"
140
0.375
141
12.0
290
     0
  0
SCALE
  5
4D
102
{ACAD_REACTORS
330
42
102
}
330
42
100
AcDbScale
 70
     0
300
1/2" = 1'-0"
140
0.5
141
12.0
290
     0
  0
SCALE
  5
4E
102
{ACAD_REACTORS
330
42
102
}
330
42
100
AcDbScale
 70
     0
300
3/4" = 1'-0"
140
0.75
141
12.0
290
     0
  0
SCALE
  5
4F
102
{ACAD_REACTORS
330
42
102
}
330
42
100
AcDbScale
 70
     0
300
1" = 1'-0"
140
1.0
141
12.0
290
     0
  0
SCALE
  5
50
102
{ACAD_REACTORS
330
42
102
}
330
42
100
AcDbScale
 70
     0
300
1-1/2" = 1'-0"
140
1.5
141
12.0
290
     0
  0
SCALE
  5
51
102
{ACAD_REACTORS
330
42
102
}
330
42
100
AcDbScale
 70
     0
300
3" = 1'-0"
140
3.0
141
12.0
290
     0
  0
SCALE
  5
52
102
{ACAD_REACTORS
330
42
102
}
330
42
100
AcDbScale
 70
     0
300
6" = 1'-0"
140
6.0
141
12.0
290
     0
  0
SCALE
  5
53
102
{ACAD_REACTORS
330
42
102
}
330
42
100
AcDbScale
 70
     0
300
1'-0" = 1'-0"
140
12.0
141
12.0
290
     0
  0
ACDBSECTIONVIEWSTYLE
  5
69
102
{ACAD_REACTORS
330
68
102
}
330
68
100
AcDbModelDocViewStyle
 70
     0
  3
Imperial24
290
     1
300
Imperial24
 90
        0
100
AcDbSectionViewStyle
 70
     0
 71
     0
 90
       78
 71
     1
340
55
 62
   256
 40
0.24
340
0
340
0
 62
   256
 40
0.24
300
I, O, Q, S, X, Z
 40
0.48
 90
        3
 40
0.18
 90
        1
 71
     2
340
5D
 90
       25
 62
   256
340
5D
 90
       50
 62
   256
 40
0.24
 40
0.0
 40
0.24
 71
     3
340
55
 62
   256
 40
0.24
 90
        1
 40
0.75
 90
        1
300
%<\AcVar ViewType \f "%tc1">% %<\AcVar ViewSectionStartId>%-%<\AcVar ViewSectionEndId>%\PSCALE %<\AcVar ViewScale \f "%sn">%
 71
     4
 62
   256
 62
   257
300
ANSI31
 40
1.0
 90
        0
290
     0
290
     0
 90
        6
 40
0.0
 40
1.570796326794896
 40
0.2617993877991494
 40
1.308996938995747
 40
-0.2617993877991494
 40
1.832595714594046
  0
TABLESTYLE
  5
65
102
{ACAD_XDICTIONARY
360
140
102
}
102
{ACAD_REACTORS
330
64
102
}
330
64
100
AcDbTableStyle
280
     0
  3
Standard
 70
     0
 71
     0
 40
0.06
 41
0.06
280
     0
281
     0
  7
Standard
140
0.18
170
     2
 62
     0
 63
     7
283
     0
 90
      512
 91
        0
  1

274
    -2
284
     1
 64
     0
275
    -2
285
     1
 65
     0
276
    -2
286
     1
 66
     0
277
    -2
287
     1
 67
     0
278
    -2
288
     1
 68
     0
279
    -2
289
     1
 69
     0
  7
Standard
140
0.25
170
     5
 62
     0
 63
     7
283
     0
 90
      512
 91
        0
  1

274
    -2
284
     1
 64
     0
275
    -2
285
     1
 65
     0
276
    -2
286
     1
 66
     0
277
    -2
287
     1
 67
     0
278
    -2
288
     1
 68
     0
279
    -2
289
     1
 69
     0
  7
Standard
140
0.18
170
     5
 62
     0
 63
     7
283
     0
 90
      512
 91
        0
  1

274
    -2
284
     1
 64
     0
275
    -2
285
     1
 65
     0
276
    -2
286
     1
 66
     0
277
    -2
287
     1
 67
     0
278
    -2
288
     1
 68
     0
279
    -2
289
     1
 69
     0
  0
VISUALSTYLE
  5
2F
102
{ACAD_REACTORS
330
29
102
}
330
29
100
AcDbVisualStyle
  2
2dWireframe
 70
     4
177
     3
291
     0
 70
    58
 90
        0
176
     1
 90
        2
176
     1
 90
        0
176
     1
 90
        0
176
     1
 40
0.6
176
     1
 40
30.0
176
     1
 62
     7
420
 16777215
176
     1
 90
        1
176
     1
 90
        4
176
     1
 62
     7
176
     1
 62
   257
176
     1
 90
        1
176
     1
 90
        1
176
     1
 40
1.0
176
     1
 90
        0
176
     1
 62
   257
176
     1
 40
1.0
176
     1
 90
        1
176
     1
 90
        6
176
     1
 90
        2
176
     1
 62
     7
176
     1
 90
        5
176
     1
 90
        0
176
     1
 90
        0
176
     1
290
     0
176
     1
 90
        1
176
     1
 40
0.0
176
     1
 90
        0
176
     1
290
     1
176
     1
290
     1
176
     1
290
     0
176
     1
290
     0
176
     1
290
     0
176
     1
290
     0
176
     1
290
     0
176
     1
290
     0
176
     1
290
     0
176
     1
 90
       50
176
     1
 40
0.0
176
     1
 40
1.0
176
     1
 90
        0
176
     1
 62
    18
420
        0
176
     1
 90
       50
176
     1
 90
        3
176
     1
 62
     5
420
      255
176
     1
290
     0
176
     1
 90
       50
176
     1
 90
       50
176
     1
 90
       50
176
     1
290
     0
176
     1
 90
       50
176
     1
 62
   256
176
     0
 40
1.0
176
     0
 90
        2
176
     1
  1
strokes_ogs.tif
176
     1
290
     0
176
     1
 40
1.0
176
     1
 40
1.0
176
     1
  0
VISUALSTYLE
  5
2E
102
{ACAD_REACTORS
330
29
102
}
330
29
100
AcDbVisualStyle
  2
Basic
 70
     7
177
     3
291
     1
 70
    58
 90
        1
176
     1
 90
        0
176
     1
 90
        1
176
     1
 90
        0
176
     1
 40
0.6
176
     1
 40
30.0
176
     1
 62
     7
420
 16777215
176
     1
 90
        0
176
     1
 90
        4
176
     1
 62
     7
176
     1
 62
   257
176
     1
 90
        1
176
     1
 90
        1
176
     1
 40
1.0
176
     1
 90
        8
176
     1
 62
     7
176
     1
 40
1.0
176
     1
 90
        1
176
     1
 90
        6
176
     1
 90
        2
176
     1
 62
     7
176
     1
 90
        5
176
     1
 90
        0
176
     1
 90
        0
176
     1
290
     0
176
     1
 90
        1
176
     1
 40
0.0
176
     1
 90
        0
176
     1
290
     0
176
     1
290
     1
176
     1
290
     1
176
     1
290
     0
176
     1
290
     0
176
     1
290
     0
176
     1
290
     0
176
     1
290
     0
176
     1
290
     0
176
     1
 90
       50
176
     1
 40
0.0
176
     1
 40
1.0
176
     1
 90
        0
176
     1
 62
    18
420
        0
176
     1
 90
       50
176
     1
 90
        3
176
     1
 62
     5
420
      255
176
     1
290
     0
176
     1
 90
       50
176
     1
 90
       50
176
     1
 90
       50
176
     1
290
     0
176
     1
 90
       50
176
     1
 62
   256
176
     0
 40
1.0
176
     0
 90
        2
176
     1
  1
strokes_ogs.tif
176
     1
290
     0
176
     1
 40
1.0
176
     1
 40
1.0
176
     1
  0
VISUALSTYLE
  5
35
102
{ACAD_REACTORS
330
29
102
}
330
29
100
AcDbVisualStyle
  2
Brighten
 70
    12
177
     3
291
     1
 70
    58
 90
        2
176
     1
 90
        2
176
     1
 90
        0
176
     1
 90
        0
176
     1
 40
0.6
176
     1
 40
30.0
176
     1
 62
     7
420
 16777215
176
     1
 90
        1
176
     1
 90
        4
176
     1
 62
     7
176
     1
 62
   257
176
     1
 90
        1
176
     1
 90
        1
176
     1
 40
1.0
176
     1
 90
        8
176
     1
 62
     7
176
     1
 40
1.0
176
     1
 90
        1
176
     1
 90
        6
176
     1
 90
        2
176
     1
 62
     7
176
     1
 90
        5
176
     1
 90
        0
176
     1
 90
        0
176
     1
290
     0
176
     1
 90
        1
176
     1
 40
50.0
176
     1
 90
        0
176
     1
290
     0
176
     1
290
     1
176
     1
290
     1
176
     1
290
     0
176
     1
290
     0
176
     1
290
     0
176
     1
290
     0
176
     1
290
     0
176
     1
290
     0
176
     1
 90
       50
176
     1
 40
0.0
176
     1
 40
1.0
176
     1
 90
        0
176
     1
 62
    18
420
        0
176
     1
 90
       50
176
     1
 90
        3
176
     1
 62
     5
420
      255
176
     1
290
     0
176
     1
 90
       50
176
     1
 90
       50
176
     1
 90
       50
176
     1
290
     0
176
     1
 90
       50
176
     1
 62
   256
176
     0
 40
1.0
176
     0
 90
        2
176
     1
  1
strokes_ogs.tif
176
     1
290
     0
176
     1
 40
1.0
176
     1
 40
1.0
176
     1
  0
VISUALSTYLE
  5
39
102
{ACAD_REACTORS
330
29
102
}
330
29
100
AcDbVisualStyle
  2
ColorChange
 70
    16
177
     3
291
     1
 70
    58
 90
        2
176
     1
 90
        2
176
     1
 90
        3
176
     1
 90
        0
176
     1
 40
0.6
176
     1
 40
30.0
176
     1
 62
     8
420
  8421504
176
     1
 90
        1
176
     1
 90
        4
176
     1
 62
     7
176
     1
 62
   257
176
     1
 90
        1
176
     1
 90
        1
176
     1
 40
1.0
176
     1
 90
        8
176
     1
 62
     8
420
  8421504
176
     1
 40
1.0
176
     1
 90
        1
176
     1
 90
        6
176
     1
 90
        2
176
     1
 62
     7
176
     1
 90
        5
176
     1
 90
        0
176
     1
 90
        0
176
     1
290
     0
176
     1
 90
        1
176
     1
 40
0.0
176
     1
 90
        0
176
     1
290
     0
176
     1
290
     1
176
     1
290
     1
176
     1
290
     0
176
     1
290
     0
176
     1
290
     0
176
     1
290
     0
176
     1
290
     0
176
     1
290
     0
176
     1
 90
       50
176
     1
 40
0.0
176
     1
 40
1.0
176
     1
 90
        0
176
     1
 62
    18
420
        0
176
     1
 90
       50
176
     1
 90
        3
176
     1
 62
     5
420
      255
176
     1
290
     0
176
     1
 90
       50
176
     1
 90
       50
176
     1
 90
       50
176
     1
290
     0
176
     1
 90
       50
176
     1
 62
   256
176
     0
 40
1.0
176
     0
 90
        2
176
     1
  1
strokes_ogs.tif
176
     1
290
     0
176
     1
 40
1.0
176
     1
 40
1.0
176
     1
  0
VISUALSTYLE
  5
32
102
{ACAD_REACTORS
330
29
102
}
330
29
100
AcDbVisualStyle
  2
Conceptual
 70
     9
177
     3
291
     0
 70
    58
 90
        3
176
     1
 90
        2
176
     1
 90
        0
176
     1
 90
        0
176
     1
 40
0.6
176
     1
 40
30.0
176
     1
 62
     7
420
 16777215
176
     1
 90
        2
176
     1
 90
        2
176
     1
 62
     7
176
     1
 62
   257
176
     1
 90
        1
176
     1
 90
        1
176
     1
 40
179.0
176
     1
 90
        8
176
     1
 62
     7
176
     1
 40
1.0
176
     1
 90
        1
176
     1
 90
        6
176
     1
 90
        2
176
     1
 62
     7
176
     1
 90
        3
176
     1
 90
        0
176
     1
 90
        0
176
     1
290
     0
176
     1
 90
        1
176
     1
 40
0.0
176
     1
 90
        0
176
     1
290
     0
176
     1
290
     1
176
     1
290
     1
176
     1
290
     0
176
     1
290
     0
176
     1
290
     0
176
     1
290
     0
176
     1
290
     0
176
     1
290
     0
176
     1
 90
       50
176
     1
 40
0.0
176
     1
 40
1.0
176
     1
 90
        0
176
     1
 62
    18
420
        0
176
     1
 90
       50
176
     1
 90
        3
176
     1
 62
     5
420
      255
176
     1
290
     0
176
     1
 90
       50
176
     1
 90
       50
176
     1
 90
       50
176
     1
290
     0
176
     1
 90
       50
176
     1
 62
   256
176
     0
 40
1.0
176
     0
 90
        2
176
     1
  1
strokes_ogs.tif
176
     1
290
     0
176
     1
 40
1.0
176
     1
 40
1.0
176
     1
  0
VISUALSTYLE
  5
34
102
{ACAD_REACTORS
330
29
102
}
330
29
100
AcDbVisualStyle
  2
Dim
 70
    11
177
     3
291
     1
 70
    58
 90
        2
176
     1
 90
        2
176
     1
 90
        0
176
     1
 90
        0
176
     1
 40
0.6
176
     1
 40
30.0
176
     1
 62
     7
420
 16777215
176
     1
 90
        1
176
     1
 90
        4
176
     1
 62
     7
176
     1
 62
   257
176
     1
 90
        1
176
     1
 90
        1
176
     1
 40
1.0
176
     1
 90
        8
176
     1
 62
     7
176
     1
 40
1.0
176
     1
 90
        1
176
     1
 90
        6
176
     1
 90
        2
176
     1
 62
     7
176
     1
 90
        5
176
     1
 90
        0
176
     1
 90
        0
176
     1
290
     0
176
     1
 90
        1
176
     1
 40
-50.0
176
     1
 90
        0
176
     1
290
     0
176
     1
290
     1
176
     1
290
     1
176
     1
290
     0
176
     1
290
     0
176
     1
290
     0
176
     1
290
     0
176
     1
290
     0
176
     1
290
     0
176
     1
 90
       50
176
     1
 40
0.0
176
     1
 40
1.0
176
     1
 90
        0
176
     1
 62
    18
420
        0
176
     1
 90
       50
176
     1
 90
        3
176
     1
 62
     5
420
      255
176
     1
290
     0
176
     1
 90
       50
176
     1
 90
       50
176
     1
 90
       50
176
     1
290
     0
176
     1
 90
       50
176
     1
 62
   256
176
     0
 40
1.0
176
     0
 90
        2
176
     1
  1
strokes_ogs.tif
176
     1
290
     0
176
     1
 40
1.0
176
     1
 40
1.0
176
     1
  0
VISUALSTYLE
  5
41
102
{ACAD_REACTORS
330
29
102
}
330
29
100
AcDbVisualStyle
  2
EdgeColorOff
 70
    22
177
     3
291
     1
 70
    58
 90
        2
176
     0
 90
        2
176
     0
 90
        0
176
     0
 90
        0
176
     0
 40
0.6
176
     0
 40
30.0
176
     0
 62
     7
420
 16777215
176
     0
 90
        1
176
     0
 90
        4
176
     0
 62
     7
176
     0
 62
   257
176
     0
 90
        1
176
     0
 90
        1
176
     0
 40
1.0
176
     0
 90
        8
176
     2
 62
     7
176
     0
 40
1.0
176
     0
 90
        1
176
     0
 90
        6
176
     0
 90
        2
176
     0
 62
     7
176
     0
 90
        5
176
     0
 90
        0
176
     0
 90
        0
176
     0
290
     0
176
     0
 90
        1
176
     0
 40
0.0
176
     0
 90
        0
176
     0
290
     0
176
     0
290
     1
176
     0
290
     1
176
     0
290
     0
176
     0
290
     0
176
     0
290
     0
176
     0
290
     0
176
     0
290
     0
176
     0
290
     0
176
     0
 90
       50
176
     0
 40
0.0
176
     0
 40
1.0
176
     0
 90
        0
176
     0
 62
    18
420
        0
176
     0
 90
       50
176
     0
 90
        3
176
     0
 62
     5
420
      255
176
     0
290
     0
176
     0
 90
       50
176
     0
 90
       50
176
     0
 90
       50
176
     0
290
     0
176
     0
 90
       50
176
     0
 62
   256
176
     0
 40
1.0
176
     0
 90
        2
176
     0
  1
strokes_ogs.tif
176
     0
290
     0
176
     0
 40
1.0
176
     0
 40
1.0
176
     0
  0
VISUALSTYLE
  5
38
102
{ACAD_REACTORS
330
29
102
}
330
29
100
AcDbVisualStyle
  2
Facepattern
 70
    15
177
     3
291
     1
 70
    58
 90
        2
176
     1
 90
        2
176
     1
 90
        0
176
     1
 90
        0
176
     1
 40
0.6
176
     1
 40
30.0
176
     1
 62
     7
420
 16777215
176
     1
 90
        1
176
     1
 90
        4
176
     1
 62
     7
176
     1
 62
   257
176
     1
 90
        1
176
     1
 90
        1
176
     1
 40
1.0
176
     1
 90
        8
176
     1
 62
     7
176
     1
 40
1.0
176
     1
 90
        1
176
     1
 90
        6
176
     1
 90
        2
176
     1
 62
     7
176
     1
 90
        5
176
     1
 90
        0
176
     1
 90
        0
176
     1
290
     0
176
     1
 90
        1
176
     1
 40
0.0
176
     1
 90
        0
176
     1
290
     0
176
     1
290
     1
176
     1
290
     1
176
     1
290
     0
176
     1
290
     0
176
     1
290
     0
176
     1
290
     0
176
     1
290
     0
176
     1
290
     0
176
     1
 90
       50
176
     1
 40
0.0
176
     1
 40
1.0
176
     1
 90
        0
176
     1
 62
    18
420
        0
176
     1
 90
       50
176
     1
 90
        3
176
     1
 62
     5
420
      255
176
     1
290
     0
176
     1
 90
       50
176
     1
 90
       50
176
     1
 90
       50
176
     1
290
     0
176
     1
 90
       50
176
     1
 62
   256
176
     0
 40
1.0
176
     0
 90
        2
176
     1
  1
strokes_ogs.tif
176
     1
290
     0
176
     1
 40
1.0
176
     1
 40
1.0
176
     1
  0
VISUALSTYLE
  5
2A
102
{ACAD_REACTORS
330
29
102
}
330
29
100
AcDbVisualStyle
  2
Flat
 70
     0
177
     3
291
     1
 70
    58
 90
        2
176
     1
 90
        1
176
     1
 90
        1
176
     1
 90
        2
176
     1
 40
0.6
176
     1
 40
30.0
176
     1
 62
     7
420
 16777215
176
     1
 90
        0
176
     1
 90
        0
176
     1
 62
     7
176
     1
 62
   257
176
     1
 90
        1
176
     1
 90
        1
176
     1
 40
1.0
176
     1
 90
        8
176
     1
 62
     7
176
     1
 40
1.0
176
     1
 90
        1
176
     1
 90
        6
176
     1
 90
        2
176
     1
 62
     7
176
     1
 90
        5
176
     1
 90
        0
176
     1
 90
        0
176
     1
290
     0
176
     1
 90
       13
176
     1
 40
0.0
176
     1
 90
        0
176
     1
290
     0
176
     1
290
     1
176
     1
290
     1
176
     1
290
     0
176
     1
290
     0
176
     1
290
     0
176
     1
290
     0
176
     1
290
     0
176
     1
290
     0
176
     1
 90
       50
176
     1
 40
0.0
176
     1
 40
1.0
176
     1
 90
        0
176
     1
 62
    18
420
        0
176
     1
 90
       50
176
     1
 90
        3
176
     1
 62
     5
420
      255
176
     1
290
     0
176
     1
 90
       50
176
     1
 90
       50
176
     1
 90
       50
176
     1
290
     0
176
     1
 90
       50
176
     1
 62
   256
176
     0
 40
1.0
176
     0
 90
        2
176
     1
  1
strokes_ogs.tif
176
     1
290
     0
176
     1
 40
1.0
176
     1
 40
1.0
176
     1
  0
VISUALSTYLE
  5
2B
102
{ACAD_REACTORS
330
29
102
}
330
29
100
AcDbVisualStyle
  2
FlatWithEdges
 70
     1
177
     3
291
     1
 70
    58
 90
        2
176
     1
 90
        1
176
     1
 90
        1
176
     1
 90
        2
176
     1
 40
0.6
176
     1
 40
30.0
176
     1
 62
     7
420
 16777215
176
     1
 90
        1
176
     1
 90
        0
176
     1
 62
     7
176
     1
 62
   257
176
     1
 90
        1
176
     1
 90
        1
176
     1
 40
1.0
176
     1
 90
        0
176
     1
 62
   257
176
     1
 40
1.0
176
     1
 90
        1
176
     1
 90
        6
176
     1
 90
        2
176
     1
 62
     7
176
     1
 90
        5
176
     1
 90
        0
176
     1
 90
        0
176
     1
290
     0
176
     1
 90
       13
176
     1
 40
0.0
176
     1
 90
        0
176
     1
290
     0
176
     1
290
     1
176
     1
290
     1
176
     1
290
     0
176
     1
290
     0
176
     1
290
     0
176
     1
290
     0
176
     1
290
     0
176
     1
290
     0
176
     1
 90
       50
176
     1
 40
0.0
176
     1
 40
1.0
176
     1
 90
        0
176
     1
 62
    18
420
        0
176
     1
 90
       50
176
     1
 90
        3
176
     1
 62
     5
420
      255
176
     1
290
     0
176
     1
 90
       50
176
     1
 90
       50
176
     1
 90
       50
176
     1
290
     0
176
     1
 90
       50
176
     1
 62
   256
176
     0
 40
1.0
176
     0
 90
        2
176
     1
  1
strokes_ogs.tif
176
     1
290
     0
176
     1
 40
1.0
176
     1
 40
1.0
176
     1
  0
VISUALSTYLE
  5
2C
102
{ACAD_REACTORS
330
29
102
}
330
29
100
AcDbVisualStyle
  2
Gouraud
 70
     2
177
     3
291
     1
 70
    58
 90
        2
176
     1
 90
        2
176
     1
 90
        1
176
     1
 90
        2
176
     1
 40
0.6
176
     1
 40
30.0
176
     1
 62
     7
420
 16777215
176
     1
 90
        0
176
     1
 90
        0
176
     1
 62
     7
176
     1
 62
   257
176
     1
 90
        1
176
     1
 90
        1
176
     1
 40
1.0
176
     1
 90
        0
176
     1
 62
     7
176
     1
 40
1.0
176
     1
 90
        1
176
     1
 90
        6
176
     1
 90
        2
176
     1
 62
     7
176
     1
 90
        5
176
     1
 90
        0
176
     1
 90
        0
176
     1
290
     0
176
     1
 90
       13
176
     1
 40
0.0
176
     1
 90
        0
176
     1
290
     0
176
     1
290
     1
176
     1
290
     1
176
     1
290
     0
176
     1
290
     0
176
     1
290
     0
176
     1
290
     0
176
     1
290
     0
176
     1
290
     0
176
     1
 90
       50
176
     1
 40
0.0
176
     1
 40
1.0
176
     1
 90
        0
176
     1
 62
    18
420
        0
176
     1
 90
       50
176
     1
 90
        3
176
     1
 62
     5
420
      255
176
     1
290
     0
176
     1
 90
       50
176
     1
 90
       50
176
     1
 90
       50
176
     1
290
     0
176
     1
 90
       50
176
     1
 62
   256
176
     0
 40
1.0
176
     0
 90
        2
176
     1
  1
strokes_ogs.tif
176
     1
290
     0
176
     1
 40
1.0
176
     1
 40
1.0
176
     1
  0
VISUALSTYLE
  5
2D
102
{ACAD_REACTORS
330
29
102
}
330
29
100
AcDbVisualStyle
  2
GouraudWithEdges
 70
     3
177
     3
291
     1
 70
    58
 90
        2
176
     1
 90
        2
176
     1
 90
        1
176
     1
 90
        2
176
     1
 40
0.6
176
     1
 40
30.0
176
     1
 62
     7
420
 16777215
176
     1
 90
        1
176
     1
 90
        0
176
     1
 62
     7
176
     1
 62
   257
176
     1
 90
        1
176
     1
 90
        1
176
     1
 40
1.0
176
     1
 90
        0
176
     1
 62
   257
176
     1
 40
1.0
176
     1
 90
        1
176
     1
 90
        6
176
     1
 90
        2
176
     1
 62
     7
176
     1
 90
        5
176
     1
 90
        0
176
     1
 90
        0
176
     1
290
     0
176
     1
 90
       13
176
     1
 40
0.0
176
     1
 90
        0
176
     1
290
     0
176
     1
290
     1
176
     1
290
     1
176
     1
290
     0
176
     1
290
     0
176
     1
290
     0
176
     1
290
     0
176
     1
290
     0
176
     1
290
     0
176
     1
 90
       50
176
     1
 40
0.0
176
     1
 40
1.0
176
     1
 90
        0
176
     1
 62
    18
420
        0
176
     1
 90
       50
176
     1
 90
        3
176
     1
 62
     5
420
      255
176
     1
290
     0
176
     1
 90
       50
176
     1
 90
       50
176
     1
 90
       50
176
     1
290
     0
176
     1
 90
       50
176
     1
 62
   256
176
     0
 40
1.0
176
     0
 90
        2
176
     1
  1
strokes_ogs.tif
176
     1
290
     0
176
     1
 40
1.0
176
     1
 40
1.0
176
     1
  0
VISUALSTYLE
  5
31
102
{ACAD_REACTORS
330
29
102
}
330
29
100
AcDbVisualStyle
  2
Hidden
 70
     6
177
     3
291
     0
 70
    58
 90
        1
176
     1
 90
        2
176
     1
 90
        2
176
     1
 90
        0
176
     1
 40
0.6
176
     1
 40
30.0
176
     1
 62
     7
420
 16777215
176
     1
 90
        2
176
     1
 90
        2
176
     1
 62
     7
176
     1
 62
   257
176
     1
 90
        2
176
     1
 90
        1
176
     1
 40
40.0
176
     1
 90
        0
176
     1
 62
   257
176
     1
 40
1.0
176
     1
 90
        1
176
     1
 90
        6
176
     1
 90
        2
176
     1
 62
     7
176
     1
 90
        3
176
     1
 90
        0
176
     1
 90
        0
176
     1
290
     0
176
     1
 90
        1
176
     1
 40
0.0
176
     1
 90
        0
176
     1
290
     0
176
     1
290
     1
176
     1
290
     1
176
     1
290
     0
176
     1
290
     0
176
     1
290
     0
176
     1
290
     0
176
     1
290
     0
176
     1
290
     0
176
     1
 90
       50
176
     1
 40
0.0
176
     1
 40
1.0
176
     1
 90
        0
176
     1
 62
    18
420
        0
176
     1
 90
       50
176
     1
 90
        3
176
     1
 62
     5
420
      255
176
     1
290
     0
176
     1
 90
       50
176
     1
 90
       50
176
     1
 90
       50
176
     1
290
     0
176
     1
 90
       50
176
     1
 62
   256
176
     0
 40
1.0
176
     0
 90
        2
176
     1
  1
strokes_ogs.tif
176
     1
290
     0
176
     1
 40
1.0
176
     1
 40
1.0
176
     1
  0
VISUALSTYLE
  5
3F
102
{ACAD_REACTORS
330
29
102
}
330
29
100
AcDbVisualStyle
  2
JitterOff
 70
    20
177
     3
291
     1
 70
    58
 90
        2
176
     0
 90
        2
176
     0
 90
        0
176
     0
 90
        0
176
     0
 40
0.6
176
     0
 40
30.0
176
     0
 62
     7
420
 16777215
176
     0
 90
        1
176
     0
 90
        4
176
     0
 62
     7
176
     0
 62
   257
176
     0
 90
        1
176
     0
 90
        1
176
     0
 40
1.0
176
     0
 90
       10
176
     2
 62
     7
176
     0
 40
1.0
176
     0
 90
        1
176
     0
 90
        6
176
     0
 90
        2
176
     0
 62
     7
176
     0
 90
        5
176
     0
 90
        0
176
     0
 90
        0
176
     0
290
     0
176
     0
 90
        1
176
     0
 40
0.0
176
     0
 90
        0
176
     0
290
     0
176
     0
290
     1
176
     0
290
     1
176
     0
290
     0
176
     0
290
     0
176
     0
290
     0
176
     0
290
     0
176
     0
290
     0
176
     0
290
     0
176
     0
 90
       50
176
     0
 40
0.0
176
     0
 40
1.0
176
     0
 90
        0
176
     0
 62
    18
420
        0
176
     0
 90
       50
176
     0
 90
        3
176
     0
 62
     5
420
      255
176
     0
290
     0
176
     0
 90
       50
176
     0
 90
       50
176
     0
 90
       50
176
     0
290
     0
176
     0
 90
       50
176
     0
 62
   256
176
     0
 40
1.0
176
     0
 90
        2
176
     0
  1
strokes_ogs.tif
176
     0
290
     0
176
     0
 40
1.0
176
     0
 40
1.0
176
     0
  0
VISUALSTYLE
  5
37
102
{ACAD_REACTORS
330
29
102
}
330
29
100
AcDbVisualStyle
  2
Linepattern
 70
    14
177
     3
291
     1
 70
    58
 90
        2
176
     1
 90
        2
176
     1
 90
        0
176
     1
 90
        0
176
     1
 40
0.6
176
     1
 40
30.0
176
     1
 62
     7
420
 16777215
176
     1
 90
        1
176
     1
 90
        4
176
     1
 62
     7
176
     1
 62
   257
176
     1
 90
        7
176
     1
 90
        7
176
     1
 40
1.0
176
     1
 90
        8
176
     1
 62
     7
176
     1
 40
1.0
176
     1
 90
        1
176
     1
 90
        6
176
     1
 90
        2
176
     1
 62
     7
176
     1
 90
        5
176
     1
 90
        0
176
     1
 90
        0
176
     1
290
     0
176
     1
 90
        1
176
     1
 40
0.0
176
     1
 90
        0
176
     1
290
     0
176
     1
290
     1
176
     1
290
     1
176
     1
290
     0
176
     1
290
     0
176
     1
290
     0
176
     1
290
     0
176
     1
290
     0
176
     1
290
     0
176
     1
 90
       50
176
     1
 40
0.0
176
     1
 40
1.0
176
     1
 90
        0
176
     1
 62
    18
420
        0
176
     1
 90
       50
176
     1
 90
        3
176
     1
 62
     5
420
      255
176
     1
290
     0
176
     1
 90
       50
176
     1
 90
       50
176
     1
 90
       50
176
     1
290
     0
176
     1
 90
       50
176
     1
 62
   256
176
     0
 40
1.0
176
     0
 90
        2
176
     1
  1
strokes_ogs.tif
176
     1
290
     0
176
     1
 40
1.0
176
     1
 40
1.0
176
     1
  0
VISUALSTYLE
  5
40
102
{ACAD_REACTORS
330
29
102
}
330
29
100
AcDbVisualStyle
  2
OverhangOff
 70
    21
177
     3
291
     1
 70
    58
 90
        2
176
     0
 90
        2
176
     0
 90
        0
176
     0
 90
        0
176
     0
 40
0.6
176
     0
 40
30.0
176
     0
 62
     7
420
 16777215
176
     0
 90
        1
176
     0
 90
        4
176
     0
 62
     7
176
     0
 62
   257
176
     0
 90
        1
176
     0
 90
        1
176
     0
 40
1.0
176
     0
 90
        9
176
     2
 62
     7
176
     0
 40
1.0
176
     0
 90
        1
176
     0
 90
        6
176
     0
 90
        2
176
     0
 62
     7
176
     0
 90
        5
176
     0
 90
        0
176
     0
 90
        0
176
     0
290
     0
176
     0
 90
        1
176
     0
 40
0.0
176
     0
 90
        0
176
     0
290
     0
176
     0
290
     1
176
     0
290
     1
176
     0
290
     0
176
     0
290
     0
176
     0
290
     0
176
     0
290
     0
176
     0
290
     0
176
     0
290
     0
176
     0
 90
       50
176
     0
 40
0.0
176
     0
 40
1.0
176
     0
 90
        0
176
     0
 62
    18
420
        0
176
     0
 90
       50
176
     0
 90
        3
176
     0
 62
     5
420
      255
176
     0
290
     0
176
     0
 90
       50
176
     0
 90
       50
176
     0
 90
       50
176
     0
290
     0
176
     0
 90
       50
176
     0
 62
   256
176
     0
 40
1.0
176
     0
 90
        2
176
     0
  1
strokes_ogs.tif
176
     0
290
     0
176
     0
 40
1.0
176
     0
 40
1.0
176
     0
  0
VISUALSTYLE
  5
33
102
{ACAD_REACTORS
330
29
102
}
330
29
100
AcDbVisualStyle
  2
Realistic
 70
     8
177
     3
291
     0
 70
    58
 90
        2
176
     1
 90
        3
176
     1
 90
        0
176
     1
 90
        2
176
     1
 40
0.6
176
     1
 40
30.0
176
     1
 62
     7
420
 16777215
176
     1
 90
        0
176
     1
 90
        0
176
     1
 62
     7
176
     1
 62
   257
176
     1
 90
        1
176
     1
 90
        1
176
     1
 40
1.0
176
     1
 90
        8
176
     1
 62
   257
176
     1
 40
1.0
176
     1
 90
        1
176
     1
 90
        6
176
     1
 90
        2
176
     1
 62
     7
176
     1
 90
        3
176
     1
 90
        0
176
     1
 90
        0
176
     1
290
     0
176
     1
 90
       13
176
     1
 40
0.0
176
     1
 90
        0
176
     1
290
     0
176
     1
290
     1
176
     1
290
     1
176
     1
290
     0
176
     1
290
     0
176
     1
290
     0
176
     1
290
     0
176
     1
290
     0
176
     1
290
     0
176
     1
 90
       50
176
     1
 40
0.0
176
     1
 40
1.0
176
     1
 90
        0
176
     1
 62
    18
420
        0
176
     1
 90
       50
176
     1
 90
        3
176
     1
 62
     5
420
      255
176
     1
290
     0
176
     1
 90
       50
176
     1
 90
       50
176
     1
 90
       50
176
     1
290
     0
176
     1
 90
       50
176
     1
 62
   256
176
     0
 40
1.0
176
     0
 90
        2
176
     1
  1
strokes_ogs.tif
176
     1
290
     0
176
     1
 40
1.0
176
     1
 40
1.0
176
     1
  0
VISUALSTYLE
  5
3E
102
{ACAD_REACTORS
330
29
102
}
330
29
100
AcDbVisualStyle
  2
Shaded
 70
    27
177
     3
291
     0
 70
    58
 90
        2
176
     1
 90
        2
176
     1
 90
        1
176
     1
 90
        2
176
     1
 40
0.6
176
     1
 40
30.0
176
     1
 62
     7
420
 16777215
176
     1
 90
        0
176
     1
 90
        4
176
     1
 62
     7
176
     1
 62
   257
176
     1
 90
        1
176
     1
 90
        1
176
     1
 40
1.0
176
     1
 90
        8
176
     1
 62
   257
176
     1
 40
1.0
176
     1
 90
        1
176
     1
 90
        6
176
     1
 90
        2
176
     1
 62
     8
420
  7895160
176
     1
 90
        3
176
     1
 90
        0
176
     1
 90
        0
176
     1
290
     0
176
     1
 90
        5
176
     1
 40
0.0
176
     1
 90
        0
176
     1
290
     0
176
     1
290
     1
176
     1
290
     1
176
     1
290
     0
176
     1
290
     0
176
     1
290
     0
176
     1
290
     0
176
     1
290
     0
176
     1
290
     0
176
     1
 90
       50
176
     1
 40
0.0
176
     1
 40
1.0
176
     1
 90
        0
176
     1
 62
    18
420
        0
176
     1
 90
       50
176
     1
 90
        3
176
     1
 62
     5
420
      255
176
     1
290
     0
176
     1
 90
       50
176
     1
 90
       50
176
     1
 90
       50
176
     1
290
     0
176
     1
 90
       50
176
     1
 62
   256
176
     0
 40
1.0
176
     0
 90
        2
176
     1
  1
strokes_ogs.tif
176
     1
290
     0
176
     1
 40
1.0
176
     1
 40
1.0
176
     1
  0
VISUALSTYLE
  5
3D
102
{ACAD_REACTORS
330
29
102
}
330
29
100
AcDbVisualStyle
  2
Shaded with edges
 70
    26
177
     3
291
     0
 70
    58
 90
        2
176
     1
 90
        2
176
     1
 90
        1
176
     1
 90
        2
176
     1
 40
0.6
176
     1
 40
30.0
176
     1
 62
     7
420
 16777215
176
     1
 90
        1
176
     1
 90
        2
176
     1
 62
     7
176
     1
 62
   257
176
     1
 90
        2
176
     1
 90
        1
176
     1
 40
1.0
176
     1
 90
        8
176
     1
 62
   257
176
     1
 40
1.0
176
     1
 90
        1
176
     1
 90
        6
176
     1
 90
        2
176
     1
 62
     7
176
     1
 90
        3
176
     1
 90
        0
176
     1
 90
        0
176
     1
290
     0
176
     1
 90
        5
176
     1
 40
0.0
176
     1
 90
        0
176
     1
290
     0
176
     1
290
     1
176
     1
290
     1
176
     1
290
     0
176
     1
290
     0
176
     1
290
     0
176
     1
290
     0
176
     1
290
     0
176
     1
290
     0
176
     1
 90
       50
176
     1
 40
0.0
176
     1
 40
1.0
176
     1
 90
        0
176
     1
 62
    18
420
        0
176
     1
 90
       50
176
     1
 90
        3
176
     1
 62
     5
420
      255
176
     1
290
     0
176
     1
 90
       50
176
     1
 90
       50
176
     1
 90
       50
176
     1
290
     0
176
     1
 90
       50
176
     1
 62
   256
176
     0
 40
1.0
176
     0
 90
        2
176
     1
  1
strokes_ogs.tif
176
     1
290
     0
176
     1
 40
1.0
176
     1
 40
1.0
176
     1
  0
VISUALSTYLE
  5
3A
102
{ACAD_REACTORS
330
29
102
}
330
29
100
AcDbVisualStyle
  2
Shades of Gray
 70
    23
177
     3
291
     0
 70
    58
 90
        2
176
     1
 90
        2
176
     1
 90
        3
176
     1
 90
        0
176
     1
 40
0.6
176
     1
 40
30.0
176
     1
 62
     7
420
 16777215
176
     1
 90
        2
176
     1
 90
        2
176
     1
 62
     7
176
     1
 62
     7
176
     1
 90
        1
176
     1
 90
        1
176
     1
 40
40.0
176
     1
 90
        8
176
     1
 62
     7
176
     1
 40
1.0
176
     1
 90
        1
176
     1
 90
        6
176
     1
 90
        2
176
     1
 62
     7
176
     1
 90
        3
176
     1
 90
        0
176
     1
 90
        0
176
     1
290
     0
176
     1
 90
        1
176
     1
 40
0.0
176
     1
 90
        0
176
     1
290
     0
176
     1
290
     1
176
     1
290
     1
176
     1
290
     0
176
     1
290
     0
176
     1
290
     0
176
     1
290
     0
176
     1
290
     0
176
     1
290
     0
176
     1
 90
       50
176
     1
 40
0.0
176
     1
 40
1.0
176
     1
 90
        0
176
     1
 62
    18
420
        0
176
     1
 90
       50
176
     1
 90
        3
176
     1
 62
     5
420
      255
176
     1
290
     0
176
     1
 90
       50
176
     1
 90
       50
176
     1
 90
       50
176
     1
290
     0
176
     1
 90
       50
176
     1
 62
   256
176
     0
 40
1.0
176
     0
 90
        2
176
     1
  1
strokes_ogs.tif
176
     1
290
     0
176
     1
 40
1.0
176
     1
 40
1.0
176
     1
  0
VISUALSTYLE
  5
3B
102
{ACAD_REACTORS
330
29
102
}
330
29
100
AcDbVisualStyle
  2
Sketchy
 70
    24
177
     3
291
     0
 70
    58
 90
        1
176
     1
 90
        2
176
     1
 90
        2
176
     1
 90
        0
176
     1
 40
0.6
176
     1
 40
30.0
176
     1
 62
     7
420
 16777215
176
     1
 90
        2
176
     1
 90
        2
176
     1
 62
     7
176
     1
 62
     7
176
     1
 90
        1
176
     1
 90
        1
176
     1
 40
40.0
176
     1
 90
       11
176
     1
 62
     7
176
     1
 40
1.0
176
     1
 90
        1
176
     1
 90
        6
176
     1
 90
        2
176
     1
 62
     7
176
     1
 90
        6
176
     1
 90
        0
176
     1
 90
        0
176
     1
290
     0
176
     1
 90
        1
176
     1
 40
0.0
176
     1
 90
        0
176
     1
290
     0
176
     1
290
     1
176
     1
290
     1
176
     1
290
     0
176
     1
290
     0
176
     1
290
     0
176
     1
290
     0
176
     1
290
     0
176
     1
290
     0
176
     1
 90
       50
176
     1
 40
0.0
176
     1
 40
1.0
176
     1
 90
        0
176
     1
 62
    18
420
        0
176
     1
 90
       50
176
     1
 90
        3
176
     1
 62
     5
420
      255
176
     1
290
     0
176
     1
 90
       50
176
     1
 90
       50
176
     1
 90
       50
176
     1
290
     0
176
     1
 90
       50
176
     1
 62
   256
176
     0
 40
1.0
176
     0
 90
        2
176
     1
  1
strokes_ogs.tif
176
     1
290
     0
176
     1
 40
1.0
176
     1
 40
1.0
176
     1
  0
VISUALSTYLE
  5
36
102
{ACAD_REACTORS
330
29
102
}
330
29
100
AcDbVisualStyle
  2
Thicken
 70
    13
177
     3
291
     1
 70
    58
 90
        2
176
     1
 90
        2
176
     1
 90
        0
176
     1
 90
        0
176
     1
 40
0.6
176
     1
 40
30.0
176
     1
 62
     7
420
 16777215
176
     1
 90
        1
176
     1
 90
        4
176
     1
 62
     7
176
     1
 62
   257
176
     1
 90
        1
176
     1
 90
        1
176
     1
 40
1.0
176
     1
 90
       12
176
     1
 62
     7
176
     1
 40
1.0
176
     1
 90
        1
176
     1
 90
        6
176
     1
 90
        2
176
     1
 62
     7
176
     1
 90
        5
176
     1
 90
        0
176
     1
 90
        0
176
     1
290
     0
176
     1
 90
        1
176
     1
 40
0.0
176
     1
 90
        0
176
     1
290
     0
176
     1
290
     1
176
     1
290
     1
176
     1
290
     0
176
     1
290
     0
176
     1
290
     0
176
     1
290
     0
176
     1
290
     0
176
     1
290
     0
176
     1
 90
       50
176
     1
 40
0.0
176
     1
 40
1.0
176
     1
 90
        0
176
     1
 62
    18
420
        0
176
     1
 90
       50
176
     1
 90
        3
176
     1
 62
     5
420
      255
176
     1
290
     0
176
     1
 90
       50
176
     1
 90
       50
176
     1
 90
       50
176
     1
290
     0
176
     1
 90
       50
176
     1
 62
   256
176
     0
 40
1.0
176
     0
 90
        2
176
     1
  1
strokes_ogs.tif
176
     1
290
     0
176
     1
 40
1.0
176
     1
 40
1.0
176
     1
  0
VISUALSTYLE
  5
30
102
{ACAD_REACTORS
330
29
102
}
330
29
100
AcDbVisualStyle
  2
Wireframe
 70
     5
177
     3
291
     0
 70
    58
 90
        0
176
     1
 90
        2
176
     1
 90
        0
176
     1
 90
        0
176
     1
 40
0.6
176
     1
 40
30.0
176
     1
 62
     7
420
 16777215
176
     1
 90
        1
176
     1
 90
        4
176
     1
 62
     7
176
     1
 62
   257
176
     1
 90
        1
176
     1
 90
        1
176
     1
 40
1.0
176
     1
 90
        0
176
     1
 62
   257
176
     1
 40
1.0
176
     1
 90
        1
176
     1
 90
        6
176
     1
 90
        2
176
     1
 62
     7
176
     1
 90
        3
176
     1
 90
        0
176
     1
 90
        0
176
     1
290
     0
176
     1
 90
        1
176
     1
 40
0.0
176
     1
 90
        0
176
     1
290
     0
176
     1
290
     1
176
     1
290
     1
176
     1
290
     0
176
     1
290
     0
176
     1
290
     0
176
     1
290
     0
176
     1
290
     0
176
     1
290
     0
176
     1
 90
       50
176
     1
 40
0.0
176
     1
 40
1.0
176
     1
 90
        0
176
     1
 62
    18
420
        0
176
     1
 90
       50
176
     1
 90
        3
176
     1
 62
     5
420
      255
176
     1
290
     0
176
     1
 90
       50
176
     1
 90
       50
176
     1
 90
       50
176
     1
290
     0
176
     1
 90
       50
176
     1
 62
   256
176
     0
 40
1.0
176
     0
 90
        2
176
     1
  1
strokes_ogs.tif
176
     1
290
     0
176
     1
 40
1.0
176
     1
 40
1.0
176
     1
  0
VISUALSTYLE
  5
3C
102
{ACAD_REACTORS
330
29
102
}
330
29
100
AcDbVisualStyle
  2
X-Ray
 70
    25
177
     3
291
     0
 70
    58
 90
        2
176
     1
 90
        2
176
     1
 90
        1
176
     1
 90
        1
176
     1
 40
0.5
176
     1
 40
30.0
176
     1
 62
     7
420
 16777215
176
     1
 90
        1
176
     1
 90
        0
176
     1
 62
     7
176
     1
 62
   257
176
     1
 90
        1
176
     1
 90
        1
176
     1
 40
1.0
176
     1
 90
        8
176
     1
 62
     7
176
     1
 40
1.0
176
     1
 90
        1
176
     1
 90
        6
176
     1
 90
        2
176
     1
 62
     7
176
     1
 90
        3
176
     1
 90
        0
176
     1
 90
        0
176
     1
290
     0
176
     1
 90
       13
176
     1
 40
0.0
176
     1
 90
        0
176
     1
290
     0
176
     1
290
     1
176
     1
290
     1
176
     1
290
     0
176
     1
290
     0
176
     1
290
     0
176
     1
290
     0
176
     1
290
     0
176
     1
290
     0
176
     1
 90
       50
176
     1
 40
0.0
176
     1
 40
1.0
176
     1
 90
        0
176
     1
 62
    18
420
        0
176
     1
 90
       50
176
     1
 90
        3
176
     1
 62
     5
420
      255
176
     1
290
     0
176
     1
 90
       50
176
     1
 90
       50
176
     1
 90
       50
176
     1
290
     0
176
     1
 90
       50
176
     1
 62
   256
176
     0
 40
1.0
176
     0
 90
        2
176
     1
  1
strokes_ogs.tif
176
     1
290
     0
176
     1
 40
1.0
176
     1
 40
1.0
176
     1
  0
DICTIONARYVAR
  5
13F
102
{ACAD_REACTORS
330
13A
102
}
330
13A
100
DictionaryVariables
280
     0
  1
1:1
  0
DICTIONARYVAR
  5
13C
102
{ACAD_REACTORS
330
13A
102
}
330
13A
100
DictionaryVariables
280
     0
  1
STANDARD
  0
DICTIONARYVAR
  5
13B
102
{ACAD_REACTORS
330
13A
102
}
330
13A
100
DictionaryVariables
280
     0
  1
STANDARD
  0
DICTIONARYVAR
  5
13D
102
{ACAD_REACTORS
330
13A
102
}
330
13A
100
DictionaryVariables
280
     0
  1
Imperial24
  0
DICTIONARYVAR
  5
13E
102
{ACAD_REACTORS
330
13A
102
}
330
13A
100
DictionaryVariables
280
     0
  1
Imperial24
  0
DICTIONARY
  5
1A
330
19
100
AcDbDictionary
280
     1
281
     1
  3
BUMPTILE
360
1C
  3
DIFFUSETILE
360
1B
  3
OPACITYTILE
360
1F
  3
REFLECTIONTILE
360
1E
  3
REFRACTIONTILE
360
20
  3
SPECULARTILE
360
1D
  0
DICTIONARY
  5
12
330
11
100
AcDbDictionary
280
     1
281
     1
  3
BUMPTILE
360
14
  3
DIFFUSETILE
360
13
  3
OPACITYTILE
360
17
  3
REFLECTIONTILE
360
16
  3
REFRACTIONTILE
360
18
  3
SPECULARTILE
360
15
  0
DICTIONARY
  5
22
330
21
100
AcDbDictionary
280
     1
281
     1
  3
BUMPTILE
360
24
  3
DIFFUSETILE
360
23
  3
OPACITYTILE
360
27
  3
REFLECTIONTILE
360
26
  3
REFRACTIONTILE
360
28
  3
SPECULARTILE
360
25
  0
DICTIONARY
  5
140
330
65
100
AcDbDictionary
280
     1
281
     1
  3
ACAD_ROUNDTRIP_2008_TABLESTYLE_CELLSTYLEMAP
360
141
  0
XRECORD
  5
1C
102
{ACAD_REACTORS
330
1A
102
}
330
1A
100
AcDbXrecord
280
     1
270
     1
271
     1
  0
XRECORD
  5
1B
102
{ACAD_REACTORS
330
1A
102
}
330
1A
100
AcDbXrecord
280
     1
270
     1
271
     1
  0
XRECORD
  5
1F
102
{ACAD_REACTORS
330
1A
102
}
330
1A
100
AcDbXrecord
280
     1
270
     1
271
     1
  0
XRECORD
  5
1E
102
{ACAD_REACTORS
330
1A
102
}
330
1A
100
AcDbXrecord
280
     1
270
     1
271
     1
  0
XRECORD
  5
20
102
{ACAD_REACTORS
330
1A
102
}
330
1A
100
AcDbXrecord
280
     1
270
     1
271
     1
  0
XRECORD
  5
1D
102
{ACAD_REACTORS
330
1A
102
}
330
1A
100
AcDbXrecord
280
     1
270
     1
271
     1
  0
XRECORD
  5
14
102
{ACAD_REACTORS
330
12
102
}
330
12
100
AcDbXrecord
280
     1
270
     1
271
     1
  0
XRECORD
  5
13
102
{ACAD_REACTORS
330
12
102
}
330
12
100
AcDbXrecord
280
     1
270
     1
271
     1
  0
XRECORD
  5
17
102
{ACAD_REACTORS
330
12
102
}
330
12
100
AcDbXrecord
280
     1
270
     1
271
     1
  0
XRECORD
  5
16
102
{ACAD_REACTORS
330
12
102
}
330
12
100
AcDbXrecord
280
     1
270
     1
271
     1
  0
XRECORD
  5
18
102
{ACAD_REACTORS
330
12
102
}
330
12
100
AcDbXrecord
280
     1
270
     1
271
     1
  0
XRECORD
  5
15
102
{ACAD_REACTORS
330
12
102
}
330
12
100
AcDbXrecord
280
     1
270
     1
271
     1
  0
XRECORD
  5
24
102
{ACAD_REACTORS
330
22
102
}
330
22
100
AcDbXrecord
280
     1
270
     1
271
     1
  0
XRECORD
  5
23
102
{ACAD_REACTORS
330
22
102
}
330
22
100
AcDbXrecord
280
     1
270
     1
271
     1
  0
XRECORD
  5
27
102
{ACAD_REACTORS
330
22
102
}
330
22
100
AcDbXrecord
280
     1
270
     1
271
     1
  0
XRECORD
  5
26
102
{ACAD_REACTORS
330
22
102
}
330
22
100
AcDbXrecord
280
     1
270
     1
271
     1
  0
XRECORD
  5
28
102
{ACAD_REACTORS
330
22
102
}
330
22
100
AcDbXrecord
280
     1
270
     1
271
     1
  0
XRECORD
  5
25
102
{ACAD_REACTORS
330
22
102
}
330
22
100
AcDbXrecord
280
     1
270
     1
271
     1
  0
CELLSTYLEMAP
  5
141
102
{ACAD_REACTORS
330
140
102
}
330
140
100
AcDbCellStyleMap
 90
        3
300
CELLSTYLE
  1
TABLEFORMAT_BEGIN
 90
        5
170
     1
 91
        0
 92
    32768
 62
   257
 93
        1
300
CONTENTFORMAT
  1
CONTENTFORMAT_BEGIN
 90
        0
 91
        0
 92
      512
 93
        0
300

 40
0.0
140
1.0
 94
        5
 62
     0
340
55
144
0.25
309
CONTENTFORMAT_END
171
     0
 94
        0
309
TABLEFORMAT_END
  1
CELLSTYLE_BEGIN
 90
        1
 91
        1
300
_TITLE
309
CELLSTYLE_END
300
CELLSTYLE
  1
TABLEFORMAT_BEGIN
 90
        5
170
     1
 91
        0
 92
        0
 62
   257
 93
        1
300
CONTENTFORMAT
  1
CONTENTFORMAT_BEGIN
 90
        0
 91
        0
 92
      512
 93
        0
300

 40
0.0
140
1.0
 94
        5
 62
     0
340
55
144
0.18
309
CONTENTFORMAT_END
171
     0
 94
        0
309
TABLEFORMAT_END
  1
CELLSTYLE_BEGIN
 90
        2
 91
        1
300
_HEADER
309
CELLSTYLE_END
300
CELLSTYLE
  1
TABLEFORMAT_BEGIN
 90
        5
170
     1
 91
        0
 92
        0
 62
   257
 93
        1
300
CONTENTFORMAT
  1
CONTENTFORMAT_BEGIN
 90
        0
 91
        0
 92
      512
 93
        0
300

 40
0.0
140
1.0
 94
        2
 62
     0
340
55
144
0.18
309
CONTENTFORMAT_END
171
     0
 94
        0
309
TABLEFORMAT_END
  1
CELLSTYLE_BEGIN
 90
        3
 91
        2
300
_DATA
309
CELLSTYLE_END
  0
ENDSEC
  0
EOF
