  0
SECTION
  2
HEADER
  9
$ACADVER
  1
AC1024
  9
$ACADMAINTVER
 70
     6
  9
$DWGCODEPAGE
  3
ANSI_1252
  9
$INSBASE
 10
0.0
 20
0.0
 30
0.0
  9
$EXTMIN
 10
1.000000000000000E+20
 20
1.000000000000000E+20
 30
1.000000000000000E+20
  9
$EXTMAX
 10
-1.000000000000000E+20
 20
-1.000000000000000E+20
 30
-1.000000000000000E+20
  9
$LIMMIN
 10
0.0
 20
0.0
  9
$LIMMAX
 10
12.0
 20
9.0
  9
$ORTHOMODE
 70
     0
  9
$REGENMODE
 70
     1
  9
$FILLMODE
 70
     1
  9
$QTEXTMODE
 70
     0
  9
$MIRRTEXT
 70
     1
  9
$LTSCALE
 40
1.0
  9
$ATTMODE
 70
     1
  9
$TEXTSIZE
 40
0.2
  9
$TRACEWID
 40
0.05
  9
$TEXTSTYLE
  7
Standard
  9
$CLAYER
  8
0
  9
$CELTYPE
  6
ByLayer
  9
$CECOLOR
 62
   256
  9
$CELTSCALE
 40
1.0
  9
$DISPSILH
 70
     0
  9
$DIMSCALE
 40
1.0
  9
$DIMASZ
 40
0.18
  9
$DIMEXO
 40
0.0625
  9
$DIMDLI
 40
0.38
  9
$DIMRND
 40
0.0
  9
$DIMDLE
 40
0.0
  9
$DIMEXE
 40
0.18
  9
$DIMTP
 40
0.0
  9
$DIMTM
 40
0.0
  9
$DIMTXT
 40
0.18
  9
$DIMCEN
 40
0.09
  9
$DIMTSZ
 40
0.0
  9
$DIMTOL
 70
     0
  9
$DIMLIM
 70
     0
  9
$DIMTIH
 70
     1
  9
$DIMTOH
 70
     1
  9
$DIMSE1
 70
     0
  9
$DIMSE2
 70
     0
  9
$DIMTAD
 70
     0
  9
$DIMZIN
 70
     0
  9
$DIMBLK
  1

  9
$DIMASO
 70
     1
  9
$DIMSHO
 70
     1
  9
$DIMPOST
  1

  9
$DIMAPOST
  1

  9
$DIMALT
 70
     0
  9
$DIMALTD
 70
     2
  9
$DIMALTF
 40
25.4
  9
$DIMLFAC
 40
1.0
  9
$DIMTOFL
 70
     0
  9
$DIMTVP
 40
0.0
  9
$DIMTIX
 70
     0
  9
$DIMSOXD
 70
     0
  9
$DIMSAH
 70
     0
  9
$DIMBLK1
  1

  9
$DIMBLK2
  1

  9
$DIMSTYLE
  2
Standard
  9
$DIMCLRD
 70
     0
  9
$DIMCLRE
 70
     0
  9
$DIMCLRT
 70
     0
  9
$DIMTFAC
 40
1.0
  9
$DIMGAP
 40
0.09
  9
$DIMJUST
 70
     0
  9
$DIMSD1
 70
     0
  9
$DIMSD2
 70
     0
  9
$DIMTOLJ
 70
     1
  9
$DIMTZIN
 70
     0
  9
$DIMALTZ
 70
     0
  9
$DIMALTTZ
 70
     0
  9
$DIMUPT
 70
     0
  9
$DIMDEC
 70
     4
  9
$DIMTDEC
 70
     4
  9
$DIMALTU
 70
     2
  9
$DIMALTTD
 70
     2
  9
$DIMTXSTY
  7
Standard
  9
$DIMAUNIT
 70
     0
  9
$DIMADEC
 70
     0
  9
$DIMALTRND
 40
0.0
  9
$DIMAZIN
 70
     0
  9
$DIMDSEP
 70
    46
  9
$DIMATFIT
 70
     3
  9
$DIMFRAC
 70
     0
  9
$DIMLDRBLK
  1

  9
$DIMLUNIT
 70
     2
  9
$DIMLWD
 70
    -2
  9
$DIMLWE
 70
    -2
  9
$DIMTMOVE
 70
     0
  9
$DIMFXL
 40
1.0
  9
$DIMFXLON
 70
     0
  9
$DIMJOGANG
 40
0.7853981633974483
  9
$DIMTFILL
 70
     0
  9
$DIMTFILLCLR
 70
     0
  9
$DIMARCSYM
 70
     0
  9
$DIMLTYPE
  6

  9
$DIMLTEX1
  6

  9
$DIMLTEX2
  6

  9
$DIMTXTDIRECTION
 70
     0
  9
$LUNITS
 70
     2
  9
$LUPREC
 70
     4
  9
$SKETCHINC
 40
0.1
  9
$FILLETRAD
 40
0.5
  9
$AUNITS
 70
     0
  9
$AUPREC
 70
     0
  9
$MENU
  1
.
  9
$ELEVATION
 40
0.0
  9
$PELEVATION
 40
0.0
  9
$THICKNESS
 40
0.0
  9
$LIMCHECK
 70
     0
  9
$CHAMFERA
 40
0.5
  9
$CHAMFERB
 40
0.5
  9
$CHAMFERC
 40
1.0
  9
$CHAMFERD
 40
0.0
  9
$SKPOLY
 70
     0
  9
$TDCREATE
 40
2458782.602272373
  9
$TDUCREATE
 40
2458782.060605706
  9
$TDUPDATE
 40
2458782.602272511
  9
$TDUUPDATE
 40
2458782.060605845
  9
$TDINDWG
 40
0.0000000116
  9
$TDUSRTIMER
 40
0.0000000116
  9
$USRTIMER
 70
     1
  9
$ANGBASE
 50
0.0
  9
$ANGDIR
 70
     0
  9
$PDMODE
 70
     0
  9
$PDSIZE
 40
0.0
  9
$PLINEWID
 40
0.0
  9
$SPLFRAME
 70
     0
  9
$SPLINETYPE
 70
     6
  9
$SPLINESEGS
 70
     8
  9
$HANDSEED
  5
14A
  9
$SURFTAB1
 70
     6
  9
$SURFTAB2
 70
     6
  9
$SURFTYPE
 70
     6
  9
$SURFU
 70
     6
  9
$SURFV
 70
     6
  9
$UCSBASE
  2

  9
$UCSNAME
  2

  9
$UCSORG
 10
0.0
 20
0.0
 30
0.0
  9
$UCSXDIR
 10
1.0
 20
0.0
 30
0.0
  9
$UCSYDIR
 10
0.0
 20
1.0
 30
0.0
  9
$UCSORTHOREF
  2

  9
$UCSORTHOVIEW
 70
     0
  9
$UCSORGTOP
 10
0.0
 20
0.0
 30
0.0
  9
$UCSORGBOTTOM
 10
0.0
 20
0.0
 30
0.0
  9
$UCSORGLEFT
 10
0.0
 20
0.0
 30
0.0
  9
$UCSORGRIGHT
 10
0.0
 20
0.0
 30
0.0
  9
$UCSORGFRONT
 10
0.0
 20
0.0
 30
0.0
  9
$UCSORGBACK
 10
0.0
 20
0.0
 30
0.0
  9
$PUCSBASE
  2

  9
$PUCSNAME
  2

  9
$PUCSORG
 10
0.0
 20
0.0
 30
0.0
  9
$PUCSXDIR
 10
1.0
 20
0.0
 30
0.0
  9
$PUCSYDIR
 10
0.0
 20
1.0
 30
0.0
  9
$PUCSORTHOREF
  2

  9
$PUCSORTHOVIEW
 70
     0
  9
$PUCSORGTOP
 10
0.0
 20
0.0
 30
0.0
  9
$PUCSORGBOTTOM
 10
0.0
 20
0.0
 30
0.0
  9
$PUCSORGLEFT
 10
0.0
 20
0.0
 30
0.0
  9
$PUCSORGRIGHT
 10
0.0
 20
0.0
 30
0.0
  9
$PUCSORGFRONT
 10
0.0
 20
0.0
 30
0.0
  9
$PUCSORGBACK
 10
0.0
 20
0.0
 30
0.0
  9
$USERI1
 70
     0
  9
$USERI2
 70
     0
  9
$USERI3
 70
     0
  9
$USERI4
 70
     0
  9
$USERI5
 70
     0
  9
$USERR1
 40
0.0
  9
$USERR2
 40
0.0
  9
$USERR3
 40
0.0
  9
$USERR4
 40
0.0
  9
$USERR5
 40
0.0
  9
$WORLDVIEW
 70
     1
  9
$SHADEDGE
 70
     3
  9
$SHADEDIF
 70
    70
  9
$TILEMODE
 70
     1
  9
$MAXACTVP
 70
    64
  9
$PINSBASE
 10
0.0
 20
0.0
 30
0.0
  9
$PLIMCHECK
 70
     0
  9
$PEXTMIN
 10
1.000000000000000E+20
 20
1.000000000000000E+20
 30
1.000000000000000E+20
  9
$PEXTMAX
 10
-1.000000000000000E+20
 20
-1.000000000000000E+20
 30
-1.000000000000000E+20
  9
$PLIMMIN
 10
0.0
 20
0.0
  9
$PLIMMAX
 10
12.0
 20
9.0
  9
$UNITMODE
 70
     0
  9
$VISRETAIN
 70
     1
  9
$PLINEGEN
 70
     0
  9
$PSLTSCALE
 70
     1
  9
$TREEDEPTH
 70
  3020
  9
$CMLSTYLE
  2
Standard
  9
$CMLJUST
 70
     0
  9
$CMLSCALE
 40
1.0
  9
$PROXYGRAPHICS
 70
     1
  9
$MEASUREMENT
 70
     0
  9
$CELWEIGHT
370
    -1
  9
$ENDCAPS
280
     0
  9
$JOINSTYLE
280
     0
  9
$LWDISPLAY
290
     1
  9
$INSUNITS
 70
     1
  9
$HYPERLINKBASE
  1

  9
$STYLESHEET
  1

  9
$XEDIT
290
     1
  9
$CEPSNTYPE
380
     0
  9
$PSTYLEMODE
290
     1
  9
$FINGERPRINTGUID
  2
{7AAF5ED9-675D-40E6-BA50-EC4DE0FFFD49}
  9
$VERSIONGUID
  2
{FAEB1C32-E019-11D5-929B-00C0DF256EC4}
  9
$EXTNAMES
290
     1
  9
$PSVPSCALE
 40
0.0
  9
$OLESTARTUP
290
     0
  9
$SORTENTS
280
   127
  9
$INDEXCTL
280
     0
  9
$HIDETEXT
280
     1
  9
$XCLIPFRAME
280
     2
  9
$HALOGAP
280
     0
  9
$OBSCOLOR
 70
   257
  9
$OBSLTYPE
280
     0
  9
$INTERSECTIONDISPLAY
280
     0
  9
$INTERSECTIONCOLOR
 70
   257
  9
$DIMASSOC
280
     2
  9
$PROJECTNAME
  1

  9
$CAMERADISPLAY
290
     0
  9
$LENSLENGTH
 40
50.0
  9
$CAMERAHEIGHT
 40
0.0
  9
$STEPSPERSEC
 40
2.0
  9
$STEPSIZE
 40
6.0
  9
$3DDWFPREC
 40
2.0
  9
$PSOLWIDTH
 40
0.25
  9
$PSOLHEIGHT
 40
4.0
  9
$LOFTANG1
 40
1.570796326794897
  9
$LOFTANG2
 40
1.570796326794897
  9
$LOFTMAG1
 40
0.0
  9
$LOFTMAG2
 40
0.0
  9
$LOFTPARAM
 70
     7
  9
$LOFTNORMALS
280
     1
  9
$LATITUDE
 40
37.795
  9
$LONGITUDE
 40
-122.394
  9
$NORTHDIRECTION
 40
0.0
  9
$TIMEZONE
 70
 -8000
  9
$LIGHTGLYPHDISPLAY
280
     1
  9
$TILEMODELIGHTSYNCH
280
     1
  9
$CMATERIAL
347
3C
  9
$SOLIDHIST
280
     1
  9
$SHOWHIST
280
     1
  9
$DWFFRAME
280
     2
  9
$DGNFRAME
280
     2
  9
$REALWORLDSCALE
290
     1
  9
$INTERFERECOLOR
 62
   256
  9
$CSHADOW
280
     0
  9
$SHADOWPLANELOCATION
 40
0.0
  0
ENDSEC
  0
SECTION
  2
CLASSES
  0
CLASS
  1
ACDBDICTIONARYWDFLT
  2
AcDbDictionaryWithDefault
  3
ObjectDBX Classes
 90
        0
 91
        4
280
     0
281
     0
  0
CLASS
  1
VISUALSTYLE
  2
AcDbVisualStyle
  3
ObjectDBX Classes
 90
     4095
 91
        4
280
     0
281
     0
  0
CLASS
  1
MATERIAL
  2
AcDbMaterial
  3
ObjectDBX Classes
 90
     1153
 91
        4
280
     0
281
     0
  0
CLASS
  1
SUN
  2
AcDbSun
  3
SCENEOE
 90
     1024
 91
        4
280
     0
281
     0
  0
ENDSEC
  0
SECTION
  2
TABLES
  0
TABLE
  2
VPORT
  5
8
330
0
100
AcDbSymbolTable
 70
     1
  0
VPORT
  5
29
330
8
100
AcDbSymbolTableRecord
100
AcDbViewportTableRecord
  2
*Active
 70
     0
 10
0.0
 20
0.0
 11
1.0
 21
1.0
 12
0.0
 22
0.0
 13
0.0
 23
0.0
 14
0.5
 24
0.5
 15
0.5
 25
0.5
 16
0.0
 26
0.0
 36
1.0
 17
1.326388888888889
 27
1.069444444444445
 37
0.0
 40
11.69291338582677
 41
0.7070707070707065
 42
50.0
 43
0.0
 44
0.0
 50
0.0
 51
0.0
 71
     0
 72
   100
 73
     1
 74
     3
 75
     0
 76
     0
 77
     0
 78
     0
281
     0
 65
     1
110
0.0
120
0.0
130
0.0
111
1.0
121
0.0
131
0.0
112
0.0
122
1.0
132
0.0
 79
     0
146
0.0
 60
     3
 61
     5
292
     1
282
     1
141
0.0
142
0.0
 63
   250
361
3F
  0
ENDTAB
  0
TABLE
  2
LTYPE
  5
5
330
0
100
AcDbSymbolTable
 70
     1
  0
LTYPE
  5
14
330
5
100
AcDbSymbolTableRecord
100
AcDbLinetypeTableRecord
  2
ByBlock
 70
     0
  3

 72
    65
 73
     0
 40
0.0
  0
LTYPE
  5
15
330
5
100
AcDbSymbolTableRecord
100
AcDbLinetypeTableRecord
  2
ByLayer
 70
     0
  3

 72
    65
 73
     0
 40
0.0
  0
LTYPE
  5
16
330
5
100
AcDbSymbolTableRecord
100
AcDbLinetypeTableRecord
  2
Continuous
 70
     0
  3
Solid line
 72
    65
 73
     0
 40
0.0
  0
ENDTAB
  0
TABLE
  2
LAYER
  5
2
330
0
100
AcDbSymbolTable
 70
     4
  0
LAYER
  5
10
330
2
100
AcDbSymbolTableRecord
100
AcDbLayerTableRecord
  2
0
 70
     0
 62
     7
  6
Continuous
370
    -3
390
F
347
3E
  0
LAYER
  5
40
330
2
100
AcDbSymbolTableRecord
100
AcDbLayerTableRecord
  2
Layer 1
 70
     0
 62
     7
  6
Continuous
370
    -3
390
F
347
3E
  0
LAYER
  5
BE
330
2
100
AcDbSymbolTableRecord
100
AcDbLayerTableRecord
  2
E5
 70
     0
 62
     7
  6
Continuous
370
    -3
390
F
347
3E
  0
LAYER
  5
136
330
2
100
AcDbSymbolTableRecord
100
AcDbLayerTableRecord
  2
callout
 70
     0
 62
     7
  6
Continuous
370
    -3
390
F
347
3E
  0
ENDTAB
  0
TABLE
  2
STYLE
  5
3
330
0
100
AcDbSymbolTable
 70
     1
  0
STYLE
  5
11
330
3
100
AcDbSymbolTableRecord
100
AcDbTextStyleTableRecord
  2
Standard
 70
     0
 40
0.0
 41
1.0
 50
0.0
 71
     0
 42
0.2
  3
txt
  4

  0
ENDTAB
  0
TABLE
  2
VIEW
  5
6
330
0
100
AcDbSymbolTable
 70
     0
  0
ENDTAB
  0
TABLE
  2
UCS
  5
7
330
0
100
AcDbSymbolTable
 70
     0
  0
ENDTAB
  0
TABLE
  2
APPID
  5
9
330
0
100
AcDbSymbolTable
 70
     1
  0
APPID
  5
12
330
9
100
AcDbSymbolTableRecord
100
AcDbRegAppTableRecord
  2
ACAD
 70
     0
  0
ENDTAB
  0
TABLE
  2
DIMSTYLE
  5
A
330
0
100
AcDbSymbolTable
 70
     1
100
AcDbDimStyleTable
  0
DIMSTYLE
105
27
330
A
100
AcDbSymbolTableRecord
100
AcDbDimStyleTableRecord
  2
Standard
 70
     0
178
     0
340
11
  0
ENDTAB
  0
TABLE
  2
BLOCK_RECORD
  5
1
330
0
100
AcDbSymbolTable
 70
    13
  0
BLOCK_RECORD
  5
1F
330
1
100
AcDbSymbolTableRecord
100
AcDbBlockTableRecord
  2
*Model_Space
340
22
 70
     0
280
     1
281
     0
  0
BLOCK_RECORD
  5
1B
330
1
100
AcDbSymbolTableRecord
100
AcDbBlockTableRecord
  2
*Paper_Space
340
1E
 70
     0
280
     1
281
     0
  0
BLOCK_RECORD
  5
23
330
1
100
AcDbSymbolTableRecord
100
AcDbBlockTableRecord
  2
*Paper_Space0
340
26
 70
     0
280
     1
281
     0
  0
BLOCK_RECORD
  5
BF
330
1
100
AcDbSymbolTableRecord
100
AcDbBlockTableRecord
  2
block 2
340
0
102
{BLKREFS
331
C0
102
}
 70
     0
280
     1
281
     0
  0
BLOCK_RECORD
  5
CE
330
1
100
AcDbSymbolTableRecord
100
AcDbBlockTableRecord
  2
block 3
340
0
102
{BLKREFS
331
CF
102
}
 70
     0
280
     1
281
     0
  0
BLOCK_RECORD
  5
D3
330
1
100
AcDbSymbolTableRecord
100
AcDbBlockTableRecord
  2
block 4
340
0
102
{BLKREFS
331
D4
102
}
 70
     0
280
     1
281
     0
  0
BLOCK_RECORD
  5
D8
330
1
100
AcDbSymbolTableRecord
100
AcDbBlockTableRecord
  2
block 5
340
0
102
{BLKREFS
331
D9
102
}
 70
     0
280
     1
281
     0
  0
BLOCK_RECORD
  5
DD
330
1
100
AcDbSymbolTableRecord
100
AcDbBlockTableRecord
  2
block 6
340
0
102
{BLKREFS
331
DE
102
}
 70
     0
280
     1
281
     0
  0
BLOCK_RECORD
  5
E2
330
1
100
AcDbSymbolTableRecord
100
AcDbBlockTableRecord
  2
block 7
340
0
102
{BLKREFS
331
E3
102
}
 70
     0
280
     1
281
     0
  0
BLOCK_RECORD
  5
E7
330
1
100
AcDbSymbolTableRecord
100
AcDbBlockTableRecord
  2
block 8
340
0
102
{BLKREFS
331
E8
102
}
 70
     0
280
     1
281
     0
  0
BLOCK_RECORD
  5
EC
330
1
100
AcDbSymbolTableRecord
100
AcDbBlockTableRecord
  2
block 9
340
0
102
{BLKREFS
331
ED
102
}
 70
     0
280
     1
281
     0
  0
BLOCK_RECORD
  5
F1
330
1
100
AcDbSymbolTableRecord
100
AcDbBlockTableRecord
  2
block 10
340
0
102
{BLKREFS
331
F2
102
}
 70
     0
280
     1
281
     0
  0
BLOCK_RECORD
  5
F6
330
1
100
AcDbSymbolTableRecord
100
AcDbBlockTableRecord
  2
block 11
340
0
102
{BLKREFS
331
F7
102
}
 70
     0
280
     1
281
     0
  0
BLOCK_RECORD
  5
FB
330
1
100
AcDbSymbolTableRecord
100
AcDbBlockTableRecord
  2
block 12
340
0
102
{BLKREFS
331
FC
102
}
 70
     0
280
     1
281
     0
  0
BLOCK_RECORD
  5
102
330
1
100
AcDbSymbolTableRecord
100
AcDbBlockTableRecord
  2
block 13
340
0
102
{BLKREFS
331
103
102
}
 70
     0
280
     1
281
     0
  0
ENDTAB
  0
ENDSEC
  0
SECTION
  2
BLOCKS
  0
BLOCK
  5
20
330
1F
100
AcDbEntity
  8
0
100
AcDbBlockBegin
  2
*Model_Space
 70
     0
 10
0.0
 20
0.0
 30
0.0
  3
*Model_Space
  1

  0
ENDBLK
  5
21
330
1F
100
AcDbEntity
  8
0
100
AcDbBlockEnd
  0
BLOCK
  5
1C
330
1B
100
AcDbEntity
 67
     1
  8
0
100
AcDbBlockBegin
  2
*Paper_Space
 70
     0
 10
0.0
 20
0.0
 30
0.0
  3
*Paper_Space
  1

  0
ENDBLK
  5
1D
330
1B
100
AcDbEntity
 67
     1
  8
0
100
AcDbBlockEnd
  0
BLOCK
  5
24
330
23
100
AcDbEntity
  8
0
100
AcDbBlockBegin
  2
*Paper_Space0
 70
     0
 10
0.0
 20
0.0
 30
0.0
  3
*Paper_Space0
  1

  0
ENDBLK
  5
25
330
23
100
AcDbEntity
  8
0
100
AcDbBlockEnd
  0
BLOCK
  5
C1
330
BF
100
AcDbEntity
  8
0
100
AcDbBlockBegin
  2
block 2
 70
     0
 10
0.0
 20
0.0
 30
0.0
  3
block 2
  1

  0
SPLINE
  5
C3
330
BF
100
AcDbEntity
  8
E5
 62
   250
420
  2301728
370
    18
100
AcDbSpline
210
0.0
220
0.0
230
1.0
 70
    11
 71
     3
 72
    44
 73
    40
 74
     0
 42
0.0000000001
 43
0.0000000001
 12
1.0
 22
0.0
 32
0.0
 13
1.0
 23
0.0
 33
0.0
 40
0.0
 40
0.0
 40
0.0
 40
0.0
 40
1.0
 40
1.0
 40
1.0
 40
2.0
 40
2.0
 40
2.0
 40
3.0
 40
3.0
 40
3.0
 40
4.0
 40
4.0
 40
4.0
 40
5.0
 40
5.0
 40
5.0
 40
6.0
 40
6.0
 40
6.0
 40
7.0
 40
7.0
 40
7.0
 40
8.0
 40
8.0
 40
8.0
 40
9.0
 40
9.0
 40
9.0
 40
10.0
 40
10.0
 40
10.0
 40
11.0
 40
11.0
 40
11.0
 40
12.0
 40
12.0
 40
12.0
 40
13.0
 40
13.0
 40
13.0
 40
13.0
 10
0.6543050109739725
 20
2.76546373596452
 30
0.0
 10
0.6543050109739725
 20
2.76546373596452
 30
0.0
 10
0.6230351738299885
 20
2.74720964575378
 30
0.0
 10
0.6230351738299885
 20
2.74720964575378
 30
0.0
 10
0.6230351738299885
 20
2.74720964575378
 30
0.0
 10
0.5993796345460775
 20
2.178835661049283
 30
0.0
 10
0.5991225714248508
 20
2.172659179981603
 30
0.0
 10
0.5988653199789774
 20
2.166478174019378
 30
0.0
 10
0.5969322333367649
 20
2.152936364278427
 30
0.0
 10
0.5884112796420974
 20
2.145823481837877
 30
0.0
 10
0.5798903259474298
 20
2.138710599397377
 30
0.0
 10
0.3416136215556915
 20
2.012855825277282
 30
0.0
 10
0.3416136215556915
 20
2.012855825277282
 30
0.0
 10
0.3416136215556915
 20
2.012855825277282
 30
0.0
 10
0.340780271355786
 20
1.992778559300657
 30
0.0
 10
0.340780271355786
 20
1.992778559300657
 30
0.0
 10
0.340780271355786
 20
1.992778559300657
 30
0.0
 10
0.8209892928117849
 20
1.673559355542364
 30
0.0
 10
0.8209892928117849
 20
1.673559355542364
 30
0.0
 10
0.8209892928117849
 20
1.673559355542364
 30
0.0
 10
1.057305753689118
 20
1.801479157099644
 30
0.0
 10
1.075215715302281
 20
1.811961657806756
 30
0.0
 10
1.093134118047209
 20
1.822441923423083
 30
0.0
 10
1.095255661014625
 20
1.848816357407739
 30
0.0
 10
1.09573777206981
 20
1.860400087468709
 30
0.0
 10
1.096219883124996
 20
1.87198381752973
 30
0.0
 10
1.118348526233995
 20
2.428271005613144
 30
0.0
 10
1.118348526233995
 20
2.428271005613144
 30
0.0
 10
1.118348526233995
 20
2.428271005613144
 30
0.0
 10
1.090107205004049
 20
2.490792417930834
 30
0.0
 10
1.090107205004049
 20
2.490792417930834
 30
0.0
 10
1.090107205004049
 20
2.490792417930834
 30
0.0
 10
0.6698517773367787
 20
2.7683717192309
 30
0.0
 10
0.6698517773367787
 20
2.7683717192309
 30
0.0
 10
0.6698517773367787
 20
2.7683717192309
 30
0.0
 10
0.6543086761512439
 20
2.765461335865489
 30
0.0
 10
0.6543086761512439
 20
2.765461335865489
 30
0.0
 10
0.6543086761512439
 20
2.765461335865489
 30
0.0
 10
0.6543050109739725
 20
2.76546373596452
 30
0.0
 10
0.6543050109739725
 20
2.76546373596452
 30
0.0
  0
SPLINE
  5
C4
330
BF
100
AcDbEntity
  8
E5
 62
   250
420
  2301728
370
    18
100
AcDbSpline
210
0.0
220
0.0
230
1.0
 70
    11
 71
     3
 72
    11
 73
     7
 74
     0
 42
0.0000000001
 43
0.0000000001
 12
1.0
 22
0.0
 32
0.0
 13
1.0
 23
0.0
 33
0.0
 40
0.0
 40
0.0
 40
0.0
 40
0.0
 40
1.0
 40
1.0
 40
1.0
 40
2.0
 40
2.0
 40
2.0
 40
2.0
 10
0.6493836943354204
 20
2.210876278898783
 30
0.0
 10
0.6690747971369116
 20
2.206444640916895
 30
0.0
 10
0.6792159820475187
 20
2.186581175782395
 30
0.0
 10
0.6729562137101589
 20
2.167940461681635
 30
0.0
 10
0.6573307571852763
 20
2.171295574763108
 30
0.0
 10
0.6449988873542148
 20
2.187831970736283
 30
0.0
 10
0.6493836943354204
 20
2.210876278898783
 30
0.0
  0
SPLINE
  5
C5
330
BF
100
AcDbEntity
  8
E5
 62
   250
420
  2301728
370
    18
100
AcDbSpline
210
0.0
220
0.0
230
1.0
 70
    11
 71
     3
 72
    11
 73
     7
 74
     0
 42
0.0000000001
 43
0.0000000001
 12
1.0
 22
0.0
 32
0.0
 13
1.0
 23
0.0
 33
0.0
 40
0.0
 40
0.0
 40
0.0
 40
0.0
 40
1.0
 40
1.0
 40
1.0
 40
2.0
 40
2.0
 40
2.0
 40
2.0
 10
0.626040294401706
 20
1.913329796325519
 30
0.0
 10
0.6273419942507164
 20
1.94460586749018
 30
0.0
 10
0.7324672318964202
 20
1.926139319236275
 30
0.0
 10
0.7409489242663387
 20
1.882903637012482
 30
0.0
 10
0.7225064060751897
 20
1.859679624879921
 30
0.0
 10
0.6547637266868378
 20
1.862392114068825
 30
0.0
 10
0.626040294401706
 20
1.913329796325519
 30
0.0
  0
SPLINE
  5
C6
330
BF
100
AcDbEntity
  8
E5
 62
   250
420
  2301728
370
    18
100
AcDbSpline
210
0.0
220
0.0
230
1.0
 70
    11
 71
     3
 72
    11
 73
     7
 74
     0
 42
0.0000000001
 43
0.0000000001
 12
1.0
 22
0.0
 32
0.0
 13
1.0
 23
0.0
 33
0.0
 40
0.0
 40
0.0
 40
0.0
 40
0.0
 40
1.0
 40
1.0
 40
1.0
 40
2.0
 40
2.0
 40
2.0
 40
2.0
 10
0.8609421405173457
 20
2.09005286522016
 30
0.0
 10
0.8453184218725229
 20
2.093407518135892
 30
0.0
 10
0.8329905842827353
 20
2.109938271669105
 30
0.0
 10
0.8373733451712849
 20
2.132987696367864
 30
0.0
 10
0.8570624618241582
 20
2.128556584289678
 30
0.0
 10
0.8672036467347399
 20
2.108693119155178
 30
0.0
 10
0.8609421405173457
 20
2.09005286522016
 30
0.0
  0
SPLINE
  5
C7
330
BF
100
AcDbEntity
  8
E5
 62
   250
420
  2301728
370
    18
100
AcDbSpline
210
0.0
220
0.0
230
1.0
 70
    11
 71
     3
 72
    26
 73
    22
 74
     0
 42
0.0000000001
 43
0.0000000001
 12
1.0
 22
0.0
 32
0.0
 13
1.0
 23
0.0
 33
0.0
 40
0.0
 40
0.0
 40
0.0
 40
0.0
 40
1.0
 40
1.0
 40
1.0
 40
2.0
 40
2.0
 40
2.0
 40
3.0
 40
3.0
 40
3.0
 40
4.0
 40
4.0
 40
4.0
 40
5.0
 40
5.0
 40
5.0
 40
6.0
 40
6.0
 40
6.0
 40
7.0
 40
7.0
 40
7.0
 40
7.0
 10
0.9361604550148538
 20
2.299669866269849
 30
0.0
 10
0.9352926551155052
 20
2.278819152160066
 30
0.0
 10
0.9228004912066328
 20
2.275100066535818
 30
0.0
 10
0.9228004912066328
 20
2.275100066535818
 30
0.0
 10
0.9228004912066328
 20
2.275100066535818
 30
0.0
 10
0.9104529606143311
 20
2.274856099929947
 30
0.0
 10
0.8964573026535542
 20
2.284417642774909
 30
0.0
 10
0.8824616446927772
 20
2.29397918561987
 30
0.0
 10
0.8192619994772611
 20
2.331794041536416
 30
0.0
 10
0.8123869326778959
 20
2.339470153832483
 30
0.0
 10
0.8055073970440768
 20
2.347147449411851
 30
0.0
 10
0.7781315859603712
 20
2.381053299875273
 30
0.0
 10
0.7825456951850229
 20
2.412955448607136
 30
0.0
 10
0.7869560086666575
 20
2.444862891235011
 30
0.0
 10
0.812127977588678
 20
2.432058672118476
 30
0.0
 10
0.812127977588678
 20
2.432058672118476
 30
0.0
 10
0.812127977588678
 20
2.432058672118476
 30
0.0
 10
0.8701444256444245
 20
2.393273975336569
 30
0.0
 10
0.8951772188921723
 20
2.37727654130731
 30
0.0
 10
0.9202184532717107
 20
2.361276872187293
 30
0.0
 10
0.9370282549142024
 20
2.320520580379631
 30
0.0
 10
0.9361604550148538
 20
2.299669866269849
 30
0.0
  0
SPLINE
  5
C8
330
BF
100
AcDbEntity
  8
E5
 62
   250
420
  2301728
370
    18
100
AcDbSpline
210
0.0
220
0.0
230
1.0
 70
    11
 71
     3
 72
    11
 73
     7
 74
     0
 42
0.0000000001
 43
0.0000000001
 12
1.0
 22
0.0
 32
0.0
 13
1.0
 23
0.0
 33
0.0
 40
0.0
 40
0.0
 40
0.0
 40
0.0
 40
1.0
 40
1.0
 40
1.0
 40
2.0
 40
2.0
 40
2.0
 40
2.0
 10
1.045860306837375
 20
1.921623609118695
 30
0.0
 10
1.030236836461111
 20
1.924978196296466
 30
0.0
 10
1.017905226668934
 20
1.941514809337605
 30
0.0
 10
1.022289773611255
 20
1.964558900432166
 30
0.0
 10
1.041980876412746
 20
1.960127262450214
 30
0.0
 10
1.052122061323353
 20
1.940263797315765
 30
0.0
 10
1.045860306837375
 20
1.921623609118695
 30
0.0
  0
HATCH
  5
C9
330
BF
100
AcDbEntity
  8
E5
 62
   254
420
 13358815
100
AcDbHatch
 10
0.0
 20
0.0
 30
0.0
210
0.0
220
0.0
230
1.0
  2
SOLID
 70
     1
 71
     0
 91
        6
 92
        1
 93
        1
 72
     4
 94
        3
 73
     0
 74
     1
 95
       44
 96
       40
 40
0.0
 40
0.0
 40
0.0
 40
0.0
 40
1.0
 40
1.0
 40
1.0
 40
2.0
 40
2.0
 40
2.0
 40
3.0
 40
3.0
 40
3.0
 40
4.0
 40
4.0
 40
4.0
 40
5.0
 40
5.0
 40
5.0
 40
6.0
 40
6.0
 40
6.0
 40
7.0
 40
7.0
 40
7.0
 40
8.0
 40
8.0
 40
8.0
 40
9.0
 40
9.0
 40
9.0
 40
10.0
 40
10.0
 40
10.0
 40
11.0
 40
11.0
 40
11.0
 40
12.0
 40
12.0
 40
12.0
 40
13.0
 40
13.0
 40
13.0
 40
13.0
 10
0.6543050109739725
 20
2.76546373596452
 10
0.6543050109739725
 20
2.76546373596452
 10
0.6230351738299885
 20
2.74720964575378
 10
0.6230351738299885
 20
2.74720964575378
 10
0.6230351738299885
 20
2.74720964575378
 10
0.5993796345460775
 20
2.178835661049283
 10
0.5991225714248508
 20
2.172659179981603
 10
0.5988653199789774
 20
2.166478174019378
 10
0.5969322333367649
 20
2.152936364278427
 10
0.5884112796420974
 20
2.145823481837877
 10
0.5798903259474298
 20
2.138710599397377
 10
0.3416136215556915
 20
2.012855825277282
 10
0.3416136215556915
 20
2.012855825277282
 10
0.3416136215556915
 20
2.012855825277282
 10
0.340780271355786
 20
1.992778559300657
 10
0.340780271355786
 20
1.992778559300657
 10
0.340780271355786
 20
1.992778559300657
 10
0.8209892928117849
 20
1.673559355542364
 10
0.8209892928117849
 20
1.673559355542364
 10
0.8209892928117849
 20
1.673559355542364
 10
1.057305753689118
 20
1.801479157099644
 10
1.075215715302281
 20
1.811961657806756
 10
1.093134118047209
 20
1.822441923423083
 10
1.095255661014625
 20
1.848816357407739
 10
1.09573777206981
 20
1.860400087468709
 10
1.096219883124996
 20
1.87198381752973
 10
1.118348526233995
 20
2.428271005613144
 10
1.118348526233995
 20
2.428271005613144
 10
1.118348526233995
 20
2.428271005613144
 10
1.090107205004049
 20
2.490792417930834
 10
1.090107205004049
 20
2.490792417930834
 10
1.090107205004049
 20
2.490792417930834
 10
0.6698517773367787
 20
2.7683717192309
 10
0.6698517773367787
 20
2.7683717192309
 10
0.6698517773367787
 20
2.7683717192309
 10
0.6543086761512439
 20
2.765461335865489
 10
0.6543086761512439
 20
2.765461335865489
 10
0.6543086761512439
 20
2.765461335865489
 10
0.6543050109739725
 20
2.76546373596452
 10
0.6543050109739725
 20
2.76546373596452
 97
        0
 97
        0
 92
        1
 93
        1
 72
     4
 94
        3
 73
     0
 74
     1
 95
       11
 96
        7
 40
0.0
 40
0.0
 40
0.0
 40
0.0
 40
1.0
 40
1.0
 40
1.0
 40
2.0
 40
2.0
 40
2.0
 40
2.0
 10
0.6493836943354204
 20
2.210876278898783
 10
0.6690747971369116
 20
2.206444640916895
 10
0.6792159820475187
 20
2.186581175782395
 10
0.6729562137101589
 20
2.167940461681635
 10
0.6573307571852763
 20
2.171295574763108
 10
0.6449988873542148
 20
2.187831970736283
 10
0.6493836943354204
 20
2.210876278898783
 97
        0
 97
        0
 92
        1
 93
        1
 72
     4
 94
        3
 73
     0
 74
     1
 95
       11
 96
        7
 40
0.0
 40
0.0
 40
0.0
 40
0.0
 40
1.0
 40
1.0
 40
1.0
 40
2.0
 40
2.0
 40
2.0
 40
2.0
 10
0.626040294401706
 20
1.913329796325519
 10
0.6273419942507164
 20
1.94460586749018
 10
0.7324672318964202
 20
1.926139319236275
 10
0.7409489242663387
 20
1.882903637012482
 10
0.7225064060751897
 20
1.859679624879921
 10
0.6547637266868378
 20
1.862392114068825
 10
0.626040294401706
 20
1.913329796325519
 97
        0
 97
        0
 92
        1
 93
        1
 72
     4
 94
        3
 73
     0
 74
     1
 95
       11
 96
        7
 40
0.0
 40
0.0
 40
0.0
 40
0.0
 40
1.0
 40
1.0
 40
1.0
 40
2.0
 40
2.0
 40
2.0
 40
2.0
 10
0.8609421405173457
 20
2.09005286522016
 10
0.8453184218725229
 20
2.093407518135892
 10
0.8329905842827353
 20
2.109938271669105
 10
0.8373733451712849
 20
2.132987696367864
 10
0.8570624618241582
 20
2.128556584289678
 10
0.8672036467347399
 20
2.108693119155178
 10
0.8609421405173457
 20
2.09005286522016
 97
        0
 97
        0
 92
        1
 93
        1
 72
     4
 94
        3
 73
     0
 74
     1
 95
       26
 96
       22
 40
0.0
 40
0.0
 40
0.0
 40
0.0
 40
1.0
 40
1.0
 40
1.0
 40
2.0
 40
2.0
 40
2.0
 40
3.0
 40
3.0
 40
3.0
 40
4.0
 40
4.0
 40
4.0
 40
5.0
 40
5.0
 40
5.0
 40
6.0
 40
6.0
 40
6.0
 40
7.0
 40
7.0
 40
7.0
 40
7.0
 10
0.9361604550148538
 20
2.299669866269849
 10
0.9352926551155052
 20
2.278819152160066
 10
0.9228004912066328
 20
2.275100066535818
 10
0.9228004912066328
 20
2.275100066535818
 10
0.9228004912066328
 20
2.275100066535818
 10
0.9104529606143311
 20
2.274856099929947
 10
0.8964573026535542
 20
2.284417642774909
 10
0.8824616446927772
 20
2.29397918561987
 10
0.8192619994772611
 20
2.331794041536416
 10
0.8123869326778959
 20
2.339470153832483
 10
0.8055073970440768
 20
2.347147449411851
 10
0.7781315859603712
 20
2.381053299875273
 10
0.7825456951850229
 20
2.412955448607136
 10
0.7869560086666575
 20
2.444862891235011
 10
0.812127977588678
 20
2.432058672118476
 10
0.812127977588678
 20
2.432058672118476
 10
0.812127977588678
 20
2.432058672118476
 10
0.8701444256444245
 20
2.393273975336569
 10
0.8951772188921723
 20
2.37727654130731
 10
0.9202184532717107
 20
2.361276872187293
 10
0.9370282549142024
 20
2.320520580379631
 10
0.9361604550148538
 20
2.299669866269849
 97
        0
 97
        0
 92
        1
 93
        1
 72
     4
 94
        3
 73
     0
 74
     1
 95
       11
 96
        7
 40
0.0
 40
0.0
 40
0.0
 40
0.0
 40
1.0
 40
1.0
 40
1.0
 40
2.0
 40
2.0
 40
2.0
 40
2.0
 10
1.045860306837375
 20
1.921623609118695
 10
1.030236836461111
 20
1.924978196296466
 10
1.017905226668934
 20
1.941514809337605
 10
1.022289773611255
 20
1.964558900432166
 10
1.041980876412746
 20
1.960127262450214
 10
1.052122061323353
 20
1.940263797315765
 10
1.045860306837375
 20
1.921623609118695
 97
        0
 97
        0
 75
     2
 76
     1
 98
        0
  0
SPLINE
  5
CA
330
BF
100
AcDbEntity
  8
E5
 62
   250
420
  2301728
370
    13
100
AcDbSpline
210
0.0
220
0.0
230
1.0
 70
    11
 71
     3
 72
    23
 73
    19
 74
     0
 42
0.0000000001
 43
0.0000000001
 12
1.0
 22
0.0
 32
0.0
 13
1.0
 23
0.0
 33
0.0
 40
0.0
 40
0.0
 40
0.0
 40
0.0
 40
1.0
 40
1.0
 40
1.0
 40
2.0
 40
2.0
 40
2.0
 40
3.0
 40
3.0
 40
3.0
 40
4.0
 40
4.0
 40
4.0
 40
5.0
 40
5.0
 40
5.0
 40
6.0
 40
6.0
 40
6.0
 40
6.0
 10
0.7409487887491776
 20
1.882903703546364
 30
0.0
 10
0.7341195233443234
 20
1.904035782376569
 30
0.0
 10
0.7145549763516278
 20
1.915657456580283
 30
0.0
 10
0.686153866033174
 20
1.924934371718362
 30
0.0
 10
0.6577527557146948
 20
1.934211286856427
 30
0.0
 10
0.630346685394986
 20
1.930342204875892
 30
0.0
 10
0.6260402348873538
 20
1.913329842734925
 30
0.0
 10
0.6260402348873538
 20
1.913329842734925
 30
0.0
 10
0.627006694442937
 20
1.924199754942391
 30
0.0
 10
0.6266428737063229
 20
1.927809505311188
 30
0.0
 10
0.6262790529697592
 20
1.931419255680036
 30
0.0
 10
0.6395425945669331
 20
1.953672309401807
 30
0.0
 10
0.6888626377230417
 20
1.940613068401717
 30
0.0
 10
0.7381826808792008
 20
1.927553827401602
 30
0.0
 10
0.7445318973802715
 20
1.894837472482196
 30
0.0
 10
0.7445318973802715
 20
1.894837472482196
 30
0.0
 10
0.7445318973802715
 20
1.894837472482196
 30
0.0
 10
0.7437823877995192
 20
1.889180238802181
 30
0.0
 10
0.7409487887491776
 20
1.882903703546364
 30
0.0
  0
SPLINE
  5
CB
330
BF
100
AcDbEntity
  8
E5
 62
   250
420
  2301728
370
    13
100
AcDbSpline
210
0.0
220
0.0
230
1.0
 70
    11
 71
     3
 72
    17
 73
    13
 74
     0
 42
0.0000000001
 43
0.0000000001
 12
1.0
 22
0.0
 32
0.0
 13
1.0
 23
0.0
 33
0.0
 40
0.0
 40
0.0
 40
0.0
 40
0.0
 40
1.0
 40
1.0
 40
1.0
 40
2.0
 40
2.0
 40
2.0
 40
3.0
 40
3.0
 40
3.0
 40
4.0
 40
4.0
 40
4.0
 40
4.0
 10
0.6493820624320329
 20
2.210876522867364
 30
0.0
 10
0.6493820624320329
 20
2.210876522867364
 30
0.0
 10
0.6410907690304334
 20
2.176377824402253
 30
0.0
 10
0.672954566828682
 20
2.167940747141226
 30
0.0
 10
0.672954566828682
 20
2.167940747141226
 30
0.0
 10
0.6679220603716278
 20
2.162246451248468
 30
0.0
 10
0.6679220603716278
 20
2.162246451248468
 30
0.0
 10
0.6679220603716278
 20
2.162246451248468
 30
0.0
 10
0.6509098340446068
 20
2.165186403956164
 30
0.0
 10
0.6419965728237634
 20
2.181600170900361
 30
0.0
 10
0.6330832604987664
 20
2.198013951376146
 30
0.0
 10
0.6433128189659606
 20
2.213265892181274
 30
0.0
 10
0.6493820624320329
 20
2.210876522867364
 30
0.0
  0
SPLINE
  5
CC
330
BF
100
AcDbEntity
  8
E5
 62
   250
420
  2301728
370
    13
100
AcDbSpline
210
0.0
220
0.0
230
1.0
 70
    11
 71
     3
 72
    17
 73
    13
 74
     0
 42
0.0000000001
 43
0.0000000001
 12
1.0
 22
0.0
 32
0.0
 13
1.0
 23
0.0
 33
0.0
 40
0.0
 40
0.0
 40
0.0
 40
0.0
 40
1.0
 40
1.0
 40
1.0
 40
2.0
 40
2.0
 40
2.0
 40
3.0
 40
3.0
 40
3.0
 40
4.0
 40
4.0
 40
4.0
 40
4.0
 10
0.8373713846476801
 20
2.132988143205214
 30
0.0
 10
0.8373713846476801
 20
2.132988143205214
 30
0.0
 10
0.8290786055230733
 20
2.09849401183121
 30
0.0
 10
0.8609422314688623
 20
2.090052805454333
 30
0.0
 10
0.8609422314688623
 20
2.090052805454333
 30
0.0
 10
0.8559097297826636
 20
2.08435850812086
 30
0.0
 10
0.8559097297826636
 20
2.08435850812086
 30
0.0
 10
0.8559097297826636
 20
2.08435850812086
 30
0.0
 10
0.8388993702176952
 20
2.087293281942695
 30
0.0
 10
0.8299860528892647
 20
2.103707064098381
 30
0.0
 10
0.8210727962215287
 20
2.12012083019196
 30
0.0
 10
0.8313004836450975
 20
2.135377951430832
 30
0.0
 10
0.8373713846476801
 20
2.132988143205214
 30
0.0
  0
SPLINE
  5
CD
330
BF
100
AcDbEntity
  8
E5
 62
   250
420
  2301728
370
    13
100
AcDbSpline
210
0.0
220
0.0
230
1.0
 70
    11
 71
     3
 72
    17
 73
    13
 74
     0
 42
0.0000000001
 43
0.0000000001
 12
1.0
 22
0.0
 32
0.0
 13
1.0
 23
0.0
 33
0.0
 40
0.0
 40
0.0
 40
0.0
 40
0.0
 40
1.0
 40
1.0
 40
1.0
 40
2.0
 40
2.0
 40
2.0
 40
3.0
 40
3.0
 40
3.0
 40
4.0
 40
4.0
 40
4.0
 40
4.0
 10
1.022285803849791
 20
1.964559945620964
 30
0.0
 10
1.022285803849791
 20
1.964559945620964
 30
0.0
 10
1.013994895927567
 20
1.930070513268371
 30
0.0
 10
1.045860342658127
 20
1.921623630284734
 30
0.0
 10
1.045860342658127
 20
1.921623630284734
 30
0.0
 10
1.04082821661719
 20
1.915929233485788
 30
0.0
 10
1.04082821661719
 20
1.915929233485788
 30
0.0
 10
1.04082821661719
 20
1.915929233485788
 30
0.0
 10
1.023813982264162
 20
1.918869717850435
 30
0.0
 10
1.014902729082312
 20
1.9352829534497
 30
0.0
 10
1.00598740826802
 20
1.951697266099725
 30
0.0
 10
1.016216560230393
 20
1.966949314995228
 30
0.0
 10
1.022285803849791
 20
1.964559945620964
 30
0.0
  0
INSERT
  5
CF
330
BF
100
AcDbEntity
  8
E5
100
AcDbBlockReference
  2
block 3
 10
0.0
 20
0.0
 30
0.0
  0
INSERT
  5
D4
330
BF
100
AcDbEntity
  8
E5
100
AcDbBlockReference
  2
block 4
 10
0.0
 20
0.0
 30
0.0
  0
INSERT
  5
D9
330
BF
100
AcDbEntity
  8
E5
100
AcDbBlockReference
  2
block 5
 10
0.0
 20
0.0
 30
0.0
  0
INSERT
  5
DE
330
BF
100
AcDbEntity
  8
E5
100
AcDbBlockReference
  2
block 6
 10
0.0
 20
0.0
 30
0.0
  0
INSERT
  5
E3
330
BF
100
AcDbEntity
  8
E5
100
AcDbBlockReference
  2
block 7
 10
0.0
 20
0.0
 30
0.0
  0
INSERT
  5
E8
330
BF
100
AcDbEntity
  8
E5
100
AcDbBlockReference
  2
block 8
 10
0.0
 20
0.0
 30
0.0
  0
INSERT
  5
ED
330
BF
100
AcDbEntity
  8
E5
100
AcDbBlockReference
  2
block 9
 10
0.0
 20
0.0
 30
0.0
  0
INSERT
  5
F2
330
BF
100
AcDbEntity
  8
E5
100
AcDbBlockReference
  2
block 10
 10
0.0
 20
0.0
 30
0.0
  0
INSERT
  5
F7
330
BF
100
AcDbEntity
  8
E5
100
AcDbBlockReference
  2
block 11
 10
0.0
 20
0.0
 30
0.0
  0
INSERT
  5
FC
330
BF
100
AcDbEntity
  8
E5
100
AcDbBlockReference
  2
block 12
 10
0.0
 20
0.0
 30
0.0
  0
SPLINE
  5
100
330
BF
100
AcDbEntity
  8
E5
 62
   250
420
  2301728
370
    13
100
AcDbSpline
210
0.0
220
0.0
230
1.0
 70
     8
 71
     3
 72
    35
 73
    31
 74
     0
 42
0.0000000001
 43
0.0000000001
 12
1.0
 22
0.0
 32
0.0
 13
1.0
 23
0.0
 33
0.0
 40
0.0
 40
0.0
 40
0.0
 40
0.0
 40
1.0
 40
1.0
 40
1.0
 40
2.0
 40
2.0
 40
2.0
 40
3.0
 40
3.0
 40
3.0
 40
4.0
 40
4.0
 40
4.0
 40
5.0
 40
5.0
 40
5.0
 40
6.0
 40
6.0
 40
6.0
 40
7.0
 40
7.0
 40
7.0
 40
8.0
 40
8.0
 40
8.0
 40
9.0
 40
9.0
 40
9.0
 40
10.0
 40
10.0
 40
10.0
 40
10.0
 10
0.7279111125383603
 20
2.012642364473752
 30
0.0
 10
0.7260309429401306
 20
2.011715159993754
 30
0.0
 10
0.7244435599125786
 20
2.01087669021207
 30
0.0
 10
0.7232872262185562
 20
2.010156284468065
 30
0.0
 10
0.7162514275769227
 20
2.005774752070162
 30
0.0
 10
0.6852648185670583
 20
2.006870244245369
 30
0.0
 10
0.6641137116303955
 20
2.021140029103612
 30
0.0
 10
0.6507772745651815
 20
2.030138201677068
 30
0.0
 10
0.6469685760003787
 20
2.045589171919902
 30
0.0
 10
0.6537109028512305
 20
2.051219550060851
 30
0.0
 10
0.6537109028512305
 20
2.051219550060851
 30
0.0
 10
0.6551659142922719
 20
2.053176561104465
 30
0.0
 10
0.6551659142922719
 20
2.053176561104465
 30
0.0
 10
0.6551659142922719
 20
2.053176561104465
 30
0.0
 10
0.6896356894203689
 20
2.074499062396474
 30
0.0
 10
0.6973207767288159
 20
2.077931036414182
 30
0.0
 10
0.7050038029904423
 20
2.081363556167591
 30
0.0
 10
0.7091978632152328
 20
2.083372942366799
 30
0.0
 10
0.7091293068849734
 20
2.098227079092339
 30
0.0
 10
0.7090648181870797
 20
2.11308013876712
 30
0.0
 10
0.7128505462236742
 20
2.253396686758631
 30
0.0
 10
0.7126211576625362
 20
2.264386491131265
 30
0.0
 10
0.7123897624986739
 20
2.27537682682363
 30
0.0
 10
0.7200723242564209
 20
2.295200725644665
 30
0.0
 10
0.7444461060172848
 20
2.287969261307075
 30
0.0
 10
0.768819694933768
 20
2.280733163477457
 30
0.0
 10
0.7827055300411732
 20
2.235677723641503
 30
0.0
 10
0.7815484635087083
 20
2.207876771495131
 30
0.0
 10
0.7814694024746005
 20
2.205977164199693
 30
0.0
 10
0.7813723342733662
 20
2.203644896917467
 30
0.0
 10
0.7812600068393369
 20
2.200945994537531
 30
0.0
  0
SPLINE
  5
101
330
BF
100
AcDbEntity
  8
E5
 62
   250
420
  2301728
370
    13
100
AcDbSpline
210
0.0
220
0.0
230
1.0
 70
     8
 71
     3
 72
    14
 73
    10
 74
     0
 42
0.0000000001
 43
0.0000000001
 12
1.0
 22
0.0
 32
0.0
 13
1.0
 23
0.0
 33
0.0
 40
0.0
 40
0.0
 40
0.0
 40
0.0
 40
1.0
 40
1.0
 40
1.0
 40
2.0
 40
2.0
 40
2.0
 40
3.0
 40
3.0
 40
3.0
 40
3.0
 10
0.7806404136286017
 20
2.186058967111775
 30
0.0
 10
0.7787916511243793
 20
2.141638567362179
 30
0.0
 10
0.7753327467689183
 20
2.058531129918618
 30
0.0
 10
0.775120380387572
 20
2.053428581845853
 30
0.0
 10
0.7748631259285174
 20
2.047247503485298
 30
0.0
 10
0.7689288536178461
 20
2.036329791590409
 30
0.0
 10
0.7611172017708188
 20
2.029806732221383
 30
0.0
 10
0.7566779329551865
 20
2.026103585131346
 30
0.0
 10
0.7473420962992728
 20
2.02167975860329
 30
0.0
 10
0.7388166931468605
 20
2.017745864781091
 30
0.0
  0
INSERT
  5
103
330
BF
100
AcDbEntity
  8
E5
100
AcDbBlockReference
  2
block 13
 10
0.0
 20
0.0
 30
0.0
  0
POLYLINE
  5
108
330
BF
100
AcDbEntity
  8
E5
 62
   250
420
  2301728
370
    13
100
AcDb2dPolyline
 66
     1
 10
0.0
 20
0.0
 30
0.0
  0
VERTEX
  5
109
330
108
100
AcDbEntity
  8
E5
 62
   250
420
  2301728
370
    13
100
AcDbVertex
100
AcDb2dVertex
 10
0.9717431630647676
 20
1.912322453219405
 30
0.0
  0
VERTEX
  5
10A
330
108
100
AcDbEntity
  8
E5
 62
   250
420
  2301728
370
    13
100
AcDbVertex
100
AcDb2dVertex
 10
1.067240745244249
 20
1.848986705697446
 30
0.0
  0
SEQEND
  5
10B
330
108
100
AcDbEntity
  8
E5
 62
   250
420
  2301728
370
    13
  0
POLYLINE
  5
10C
330
BF
100
AcDbEntity
  8
E5
 62
   250
420
  2301728
370
    13
100
AcDb2dPolyline
 66
     1
 10
0.0
 20
0.0
 30
0.0
  0
VERTEX
  5
10D
330
10C
100
AcDbEntity
  8
E5
 62
   250
420
  2301728
370
    13
100
AcDbVertex
100
AcDb2dVertex
 10
0.7833821854192768
 20
2.037246907335228
 30
0.0
  0
VERTEX
  5
10E
330
10C
100
AcDbEntity
  8
E5
 62
   250
420
  2301728
370
    13
100
AcDbVertex
100
AcDb2dVertex
 10
0.8820085791408397
 20
1.971836074629411
 30
0.0
  0
SEQEND
  5
10F
330
10C
100
AcDbEntity
  8
E5
 62
   250
420
  2301728
370
    13
  0
POLYLINE
  5
110
330
BF
100
AcDbEntity
  8
E5
 62
   250
420
  2301728
370
    13
100
AcDb2dPolyline
 66
     1
 10
0.0
 20
0.0
 30
0.0
  0
VERTEX
  5
111
330
110
100
AcDbEntity
  8
E5
 62
   250
420
  2301728
370
    13
100
AcDbVertex
100
AcDb2dVertex
 10
0.6111744379744045
 20
2.151458243000232
 30
0.0
  0
VERTEX
  5
112
330
110
100
AcDbEntity
  8
E5
 62
   250
420
  2301728
370
    13
100
AcDbVertex
100
AcDb2dVertex
 10
0.6976312752421386
 20
2.094118483272672
 30
0.0
  0
SEQEND
  5
113
330
110
100
AcDbEntity
  8
E5
 62
   250
420
  2301728
370
    13
  0
SPLINE
  5
114
330
BF
100
AcDbEntity
  8
E5
 62
   250
420
  2301728
370
    13
100
AcDbSpline
210
0.0
220
0.0
230
1.0
 70
    11
 71
     3
 72
    35
 73
    31
 74
     0
 42
0.0000000001
 43
0.0000000001
 12
1.0
 22
0.0
 32
0.0
 13
1.0
 23
0.0
 33
0.0
 40
0.0
 40
0.0
 40
0.0
 40
0.0
 40
1.0
 40
1.0
 40
1.0
 40
2.0
 40
2.0
 40
2.0
 40
3.0
 40
3.0
 40
3.0
 40
4.0
 40
4.0
 40
4.0
 40
5.0
 40
5.0
 40
5.0
 40
6.0
 40
6.0
 40
6.0
 40
7.0
 40
7.0
 40
7.0
 40
8.0
 40
8.0
 40
8.0
 40
9.0
 40
9.0
 40
9.0
 40
10.0
 40
10.0
 40
10.0
 40
10.0
 10
1.10575184141328
 20
2.422239605776844
 30
0.0
 10
1.10575184141328
 20
2.422239605776844
 30
0.0
 10
1.077510520183333
 20
2.484761018094509
 30
0.0
 10
1.077510520183333
 20
2.484761018094509
 30
0.0
 10
1.077510520183333
 20
2.484761018094509
 30
0.0
 10
0.6543050109739725
 20
2.76546373596452
 30
0.0
 10
0.6543050109739725
 20
2.76546373596452
 30
0.0
 10
0.6543050109739725
 20
2.76546373596452
 30
0.0
 10
0.6230351738299885
 20
2.74720964575378
 30
0.0
 10
0.6230351738299885
 20
2.74720964575378
 30
0.0
 10
0.6230351738299885
 20
2.74720964575378
 30
0.0
 10
0.5993796345460775
 20
2.178835661049283
 30
0.0
 10
0.5991225714248508
 20
2.172659179981603
 30
0.0
 10
0.5988653199789774
 20
2.166478174019378
 30
0.0
 10
0.5969322333367649
 20
2.152936364278427
 30
0.0
 10
0.5884112796420974
 20
2.145823481837877
 30
0.0
 10
0.5798903259474298
 20
2.138710599397377
 30
0.0
 10
0.3416136215556915
 20
2.012855825277282
 30
0.0
 10
0.3416136215556915
 20
2.012855825277282
 30
0.0
 10
0.3416136215556915
 20
2.012855825277282
 30
0.0
 10
0.8223310510064215
 20
1.689206874362627
 30
0.0
 10
0.8223310510064215
 20
1.689206874362627
 30
0.0
 10
0.8223310510064215
 20
1.689206874362627
 30
0.0
 10
1.060027184109749
 20
1.81795051021062
 30
0.0
 10
1.066940553548433
 20
1.819239935475758
 30
0.0
 10
1.073849890745868
 20
1.820535003180895
 30
0.0
 10
1.085847108314927
 20
1.845465638599888
 30
0.0
 10
1.087261237968619
 20
1.879443071813992
 30
0.0
 10
1.088675555946957
 20
1.913425029922615
 30
0.0
 10
1.10575184141328
 20
2.422239605776844
 30
0.0
 10
1.10575184141328
 20
2.422239605776844
 30
0.0
  0
POLYLINE
  5
115
330
BF
100
AcDbEntity
  8
E5
 62
   250
420
  2301728
370
    13
100
AcDb2dPolyline
 66
     1
 10
0.0
 20
0.0
 30
0.0
  0
VERTEX
  5
116
330
115
100
AcDbEntity
  8
E5
 62
   250
420
  2301728
370
    13
100
AcDbVertex
100
AcDb2dVertex
 10
0.820989378564074
 20
1.673559157126217
 30
0.0
  0
VERTEX
  5
117
330
115
100
AcDbEntity
  8
E5
 62
   250
420
  2301728
370
    13
100
AcDbVertex
100
AcDb2dVertex
 10
0.8223348236383697
 20
1.689196470631689
 30
0.0
  0
SEQEND
  5
118
330
115
100
AcDbEntity
  8
E5
 62
   250
420
  2301728
370
    13
  0
POLYLINE
  5
119
330
BF
100
AcDbEntity
  8
E5
 62
   250
420
  2301728
370
    13
100
AcDb2dPolyline
 66
     1
 10
0.0
 20
0.0
 30
0.0
  0
VERTEX
  5
11A
330
119
100
AcDbEntity
  8
E5
 62
   250
420
  2301728
370
    13
100
AcDbVertex
100
AcDb2dVertex
 10
1.118348466719643
 20
2.428271052022612
 30
0.0
  0
VERTEX
  5
11B
330
119
100
AcDbEntity
  8
E5
 62
   250
420
  2301728
370
    13
100
AcDbVertex
100
AcDb2dVertex
 10
1.105759880599749
 20
2.422235220386205
 30
0.0
  0
SEQEND
  5
11C
330
119
100
AcDbEntity
  8
E5
 62
   250
420
  2301728
370
    13
  0
POLYLINE
  5
11D
330
BF
100
AcDbEntity
  8
E5
 62
   250
420
  2301728
370
    13
100
AcDb2dPolyline
 66
     1
 10
0.0
 20
0.0
 30
0.0
  0
VERTEX
  5
11E
330
11D
100
AcDbEntity
  8
E5
 62
   250
420
  2301728
370
    13
100
AcDbVertex
100
AcDb2dVertex
 10
1.077518559369777
 20
2.48475663270387
 30
0.0
  0
VERTEX
  5
11F
330
11D
100
AcDbEntity
  8
E5
 62
   250
420
  2301728
370
    13
100
AcDbVertex
100
AcDb2dVertex
 10
1.090107145489671
 20
2.490792464340277
 30
0.0
  0
SEQEND
  5
120
330
11D
100
AcDbEntity
  8
E5
 62
   250
420
  2301728
370
    13
  0
SPLINE
  5
121
330
BF
100
AcDbEntity
  8
E5
 62
   250
420
  2301728
370
    18
100
AcDbSpline
210
0.0
220
0.0
230
1.0
 70
    11
 71
     3
 72
    17
 73
    13
 74
     0
 42
0.0000000001
 43
0.0000000001
 12
1.0
 22
0.0
 32
0.0
 13
1.0
 23
0.0
 33
0.0
 40
0.0
 40
0.0
 40
0.0
 40
0.0
 40
1.0
 40
1.0
 40
1.0
 40
2.0
 40
2.0
 40
2.0
 40
3.0
 40
3.0
 40
3.0
 40
4.0
 40
4.0
 40
4.0
 40
4.0
 10
0.6789662356149948
 20
2.418245077645426
 30
0.0
 10
0.6852875448274491
 20
2.398711422060867
 30
0.0
 10
0.6805134628473929
 20
2.381658454636787
 30
0.0
 10
0.668306603543379
 20
2.380160193158038
 30
0.0
 10
0.6560916089746595
 20
2.378664085780909
 30
0.0
 10
0.6410699997059434
 20
2.393287290151319
 30
0.0
 10
0.6347481139759389
 20
2.412816366192727
 30
0.0
 10
0.6284227140781821
 20
2.432351153476828
 30
0.0
 10
0.6331962137366215
 20
2.449400010447738
 30
0.0
 10
0.6454075070773923
 20
2.450905998510305
 30
0.0
 10
0.6576143874558384
 20
2.45239488530011
 30
0.0
 10
0.6726465534554916
 20
2.437778302409646
 30
0.0
 10
0.6789662356149948
 20
2.418245077645426
 30
0.0
  0
HATCH
  5
122
330
BF
100
AcDbEntity
  8
E5
 62
   254
420
 13358815
100
AcDbHatch
 10
0.0
 20
0.0
 30
0.0
210
0.0
220
0.0
230
1.0
  2
SOLID
 70
     1
 71
     0
 91
        1
 92
        1
 93
        1
 72
     4
 94
        3
 73
     0
 74
     1
 95
       17
 96
       13
 40
0.0
 40
0.0
 40
0.0
 40
0.0
 40
1.0
 40
1.0
 40
1.0
 40
2.0
 40
2.0
 40
2.0
 40
3.0
 40
3.0
 40
3.0
 40
4.0
 40
4.0
 40
4.0
 40
4.0
 10
0.6789662356149948
 20
2.418245077645426
 10
0.6852875448274491
 20
2.398711422060867
 10
0.6805134628473929
 20
2.381658454636787
 10
0.668306603543379
 20
2.380160193158038
 10
0.6560916089746595
 20
2.378664085780909
 10
0.6410699997059434
 20
2.393287290151319
 10
0.6347481139759389
 20
2.412816366192727
 10
0.6284227140781821
 20
2.432351153476828
 10
0.6331962137366215
 20
2.449400010447738
 10
0.6454075070773923
 20
2.450905998510305
 10
0.6576143874558384
 20
2.45239488530011
 10
0.6726465534554916
 20
2.437778302409646
 10
0.6789662356149948
 20
2.418245077645426
 97
        0
 97
        0
 75
     2
 76
     1
 98
        0
  0
SPLINE
  5
123
330
BF
100
AcDbEntity
  8
E5
 62
   250
420
  2301728
370
    18
100
AcDbSpline
210
0.0
220
0.0
230
1.0
 70
    11
 71
     3
 72
    17
 73
    13
 74
     0
 42
0.0000000001
 43
0.0000000001
 12
1.0
 22
0.0
 32
0.0
 13
1.0
 23
0.0
 33
0.0
 40
0.0
 40
0.0
 40
0.0
 40
0.0
 40
1.0
 40
1.0
 40
1.0
 40
2.0
 40
2.0
 40
2.0
 40
3.0
 40
3.0
 40
3.0
 40
4.0
 40
4.0
 40
4.0
 40
4.0
 10
0.7471370215995673
 20
2.598737086099719
 30
0.0
 10
0.7534585043720324
 20
2.57920760065786
 30
0.0
 10
0.7486844223919762
 20
2.562154633233755
 30
0.0
 10
0.73647765951014
 20
2.560658688501033
 30
0.0
 10
0.7242625685192429
 20
2.559160264377927
 30
0.0
 10
0.7092409572892266
 20
2.573783421625219
 30
0.0
 10
0.7029191714583476
 20
2.593314861134331
 30
0.0
 10
0.6965937680465811
 20
2.612849600804263
 30
0.0
 10
0.7013672719273245
 20
2.629898559224911
 30
0.0
 10
0.7135783701997221
 20
2.631399860361348
 30
0.0
 10
0.7257854434225742
 20
2.632893380643054
 30
0.0
 10
0.7408174188005002
 20
2.618272217665385
 30
0.0
 10
0.7471370215995673
 20
2.598737086099719
 30
0.0
  0
HATCH
  5
124
330
BF
100
AcDbEntity
  8
E5
 62
   254
420
 13358815
100
AcDbHatch
 10
0.0
 20
0.0
 30
0.0
210
0.0
220
0.0
230
1.0
  2
SOLID
 70
     1
 71
     0
 91
        1
 92
        1
 93
        1
 72
     4
 94
        3
 73
     0
 74
     1
 95
       17
 96
       13
 40
0.0
 40
0.0
 40
0.0
 40
0.0
 40
1.0
 40
1.0
 40
1.0
 40
2.0
 40
2.0
 40
2.0
 40
3.0
 40
3.0
 40
3.0
 40
4.0
 40
4.0
 40
4.0
 40
4.0
 10
0.7471370215995673
 20
2.598737086099719
 10
0.7534585043720324
 20
2.57920760065786
 10
0.7486844223919762
 20
2.562154633233755
 10
0.73647765951014
 20
2.560658688501033
 10
0.7242625685192429
 20
2.559160264377927
 10
0.7092409572892266
 20
2.573783421625219
 10
0.7029191714583476
 20
2.593314861134331
 10
0.6965937680465811
 20
2.612849600804263
 10
0.7013672719273245
 20
2.629898559224911
 10
0.7135783701997221
 20
2.631399860361348
 10
0.7257854434225742
 20
2.632893380643054
 10
0.7408174188005002
 20
2.618272217665385
 10
0.7471370215995673
 20
2.598737086099719
 97
        0
 97
        0
 75
     2
 76
     1
 98
        0
  0
SPLINE
  5
125
330
BF
100
AcDbEntity
  8
E5
 62
   250
420
  2301728
370
    18
100
AcDbSpline
210
0.0
220
0.0
230
1.0
 70
    11
 71
     3
 72
    17
 73
    13
 74
     0
 42
0.0000000001
 43
0.0000000001
 12
1.0
 22
0.0
 32
0.0
 13
1.0
 23
0.0
 33
0.0
 40
0.0
 40
0.0
 40
0.0
 40
0.0
 40
1.0
 40
1.0
 40
1.0
 40
2.0
 40
2.0
 40
2.0
 40
3.0
 40
3.0
 40
3.0
 40
4.0
 40
4.0
 40
4.0
 40
4.0
 10
1.006388514721708
 20
2.42982139746146
 30
0.0
 10
1.012707963677953
 20
2.410292450545019
 30
0.0
 10
1.00793428846114
 20
2.393239375415836
 30
0.0
 10
0.99572711881606
 20
2.391743538388154
 30
0.0
 10
0.9835121262997669
 20
2.390247480323801
 30
0.0
 10
0.9684904186586385
 20
2.404868321091094
 30
0.0
 10
0.9621706733160332
 20
2.424399220759268
 30
0.0
 10
0.9558432273525012
 20
2.443934450691384
 30
0.0
 10
0.9606167290093531
 20
2.460983355677829
 30
0.0
 10
0.9728278629528909
 20
2.462484701392112
 30
0.0
 10
0.9850349027285195
 20
2.4639782305302
 30
0.0
 10
1.00006900612214
 20
2.449358792368432
 30
0.0
 10
1.006388514721708
 20
2.42982139746146
 30
0.0
  0
HATCH
  5
126
330
BF
100
AcDbEntity
  8
E5
 62
   254
420
 13358815
100
AcDbHatch
 10
0.0
 20
0.0
 30
0.0
210
0.0
220
0.0
230
1.0
  2
SOLID
 70
     1
 71
     0
 91
        1
 92
        1
 93
        1
 72
     4
 94
        3
 73
     0
 74
     1
 95
       17
 96
       13
 40
0.0
 40
0.0
 40
0.0
 40
0.0
 40
1.0
 40
1.0
 40
1.0
 40
2.0
 40
2.0
 40
2.0
 40
3.0
 40
3.0
 40
3.0
 40
4.0
 40
4.0
 40
4.0
 40
4.0
 10
1.006388514721708
 20
2.42982139746146
 10
1.012707963677953
 20
2.410292450545019
 10
1.00793428846114
 20
2.393239375415836
 10
0.99572711881606
 20
2.391743538388154
 10
0.9835121262997669
 20
2.390247480323801
 10
0.9684904186586385
 20
2.404868321091094
 10
0.9621706733160332
 20
2.424399220759268
 10
0.9558432273525012
 20
2.443934450691384
 10
0.9606167290093531
 20
2.460983355677829
 10
0.9728278629528909
 20
2.462484701392112
 10
0.9850349027285195
 20
2.4639782305302
 10
1.00006900612214
 20
2.449358792368432
 10
1.006388514721708
 20
2.42982139746146
 97
        0
 97
        0
 75
     2
 76
     1
 98
        0
  0
SPLINE
  5
127
330
BF
100
AcDbEntity
  8
E5
 62
   250
420
  2301728
370
    18
100
AcDbSpline
210
0.0
220
0.0
230
1.0
 70
    11
 71
     3
 72
    17
 73
    13
 74
     0
 42
0.0000000001
 43
0.0000000001
 12
1.0
 22
0.0
 32
0.0
 13
1.0
 23
0.0
 33
0.0
 40
0.0
 40
0.0
 40
0.0
 40
0.0
 40
1.0
 40
1.0
 40
1.0
 40
2.0
 40
2.0
 40
2.0
 40
3.0
 40
3.0
 40
3.0
 40
4.0
 40
4.0
 40
4.0
 40
4.0
 10
1.051322122467039
 20
2.175504492656475
 30
0.0
 10
1.057641397863323
 20
2.155971375597296
 30
0.0
 10
1.052867722646511
 20
2.138918300468124
 30
0.0
 10
1.040660456579253
 20
2.137420146694518
 30
0.0
 10
1.028445463810827
 20
2.135924082572703
 30
0.0
 10
1.013423850780568
 20
2.15054719656468
 30
0.0
 10
1.007104012214275
 20
2.170075822640885
 30
0.0
 10
1.000776565115669
 20
2.189611058997722
 30
0.0
 10
1.00555006677252
 20
2.206659963984167
 30
0.0
 10
1.01776120210329
 20
2.208161309331166
 30
0.0
 10
1.029968240491737
 20
2.209654838836539
 30
0.0
 10
1.04500244030751
 20
2.195037717420721
 30
0.0
 10
1.051322122467039
 20
2.175504492656475
 30
0.0
  0
HATCH
  5
128
330
BF
100
AcDbEntity
  8
E5
 62
   254
420
 13358815
100
AcDbHatch
 10
0.0
 20
0.0
 30
0.0
210
0.0
220
0.0
230
1.0
  2
SOLID
 70
     1
 71
     0
 91
        1
 92
        1
 93
        1
 72
     4
 94
        3
 73
     0
 74
     1
 95
       17
 96
       13
 40
0.0
 40
0.0
 40
0.0
 40
0.0
 40
1.0
 40
1.0
 40
1.0
 40
2.0
 40
2.0
 40
2.0
 40
3.0
 40
3.0
 40
3.0
 40
4.0
 40
4.0
 40
4.0
 40
4.0
 10
1.051322122467039
 20
2.175504492656475
 10
1.057641397863323
 20
2.155971375597296
 10
1.052867722646511
 20
2.138918300468124
 10
1.040660456579253
 20
2.137420146694518
 10
1.028445463810827
 20
2.135924082572703
 10
1.013423850780568
 20
2.15054719656468
 10
1.007104012214275
 20
2.170075822640885
 10
1.000776565115669
 20
2.189611058997722
 10
1.00555006677252
 20
2.206659963984167
 10
1.01776120210329
 20
2.208161309331166
 10
1.029968240491737
 20
2.209654838836539
 10
1.04500244030751
 20
2.195037717420721
 10
1.051322122467039
 20
2.175504492656475
 97
        0
 97
        0
 75
     2
 76
     1
 98
        0
  0
SPLINE
  5
129
330
BF
100
AcDbEntity
  8
E5
 62
   250
420
  2301728
370
    18
100
AcDbSpline
210
0.0
220
0.0
230
1.0
 70
    11
 71
     3
 72
    17
 73
    13
 74
     0
 42
0.0000000001
 43
0.0000000001
 12
1.0
 22
0.0
 32
0.0
 13
1.0
 23
0.0
 33
0.0
 40
0.0
 40
0.0
 40
0.0
 40
0.0
 40
1.0
 40
1.0
 40
1.0
 40
2.0
 40
2.0
 40
2.0
 40
3.0
 40
3.0
 40
3.0
 40
4.0
 40
4.0
 40
4.0
 40
4.0
 10
0.8216524791000034
 20
1.815613205830106
 30
0.0
 10
0.8038437709410952
 20
1.825086330065119
 30
0.0
 10
0.7937013896211561
 20
1.841779641773832
 30
0.0
 10
0.7989967796393228
 20
1.852880573896426
 30
0.0
 10
0.8042827333854473
 20
1.864001805915197
 30
0.0
 10
0.8230124175564697
 20
1.865323504286557
 30
0.0
 10
0.8408135511628718
 20
1.855866006438848
 30
0.0
 10
0.8586161564099939
 20
1.846394462620815
 30
0.0
 10
0.8687652387860427
 20
1.829704061122786
 30
0.0
 10
0.8634713233352234
 20
1.818589153348259
 30
0.0
 10
0.8581814544423625
 20
1.807482543211866
 30
0.0
 10
0.8394554522148433
 20
1.806150500805921
 30
0.0
 10
0.8216524791000034
 20
1.815613205830106
 30
0.0
  0
HATCH
  5
12A
330
BF
100
AcDbEntity
  8
E5
 62
   254
420
 13358815
100
AcDbHatch
 10
0.0
 20
0.0
 30
0.0
210
0.0
220
0.0
230
1.0
  2
SOLID
 70
     1
 71
     0
 91
        1
 92
        1
 93
        1
 72
     4
 94
        3
 73
     0
 74
     1
 95
       17
 96
       13
 40
0.0
 40
0.0
 40
0.0
 40
0.0
 40
1.0
 40
1.0
 40
1.0
 40
2.0
 40
2.0
 40
2.0
 40
3.0
 40
3.0
 40
3.0
 40
4.0
 40
4.0
 40
4.0
 40
4.0
 10
0.8216524791000034
 20
1.815613205830106
 10
0.8038437709410952
 20
1.825086330065119
 10
0.7937013896211561
 20
1.841779641773832
 10
0.7989967796393228
 20
1.852880573896426
 10
0.8042827333854473
 20
1.864001805915197
 10
0.8230124175564697
 20
1.865323504286557
 10
0.8408135511628718
 20
1.855866006438848
 10
0.8586161564099939
 20
1.846394462620815
 10
0.8687652387860427
 20
1.829704061122786
 10
0.8634713233352234
 20
1.818589153348259
 10
0.8581814544423625
 20
1.807482543211866
 10
0.8394554522148433
 20
1.806150500805921
 10
0.8216524791000034
 20
1.815613205830106
 97
        0
 97
        0
 75
     2
 76
     1
 98
        0
  0
SPLINE
  5
12B
330
BF
100
AcDbEntity
  8
E5
 62
   250
420
  2301728
370
    18
100
AcDbSpline
210
0.0
220
0.0
230
1.0
 70
    11
 71
     3
 72
    17
 73
    13
 74
     0
 42
0.0000000001
 43
0.0000000001
 12
1.0
 22
0.0
 32
0.0
 13
1.0
 23
0.0
 33
0.0
 40
0.0
 40
0.0
 40
0.0
 40
0.0
 40
1.0
 40
1.0
 40
1.0
 40
2.0
 40
2.0
 40
2.0
 40
3.0
 40
3.0
 40
3.0
 40
4.0
 40
4.0
 40
4.0
 40
4.0
 10
0.9429975435339327
 20
1.816274651262296
 30
0.0
 10
0.9251868015588545
 20
1.825748314022702
 30
0.0
 10
0.9150464540550854
 20
1.842441087205973
 30
0.0
 10
0.920339843156613
 20
1.85354254914268
 30
0.0
 10
0.9256257640032319
 20
1.864663789872743
 30
0.0
 10
0.9443554481742542
 20
1.865985488244127
 30
0.0
 10
0.9621586156309073
 20
1.856527452690393
 30
0.0
 10
0.9799612208439485
 20
1.847055908052981
 30
0.0
 10
0.9901103032199722
 20
1.830365506554964
 30
0.0
 10
0.984816387769178
 20
1.819250598780425
 30
0.0
 10
0.9795265188763171
 20
1.808143988643994
 30
0.0
 10
0.9607964490164578
 20
1.806813023288846
 30
0.0
 10
0.9429975435339327
 20
1.816274651262296
 30
0.0
  0
HATCH
  5
12C
330
BF
100
AcDbEntity
  8
E5
 62
   254
420
 13358815
100
AcDbHatch
 10
0.0
 20
0.0
 30
0.0
210
0.0
220
0.0
230
1.0
  2
SOLID
 70
     1
 71
     0
 91
        1
 92
        1
 93
        1
 72
     4
 94
        3
 73
     0
 74
     1
 95
       17
 96
       13
 40
0.0
 40
0.0
 40
0.0
 40
0.0
 40
1.0
 40
1.0
 40
1.0
 40
2.0
 40
2.0
 40
2.0
 40
3.0
 40
3.0
 40
3.0
 40
4.0
 40
4.0
 40
4.0
 40
4.0
 10
0.9429975435339327
 20
1.816274651262296
 10
0.9251868015588545
 20
1.825748314022702
 10
0.9150464540550854
 20
1.842441087205973
 10
0.920339843156613
 20
1.85354254914268
 10
0.9256257640032319
 20
1.864663789872743
 10
0.9443554481742542
 20
1.865985488244127
 10
0.9621586156309073
 20
1.856527452690393
 10
0.9799612208439485
 20
1.847055908052981
 10
0.9901103032199722
 20
1.830365506554964
 10
0.984816387769178
 20
1.819250598780425
 10
0.9795265188763171
 20
1.808143988643994
 10
0.9607964490164578
 20
1.806813023288846
 10
0.9429975435339327
 20
1.816274651262296
 97
        0
 97
        0
 75
     2
 76
     1
 98
        0
  0
SPLINE
  5
12D
330
BF
100
AcDbEntity
  8
E5
 62
   250
420
  2301728
370
    18
100
AcDbSpline
210
0.0
220
0.0
230
1.0
 70
    11
 71
     3
 72
    17
 73
    13
 74
     0
 42
0.0000000001
 43
0.0000000001
 12
1.0
 22
0.0
 32
0.0
 13
1.0
 23
0.0
 33
0.0
 40
0.0
 40
0.0
 40
0.0
 40
0.0
 40
1.0
 40
1.0
 40
1.0
 40
2.0
 40
2.0
 40
2.0
 40
3.0
 40
3.0
 40
3.0
 40
4.0
 40
4.0
 40
4.0
 40
4.0
 10
0.5707823366842477
 20
2.062395368597663
 30
0.0
 10
0.5529736285253143
 20
2.071868492832639
 30
0.0
 10
0.5428312472054257
 20
2.088561804541365
 30
0.0
 10
0.5481266372235924
 20
2.099662736663933
 30
0.0
 10
0.5534125909696918
 20
2.110783968682704
 30
0.0
 10
0.5721422751406887
 20
2.112105667054064
 30
0.0
 10
0.5899454427508443
 20
2.102647635187471
 30
0.0
 10
0.6077480478104083
 20
2.093176086862917
 30
0.0
 10
0.6178950963703124
 20
2.076486223890293
 30
0.0
 10
0.612602807972419
 20
2.065370885295478
 30
0.0
 10
0.6073133707120506
 20
2.054264160868974
 30
0.0
 10
0.5885853097990623
 20
2.052932663573428
 30
0.0
 10
0.5707823366842477
 20
2.062395368597663
 30
0.0
  0
HATCH
  5
12E
330
BF
100
AcDbEntity
  8
E5
 62
   254
420
 13358815
100
AcDbHatch
 10
0.0
 20
0.0
 30
0.0
210
0.0
220
0.0
230
1.0
  2
SOLID
 70
     1
 71
     0
 91
        1
 92
        1
 93
        1
 72
     4
 94
        3
 73
     0
 74
     1
 95
       17
 96
       13
 40
0.0
 40
0.0
 40
0.0
 40
0.0
 40
1.0
 40
1.0
 40
1.0
 40
2.0
 40
2.0
 40
2.0
 40
3.0
 40
3.0
 40
3.0
 40
4.0
 40
4.0
 40
4.0
 40
4.0
 10
0.5707823366842477
 20
2.062395368597663
 10
0.5529736285253143
 20
2.071868492832639
 10
0.5428312472054257
 20
2.088561804541365
 10
0.5481266372235924
 20
2.099662736663933
 10
0.5534125909696918
 20
2.110783968682704
 10
0.5721422751406887
 20
2.112105667054064
 10
0.5899454427508443
 20
2.102647635187471
 10
0.6077480478104083
 20
2.093176086862917
 10
0.6178950963703124
 20
2.076486223890293
 10
0.612602807972419
 20
2.065370885295478
 10
0.6073133707120506
 20
2.054264160868974
 10
0.5885853097990623
 20
2.052932663573428
 10
0.5707823366842477
 20
2.062395368597663
 97
        0
 97
        0
 75
     2
 76
     1
 98
        0
  0
SPLINE
  5
12F
330
BF
100
AcDbEntity
  8
E5
 62
   250
420
  2301728
370
    18
100
AcDbSpline
210
0.0
220
0.0
230
1.0
 70
    11
 71
     3
 72
    17
 73
    13
 74
     0
 42
0.0000000001
 43
0.0000000001
 12
1.0
 22
0.0
 32
0.0
 13
1.0
 23
0.0
 33
0.0
 40
0.0
 40
0.0
 40
0.0
 40
0.0
 40
1.0
 40
1.0
 40
1.0
 40
2.0
 40
2.0
 40
2.0
 40
3.0
 40
3.0
 40
3.0
 40
4.0
 40
4.0
 40
4.0
 40
4.0
 10
0.5596097724682573
 20
1.991571972610801
 30
0.0
 10
0.5418010643093238
 20
2.001045096845776
 30
0.0
 10
0.5316586829894352
 20
2.017738408554477
 30
0.0
 10
0.5369540730075768
 20
2.028839340677096
 30
0.0
 10
0.5422400267537013
 20
2.039960572695867
 30
0.0
 10
0.5609697109247236
 20
2.041282271067227
 30
0.0
 10
0.5787728784581279
 20
2.031824237357038
 30
0.0
 10
0.5965754835944178
 20
2.022352690876106
 30
0.0
 10
0.6067225321542966
 20
2.005662827903431
 30
0.0
 10
0.6014302437564285
 20
1.994547489308616
 30
0.0
 10
0.5961408062905144
 20
1.98344076493653
 30
0.0
 10
0.5774127455830719
 20
1.982109267586591
 30
0.0
 10
0.5596097724682573
 20
1.991571972610801
 30
0.0
  0
HATCH
  5
130
330
BF
100
AcDbEntity
  8
E5
 62
   254
420
 13358815
100
AcDbHatch
 10
0.0
 20
0.0
 30
0.0
210
0.0
220
0.0
230
1.0
  2
SOLID
 70
     1
 71
     0
 91
        1
 92
        1
 93
        1
 72
     4
 94
        3
 73
     0
 74
     1
 95
       17
 96
       13
 40
0.0
 40
0.0
 40
0.0
 40
0.0
 40
1.0
 40
1.0
 40
1.0
 40
2.0
 40
2.0
 40
2.0
 40
3.0
 40
3.0
 40
3.0
 40
4.0
 40
4.0
 40
4.0
 40
4.0
 10
0.5596097724682573
 20
1.991571972610801
 10
0.5418010643093238
 20
2.001045096845776
 10
0.5316586829894352
 20
2.017738408554477
 10
0.5369540730075768
 20
2.028839340677096
 10
0.5422400267537013
 20
2.039960572695867
 10
0.5609697109247236
 20
2.041282271067227
 10
0.5787728784581279
 20
2.031824237357038
 10
0.5965754835944178
 20
2.022352690876106
 10
0.6067225321542966
 20
2.005662827903431
 10
0.6014302437564285
 20
1.994547489308616
 10
0.5961408062905144
 20
1.98344076493653
 10
0.5774127455830719
 20
1.982109267586591
 10
0.5596097724682573
 20
1.991571972610801
 97
        0
 97
        0
 75
     2
 76
     1
 98
        0
  0
SPLINE
  5
131
330
BF
100
AcDbEntity
  8
E5
 62
   250
420
  2301728
370
    18
100
AcDbSpline
210
0.0
220
0.0
230
1.0
 70
    11
 71
     3
 72
    17
 73
    13
 74
     0
 42
0.0000000001
 43
0.0000000001
 12
1.0
 22
0.0
 32
0.0
 13
1.0
 23
0.0
 33
0.0
 40
0.0
 40
0.0
 40
0.0
 40
0.0
 40
1.0
 40
1.0
 40
1.0
 40
2.0
 40
2.0
 40
2.0
 40
3.0
 40
3.0
 40
3.0
 40
4.0
 40
4.0
 40
4.0
 40
4.0
 10
0.4183649212508271
 20
1.982126042646971
 30
0.0
 10
0.4005562130918937
 20
1.991599166881972
 30
0.0
 10
0.3904138317720304
 20
2.008292478590672
 30
0.0
 10
0.3957092217901466
 20
2.019393410713267
 30
0.0
 10
0.4009951755362964
 20
2.030514642732038
 30
0.0
 10
0.4197248597072934
 20
2.031836341103397
 30
0.0
 10
0.4375280271920145
 20
2.022378306222714
 30
0.0
 10
0.455330632377013
 20
2.012906760912251
 30
0.0
 10
0.4654776809368917
 20
1.996216897939626
 30
0.0
 10
0.4601853925390236
 20
1.985101559344811
 30
0.0
 10
0.4548959515537186
 20
1.973994835904591
 30
0.0
 10
0.4361678943656923
 20
1.972663337622761
 30
0.0
 10
0.4183649212508271
 20
1.982126042646971
 30
0.0
  0
HATCH
  5
132
330
BF
100
AcDbEntity
  8
E5
 62
   254
420
 13358815
100
AcDbHatch
 10
0.0
 20
0.0
 30
0.0
210
0.0
220
0.0
230
1.0
  2
SOLID
 70
     1
 71
     0
 91
        1
 92
        1
 93
        1
 72
     4
 94
        3
 73
     0
 74
     1
 95
       17
 96
       13
 40
0.0
 40
0.0
 40
0.0
 40
0.0
 40
1.0
 40
1.0
 40
1.0
 40
2.0
 40
2.0
 40
2.0
 40
3.0
 40
3.0
 40
3.0
 40
4.0
 40
4.0
 40
4.0
 40
4.0
 10
0.4183649212508271
 20
1.982126042646971
 10
0.4005562130918937
 20
1.991599166881972
 10
0.3904138317720304
 20
2.008292478590672
 10
0.3957092217901466
 20
2.019393410713267
 10
0.4009951755362964
 20
2.030514642732038
 10
0.4197248597072934
 20
2.031836341103397
 10
0.4375280271920145
 20
2.022378306222714
 10
0.455330632377013
 20
2.012906760912251
 10
0.4654776809368917
 20
1.996216897939626
 10
0.4601853925390236
 20
1.985101559344811
 10
0.4548959515537186
 20
1.973994835904591
 10
0.4361678943656923
 20
1.972663337622761
 10
0.4183649212508271
 20
1.982126042646971
 97
        0
 97
        0
 75
     2
 76
     1
 98
        0
  0
SPLINE
  5
133
330
BF
100
AcDbEntity
  8
E5
 62
   250
420
  2301728
370
    18
100
AcDbSpline
210
0.0
220
0.0
230
1.0
 70
    11
 71
     3
 72
    17
 73
    13
 74
     0
 42
0.0000000001
 43
0.0000000001
 12
1.0
 22
0.0
 32
0.0
 13
1.0
 23
0.0
 33
0.0
 40
0.0
 40
0.0
 40
0.0
 40
0.0
 40
1.0
 40
1.0
 40
1.0
 40
2.0
 40
2.0
 40
2.0
 40
3.0
 40
3.0
 40
3.0
 40
4.0
 40
4.0
 40
4.0
 40
4.0
 10
0.7875294038586591
 20
1.736813113394293
 30
0.0
 10
0.7697206956997762
 20
1.746286237629293
 30
0.0
 10
0.7595783143798371
 20
1.762979549338019
 30
0.0
 10
0.7648737043980038
 20
1.774080481460613
 30
0.0
 10
0.7701596581441031
 20
1.785201713479397
 30
0.0
 10
0.7888893423151506
 20
1.786523411850744
 30
0.0
 10
0.8066925096463693
 20
1.777065373282918
 30
0.0
 10
0.8244951149848703
 20
1.767593831659598
 30
0.0
 10
0.8346421635447238
 20
1.750903968686948
 30
0.0
 10
0.8293482480939297
 20
1.739789060912446
 30
0.0
 10
0.8240583792010435
 20
1.728682450776053
 30
0.0
 10
0.805332376973499
 20
1.727350408370108
 30
0.0
 10
0.7875294038586591
 20
1.736813113394293
 30
0.0
  0
HATCH
  5
134
330
BF
100
AcDbEntity
  8
E5
 62
   254
420
 13358815
100
AcDbHatch
 10
0.0
 20
0.0
 30
0.0
210
0.0
220
0.0
230
1.0
  2
SOLID
 70
     1
 71
     0
 91
        1
 92
        1
 93
        1
 72
     4
 94
        3
 73
     0
 74
     1
 95
       17
 96
       13
 40
0.0
 40
0.0
 40
0.0
 40
0.0
 40
1.0
 40
1.0
 40
1.0
 40
2.0
 40
2.0
 40
2.0
 40
3.0
 40
3.0
 40
3.0
 40
4.0
 40
4.0
 40
4.0
 40
4.0
 10
0.7875294038586591
 20
1.736813113394293
 10
0.7697206956997762
 20
1.746286237629293
 10
0.7595783143798371
 20
1.762979549338019
 10
0.7648737043980038
 20
1.774080481460613
 10
0.7701596581441031
 20
1.785201713479397
 10
0.7888893423151506
 20
1.786523411850744
 10
0.8066925096463693
 20
1.777065373282918
 10
0.8244951149848703
 20
1.767593831659598
 10
0.8346421635447238
 20
1.750903968686948
 10
0.8293482480939297
 20
1.739789060912446
 10
0.8240583792010435
 20
1.728682450776053
 10
0.805332376973499
 20
1.727350408370108
 10
0.7875294038586591
 20
1.736813113394293
 97
        0
 97
        0
 75
     2
 76
     1
 98
        0
  0
SPLINE
  5
135
330
BF
100
AcDbEntity
  8
E5
 62
   250
420
  2301728
370
    13
100
AcDbSpline
210
0.0
220
0.0
230
1.0
 70
    11
 71
     3
 72
    44
 73
    40
 74
     0
 42
0.0000000001
 43
0.0000000001
 12
1.0
 22
0.0
 32
0.0
 13
1.0
 23
0.0
 33
0.0
 40
0.0
 40
0.0
 40
0.0
 40
0.0
 40
1.0
 40
1.0
 40
1.0
 40
2.0
 40
2.0
 40
2.0
 40
3.0
 40
3.0
 40
3.0
 40
4.0
 40
4.0
 40
4.0
 40
5.0
 40
5.0
 40
5.0
 40
6.0
 40
6.0
 40
6.0
 40
7.0
 40
7.0
 40
7.0
 40
8.0
 40
8.0
 40
8.0
 40
9.0
 40
9.0
 40
9.0
 40
10.0
 40
10.0
 40
10.0
 40
11.0
 40
11.0
 40
11.0
 40
12.0
 40
12.0
 40
12.0
 40
13.0
 40
13.0
 40
13.0
 40
13.0
 10
0.9323788808168526
 20
2.284202036161004
 30
0.0
 10
0.9284158052333851
 20
2.276802963374949
 30
0.0
 10
0.9228004912066328
 20
2.275100066535818
 30
0.0
 10
0.9228004912066328
 20
2.275100066535818
 30
0.0
 10
0.9228004912066328
 20
2.275100066535818
 30
0.0
 10
0.9104529606143311
 20
2.274856099929947
 30
0.0
 10
0.8964573026535542
 20
2.284417642774909
 30
0.0
 10
0.8824616446927772
 20
2.29397918561987
 30
0.0
 10
0.8192619994772611
 20
2.331794041536416
 30
0.0
 10
0.8123869326778959
 20
2.339470153832483
 30
0.0
 10
0.8093632033255113
 20
2.342844382601343
 30
0.0
 10
0.8023813761318226
 20
2.351290446521261
 30
0.0
 10
0.7958781875148335
 20
2.362401521225997
 30
0.0
 10
0.7934274562966771
 20
2.366305381646397
 30
0.0
 10
0.7910039442954636
 20
2.370893395446223
 30
0.0
 10
0.7889054128994277
 20
2.376191367314883
 30
0.0
 10
0.7840039647756055
 20
2.38762400999518
 30
0.0
 10
0.7808129198356634
 20
2.400433094653989
 30
0.0
 10
0.7825456951850229
 20
2.412955448607136
 30
0.0
 10
0.7839424280188041
 20
2.423060670972139
 30
0.0
 10
0.7874255840652419
 20
2.428662561060087
 30
0.0
 10
0.7915280767131333
 20
2.43162551440797
 30
0.0
 10
0.7915354755043987
 20
2.431634420369543
 30
0.0
 10
0.791541361143585
 20
2.431643155147059
 30
0.0
 10
0.7915487599348504
 20
2.431652061108631
 30
0.0
 10
0.7915487599348504
 20
2.431652061108631
 30
0.0
 10
0.7740664915568105
 20
2.431596560905518
 30
0.0
 10
0.7730058472353928
 20
2.406112354771292
 30
0.0
 10
0.7702006533344526
 20
2.388116912075778
 30
0.0
 10
0.7790439289957728
 20
2.353569027397725
 30
0.0
 10
0.8089964962030964
 20
2.332169922534553
 30
0.0
 10
0.8370444977518647
 20
2.312135174299354
 30
0.0
 10
0.8879363489588866
 20
2.277304760334371
 30
0.0
 10
0.8969878791387929
 20
2.272565767558288
 30
0.0
 10
0.9060478504504392
 20
2.26782453969137
 30
0.0
 10
0.9281765358165077
 20
2.268406443152697
 30
0.0
 10
0.932967334824563
 20
2.28470498744006
 30
0.0
 10
0.932967334824563
 20
2.28470498744006
 30
0.0
 10
0.9327687658451521
 20
2.28450538200453
 30
0.0
 10
0.9323788808168526
 20
2.284202036161004
 30
0.0
  0
ENDBLK
  5
C2
330
BF
100
AcDbEntity
  8
0
100
AcDbBlockEnd
  0
BLOCK
  5
D0
330
CE
100
AcDbEntity
  8
0
100
AcDbBlockBegin
  2
block 3
 70
     0
 10
0.0
 20
0.0
 30
0.0
  3
block 3
  1

  0
SPLINE
  5
D2
330
CE
100
AcDbEntity
  8
E5
 62
   250
420
  2301728
370
    13
100
AcDbSpline
210
0.0
220
0.0
230
1.0
 70
    11
 71
     3
 72
    17
 73
    13
 74
     0
 42
0.0000000001
 43
0.0000000001
 12
1.0
 22
0.0
 32
0.0
 13
1.0
 23
0.0
 33
0.0
 40
0.0
 40
0.0
 40
0.0
 40
0.0
 40
1.0
 40
1.0
 40
1.0
 40
2.0
 40
2.0
 40
2.0
 40
3.0
 40
3.0
 40
3.0
 40
4.0
 40
4.0
 40
4.0
 40
4.0
 10
0.6856912638770735
 20
2.421280893491156
 30
0.0
 10
0.6920125730895279
 20
2.401747237906597
 30
0.0
 10
0.6872384911095221
 20
2.384694270482517
 30
0.0
 10
0.6750316318054577
 20
2.383196009003818
 30
0.0
 10
0.6628166372367887
 20
2.381699901626638
 30
0.0
 10
0.6477950279741106
 20
2.396323106143377
 30
0.0
 10
0.6414731424820906
 20
2.415852181973858
 30
0.0
 10
0.6351477423463494
 20
2.435386969468835
 30
0.0
 10
0.6399212419987255
 20
2.452435826293494
 30
0.0
 10
0.6521325353394963
 20
2.45394181435606
 30
0.0
 10
0.6643394157179424
 20
2.455430701145853
 30
0.0
 10
0.6793715817175704
 20
2.440814118255402
 30
0.0
 10
0.6856912638770735
 20
2.421280893491156
 30
0.0
  0
ENDBLK
  5
D1
330
CE
100
AcDbEntity
  8
0
100
AcDbBlockEnd
  0
BLOCK
  5
D5
330
D3
100
AcDbEntity
  8
0
100
AcDbBlockBegin
  2
block 4
 70
     0
 10
0.0
 20
0.0
 30
0.0
  3
block 4
  1

  0
SPLINE
  5
D7
330
D3
100
AcDbEntity
  8
E5
 62
   250
420
  2301728
370
    13
100
AcDbSpline
210
0.0
220
0.0
230
1.0
 70
    11
 71
     3
 72
    17
 73
    13
 74
     0
 42
0.0000000001
 43
0.0000000001
 12
1.0
 22
0.0
 32
0.0
 13
1.0
 23
0.0
 33
0.0
 40
0.0
 40
0.0
 40
0.0
 40
0.0
 40
1.0
 40
1.0
 40
1.0
 40
2.0
 40
2.0
 40
2.0
 40
3.0
 40
3.0
 40
3.0
 40
4.0
 40
4.0
 40
4.0
 40
4.0
 10
0.7538620498616461
 20
2.601772901945436
 30
0.0
 10
0.7601835326340859
 20
2.582243416503603
 30
0.0
 10
0.7554094506540548
 20
2.56519044907951
 30
0.0
 10
0.7432026877722188
 20
2.563694504346762
 30
0.0
 10
0.7309875967813215
 20
2.562196080223683
 30
0.0
 10
0.7159659855513306
 20
2.576819237470974
 30
0.0
 10
0.7096441999644992
 20
2.596350676915462
 30
0.0
 10
0.7033187963086346
 20
2.615885416650018
 30
0.0
 10
0.7080923001954917
 20
2.632934375216918
 30
0.0
 10
0.7203033984618261
 20
2.634435676207077
 30
0.0
 10
0.7325104716846782
 20
2.635929196488784
 30
0.0
 10
0.7475424470686676
 20
2.621308033657467
 30
0.0
 10
0.7538620498616461
 20
2.601772901945436
 30
0.0
  0
ENDBLK
  5
D6
330
D3
100
AcDbEntity
  8
0
100
AcDbBlockEnd
  0
BLOCK
  5
DA
330
D8
100
AcDbEntity
  8
0
100
AcDbBlockBegin
  2
block 5
 70
     0
 10
0.0
 20
0.0
 30
0.0
  3
block 5
  1

  0
SPLINE
  5
DC
330
D8
100
AcDbEntity
  8
E5
 62
   250
420
  2301728
370
    13
100
AcDbSpline
210
0.0
220
0.0
230
1.0
 70
    11
 71
     3
 72
    17
 73
    13
 74
     0
 42
0.0000000001
 43
0.0000000001
 12
1.0
 22
0.0
 32
0.0
 13
1.0
 23
0.0
 33
0.0
 40
0.0
 40
0.0
 40
0.0
 40
0.0
 40
1.0
 40
1.0
 40
1.0
 40
2.0
 40
2.0
 40
2.0
 40
3.0
 40
3.0
 40
3.0
 40
4.0
 40
4.0
 40
4.0
 40
4.0
 10
1.013113542983787
 20
2.432857213307216
 30
0.0
 10
1.019432991940031
 20
2.413328266390762
 30
0.0
 10
1.014659316723244
 20
2.396275191261566
 30
0.0
 10
1.002452147078164
 20
2.394779354233909
 30
0.0
 10
0.9902371545679595
 20
2.393283296315833
 30
0.0
 10
0.9752154469267805
 20
2.407904137083126
 30
0.0
 10
0.9688957018281977
 20
2.427435036686688
 30
0.0
 10
0.9625682556145799
 20
2.446970266537114
 30
0.0
 10
0.9673417572714318
 20
2.464019171523584
 30
0.0
 10
0.9795528914590174
 20
2.465520517173255
 30
0.0
 10
0.9917599309906234
 20
2.467014046375955
 30
0.0
 10
1.006794034384219
 20
2.452394608214175
 30
0.0
 10
1.013113542983787
 20
2.432857213307216
 30
0.0
  0
ENDBLK
  5
DB
330
D8
100
AcDbEntity
  8
0
100
AcDbBlockEnd
  0
BLOCK
  5
DF
330
DD
100
AcDbEntity
  8
0
100
AcDbBlockBegin
  2
block 6
 70
     0
 10
0.0
 20
0.0
 30
0.0
  3
block 6
  1

  0
SPLINE
  5
E1
330
DD
100
AcDbEntity
  8
E5
 62
   250
420
  2301728
370
    13
100
AcDbSpline
210
0.0
220
0.0
230
1.0
 70
    11
 71
     3
 72
    17
 73
    13
 74
     0
 42
0.0000000001
 43
0.0000000001
 12
1.0
 22
0.0
 32
0.0
 13
1.0
 23
0.0
 33
0.0
 40
0.0
 40
0.0
 40
0.0
 40
0.0
 40
1.0
 40
1.0
 40
1.0
 40
2.0
 40
2.0
 40
2.0
 40
3.0
 40
3.0
 40
3.0
 40
4.0
 40
4.0
 40
4.0
 40
4.0
 10
1.058047150729142
 20
2.17854030850223
 30
0.0
 10
1.064366426125427
 20
2.159007191443025
 30
0.0
 10
1.05959275090864
 20
2.14195411631388
 30
0.0
 10
1.047385484841357
 20
2.140455962540247
 30
0.0
 10
1.03517049207902
 20
2.138959898564761
 30
0.0
 10
1.020148879042671
 20
2.153583012410422
 30
0.0
 10
1.013829040726515
 20
2.173111638568268
 30
0.0
 10
1.007501593377772
 20
2.192646874843452
 30
0.0
 10
1.012275095034599
 20
2.209695779829922
 30
0.0
 10
1.024486230609442
 20
2.211197125112297
 30
0.0
 10
1.036693268753841
 20
2.212690654682294
 30
0.0
 10
1.051727468569589
 20
2.19807353326645
 30
0.0
 10
1.058047150729142
 20
2.17854030850223
 30
0.0
  0
ENDBLK
  5
E0
330
DD
100
AcDbEntity
  8
0
100
AcDbBlockEnd
  0
BLOCK
  5
E4
330
E2
100
AcDbEntity
  8
0
100
AcDbBlockBegin
  2
block 7
 70
     0
 10
0.0
 20
0.0
 30
0.0
  3
block 7
  1

  0
SPLINE
  5
E6
330
E2
100
AcDbEntity
  8
E5
 62
   250
420
  2301728
370
    13
100
AcDbSpline
210
0.0
220
0.0
230
1.0
 70
    11
 71
     3
 72
    17
 73
    13
 74
     0
 42
0.0000000001
 43
0.0000000001
 12
1.0
 22
0.0
 32
0.0
 13
1.0
 23
0.0
 33
0.0
 40
0.0
 40
0.0
 40
0.0
 40
0.0
 40
1.0
 40
1.0
 40
1.0
 40
2.0
 40
2.0
 40
2.0
 40
3.0
 40
3.0
 40
3.0
 40
4.0
 40
4.0
 40
4.0
 40
4.0
 10
0.8210822800574912
 20
1.809194567471751
 30
0.0
 10
0.8032772427123973
 20
1.818657819074575
 30
0.0
 10
0.7931344546292646
 20
1.835351238488367
 30
0.0
 10
0.7984241096033126
 20
1.846462589821714
 30
0.0
 10
0.8037219297720715
 20
1.857571779128496
 30
0.0
 10
0.8224460821722029
 20
1.858899626787888
 30
0.0
 10
0.8402527565149663
 20
1.849427041078292
 30
0.0
 10
0.8580435267328362
 20
1.839967567206435
 30
0.0
 10
0.8681962699779558
 20
1.823276196362675
 30
0.0
 10
0.8629102983664754
 20
1.812154535090864
 30
0.0
 10
0.857612892397545
 20
1.801054570746702
 30
0.0
 10
0.8388865044811634
 20
1.799713261356929
 30
0.0
 10
0.8210822800574912
 20
1.809194567471751
 30
0.0
  0
ENDBLK
  5
E5
330
E2
100
AcDbEntity
  8
0
100
AcDbBlockEnd
  0
BLOCK
  5
E9
330
E7
100
AcDbEntity
  8
0
100
AcDbBlockBegin
  2
block 8
 70
     0
 10
0.0
 20
0.0
 30
0.0
  3
block 8
  1

  0
SPLINE
  5
EB
330
E7
100
AcDbEntity
  8
E5
 62
   250
420
  2301728
370
    13
100
AcDbSpline
210
0.0
220
0.0
230
1.0
 70
    11
 71
     3
 72
    17
 73
    13
 74
     0
 42
0.0000000001
 43
0.0000000001
 12
1.0
 22
0.0
 32
0.0
 13
1.0
 23
0.0
 33
0.0
 40
0.0
 40
0.0
 40
0.0
 40
0.0
 40
1.0
 40
1.0
 40
1.0
 40
2.0
 40
2.0
 40
2.0
 40
3.0
 40
3.0
 40
3.0
 40
4.0
 40
4.0
 40
4.0
 40
4.0
 10
0.9424252802611414
 20
1.809856559482543
 30
0.0
 10
0.9246223071463266
 20
1.819319264506753
 30
0.0
 10
0.9144774852470239
 20
1.836013222445899
 30
0.0
 10
0.919767546984316
 20
1.847124466074218
 30
0.0
 10
0.9250649304598002
 20
1.858233771011126
 30
0.0
 10
0.9437911466061576
 20
1.859561072220054
 30
0.0
 10
0.961597820948921
 20
1.850088486510458
 30
0.0
 10
0.9793885911667909
 20
1.840629012638576
 30
0.0
 10
0.9895413344119106
 20
1.823937641794853
 30
0.0
 10
0.9842553628345109
 20
1.812815981342384
 30
0.0
 10
0.9789579568314745
 20
1.801716016178867
 30
0.0
 10
0.9602315689151181
 20
1.80037470678912
 30
0.0
 10
0.9424252802611414
 20
1.809856559482543
 30
0.0
  0
ENDBLK
  5
EA
330
E7
100
AcDbEntity
  8
0
100
AcDbBlockEnd
  0
BLOCK
  5
EE
330
EC
100
AcDbEntity
  8
0
100
AcDbBlockBegin
  2
block 9
 70
     0
 10
0.0
 20
0.0
 30
0.0
  3
block 9
  1

  0
SPLINE
  5
F0
330
EC
100
AcDbEntity
  8
E5
 62
   250
420
  2301728
370
    13
100
AcDbSpline
210
0.0
220
0.0
230
1.0
 70
    11
 71
     3
 72
    17
 73
    13
 74
     0
 42
0.0000000001
 43
0.0000000001
 12
1.0
 22
0.0
 32
0.0
 13
1.0
 23
0.0
 33
0.0
 40
0.0
 40
0.0
 40
0.0
 40
0.0
 40
1.0
 40
1.0
 40
1.0
 40
2.0
 40
2.0
 40
2.0
 40
3.0
 40
3.0
 40
3.0
 40
4.0
 40
4.0
 40
4.0
 40
4.0
 10
0.5702121311166921
 20
2.055976731966994
 30
0.0
 10
0.5524071002966416
 20
2.065439981842094
 30
0.0
 10
0.5422643122134837
 20
2.082133401255886
 30
0.0
 10
0.5475539671875822
 20
2.093244752589246
 30
0.0
 10
0.5528517808312724
 20
2.104353943623765
 30
0.0
 10
0.5715759397564473
 20
2.10568178955542
 30
0.0
 10
0.5893826140992612
 20
2.096209203845799
 30
0.0
 10
0.6071754181332254
 20
2.086749191448537
 30
0.0
 10
0.6173281613783956
 20
2.070057820604815
 30
0.0
 10
0.6120401561382778
 20
2.058936702364892
 30
0.0
 10
0.6067427499817641
 20
2.047836733514234
 30
0.0
 10
0.5880179891183338
 20
2.046494993304148
 30
0.0
 10
0.5702121311166921
 20
2.055976731966994
 30
0.0
  0
ENDBLK
  5
EF
330
EC
100
AcDbEntity
  8
0
100
AcDbBlockEnd
  0
BLOCK
  5
F3
330
F1
100
AcDbEntity
  8
0
100
AcDbBlockBegin
  2
block 10
 70
     0
 10
0.0
 20
0.0
 30
0.0
  3
block 10
  1

  0
SPLINE
  5
F5
330
F1
100
AcDbEntity
  8
E5
 62
   250
420
  2301728
370
    13
100
AcDbSpline
210
0.0
220
0.0
230
1.0
 70
    11
 71
     3
 72
    17
 73
    13
 74
     0
 42
0.0000000001
 43
0.0000000001
 12
1.0
 22
0.0
 32
0.0
 13
1.0
 23
0.0
 33
0.0
 40
0.0
 40
0.0
 40
0.0
 40
0.0
 40
1.0
 40
1.0
 40
1.0
 40
2.0
 40
2.0
 40
2.0
 40
3.0
 40
3.0
 40
3.0
 40
4.0
 40
4.0
 40
4.0
 40
4.0
 10
0.5590395666951811
 20
1.985153336034563
 30
0.0
 10
0.5412345360806512
 20
1.994616585855232
 30
0.0
 10
0.5310917479974933
 20
2.011310005268999
 30
0.0
 10
0.5363814029715918
 20
2.022421356602409
 30
0.0
 10
0.5416792164097362
 20
2.033530547691321
 30
0.0
 10
0.5604033755404821
 20
2.034858393568558
 30
0.0
 10
0.5782100498832202
 20
2.025385807858925
 30
0.0
 10
0.5960028539172602
 20
2.015925795461701
 30
0.0
 10
0.6061555971623799
 20
1.999234424617953
 30
0.0
 10
0.6008675918455613
 20
1.988113304534459
 30
0.0
 10
0.5955701857657989
 20
1.977013337527372
 30
0.0
 10
0.5768454249023686
 20
1.975671597317286
 30
0.0
 10
0.5590395666951811
 20
1.985153336034563
 30
0.0
  0
ENDBLK
  5
F4
330
F1
100
AcDbEntity
  8
0
100
AcDbBlockEnd
  0
BLOCK
  5
F8
330
F6
100
AcDbEntity
  8
0
100
AcDbBlockBegin
  2
block 11
 70
     0
 10
0.0
 20
0.0
 30
0.0
  3
block 11
  1

  0
SPLINE
  5
FA
330
F6
100
AcDbEntity
  8
E5
 62
   250
420
  2301728
370
    13
100
AcDbSpline
210
0.0
220
0.0
230
1.0
 70
    11
 71
     3
 72
    17
 73
    13
 74
     0
 42
0.0000000001
 43
0.0000000001
 12
1.0
 22
0.0
 32
0.0
 13
1.0
 23
0.0
 33
0.0
 40
0.0
 40
0.0
 40
0.0
 40
0.0
 40
1.0
 40
1.0
 40
1.0
 40
2.0
 40
2.0
 40
2.0
 40
3.0
 40
3.0
 40
3.0
 40
4.0
 40
4.0
 40
4.0
 40
4.0
 10
0.4177947119583602
 20
1.975707407002675
 30
0.0
 10
0.3999896848632463
 20
1.985170655891428
 30
0.0
 10
0.3898468967801136
 20
2.001864075305219
 30
0.0
 10
0.3951365517541616
 20
2.012975426638617
 30
0.0
 10
0.4004343616729152
 20
2.024084618659395
 30
0.0
 10
0.4191585243230773
 20
2.025412463604753
 30
0.0
 10
0.4369651986658406
 20
2.015939877895133
 30
0.0
 10
0.4547580026998806
 20
2.00647986549787
 30
0.0
 10
0.4649107459450003
 20
1.98978849465416
 30
0.0
 10
0.459622740579448
 20
1.978667373400135
 30
0.0
 10
0.4543253345483941
 20
1.967567407563542
 30
0.0
 10
0.4356005736849132
 20
1.966225667353506
 30
0.0
 10
0.4177947119583602
 20
1.975707407002675
 30
0.0
  0
ENDBLK
  5
F9
330
F6
100
AcDbEntity
  8
0
100
AcDbBlockEnd
  0
BLOCK
  5
FD
330
FB
100
AcDbEntity
  8
0
100
AcDbBlockBegin
  2
block 12
 70
     0
 10
0.0
 20
0.0
 30
0.0
  3
block 12
  1

  0
SPLINE
  5
FF
330
FB
100
AcDbEntity
  8
E5
 62
   250
420
  2301728
370
    13
100
AcDbSpline
210
0.0
220
0.0
230
1.0
 70
    11
 71
     3
 72
    17
 73
    13
 74
     0
 42
0.0000000001
 43
0.0000000001
 12
1.0
 22
0.0
 32
0.0
 13
1.0
 23
0.0
 33
0.0
 40
0.0
 40
0.0
 40
0.0
 40
0.0
 40
1.0
 40
1.0
 40
1.0
 40
2.0
 40
2.0
 40
2.0
 40
3.0
 40
3.0
 40
3.0
 40
4.0
 40
4.0
 40
4.0
 40
4.0
 10
0.786959204045527
 20
1.730394475240006
 30
0.0
 10
0.769154167471053
 20
1.739857726638775
 30
0.0
 10
0.7590113793879204
 20
1.756551146052541
 30
0.0
 10
0.7643010343619683
 20
1.767662497385926
 30
0.0
 10
0.7695988537600821
 20
1.778771686896764
 30
0.0
 10
0.7883230069309093
 20
1.7800995343521
 30
0.0
 10
0.8061296812736474
 20
1.770626948642492
 30
0.0
 10
0.8239224853076873
 20
1.761166936245192
 30
0.0
 10
0.8340731947366622
 20
1.744476103926849
 30
0.0
 10
0.8287872230338027
 20
1.733354440460289
 30
0.0
 10
0.8234898171562008
 20
1.722254478310889
 30
0.0
 10
0.8047650562927704
 20
1.720912738100828
 30
0.0
 10
0.786959204045527
 20
1.730394475240006
 30
0.0
  0
ENDBLK
  5
FE
330
FB
100
AcDbEntity
  8
0
100
AcDbBlockEnd
  0
BLOCK
  5
104
330
102
100
AcDbEntity
  8
0
100
AcDbBlockBegin
  2
block 13
 70
     0
 10
0.0
 20
0.0
 30
0.0
  3
block 13
  1

  0
SPLINE
  5
106
330
102
100
AcDbEntity
  8
E5
 62
   250
420
  2301728
370
    13
100
AcDbSpline
210
0.0
220
0.0
230
1.0
 70
     8
 71
     3
 72
    14
 73
    10
 74
     0
 42
0.0000000001
 43
0.0000000001
 12
1.0
 22
0.0
 32
0.0
 13
1.0
 23
0.0
 33
0.0
 40
0.0
 40
0.0
 40
0.0
 40
0.0
 40
1.0
 40
1.0
 40
1.0
 40
2.0
 40
2.0
 40
2.0
 40
3.0
 40
3.0
 40
3.0
 40
3.0
 10
0.9679751052837496
 20
2.067779248322267
 30
0.0
 10
0.9662592844393632
 20
2.02655305099678
 30
0.0
 10
0.9623271377511299
 20
1.93207497316444
 30
0.0
 10
0.9621002633036444
 20
1.926623838350047
 30
0.0
 10
0.9618430088445898
 20
1.920442759989505
 30
0.0
 10
0.9559026639600461
 20
1.909526656025163
 30
0.0
 10
0.9480970846869164
 20
1.903001988725615
 30
0.0
 10
0.9430114282330351
 20
1.898759638311528
 30
0.0
 10
0.9314994432130813
 20
1.893571457468776
 30
0.0
 10
0.9221416712162332
 20
1.889257615358525
 30
0.0
  0
SPLINE
  5
107
330
102
100
AcDbEntity
  8
E5
 62
   250
420
  2301728
370
    13
100
AcDbSpline
210
0.0
220
0.0
230
1.0
 70
     8
 71
     3
 72
    29
 73
    25
 74
     0
 42
0.0000000001
 43
0.0000000001
 12
1.0
 22
0.0
 32
0.0
 13
1.0
 23
0.0
 33
0.0
 40
0.0
 40
0.0
 40
0.0
 40
0.0
 40
1.0
 40
1.0
 40
1.0
 40
2.0
 40
2.0
 40
2.0
 40
3.0
 40
3.0
 40
3.0
 40
4.0
 40
4.0
 40
4.0
 40
5.0
 40
5.0
 40
5.0
 40
6.0
 40
6.0
 40
6.0
 40
7.0
 40
7.0
 40
7.0
 40
8.0
 40
8.0
 40
8.0
 40
8.0
 10
0.9102671091346286
 20
1.883351540972297
 30
0.0
 10
0.903225236634714
 20
1.878971616845067
 30
0.0
 10
0.8722385953111345
 20
1.880067119529106
 30
0.0
 10
0.8510935945464426
 20
1.894335285607793
 30
0.0
 10
0.8377571574812287
 20
1.903333458181275
 30
0.0
 10
0.8339464509179808
 20
1.918784960113397
 30
0.0
 10
0.8406907857673028
 20
1.924414806565058
 30
0.0
 10
0.8406907857673028
 20
1.924414806565058
 30
0.0
 10
0.8421457972083443
 20
1.926371817608671
 30
0.0
 10
0.8421457972083443
 20
1.926371817608671
 30
0.0
 10
0.8421457972083443
 20
1.926371817608671
 30
0.0
 10
0.8766155723364666
 20
1.947694318900706
 30
0.0
 10
0.8843006596449134
 20
1.951126292918414
 30
0.0
 10
0.8919776116885537
 20
1.954560421037728
 30
0.0
 10
0.8961736784989145
 20
1.956569275921816
 30
0.0
 10
0.8961091898010459
 20
1.971422335596546
 30
0.0
 10
0.896044701103152
 20
1.986275395271301
 30
0.0
 10
0.8998284225713556
 20
2.126592474573436
 30
0.0
 10
0.8995949663606476
 20
2.137583356001414
 30
0.0
 10
0.8993696454147715
 20
2.148572083327862
 30
0.0
 10
0.907046133108641
 20
2.168397590473988
 30
0.0
 10
0.9314199154860665
 20
2.161166125973169
 30
0.0
 10
0.9557935050190861
 20
2.153930027980298
 30
0.0
 10
0.9696854129572455
 20
2.108872980145709
 30
0.0
 10
0.9685283464247807
 20
2.081072027999324
 30
0.0
  0
ENDBLK
  5
105
330
102
100
AcDbEntity
  8
0
100
AcDbBlockEnd
  0
ENDSEC
  0
SECTION
  2
ENTITIES
  0
POLYLINE
  5
41
330
1F
100
AcDbEntity
  8
Layer 1
 62
     7
420
 16777215
370
    50
100
AcDb2dPolyline
 66
     1
 10
0.0
 20
0.0
 30
0.0
  0
VERTEX
  5
42
330
41
100
AcDbEntity
  8
Layer 1
 62
     7
420
 16777215
370
    50
100
AcDbVertex
100
AcDb2dVertex
 10
-0.2621858070153975
 20
1.824494428206726
 30
0.0
  0
VERTEX
  5
43
330
41
100
AcDbEntity
  8
Layer 1
 62
     7
420
 16777215
370
    50
100
AcDbVertex
100
AcDb2dVertex
 10
1.763477997031537
 20
2.892338758914699
 30
0.0
  0
VERTEX
  5
44
330
41
100
AcDbEntity
  8
Layer 1
 62
     7
420
 16777215
370
    50
100
AcDbVertex
100
AcDb2dVertex
 10
1.989554464088062
 20
2.766733171437181
 30
0.0
  0
VERTEX
  5
45
330
41
100
AcDbEntity
  8
Layer 1
 62
     7
420
 16777215
370
    50
100
AcDbVertex
100
AcDb2dVertex
 10
1.991488368295475
 20
2.677853986343545
 30
0.0
  0
VERTEX
  5
46
330
41
100
AcDbEntity
  8
Layer 1
 62
     7
420
 16777215
370
    50
100
AcDbVertex
100
AcDb2dVertex
 10
2.296798184920489
 20
2.691379414846236
 30
0.0
  0
VERTEX
  5
47
330
41
100
AcDbEntity
  8
Layer 1
 62
     7
420
 16777215
370
    50
100
AcDbVertex
100
AcDb2dVertex
 10
2.289068518760738
 20
2.602485276526156
 30
0.0
  0
VERTEX
  5
48
330
41
100
AcDbEntity
  8
Layer 1
 62
     7
420
 16777215
370
    50
100
AcDbVertex
100
AcDb2dVertex
 10
2.530604222448801
 20
2.465300062529233
 30
0.0
  0
VERTEX
  5
49
330
41
100
AcDbEntity
  8
Layer 1
 62
     7
420
 16777215
370
    50
100
AcDbVertex
100
AcDb2dVertex
 10
2.536399984450049
 20
2.02702132107245
 30
0.0
  0
VERTEX
  5
4A
330
41
100
AcDbEntity
  8
Layer 1
 62
     7
420
 16777215
370
    50
100
AcDbVertex
100
AcDb2dVertex
 10
0.4473403262163502
 20
0.8688557074215169
 30
0.0
  0
VERTEX
  5
4B
330
41
100
AcDbEntity
  8
Layer 1
 62
     7
420
 16777215
370
    50
100
AcDbVertex
100
AcDb2dVertex
 10
0.2927529495902819
 20
0.9500082784375838
 30
0.0
  0
VERTEX
  5
4C
330
41
100
AcDbEntity
  8
Layer 1
 62
     7
420
 16777215
370
    50
100
AcDbVertex
100
AcDb2dVertex
 10
0.294683878560401
 20
1.071734159724454
 30
0.0
  0
VERTEX
  5
4D
330
41
100
AcDbEntity
  8
Layer 1
 62
     7
420
 16777215
370
    50
100
AcDbVertex
100
AcDb2dVertex
 10
-0.0666586844950719
 20
1.062073564399258
 30
0.0
  0
VERTEX
  5
4E
330
41
100
AcDbEntity
  8
Layer 1
 62
     7
420
 16777215
370
    50
100
AcDbVertex
100
AcDb2dVertex
 10
-0.0627938513175524
 20
1.162559227014653
 30
0.0
  0
VERTEX
  5
4F
330
41
100
AcDbEntity
  8
Layer 1
 62
     7
420
 16777215
370
    50
100
AcDbVertex
100
AcDb2dVertex
 10
-0.2679815691630362
 20
1.30857638947417
 30
0.0
  0
VERTEX
  5
50
330
41
100
AcDbEntity
  8
Layer 1
 62
     7
420
 16777215
370
    50
100
AcDbVertex
100
AcDb2dVertex
 10
-0.266050640192917
 20
1.523061242258627
 30
0.0
  0
VERTEX
  5
51
330
41
100
AcDbEntity
  8
Layer 1
 62
     7
420
 16777215
370
    50
100
AcDbVertex
100
AcDb2dVertex
 10
-0.2544561406603457
 20
1.538517599731411
 30
0.0
  0
VERTEX
  5
52
330
41
100
AcDbEntity
  8
Layer 1
 62
     7
420
 16777215
370
    50
100
AcDbVertex
100
AcDb2dVertex
 10
-0.269915473370424
 20
1.565568456736754
 30
0.0
  0
VERTEX
  5
53
330
41
100
AcDbEntity
  8
Layer 1
 62
     7
420
 16777215
370
    50
100
AcDbVertex
100
AcDb2dVertex
 10
-0.2621858070153975
 20
1.824494428206726
 30
0.0
  0
SEQEND
  5
55
330
41
100
AcDbEntity
  8
Layer 1
 62
     7
420
 16777215
370
    50
  0
HATCH
  5
54
330
1F
100
AcDbEntity
  8
Layer 1
 62
    43
420
 15510365
100
AcDbHatch
 10
0.0
 20
0.0
 30
0.0
210
0.0
220
0.0
230
1.0
  2
SOLID
 70
     1
 71
     0
 91
        1
 92
        1
 93
       17
 72
     1
 10
-0.2621858070153975
 20
1.824494428206726
 11
1.763477997031537
 21
2.892338758914699
 72
     1
 10
1.763477997031537
 20
2.892338758914699
 11
1.989554464088062
 21
2.766733171437181
 72
     1
 10
1.989554464088062
 20
2.766733171437181
 11
1.991488368295475
 21
2.677853986343545
 72
     1
 10
1.991488368295475
 20
2.677853986343545
 11
2.296798184920489
 21
2.691379414846236
 72
     1
 10
2.296798184920489
 20
2.691379414846236
 11
2.289068518760738
 21
2.602485276526156
 72
     1
 10
2.289068518760738
 20
2.602485276526156
 11
2.530604222448801
 21
2.465300062529233
 72
     1
 10
2.530604222448801
 20
2.465300062529233
 11
2.536399984450049
 21
2.02702132107245
 72
     1
 10
2.536399984450049
 20
2.02702132107245
 11
0.4473403262163504
 21
0.8688557074215169
 72
     1
 10
0.4473403262163502
 20
0.8688557074215169
 11
0.2927529495902819
 21
0.9500082784375838
 72
     1
 10
0.2927529495902819
 20
0.9500082784375838
 11
0.294683878560401
 21
1.071734159724454
 72
     1
 10
0.294683878560401
 20
1.071734159724454
 11
-0.0666586844950719
 21
1.062073564399258
 72
     1
 10
-0.0666586844950719
 20
1.062073564399258
 11
-0.0627938513175524
 21
1.162559227014653
 72
     1
 10
-0.0627938513175524
 20
1.162559227014653
 11
-0.2679815691630362
 21
1.30857638947417
 72
     1
 10
-0.2679815691630362
 20
1.30857638947417
 11
-0.266050640192917
 21
1.523061242258627
 72
     1
 10
-0.266050640192917
 20
1.523061242258627
 11
-0.2544561406603457
 21
1.538517599731411
 72
     1
 10
-0.2544561406603457
 20
1.538517599731411
 11
-0.269915473370424
 21
1.565568456736754
 72
     1
 10
-0.269915473370424
 20
1.565568456736754
 11
-0.2621858070153975
 21
1.824494428206726
 97
        0
 75
     2
 76
     1
 98
        0
  0
POLYLINE
  5
56
330
1F
100
AcDbEntity
  8
Layer 1
 62
     7
420
 16777215
370
    30
100
AcDb2dPolyline
 66
     1
 10
0.0
 20
0.0
 30
0.0
  0
VERTEX
  5
57
330
56
100
AcDbEntity
  8
Layer 1
 62
     7
420
 16777215
370
    30
100
AcDbVertex
100
AcDb2dVertex
 10
0.4608627794817847
 20
1.33646779429105
 30
0.0
  0
VERTEX
  5
58
330
56
100
AcDbEntity
  8
Layer 1
 62
     7
420
 16777215
370
    30
100
AcDbVertex
100
AcDb2dVertex
 10
2.524808460447578
 20
2.463369133559088
 30
0.0
  0
SEQEND
  5
59
330
56
100
AcDbEntity
  8
Layer 1
 62
     7
420
 16777215
370
    30
  0
POLYLINE
  5
5A
330
1F
100
AcDbEntity
  8
Layer 1
 62
     7
420
 16777215
370
    50
100
AcDb2dPolyline
 66
     1
 10
0.0
 20
0.0
 30
0.0
  0
VERTEX
  5
5B
330
5A
100
AcDbEntity
  8
Layer 1
 62
     7
420
 16777215
370
    50
100
AcDbVertex
100
AcDb2dVertex
 10
1.471102801538968
 20
1.230799663261349
 30
0.0
  0
VERTEX
  5
5C
330
5A
100
AcDbEntity
  8
Layer 1
 62
     7
420
 16777215
370
    50
100
AcDbVertex
100
AcDb2dVertex
 10
1.197685405199801
 20
1.742728563457338
 30
0.0
  0
VERTEX
  5
5D
330
5A
100
AcDbEntity
  8
Layer 1
 62
     7
420
 16777215
370
    50
100
AcDbVertex
100
AcDb2dVertex
 10
0.5257754210398641
 20
2.227335305163567
 30
0.0
  0
VERTEX
  5
5E
330
5A
100
AcDbEntity
  8
Layer 1
 62
     7
420
 16777215
370
    50
100
AcDbVertex
100
AcDb2dVertex
 10
0.1867183829371647
 20
2.830026173470742
 30
0.0
  0
VERTEX
  5
5F
330
5A
100
AcDbEntity
  8
Layer 1
 62
     7
420
 16777215
370
    50
100
AcDbVertex
100
AcDb2dVertex
 10
0.5635202787027033
 20
3.042577045056444
 30
0.0
  0
VERTEX
  5
60
330
5A
100
AcDbEntity
  8
Layer 1
 62
     7
420
 16777215
370
    50
100
AcDbVertex
100
AcDb2dVertex
 10
0.62341477962381
 20
3.199098321935834
 30
0.0
  0
VERTEX
  5
61
330
5A
100
AcDbEntity
  8
Layer 1
 62
     7
420
 16777215
370
    50
100
AcDbVertex
100
AcDb2dVertex
 10
0.8301729412904831
 20
3.311178481252353
 30
0.0
  0
VERTEX
  5
62
330
5A
100
AcDbEntity
  8
Layer 1
 62
     7
420
 16777215
370
    50
100
AcDbVertex
100
AcDb2dVertex
 10
0.9229289375508011
 20
3.249335201499952
 30
0.0
  0
VERTEX
  5
63
330
5A
100
AcDbEntity
  8
Layer 1
 62
     7
420
 16777215
370
    50
100
AcDbVertex
100
AcDb2dVertex
 10
1.152873123045298
 20
3.37300688481893
 30
0.0
  0
VERTEX
  5
64
330
5A
100
AcDbEntity
  8
Layer 1
 62
     7
420
 16777215
370
    50
100
AcDbVertex
100
AcDb2dVertex
 10
2.157076457990267
 20
1.605667654819538
 30
0.0
  0
VERTEX
  5
65
330
5A
100
AcDbEntity
  8
Layer 1
 62
     7
420
 16777215
370
    50
100
AcDbVertex
100
AcDb2dVertex
 10
2.062386559914633
 20
1.549635011838644
 30
0.0
  0
VERTEX
  5
66
330
5A
100
AcDbEntity
  8
Layer 1
 62
     7
420
 16777215
370
    50
100
AcDbVertex
100
AcDb2dVertex
 10
2.052725964833523
 20
1.456876040341121
 30
0.0
  0
VERTEX
  5
67
330
5A
100
AcDbEntity
  8
Layer 1
 62
     7
420
 16777215
370
    50
100
AcDbVertex
100
AcDb2dVertex
 10
1.840175021625934
 20
1.348660711370674
 30
0.0
  0
VERTEX
  5
68
330
5A
100
AcDbEntity
  8
Layer 1
 62
     7
420
 16777215
370
    50
100
AcDbVertex
100
AcDb2dVertex
 10
1.718434267228304
 20
1.362201016059607
 30
0.0
  0
VERTEX
  5
69
330
5A
100
AcDbEntity
  8
Layer 1
 62
     7
420
 16777215
370
    50
100
AcDbVertex
100
AcDb2dVertex
 10
1.471102801538968
 20
1.230799663261349
 30
0.0
  0
SEQEND
  5
6B
330
5A
100
AcDbEntity
  8
Layer 1
 62
     7
420
 16777215
370
    50
  0
HATCH
  5
6A
330
1F
100
AcDbEntity
  8
Layer 1
 62
    43
420
 15510365
100
AcDbHatch
 10
0.0
 20
0.0
 30
0.0
210
0.0
220
0.0
230
1.0
  2
SOLID
 70
     1
 71
     0
 91
        1
 92
        1
 93
       14
 72
     1
 10
1.471102801538968
 20
1.230799663261349
 11
1.197685405199801
 21
1.742728563457338
 72
     1
 10
1.197685405199801
 20
1.742728563457338
 11
0.5257754210398641
 21
2.227335305163567
 72
     1
 10
0.5257754210398641
 20
2.227335305163567
 11
0.1867183829371647
 21
2.830026173470742
 72
     1
 10
0.1867183829371647
 20
2.830026173470742
 11
0.5635202787027033
 21
3.042577045056444
 72
     1
 10
0.5635202787027033
 20
3.042577045056444
 11
0.62341477962381
 21
3.199098321935834
 72
     1
 10
0.62341477962381
 20
3.199098321935834
 11
0.8301729412904831
 21
3.311178481252353
 72
     1
 10
0.8301729412904831
 20
3.311178481252353
 11
0.9229289375508011
 21
3.249335201499952
 72
     1
 10
0.9229289375508011
 20
3.249335201499952
 11
1.152873123045298
 21
3.37300688481893
 72
     1
 10
1.152873123045298
 20
3.37300688481893
 11
2.157076457990267
 21
1.605667654819538
 72
     1
 10
2.157076457990267
 20
1.605667654819538
 11
2.062386559914633
 21
1.549635011838644
 72
     1
 10
2.062386559914633
 20
1.549635011838644
 11
2.052725964833523
 21
1.456876040341121
 72
     1
 10
2.052725964833523
 20
1.456876040341121
 11
1.840175021625934
 21
1.348660711370674
 72
     1
 10
1.840175021625934
 20
1.348660711370674
 11
1.718434267228304
 21
1.362201016059607
 72
     1
 10
1.718434267228304
 20
1.362201016059607
 11
1.471102801538968
 21
1.230799663261349
 97
        0
 75
     2
 76
     1
 98
        0
  0
POLYLINE
  5
6C
330
1F
100
AcDbEntity
  8
Layer 1
370
     0
100
AcDb2dPolyline
 66
     1
 10
0.0
 20
0.0
 30
0.0
  0
VERTEX
  5
6D
330
6C
100
AcDbEntity
  8
Layer 1
370
     0
100
AcDbVertex
100
AcDb2dVertex
 10
1.987623439478739
 20
2.764799267278666
 30
0.0
  0
VERTEX
  5
6E
330
6C
100
AcDbEntity
  8
Layer 1
370
     0
100
AcDbVertex
100
AcDb2dVertex
 10
1.960572583156767
 20
2.679784915313664
 30
0.0
  0
VERTEX
  5
6F
330
6C
100
AcDbEntity
  8
Layer 1
370
     0
100
AcDbVertex
100
AcDb2dVertex
 10
1.989554464088062
 20
2.679784915313664
 30
0.0
  0
SEQEND
  5
70
330
6C
100
AcDbEntity
  8
Layer 1
370
     0
  0
SPLINE
  5
71
330
1F
100
AcDbEntity
  8
Layer 1
 62
     7
420
 16777215
370
    13
100
AcDbSpline
210
0.0
220
0.0
230
1.0
 70
     8
 71
     3
 72
     8
 73
     4
 74
     0
 42
0.0000000001
 43
0.0000000001
 12
1.0
 22
0.0
 32
0.0
 13
1.0
 23
0.0
 33
0.0
 40
0.0
 40
0.0
 40
0.0
 40
0.0
 40
1.0
 40
1.0
 40
1.0
 40
1.0
 10
0.5165948369199845
 20
3.013291785622048
 30
0.0
 10
0.5396201979367308
 20
2.984527192691884
 30
0.0
 10
0.5397362321891832
 20
2.984119585200018
 30
0.0
 10
0.5397362321891832
 20
2.984119585200018
 30
0.0
  0
SPLINE
  5
72
330
1F
100
AcDbEntity
  8
Layer 1
 62
     7
420
 16777215
370
    13
100
AcDbSpline
210
0.0
220
0.0
230
1.0
 70
     8
 71
     3
 72
     8
 73
     4
 74
     0
 42
0.0000000001
 43
0.0000000001
 12
1.0
 22
0.0
 32
0.0
 13
1.0
 23
0.0
 33
0.0
 40
0.0
 40
0.0
 40
0.0
 40
0.0
 40
1.0
 40
1.0
 40
1.0
 40
1.0
 10
0.4649655450574654
 20
2.98461347456973
 30
0.0
 10
0.4842867357077946
 20
2.971088046408731
 30
0.0
 10
0.509957082632809
 20
2.946637621938395
 30
0.0
 10
0.51961767795798
 20
2.94084185979073
 30
0.0
  0
POLYLINE
  5
73
330
1F
100
AcDbEntity
  8
Layer 1
 62
     7
420
 16777215
370
    30
100
AcDb2dPolyline
 66
     1
 10
0.0
 20
0.0
 30
0.0
  0
VERTEX
  5
74
330
73
100
AcDbEntity
  8
Layer 1
 62
     7
420
 16777215
370
    30
100
AcDbVertex
100
AcDb2dVertex
 10
0.4243892595494319
 20
2.963358455239093
 30
0.0
  0
VERTEX
  5
75
330
73
100
AcDbEntity
  8
Layer 1
 62
     7
420
 16777215
370
    30
100
AcDbVertex
100
AcDb2dVertex
 10
0.5074876357218348
 20
2.90344907813177
 30
0.0
  0
VERTEX
  5
76
330
73
100
AcDbEntity
  8
Layer 1
 62
     7
420
 16777215
370
    30
100
AcDbVertex
100
AcDb2dVertex
 10
0.5635202787027033
 20
3.042577045056444
 30
0.0
  0
SEQEND
  5
77
330
73
100
AcDbEntity
  8
Layer 1
 62
     7
420
 16777215
370
    30
  0
SPLINE
  5
78
330
1F
100
AcDbEntity
  8
Layer 1
 62
     7
420
 16777215
370
    13
100
AcDbSpline
210
0.0
220
0.0
230
1.0
 70
     8
 71
     3
 72
    11
 73
     7
 74
     0
 42
0.0000000001
 43
0.0000000001
 12
1.0
 22
0.0
 32
0.0
 13
1.0
 23
0.0
 33
0.0
 40
0.0
 40
0.0
 40
0.0
 40
0.0
 40
1.0
 40
1.0
 40
1.0
 40
2.0
 40
2.0
 40
2.0
 40
2.0
 10
0.7863119938671161
 20
3.286031776717209
 30
0.0
 10
0.7940416602221552
 20
3.268641515476336
 30
0.0
 10
0.8031220842851149
 20
3.262860629660925
 30
0.0
 10
0.8205123459652996
 20
3.25899579658105
 30
0.0
 10
0.8378996324082537
 20
3.255130963501137
 30
0.0
 10
0.8778957466540507
 20
3.243771507997722
 30
0.0
 10
0.8758904367528733
 20
3.224652633962831
 30
0.0
  0
SPLINE
  5
79
330
1F
100
AcDbEntity
  8
Layer 1
 62
     7
420
 16777215
370
    13
100
AcDbSpline
210
0.0
220
0.0
230
1.0
 70
     8
 71
     3
 72
    11
 73
     7
 74
     0
 42
0.0000000001
 43
0.0000000001
 12
1.0
 22
0.0
 32
0.0
 13
1.0
 23
0.0
 33
0.0
 40
0.0
 40
0.0
 40
0.0
 40
0.0
 40
1.0
 40
1.0
 40
1.0
 40
2.0
 40
2.0
 40
2.0
 40
2.0
 10
0.7161737511213838
 20
3.249335201499952
 30
0.0
 10
0.7277682506539173
 20
3.230014011337693
 30
0.0
 10
0.7451555370968965
 20
3.222284345177943
 30
0.0
 10
0.7625457987770813
 20
3.220350441019427
 30
0.0
 10
0.779936060457266
 20
3.218419512098067
 30
0.0
 10
0.8094563643735834
 20
3.203513573891592
 30
0.0
 10
0.8104738955103761
 20
3.185397354781988
 30
0.0
  0
SPLINE
  5
7A
330
1F
100
AcDbEntity
  8
Layer 1
 62
     7
420
 16777215
370
    13
100
AcDbSpline
210
0.0
220
0.0
230
1.0
 70
     8
 71
     3
 72
    11
 73
     7
 74
     0
 42
0.0000000001
 43
0.0000000001
 12
1.0
 22
0.0
 32
0.0
 13
1.0
 23
0.0
 33
0.0
 40
0.0
 40
0.0
 40
0.0
 40
0.0
 40
1.0
 40
1.0
 40
1.0
 40
2.0
 40
2.0
 40
2.0
 40
2.0
 10
0.6562762749630211
 20
3.218419512098067
 30
0.0
 10
0.6717356076730867
 20
3.204894083937069
 30
0.0
 10
0.6891228941160281
 20
3.195233488855946
 30
0.0
 10
0.7045822268260685
 20
3.191368655776071
 30
0.0
 10
0.7200385842989033
 20
3.187503822696183
 30
0.0
 10
0.7472203517429029
 20
3.159917423684141
 30
0.0
 10
0.7510851849204098
 20
3.152187757524378
 30
0.0
  0
POLYLINE
  5
7B
330
1F
100
AcDbEntity
  8
Layer 1
 62
     7
420
 16777215
370
    30
100
AcDb2dPolyline
 66
     1
 10
0.0
 20
0.0
 30
0.0
  0
VERTEX
  5
7C
330
7B
100
AcDbEntity
  8
Layer 1
 62
     7
420
 16777215
370
    30
100
AcDbVertex
100
AcDb2dVertex
 10
1.933166059279276
 20
1.480978437239489
 30
0.0
  0
VERTEX
  5
7D
330
7B
100
AcDbEntity
  8
Layer 1
 62
     7
420
 16777215
370
    30
100
AcDbVertex
100
AcDb2dVertex
 10
0.9229289375508011
 20
3.249335201499952
 30
0.0
  0
VERTEX
  5
7E
330
7B
100
AcDbEntity
  8
Layer 1
 62
     7
420
 16777215
370
    30
100
AcDbVertex
100
AcDb2dVertex
 10
0.7142428221512394
 20
3.129540252209495
 30
0.0
  0
VERTEX
  5
7F
330
7B
100
AcDbEntity
  8
Layer 1
 62
     7
420
 16777215
370
    30
100
AcDbVertex
100
AcDb2dVertex
 10
0.6272796128013295
 20
3.199098321935834
 30
0.0
  0
SEQEND
  5
80
330
7B
100
AcDbEntity
  8
Layer 1
 62
     7
420
 16777215
370
    30
  0
SPLINE
  5
81
330
1F
100
AcDbEntity
  8
Layer 1
 62
     7
420
 16777215
370
    13
100
AcDbSpline
210
0.0
220
0.0
230
1.0
 70
     8
 71
     3
 72
     8
 73
     4
 74
     0
 42
0.0000000001
 43
0.0000000001
 12
1.0
 22
0.0
 32
0.0
 13
1.0
 23
0.0
 33
0.0
 40
0.0
 40
0.0
 40
0.0
 40
0.0
 40
1.0
 40
1.0
 40
1.0
 40
1.0
 10
1.867222992150624
 20
1.439485778660898
 30
0.0
 10
1.865291973789428
 20
1.420164588010556
 30
0.0
 10
1.859582493666039
 20
1.374810071491677
 30
0.0
 10
1.880837587986788
 20
1.37094523831417
 30
0.0
  0
SPLINE
  5
82
330
1F
100
AcDbEntity
  8
Layer 1
 62
     7
420
 16777215
370
    13
100
AcDbSpline
210
0.0
220
0.0
230
1.0
 70
     8
 71
     3
 72
     8
 73
     4
 74
     0
 42
0.0000000001
 43
0.0000000001
 12
1.0
 22
0.0
 32
0.0
 13
1.0
 23
0.0
 33
0.0
 40
0.0
 40
0.0
 40
0.0
 40
0.0
 40
1.0
 40
1.0
 40
1.0
 40
1.0
 10
1.911664020273646
 20
1.464605706696122
 30
0.0
 10
1.917459782274869
 20
1.443350611838393
 30
0.0
 10
1.934936325393614
 20
1.409968449981824
 30
0.0
 10
1.929140563392341
 20
1.396443021479134
 30
0.0
  0
SPLINE
  5
83
330
1F
100
AcDbEntity
  8
Layer 1
 62
     7
420
 16777215
370
    13
100
AcDbSpline
210
0.0
220
0.0
230
1.0
 70
     8
 71
     3
 72
     8
 73
     4
 74
     0
 42
0.0000000001
 43
0.0000000001
 12
1.0
 22
0.0
 32
0.0
 13
1.0
 23
0.0
 33
0.0
 40
0.0
 40
0.0
 40
0.0
 40
0.0
 40
1.0
 40
1.0
 40
1.0
 40
1.0
 10
1.979303062027308
 20
1.503248087996806
 30
0.0
 10
1.977372133105948
 20
1.481995968376294
 30
0.0
 10
1.997579943943922
 20
1.432672485376467
 30
0.0
 10
1.997579943943922
 20
1.432672485376467
 30
0.0
  0
POLYLINE
  5
84
330
1F
100
AcDbEntity
  8
Layer 1
 62
     7
420
 16777215
370
    30
100
AcDb2dPolyline
 66
     1
 10
0.0
 20
0.0
 30
0.0
  0
VERTEX
  5
85
330
84
100
AcDbEntity
  8
Layer 1
 62
     7
420
 16777215
370
    30
100
AcDbVertex
100
AcDb2dVertex
 10
1.83631027720503
 20
1.350606516527086
 30
0.0
  0
VERTEX
  5
86
330
84
100
AcDbEntity
  8
Layer 1
 62
     7
420
 16777215
370
    30
100
AcDbVertex
100
AcDb2dVertex
 10
1.838241117467406
 20
1.425963325395464
 30
0.0
  0
VERTEX
  5
87
330
84
100
AcDbEntity
  8
Layer 1
 62
     7
420
 16777215
370
    30
100
AcDbVertex
100
AcDb2dVertex
 10
2.060455630993273
 20
1.549635011838644
 30
0.0
  0
SEQEND
  5
88
330
84
100
AcDbEntity
  8
Layer 1
 62
     7
420
 16777215
370
    30
  0
SPLINE
  5
89
330
1F
100
AcDbEntity
  8
Layer 1
370
     0
100
AcDbSpline
210
0.0
220
0.0
230
1.0
 70
     8
 71
     3
 72
     8
 73
     4
 74
     0
 42
0.0000000001
 43
0.0000000001
 12
1.0
 22
0.0
 32
0.0
 13
1.0
 23
0.0
 33
0.0
 40
0.0
 40
0.0
 40
0.0
 40
0.0
 40
1.0
 40
1.0
 40
1.0
 40
1.0
 10
1.662401625662975
 20
1.366065849237126
 30
0.0
 10
1.672062220744086
 20
1.350606516527086
 30
0.0
 10
1.672062220744086
 20
1.350606516527086
 30
0.0
 10
1.668197387664198
 20
1.342864949223061
 30
0.0
  0
SPLINE
  5
8A
330
1F
100
AcDbEntity
  8
Layer 1
370
     0
100
AcDbSpline
210
0.0
220
0.0
230
1.0
 70
     8
 71
     3
 72
     8
 73
     4
 74
     0
 42
0.0000000001
 43
0.0000000001
 12
1.0
 22
0.0
 32
0.0
 13
1.0
 23
0.0
 33
0.0
 40
0.0
 40
0.0
 40
0.0
 40
0.0
 40
1.0
 40
1.0
 40
1.0
 40
1.0
 10
1.625690174259868
 20
1.369930682414621
 30
0.0
 10
1.61989441225862
 20
1.35447134970458
 30
0.0
 10
1.61409567502023
 20
1.337069187075384
 30
0.0
 10
1.62375627010134
 20
1.325474687542826
 30
0.0
  0
POLYLINE
  5
8B
330
1F
100
AcDbEntity
  8
Layer 1
370
     0
100
AcDb2dPolyline
 66
     1
 10
0.0
 20
0.0
 30
0.0
  0
VERTEX
  5
8C
330
8B
100
AcDbEntity
  8
Layer 1
370
     0
100
AcDbVertex
100
AcDb2dVertex
 10
1.587047793935401
 20
1.298423830537495
 30
0.0
  0
VERTEX
  5
8D
330
8B
100
AcDbEntity
  8
Layer 1
370
     0
100
AcDbVertex
100
AcDb2dVertex
 10
1.590909651778096
 20
1.373792540354859
 30
0.0
  0
VERTEX
  5
8E
330
8B
100
AcDbEntity
  8
Layer 1
370
     0
100
AcDbVertex
100
AcDb2dVertex
 10
1.718434267228304
 20
1.362201016059607
 30
0.0
  0
SEQEND
  5
8F
330
8B
100
AcDbEntity
  8
Layer 1
370
     0
  0
SPLINE
  5
90
330
1F
100
AcDbEntity
  8
Layer 1
 62
     7
420
 16777215
370
    30
100
AcDbSpline
210
0.0
220
0.0
230
1.0
 70
     8
 71
     3
 72
    14
 73
    10
 74
     0
 42
0.0000000001
 43
0.0000000001
 12
1.0
 22
0.0
 32
0.0
 13
1.0
 23
0.0
 33
0.0
 40
0.0
 40
0.0
 40
0.0
 40
0.0
 40
1.0
 40
1.0
 40
1.0
 40
2.0
 40
2.0
 40
2.0
 40
3.0
 40
3.0
 40
3.0
 40
3.0
 10
0.2937109759822457
 20
1.004107017211027
 30
0.0
 10
0.3072512806711277
 20
1.004107017211027
 30
0.0
 10
0.3159389734181053
 20
1.00024218403352
 30
0.0
 10
0.3275304977134207
 20
0.9886506597381918
 30
0.0
 10
0.3391220220087234
 20
0.977056160205671
 30
0.0
 10
0.3729445189771291
 20
0.9374408763268446
 30
0.0
 10
0.3816322117241321
 20
0.925849352031542
 30
0.0
 10
0.3903318054201084
 20
0.9142548524990464
 30
0.0
 10
0.3990343743532776
 20
0.8997713976043794
 30
0.0
 10
0.4096559713076557
 20
0.8910688286711976
 30
0.0
  0
SPLINE
  5
91
330
1F
100
AcDbEntity
  8
Layer 1
 62
     7
420
 16777215
370
    30
100
AcDbSpline
210
0.0
220
0.0
230
1.0
 70
     8
 71
     3
 72
    14
 73
    10
 74
     0
 42
0.0000000001
 43
0.0000000001
 12
1.0
 22
0.0
 32
0.0
 13
1.0
 23
0.0
 33
0.0
 40
0.0
 40
0.0
 40
0.0
 40
0.0
 40
1.0
 40
1.0
 40
1.0
 40
2.0
 40
2.0
 40
2.0
 40
3.0
 40
3.0
 40
3.0
 40
3.0
 10
0.29757580915974
 20
1.066911300154932
 30
0.0
 10
0.3053173764637399
 20
1.067869326546934
 30
0.0
 10
0.3101402360332359
 20
1.068842229125089
 30
0.0
 10
0.3227076381439499
 20
1.058208731221738
 30
0.0
 10
0.3352601640684346
 20
1.04758713426736
 30
0.0
 10
0.3845360432724444
 20
0.9973532286714241
 30
0.0
 10
0.391292807049303
 20
0.9857587291389033
 30
0.0
 10
0.3980614717751223
 20
0.9741672048435753
 30
0.0
 10
0.4280161603287777
 20
0.9326180167573612
 30
0.0
 10
0.4425025904606754
 20
0.9306841125499734
 30
0.0
  0
SPLINE
  5
92
330
1F
100
AcDbEntity
  8
Layer 1
 62
     7
420
 16777215
370
    30
100
AcDbSpline
210
0.0
220
0.0
230
1.0
 70
     8
 71
     3
 72
    11
 73
     7
 74
     0
 42
0.0000000001
 43
0.0000000001
 12
1.0
 22
0.0
 32
0.0
 13
1.0
 23
0.0
 33
0.0
 40
0.0
 40
0.0
 40
0.0
 40
0.0
 40
1.0
 40
1.0
 40
1.0
 40
2.0
 40
2.0
 40
2.0
 40
2.0
 10
0.3487855925711124
 20
1.151925729111276
 30
0.0
 10
0.3719835173479345
 20
1.154829560659626
 30
0.0
 10
0.3941966385976027
 20
1.154829560659626
 30
0.0
 10
0.4115869002777875
 20
1.161601200622651
 30
0.0
 10
0.4289771619579849
 20
1.168354989162266
 30
0.0
 10
0.4434754930388307
 20
1.167396962770327
 30
0.0
 10
0.4512021841566012
 20
1.172219822339785
 30
0.0
  0
SPLINE
  5
93
330
1F
100
AcDbEntity
  8
Layer 1
 62
     7
420
 16777215
370
    30
100
AcDbSpline
210
0.0
220
0.0
230
1.0
 70
     8
 71
     3
 72
    11
 73
     7
 74
     0
 42
0.0000000001
 43
0.0000000001
 12
1.0
 22
0.0
 32
0.0
 13
1.0
 23
0.0
 33
0.0
 40
0.0
 40
0.0
 40
0.0
 40
0.0
 40
1.0
 40
1.0
 40
1.0
 40
2.0
 40
2.0
 40
2.0
 40
2.0
 10
0.29757580915974
 20
1.204108415100829
 30
0.0
 10
0.3130470428187916
 20
1.208931274670274
 30
0.0
 10
0.3545813547187638
 20
1.213769010426025
 30
0.0
 10
0.3652148526221026
 20
1.217633843603544
 30
0.0
 10
0.3758334743392374
 20
1.221498676781039
 30
0.0
 10
0.4386377572831558
 20
1.234048227468318
 30
0.0
 10
0.452163185785821
 20
1.232117298498123
 30
0.0
  0
SPLINE
  5
94
330
1F
100
AcDbEntity
  8
Layer 1
 62
     7
420
 16777215
370
    30
100
AcDbSpline
210
0.0
220
0.0
230
1.0
 70
     8
 71
     3
 72
    11
 73
     7
 74
     0
 42
0.0000000001
 43
0.0000000001
 12
1.0
 22
0.0
 32
0.0
 13
1.0
 23
0.0
 33
0.0
 40
0.0
 40
0.0
 40
0.0
 40
0.0
 40
1.0
 40
1.0
 40
1.0
 40
2.0
 40
2.0
 40
2.0
 40
2.0
 10
0.2995216143161011
 20
1.272708460192398
 30
0.0
 10
0.3207737339365748
 20
1.278504222340037
 30
0.0
 10
0.3391220220087234
 20
1.276570318132637
 30
0.0
 10
0.3545813547187638
 20
1.276570318132637
 30
0.0
 10
0.3700377121915986
 20
1.276570318132637
 30
0.0
 10
0.4454064220089751
 20
1.293960579812872
 30
0.0
 10
0.455067017334146
 20
1.291056748264572
 30
0.0
  0
SPLINE
  5
95
330
1F
100
AcDbEntity
  8
Layer 1
 62
     7
420
 16777215
370
    30
100
AcDbSpline
210
0.0
220
0.0
230
1.0
 70
     8
 71
     3
 72
    14
 73
    10
 74
     0
 42
0.0000000001
 43
0.0000000001
 12
1.0
 22
0.0
 32
0.0
 13
1.0
 23
0.0
 33
0.0
 40
0.0
 40
0.0
 40
0.0
 40
0.0
 40
1.0
 40
1.0
 40
1.0
 40
2.0
 40
2.0
 40
2.0
 40
3.0
 40
3.0
 40
3.0
 40
3.0
 10
0.3014525432862203
 20
1.34612838961617
 30
0.0
 10
0.3130470428187916
 20
1.345155487038015
 30
0.0
 10
0.331395330890915
 20
1.343224558067909
 30
0.0
 10
0.3381639956167595
 20
1.339359724890389
 30
0.0
 10
0.3449207593936181
 20
1.33549489171287
 30
0.0
 10
0.3893737790281193
 20
1.331630058535375
 30
0.0
 10
0.3990343743532776
 20
1.33453686532088
 30
0.0
 10
0.4086949696784485
 20
1.337425820682989
 30
0.0
 10
0.4347729241056362
 20
1.338401698498375
 30
0.0
 10
0.4386377572831558
 20
1.344197460646064
 30
0.0
  0
SPLINE
  5
96
330
1F
100
AcDbEntity
  8
Layer 1
 62
     7
420
 16777215
370
    30
100
AcDbSpline
210
0.0
220
0.0
230
1.0
 70
     8
 71
     3
 72
    17
 73
    13
 74
     0
 42
0.0000000001
 43
0.0000000001
 12
1.0
 22
0.0
 32
0.0
 13
1.0
 23
0.0
 33
0.0
 40
0.0
 40
0.0
 40
0.0
 40
0.0
 40
1.0
 40
1.0
 40
1.0
 40
2.0
 40
2.0
 40
2.0
 40
3.0
 40
3.0
 40
3.0
 40
4.0
 40
4.0
 40
4.0
 40
4.0
 10
-0.0676167108870484
 20
1.084298586597924
 30
0.0
 10
-0.0473374938447301
 20
1.093001155531119
 30
0.0
 10
-0.0019234725810217
 20
1.094935059738494
 30
0.0
 10
0.0154638138619197
 20
1.097824015100577
 30
0.0
 10
0.0328540755421171
 20
1.100730821886133
 30
0.0
 10
0.1053189538111812
 20
1.112322346181448
 30
0.0
 10
0.118841407076641
 20
1.108457513003928
 30
0.0
 10
0.1323668355793315
 20
1.10459565506364
 30
0.0
 10
0.1913062853457051
 20
1.102661750856252
 30
0.0
 10
0.2086965470258898
 20
1.10459565506364
 30
0.0
 10
0.2260838334688439
 20
1.106526584033759
 30
0.0
 10
0.2801855474795553
 20
1.102661750856252
 30
0.0
 10
0.2888881164127623
 20
1.100730821886133
 30
0.0
  0
SPLINE
  5
97
330
1F
100
AcDbEntity
  8
Layer 1
 62
     7
420
 16777215
370
    30
100
AcDbSpline
210
0.0
220
0.0
230
1.0
 70
     8
 71
     3
 72
    29
 73
    25
 74
     0
 42
0.0000000001
 43
0.0000000001
 12
1.0
 22
0.0
 32
0.0
 13
1.0
 23
0.0
 33
0.0
 40
0.0
 40
0.0
 40
0.0
 40
0.0
 40
1.0
 40
1.0
 40
1.0
 40
2.0
 40
2.0
 40
2.0
 40
3.0
 40
3.0
 40
3.0
 40
4.0
 40
4.0
 40
4.0
 40
5.0
 40
5.0
 40
5.0
 40
6.0
 40
6.0
 40
6.0
 40
7.0
 40
7.0
 40
7.0
 40
8.0
 40
8.0
 40
8.0
 40
8.0
 10
-0.0618209487393844
 20
1.140331229578755
 30
0.0
 10
-0.03574596954944
 20
1.151925729111276
 30
0.0
 10
0.0154638138619197
 20
1.149033798511937
 30
0.0
 10
0.0338269781202724
 20
1.146129966963662
 30
0.0
 10
0.0521752661924463
 20
1.143238036364298
 30
0.0
 10
0.1323668355793315
 20
1.146129966963662
 30
0.0
 10
0.1400965019343453
 20
1.148060895933781
 30
0.0
 10
0.1478261682893592
 20
1.150006701090117
 30
0.0
 10
0.1932372143158242
 20
1.145168965334417
 30
0.0
 10
0.2202880713211925
 20
1.139373203186804
 30
0.0
 10
0.2473389283265482
 20
1.133577441039127
 30
0.0
 10
0.2869542122053872
 20
1.125847774684088
 30
0.0
 10
0.2917919479610621
 20
1.124874872105933
 30
0.0
 10
0.2966148075305455
 20
1.123916845713969
 30
0.0
 10
0.3227076381439499
 20
1.111349443603267
 30
0.0
 10
0.3294614266835652
 20
1.113283347810617
 30
0.0
 10
0.3362330666466151
 20
1.115214276780787
 30
0.0
 10
0.3719835173479345
 20
1.091070226561
 30
0.0
 10
0.3826051143023126
 20
1.081394755049587
 30
0.0
 10
0.3932237360194222
 20
1.071734159724454
 30
0.0
 10
0.4048182355519808
 20
1.051451967444892
 30
0.0
 10
0.4173826624254515
 20
1.036953636364059
 30
0.0
 10
0.4299500645361528
 20
1.022470181469392
 30
0.0
 10
0.4260852313586459
 20
1.006040921418389
 30
0.0
 10
0.446364448400939
 20
1.003148990819075
 30
0.0
  0
SPLINE
  5
98
330
1F
100
AcDbEntity
  8
Layer 1
 62
     7
420
 16777215
370
    30
100
AcDbSpline
210
0.0
220
0.0
230
1.0
 70
     8
 71
     3
 72
    17
 73
    13
 74
     0
 42
0.0000000001
 43
0.0000000001
 12
1.0
 22
0.0
 32
0.0
 13
1.0
 23
0.0
 33
0.0
 40
0.0
 40
0.0
 40
0.0
 40
0.0
 40
1.0
 40
1.0
 40
1.0
 40
2.0
 40
2.0
 40
2.0
 40
3.0
 40
3.0
 40
3.0
 40
4.0
 40
4.0
 40
4.0
 40
4.0
 10
-0.05989001976924
 20
1.200243581923309
 30
0.0
 10
-0.0251094964088704
 20
1.202174510893428
 30
0.0
 10
0.0280312159726464
 20
1.196378748745815
 30
0.0
 10
0.0502443372223019
 20
1.197339750375035
 30
0.0
 10
0.0724693594209435
 20
1.19831265295319
 30
0.0
 10
0.1024121470256508
 20
1.19831265295319
 30
0.0
 10
0.1207753112840161
 20
1.193474917197515
 30
0.0
 10
0.1391384755423562
 20
1.188652057628006
 30
0.0
 10
0.1632825257621941
 20
1.181880417664944
 30
0.0
 10
0.179711785813159
 20
1.185745250842501
 30
0.0
 10
0.1961440211013799
 20
1.189610084019995
 30
0.0
 10
0.2763207143020357
 20
1.17705755809546
 30
0.0
 10
0.2879271147835425
 20
1.179949488694825
 30
0.0
  0
SPLINE
  5
99
330
1F
100
AcDbEntity
  8
Layer 1
 62
     7
420
 16777215
370
    30
100
AcDbSpline
210
0.0
220
0.0
230
1.0
 70
     8
 71
     3
 72
    17
 73
    13
 74
     0
 42
0.0000000001
 43
0.0000000001
 12
1.0
 22
0.0
 32
0.0
 13
1.0
 23
0.0
 33
0.0
 40
0.0
 40
0.0
 40
0.0
 40
0.0
 40
1.0
 40
1.0
 40
1.0
 40
2.0
 40
2.0
 40
2.0
 40
3.0
 40
3.0
 40
3.0
 40
4.0
 40
4.0
 40
4.0
 40
4.0
 10
-0.0579561155618775
 20
1.253384294304864
 30
0.0
 10
-0.0396078274897036
 20
1.257249127482358
 30
0.0
 10
0.0261002870025019
 20
1.250480462756514
 30
0.0
 10
0.0502443372223019
 20
1.253384294304864
 30
0.0
 10
0.0744032636283186
 20
1.256276224904152
 30
0.0
 10
0.1275439760098228
 20
1.257249127482358
 30
0.0
 10
0.1478261682893592
 20
1.255303322325972
 30
0.0
 10
0.1681202615178563
 20
1.253384294304864
 30
0.0
 10
0.2241529044987247
 20
1.254345295934033
 30
0.0
 10
0.2405821645497023
 20
1.247588532157174
 30
0.0
 10
0.2569995236517065
 20
1.24081986743138
 30
0.0
 10
0.2850232832352301
 20
1.234048227468318
 30
0.0
 10
0.2937109759822457
 20
1.230186369528004
 30
0.0
  0
SPLINE
  5
9A
330
1F
100
AcDbEntity
  8
Layer 1
 62
     7
420
 16777215
370
    30
100
AcDbSpline
210
0.0
220
0.0
230
1.0
 70
     8
 71
     3
 72
    23
 73
    19
 74
     0
 42
0.0000000001
 43
0.0000000001
 12
1.0
 22
0.0
 32
0.0
 13
1.0
 23
0.0
 33
0.0
 40
0.0
 40
0.0
 40
0.0
 40
0.0
 40
1.0
 40
1.0
 40
1.0
 40
2.0
 40
2.0
 40
2.0
 40
3.0
 40
3.0
 40
3.0
 40
4.0
 40
4.0
 40
4.0
 40
5.0
 40
5.0
 40
5.0
 40
6.0
 40
6.0
 40
6.0
 40
6.0
 10
-0.0560251865917331
 20
1.38961148190981
 30
0.0
 10
-0.0328391627638843
 20
1.393473339850061
 30
0.0
 10
-0.008695112544097
 20
1.395407244057449
 30
0.0
 10
0.0193286470394393
 20
1.390569508301749
 30
0.0
 10
0.0473524066229503
 20
1.385746648732253
 30
0.0
 10
0.115952451714558
 20
1.38381274452489
 30
0.0
 10
0.1314088091873423
 20
1.38381274452489
 30
0.0
 10
0.146865166660152
 20
1.38381274452489
 30
0.0
 10
0.197102047493369
 20
1.373179246621539
 30
0.0
 10
0.2231948781067482
 20
1.380908912976578
 30
0.0
 10
0.2492698572966927
 20
1.388635604094374
 30
0.0
 10
0.2917919479610621
 20
1.385746648732253
 30
0.0
 10
0.3014525432862203
 20
1.391542410879929
 30
0.0
 10
0.3091822096412721
 20
1.384773746154072
 30
0.0
 10
0.3082093070630789
 20
1.380908912976578
 30
0.0
 10
0.3246385671140691
 20
1.379947911347408
 30
0.0
 10
0.3410559262160985
 20
1.378975008769228
 30
0.0
 10
0.3661728790140665
 20
1.374152149199719
 30
0.0
 10
0.3719835173479345
 20
1.380908912976578
 30
0.0
  0
SPLINE
  5
9B
330
1F
100
AcDbEntity
  8
Layer 1
 62
     7
420
 16777215
370
    30
100
AcDbSpline
210
0.0
220
0.0
230
1.0
 70
     8
 71
     3
 72
    20
 73
    16
 74
     0
 42
0.0000000001
 43
0.0000000001
 12
1.0
 22
0.0
 32
0.0
 13
1.0
 23
0.0
 33
0.0
 40
0.0
 40
0.0
 40
0.0
 40
0.0
 40
1.0
 40
1.0
 40
1.0
 40
2.0
 40
2.0
 40
2.0
 40
3.0
 40
3.0
 40
3.0
 40
4.0
 40
4.0
 40
4.0
 40
5.0
 40
5.0
 40
5.0
 40
5.0
 10
-0.0560251865917331
 20
1.347089391245415
 30
0.0
 10
-0.0347700917340287
 20
1.34999322279369
 30
0.0
 10
-0.0048302793665774
 20
1.343224558067909
 30
0.0
 10
0.0212625512468271
 20
1.338401698498375
 30
0.0
 10
0.0473524066229503
 20
1.3335639627427
 30
0.0
 10
0.113045644928977
 20
1.323903367417579
 30
0.0
 10
0.1294778802172232
 20
1.32003853424006
 30
0.0
 10
0.1458922640819967
 20
1.31617370106254
 30
0.0
 10
0.1487990708675271
 20
1.310377938914851
 30
0.0
 10
0.1845495215688465
 20
1.311350841493082
 30
0.0
 10
0.2129213839097146
 20
1.312076799380116
 30
0.0
 10
0.2473389283265482
 20
1.327765225357856
 30
0.0
 10
0.2599063304372622
 20
1.32969912956518
 30
0.0
 10
0.2724558811245414
 20
1.331630058535375
 30
0.0
 10
0.2869542122053872
 20
1.338401698498375
 30
0.0
 10
0.2985487117379206
 20
1.33260296111353
 30
0.0
  0
SPLINE
  5
9C
330
1F
100
AcDbEntity
  8
Layer 1
 62
     7
420
 16777215
370
    30
100
AcDbSpline
210
0.0
220
0.0
230
1.0
 70
     8
 71
     3
 72
    14
 73
    10
 74
     0
 42
0.0000000001
 43
0.0000000001
 12
1.0
 22
0.0
 32
0.0
 13
1.0
 23
0.0
 33
0.0
 40
0.0
 40
0.0
 40
0.0
 40
0.0
 40
1.0
 40
1.0
 40
1.0
 40
2.0
 40
2.0
 40
2.0
 40
3.0
 40
3.0
 40
3.0
 40
3.0
 10
-0.2670086665848683
 20
1.373296725202042
 30
0.0
 10
-0.2486603785127196
 20
1.377161558379536
 30
0.0
 10
-0.2583209738378905
 20
1.377161558379536
 30
0.0
 10
-0.2273933827060293
 20
1.362678103484869
 30
0.0
 10
-0.1964776925231541
 20
1.348179772404011
 30
0.0
 10
-0.1829522640204762
 20
1.332723414931239
 30
0.0
 10
-0.1742645712734985
 20
1.318236984799303
 30
0.0
 10
-0.1655620023402914
 20
1.303738653718496
 30
0.0
 10
-0.1168955653282637
 20
1.219564772573664
 30
0.0
 10
-0.1255981342614581
 20
1.200243581923309
 30
0.0
  0
SPLINE
  5
9D
330
1F
100
AcDbEntity
  8
Layer 1
 62
     7
420
 16777215
370
    30
100
AcDbSpline
210
0.0
220
0.0
230
1.0
 70
     8
 71
     3
 72
    17
 73
    13
 74
     0
 42
0.0000000001
 43
0.0000000001
 12
1.0
 22
0.0
 32
0.0
 13
1.0
 23
0.0
 33
0.0
 40
0.0
 40
0.0
 40
0.0
 40
0.0
 40
1.0
 40
1.0
 40
1.0
 40
2.0
 40
2.0
 40
2.0
 40
3.0
 40
3.0
 40
3.0
 40
4.0
 40
4.0
 40
4.0
 40
4.0
 10
-0.2641167359855167
 20
1.432236174968415
 30
0.0
 10
-0.2515523091120586
 20
1.435140006516728
 30
0.0
 10
-0.2399578095794999
 20
1.444800601841911
 30
0.0
 10
-0.2138679542033515
 20
1.427413315398919
 30
0.0
 10
-0.187789999776189
 20
1.410023053718747
 30
0.0
 10
-0.1536070176588029
 20
1.361587722326223
 30
0.0
 10
-0.1429883959416682
 20
1.347089391245415
 30
0.0
 10
-0.1323519228010986
 20
1.33260296111353
 30
0.0
 10
-0.1217333010839386
 20
1.296852510412211
 30
0.0
 10
-0.1043430394037538
 20
1.290095746635352
 30
0.0
 10
-0.0869408767745957
 20
1.283327081909495
 30
0.0
 10
-0.0772802814494374
 20
1.260141058081647
 30
0.0
 10
-0.065685781916904
 20
1.243723698979655
 30
0.0
  0
SPLINE
  5
9E
330
1F
100
AcDbEntity
  8
Layer 1
 62
     7
420
 16777215
370
    30
100
AcDbSpline
210
0.0
220
0.0
230
1.0
 70
     8
 71
     3
 72
    14
 73
    10
 74
     0
 42
0.0000000001
 43
0.0000000001
 12
1.0
 22
0.0
 32
0.0
 13
1.0
 23
0.0
 33
0.0
 40
0.0
 40
0.0
 40
0.0
 40
0.0
 40
1.0
 40
1.0
 40
1.0
 40
2.0
 40
2.0
 40
2.0
 40
3.0
 40
3.0
 40
3.0
 40
3.0
 10
-0.266050640192917
 20
1.504698078000249
 30
0.0
 10
-0.2409307121577058
 20
1.501809122638128
 30
0.0
 10
-0.2312701168325222
 20
1.496971386882453
 30
0.0
 10
-0.2100031210258445
 20
1.478608222624113
 30
0.0
 10
-0.1887629023543443
 20
1.460259934551939
 30
0.0
 10
-0.1468502538819444
 20
1.405067839382582
 30
0.0
 10
-0.1265561606534346
 20
1.385746648732253
 30
0.0
 10
-0.1062620674249375
 20
1.366410581895745
 30
0.0
 10
-0.0869408767745957
 20
1.33646779429105
 30
0.0
 10
-0.0666586844950719
 20
1.326807198965841
 30
0.0
  0
SPLINE
  5
9F
330
1F
100
AcDbEntity
  8
Layer 1
 62
     7
420
 16777215
370
    30
100
AcDbSpline
210
0.0
220
0.0
230
1.0
 70
     8
 71
     3
 72
    14
 73
    10
 74
     0
 42
0.0000000001
 43
0.0000000001
 12
1.0
 22
0.0
 32
0.0
 13
1.0
 23
0.0
 33
0.0
 40
0.0
 40
0.0
 40
0.0
 40
0.0
 40
1.0
 40
1.0
 40
1.0
 40
2.0
 40
2.0
 40
2.0
 40
3.0
 40
3.0
 40
3.0
 40
3.0
 10
-0.2679815691630362
 20
1.611940504392439
 30
0.0
 10
-0.2409307121577058
 20
1.607117644822981
 30
0.0
 10
-0.2264323810768347
 20
1.599376077518968
 30
0.0
 10
-0.2119340499959763
 20
1.58102778944687
 30
0.0
 10
-0.1974505951013472
 20
1.562664625188492
 30
0.0
 10
-0.1545799202369709
 20
1.491055170917106
 30
0.0
 10
-0.1429883959416682
 20
1.480421673013754
 30
0.0
 10
-0.1313938964091221
 20
1.469803051296657
 30
0.0
 10
-0.1004782062262469
 20
1.431157694758768
 30
0.0
 10
-0.0772802814494374
 20
1.416659363677897
 30
0.0
  0
SPLINE
  5
A0
330
1F
100
AcDbEntity
  8
Layer 1
 62
     7
420
 16777215
370
    30
100
AcDbSpline
210
0.0
220
0.0
230
1.0
 70
     8
 71
     3
 72
    17
 73
    13
 74
     0
 42
0.0000000001
 43
0.0000000001
 12
1.0
 22
0.0
 32
0.0
 13
1.0
 23
0.0
 33
0.0
 40
0.0
 40
0.0
 40
0.0
 40
0.0
 40
1.0
 40
1.0
 40
1.0
 40
2.0
 40
2.0
 40
2.0
 40
3.0
 40
3.0
 40
3.0
 40
4.0
 40
4.0
 40
4.0
 40
4.0
 10
-0.0540942576215886
 20
1.452412789616422
 30
0.0
 10
-0.0376768985195844
 20
1.455304720215786
 30
0.0
 10
-0.0106260415142414
 20
1.461100482363476
 30
0.0
 10
0.0135328848917753
 20
1.448547956438928
 30
0.0
 10
0.0376918112978173
 20
1.435980554328226
 30
0.0
 10
0.113045644928977
 20
1.422458101062792
 30
0.0
 10
0.1381655729642009
 20
1.423416127454756
 30
0.0
 10
0.1632825257621941
 20
1.424389030032911
 30
0.0
 10
0.2521766640822484
 20
1.43211869638795
 30
0.0
 10
0.2676330215550327
 20
1.436941555957446
 30
0.0
 10
0.2830893790278802
 20
1.441779291713121
 30
0.0
 10
0.3043444738855846
 20
1.439845387505746
 30
0.0
 10
0.3043444738855846
 20
1.439845387505746
 30
0.0
  0
SPLINE
  5
A1
330
1F
100
AcDbEntity
  8
Layer 1
 62
     7
420
 16777215
370
    30
100
AcDbSpline
210
0.0
220
0.0
230
1.0
 70
     8
 71
     3
 72
    23
 73
    19
 74
     0
 42
0.0000000001
 43
0.0000000001
 12
1.0
 22
0.0
 32
0.0
 13
1.0
 23
0.0
 33
0.0
 40
0.0
 40
0.0
 40
0.0
 40
0.0
 40
1.0
 40
1.0
 40
1.0
 40
2.0
 40
2.0
 40
2.0
 40
3.0
 40
3.0
 40
3.0
 40
4.0
 40
4.0
 40
4.0
 40
5.0
 40
5.0
 40
5.0
 40
6.0
 40
6.0
 40
6.0
 40
6.0
 10
-0.0492713980521305
 20
1.514241194744955
 30
0.0
 10
-0.0280163031944261
 20
1.510376361567435
 30
0.0
 10
-0.0280163031944261
 20
1.510376361567435
 30
0.0
 10
-0.0280163031944261
 20
1.510376361567435
 30
0.0
 10
-0.0280163031944261
 20
1.510376361567435
 30
0.0
 10
-0.0183557078692552
 20
1.511337363196617
 30
0.0
 10
-0.0028844742102163
 20
1.503607696841603
 30
0.0
 10
0.0125748584998241
 20
1.495878030486564
 30
0.0
 10
0.0454214776528311
 20
1.493947101516445
 30
0.0
 10
0.0686075014806799
 20
1.495878030486564
 30
0.0
 10
0.0917935253085034
 20
1.497811934693964
 30
0.0
 10
0.1246401444615357
 20
1.502649670449639
 30
0.0
 10
0.1487990708675271
 20
1.496850933064744
 30
0.0
 10
0.1729431210873145
 20
1.491055170917106
 30
0.0
 10
0.2376783330013773
 20
1.490082268338925
 30
0.0
 10
0.2550685946815873
 20
1.488151339368806
 30
0.0
 10
0.2724558811245414
 20
1.486217435161431
 30
0.0
 10
0.2850232832352301
 20
1.484286506191312
 30
0.0
 10
0.3024135449154654
 20
1.489124241946987
 30
0.0
  0
SPLINE
  5
A2
330
1F
100
AcDbEntity
  8
Layer 1
 62
     7
420
 16777215
370
    30
100
AcDbSpline
210
0.0
220
0.0
230
1.0
 70
     8
 71
     3
 72
    17
 73
    13
 74
     0
 42
0.0000000001
 43
0.0000000001
 12
1.0
 22
0.0
 32
0.0
 13
1.0
 23
0.0
 33
0.0
 40
0.0
 40
0.0
 40
0.0
 40
0.0
 40
1.0
 40
1.0
 40
1.0
 40
2.0
 40
2.0
 40
2.0
 40
3.0
 40
3.0
 40
3.0
 40
4.0
 40
4.0
 40
4.0
 40
4.0
 10
-0.2650777376147491
 20
1.694065977986687
 30
0.0
 10
-0.2515523091120586
 20
1.696969809535037
 30
0.0
 10
-0.2302972142543417
 20
1.686336311631673
 30
0.0
 10
-0.2254743546848835
 20
1.672810883129008
 30
0.0
 10
-0.220636618929196
 20
1.659285454626317
 30
0.0
 10
-0.203246357248986
 20
1.625465932895155
 30
0.0
 10
-0.1848861682278766
 20
1.615805337569959
 30
0.0
 10
-0.1665378801557027
 20
1.606144742244826
 30
0.0
 10
-0.1275290632316026
 20
1.541292051750323
 30
0.0
 10
-0.1159375389363125
 20
1.528724649639609
 30
0.0
 10
-0.1043430394037538
 20
1.516175098952355
 30
0.0
 10
-0.0705235176725788
 20
1.48332847979931
 30
0.0
 10
-0.0579561155618775
 20
1.482352601983911
 30
0.0
  0
SPLINE
  5
A3
330
1F
100
AcDbEntity
  8
Layer 1
 62
     7
420
 16777215
370
    30
100
AcDbSpline
210
0.0
220
0.0
230
1.0
 70
     8
 71
     3
 72
    14
 73
    10
 74
     0
 42
0.0000000001
 43
0.0000000001
 12
1.0
 22
0.0
 32
0.0
 13
1.0
 23
0.0
 33
0.0
 40
0.0
 40
0.0
 40
0.0
 40
0.0
 40
1.0
 40
1.0
 40
1.0
 40
2.0
 40
2.0
 40
2.0
 40
3.0
 40
3.0
 40
3.0
 40
3.0
 10
-0.1255981342614581
 20
1.700702287945837
 30
0.0
 10
-0.1188264942984082
 20
1.68428492884382
 30
0.0
 10
-0.1188264942984082
 20
1.674624333518699
 30
0.0
 10
-0.1110998031806124
 20
1.664963738193491
 30
0.0
 10
-0.1033701368255859
 20
1.65530314286837
 30
0.0
 10
-0.1004782062262469
 20
1.641777714365654
 30
0.0
 10
-0.0888718057447527
 20
1.637900980239199
 30
0.0
 10
-0.0772802814494374
 20
1.63403614706168
 30
0.0
 10
-0.0579561155618775
 20
1.629213287492171
 30
0.0
 10
-0.0540942576215886
 20
1.626306480706628
 30
0.0
  0
SPLINE
  5
A4
330
1F
100
AcDbEntity
  8
Layer 1
 62
     7
420
 16777215
370
    30
100
AcDbSpline
210
0.0
220
0.0
230
1.0
 70
     8
 71
     3
 72
    17
 73
    13
 74
     0
 42
0.0000000001
 43
0.0000000001
 12
1.0
 22
0.0
 32
0.0
 13
1.0
 23
0.0
 33
0.0
 40
0.0
 40
0.0
 40
0.0
 40
0.0
 40
1.0
 40
1.0
 40
1.0
 40
2.0
 40
2.0
 40
2.0
 40
3.0
 40
3.0
 40
3.0
 40
4.0
 40
4.0
 40
4.0
 40
4.0
 10
-0.2389997831875487
 20
1.805170262319191
 30
0.0
 10
-0.2389997831875487
 20
1.78391814269873
 30
0.0
 10
-0.2418917137869003
 20
1.76652788101852
 30
0.0
 10
-0.2264323810768347
 20
1.75009862096758
 30
0.0
 10
-0.2109760236040251
 20
1.733681261865526
 30
0.0
 10
-0.1732916686953306
 20
1.690201144809167
 30
0.0
 10
-0.1617001444000279
 20
1.678606645276659
 30
0.0
 10
-0.1501056448674818
 20
1.667015120981331
 30
0.0
 10
-0.0917786125303084
 20
1.593459861553621
 30
0.0
 10
-0.0801841129977371
 20
1.583799266228488
 30
0.0
 10
-0.0685925887024597
 20
1.574138670903292
 30
0.0
 10
-0.0550671601997818
 20
1.576069599873462
 30
0.0
 10
-0.0540942576215886
 20
1.567384882363715
 30
0.0
  0
POLYLINE
  5
A5
330
1F
100
AcDbEntity
  8
Layer 1
 62
     7
420
 16777215
370
    30
100
AcDb2dPolyline
 66
     1
 10
0.0
 20
0.0
 30
0.0
  0
VERTEX
  5
A6
330
A5
100
AcDbEntity
  8
Layer 1
 62
     7
420
 16777215
370
    30
100
AcDbVertex
100
AcDb2dVertex
 10
-0.0627938513175524
 20
1.164490155984772
 30
0.0
  0
VERTEX
  5
A7
330
A5
100
AcDbEntity
  8
Layer 1
 62
     7
420
 16777215
370
    30
100
AcDbVertex
100
AcDb2dVertex
 10
-0.0531332559923941
 20
1.525835694277488
 30
0.0
  0
SEQEND
  5
A8
330
A5
100
AcDbEntity
  8
Layer 1
 62
     7
420
 16777215
370
    30
  0
POLYLINE
  5
A9
330
1F
100
AcDbEntity
  8
Layer 1
 62
     7
420
 16777215
370
    30
100
AcDb2dPolyline
 66
     1
 10
0.0
 20
0.0
 30
0.0
  0
VERTEX
  5
AA
330
A9
100
AcDbEntity
  8
Layer 1
 62
     7
420
 16777215
370
    30
100
AcDbVertex
100
AcDb2dVertex
 10
0.2927529495902819
 20
1.073679964880764
 30
0.0
  0
VERTEX
  5
AB
330
A9
100
AcDbEntity
  8
Layer 1
 62
     7
420
 16777215
370
    30
100
AcDbVertex
100
AcDb2dVertex
 10
0.3043444738855846
 20
1.423416127454756
 30
0.0
  0
SEQEND
  5
AC
330
A9
100
AcDbEntity
  8
Layer 1
 62
     7
420
 16777215
370
    30
  0
POLYLINE
  5
AD
330
1F
100
AcDbEntity
  8
Layer 1
 62
     7
420
 16777215
370
    30
100
AcDb2dPolyline
 66
     1
 10
0.0
 20
0.0
 30
0.0
  0
VERTEX
  5
AE
330
AD
100
AcDbEntity
  8
Layer 1
 62
     7
420
 16777215
370
    30
100
AcDbVertex
100
AcDb2dVertex
 10
-0.0608629223474079
 20
1.295894484020247
 30
0.0
  0
VERTEX
  5
AF
330
AD
100
AcDbEntity
  8
Layer 1
 62
     7
420
 16777215
370
    30
100
AcDbVertex
100
AcDb2dVertex
 10
0.300479640708065
 20
1.295894484020247
 30
0.0
  0
SEQEND
  5
B0
330
AD
100
AcDbEntity
  8
Layer 1
 62
     7
420
 16777215
370
    30
  0
POLYLINE
  5
B1
330
1F
100
AcDbEntity
  8
Layer 1
 62
     7
420
 16777215
370
    30
100
AcDb2dPolyline
 66
     1
 10
0.0
 20
0.0
 30
0.0
  0
VERTEX
  5
B2
330
B1
100
AcDbEntity
  8
Layer 1
 62
     7
420
 16777215
370
    30
100
AcDbVertex
100
AcDb2dVertex
 10
-0.2563900448677461
 20
1.540451503938786
 30
0.0
  0
VERTEX
  5
B3
330
B1
100
AcDbEntity
  8
Layer 1
 62
     7
420
 16777215
370
    30
100
AcDbVertex
100
AcDb2dVertex
 10
-0.0569980891698884
 20
1.402161032597026
 30
0.0
  0
SEQEND
  5
B4
330
B1
100
AcDbEntity
  8
Layer 1
 62
     7
420
 16777215
370
    30
  0
POLYLINE
  5
B5
330
1F
100
AcDbEntity
  8
Layer 1
 62
     7
420
 16777215
370
    30
100
AcDb2dPolyline
 66
     1
 10
0.0
 20
0.0
 30
0.0
  0
VERTEX
  5
B6
330
B5
100
AcDbEntity
  8
Layer 1
 62
     7
420
 16777215
370
    30
100
AcDbVertex
100
AcDb2dVertex
 10
-0.2612129044372043
 20
1.822560523999401
 30
0.0
  0
VERTEX
  5
B7
330
B5
100
AcDbEntity
  8
Layer 1
 62
     7
420
 16777215
370
    30
100
AcDbVertex
100
AcDb2dVertex
 10
-0.0512023270222749
 20
1.65530314286837
 30
0.0
  0
VERTEX
  5
B8
330
B5
100
AcDbEntity
  8
Layer 1
 62
     7
420
 16777215
370
    30
100
AcDbVertex
100
AcDb2dVertex
 10
-0.0531332559923941
 20
1.527766623247607
 30
0.0
  0
VERTEX
  5
B9
330
B5
100
AcDbEntity
  8
Layer 1
 62
     7
420
 16777215
370
    30
100
AcDbVertex
100
AcDb2dVertex
 10
0.3082093070630789
 20
1.531631456425114
 30
0.0
  0
VERTEX
  5
BA
330
B5
100
AcDbEntity
  8
Layer 1
 62
     7
420
 16777215
370
    30
100
AcDbVertex
100
AcDb2dVertex
 10
0.3043444738855846
 20
1.425347056424875
 30
0.0
  0
VERTEX
  5
BB
330
B5
100
AcDbEntity
  8
Layer 1
 62
     7
420
 16777215
370
    30
100
AcDbVertex
100
AcDb2dVertex
 10
0.4608627794817847
 20
1.33453686532088
 30
0.0
  0
VERTEX
  5
BC
330
B5
100
AcDbEntity
  8
Layer 1
 62
     7
420
 16777215
370
    30
100
AcDbVertex
100
AcDb2dVertex
 10
0.4454064220089751
 20
0.872720540599049
 30
0.0
  0
SEQEND
  5
BD
330
B5
100
AcDbEntity
  8
Layer 1
 62
     7
420
 16777215
370
    30
  0
INSERT
  5
C0
330
1F
100
AcDbEntity
  8
E5
100
AcDbBlockReference
  2
block 2
 10
0.0
 20
0.0
 30
0.0
  0
MTEXT
  5
137
330
1F
100
AcDbEntity
  8
callout
 62
   250
420
  2236191
100
AcDbMText
 10
0.4927031199137369
 20
0.3339584138658311
 30
0.0
 40
0.118
 41
0.0
 46
0.0
 71
     7
 72
     1
  1
\fHelvetica Neue LT Std 55 Roman|b0|i0|c0|p34;\W1;SIMPSON Strong-Tie\H0.068794;®\H0.118; ^C
 73
     1
 44
1.0
  0
MTEXT
  5
138
330
1F
100
AcDbEntity
  8
callout
 62
   250
420
  2236191
100
AcDbMText
 10
-0.1551647186279297
 20
0.1339665518866645
 30
0.0
 40
0.118
 41
0.0
 46
0.0
 71
     7
 72
     1
  1
\fHelvetica Neue LT Std 55 Roman|b0|i0|c0|p34;\W1;E5 Rafter/Truss-to-Top Plate Installation 
 73
     1
 44
1.0
  0
MTEXT
  5
139
330
1F
100
AcDbEntity
  8
callout
 62
   250
420
  2236191
100
AcDbMText
 10
1.300544314914279
 20
0.8462662829293145
 30
0.0
 40
0.118
 41
0.0
 46
0.0
 71
     7
 72
     1
  1
\fHelvetica Neue LT Std 57 Condensed|b0|i0|c0|p34;\W1;E5
 73
     1
 44
1.0
  0
POLYLINE
  5
13A
330
1F
100
AcDbEntity
  8
callout
 62
   250
420
  2236191
370
    18
100
AcDb2dPolyline
 66
     1
 10
0.0
 20
0.0
 30
0.0
  0
VERTEX
  5
13B
330
13A
100
AcDbEntity
  8
callout
 62
   250
420
  2236191
370
    18
100
AcDbVertex
100
AcDb2dVertex
 10
1.350452449857534
 20
1.044810145163334
 30
0.0
  0
VERTEX
  5
13C
330
13A
100
AcDbEntity
  8
callout
 62
   250
420
  2236191
370
    18
100
AcDbVertex
100
AcDb2dVertex
 10
0.9677736022564305
 20
1.740166481104009
 30
0.0
  0
SEQEND
  5
13D
330
13A
100
AcDbEntity
  8
callout
 62
   250
420
  2236191
370
    18
  0
MTEXT
  5
13E
330
1F
100
AcDbEntity
  8
callout
 62
   250
420
  2236191
100
AcDbMText
 10
-0.4421168698204888
 20
2.646478652954102
 30
0.0
 40
0.118
 41
0.0
 46
0.0
 71
     7
 72
     1
  1
\fHelvetica Neue LT Std 57 Condensed|b0|i0|c0|p34;\W1;Top Plate
 73
     1
 44
1.0
  0
MTEXT
  5
13F
330
1F
100
AcDbEntity
  8
callout
 62
   250
420
  2236191
100
AcDbMText
 10
-0.4614247745937771
 20
3.394689559936523
 30
0.0
 40
0.118
 41
0.0
 46
0.0
 71
     7
 72
     1
  1
\fHelvetica Neue LT Std 57 Condensed|b0|i0|c0|p34;\W1;Truss / Rafter
 73
     1
 44
1.0
  0
POLYLINE
  5
140
330
1F
100
AcDbEntity
  8
callout
 62
   250
420
  2236191
370
    18
100
AcDb2dPolyline
 66
     1
 10
0.0
 20
0.0
 30
0.0
  0
VERTEX
  5
141
330
140
100
AcDbEntity
  8
callout
 62
   250
420
  2236191
370
    18
100
AcDbVertex
100
AcDb2dVertex
 10
-0.0382822576753925
 20
2.573116458148875
 30
0.0
  0
VERTEX
  5
142
330
140
100
AcDbEntity
  8
callout
 62
   250
420
  2236191
370
    18
100
AcDbVertex
100
AcDb2dVertex
 10
0.3003247085568242
 20
2.073380899755269
 30
0.0
  0
SEQEND
  5
143
330
140
100
AcDbEntity
  8
callout
 62
   250
420
  2236191
370
    18
  0
POLYLINE
  5
144
330
1F
100
AcDbEntity
  8
callout
 62
   250
420
  2236191
370
    18
100
AcDb2dPolyline
 66
     1
 10
0.0
 20
0.0
 30
0.0
  0
VERTEX
  5
145
330
144
100
AcDbEntity
  8
callout
 62
   250
420
  2236191
370
    18
100
AcDbVertex
100
AcDb2dVertex
 10
-0.0836861367307493
 20
3.351230244835303
 30
0.0
  0
VERTEX
  5
146
330
144
100
AcDbEntity
  8
callout
 62
   250
420
  2236191
370
    18
100
AcDbVertex
100
AcDb2dVertex
 10
0.483738147489526
 20
3.031070202663487
 30
0.0
  0
SEQEND
  5
147
330
144
100
AcDbEntity
  8
callout
 62
   250
420
  2236191
370
    18
  0
ENDSEC
  0
SECTION
  2
OBJECTS
  0
DICTIONARY
  5
C
330
0
100
AcDbDictionary
281
     1
  3
ACAD_GROUP
350
D
  3
ACAD_LAYOUT
350
1A
  3
ACAD_MATERIAL
350
3B
  3
ACAD_MLEADERSTYLE
350
149
  3
ACAD_MLINESTYLE
350
17
  3
ACAD_PLOTSETTINGS
350
19
  3
ACAD_PLOTSTYLENAME
350
E
  3
ACAD_TABLESTYLE
350
148
  3
ACAD_VISUALSTYLE
350
2A
  0
SUN
  5
3F
330
29
100
AcDbSun
 90
        1
290
     0
 63
     7
421
 16777215
 40
1.0
291
     1
 91
  2455826
 92
 54000000
292
     0
 70
     2
 71
   256
280
     1
  0
DICTIONARY
  5
D
102
{ACAD_REACTORS
330
C
102
}
330
C
100
AcDbDictionary
281
     1
  0
DICTIONARY
  5
1A
102
{ACAD_REACTORS
330
C
102
}
330
C
100
AcDbDictionary
281
     1
  3
Layout1
350
1E
  3
Layout2
350
26
  3
Model
350
22
  0
DICTIONARY
  5
3B
102
{ACAD_REACTORS
330
C
102
}
330
C
100
AcDbDictionary
281
     1
  3
ByBlock
350
3D
  3
ByLayer
350
3C
  3
Global
350
3E
  0
DICTIONARY
  5
149
102
{ACAD_REACTORS
330
C
102
}
330
C
100
AcDbDictionary
281
     1
  0
DICTIONARY
  5
17
102
{ACAD_REACTORS
330
C
102
}
330
C
100
AcDbDictionary
281
     1
  3
Standard
350
18
  0
DICTIONARY
  5
19
102
{ACAD_REACTORS
330
C
102
}
330
C
100
AcDbDictionary
281
     1
  0
ACDBDICTIONARYWDFLT
  5
E
102
{ACAD_REACTORS
330
C
102
}
330
C
100
AcDbDictionary
281
     1
  3
Normal
350
F
100
AcDbDictionaryWithDefault
340
F
  0
DICTIONARY
  5
148
102
{ACAD_REACTORS
330
C
102
}
330
C
100
AcDbDictionary
281
     1
  0
DICTIONARY
  5
2A
102
{ACAD_REACTORS
330
C
102
}
330
C
100
AcDbDictionary
281
     1
  3
2dWireframe
350
2F
  3
3D Hidden
350
31
  3
3dWireframe
350
30
  3
Basic
350
32
  3
Brighten
350
36
  3
ColorChange
350
3A
  3
Conceptual
350
34
  3
Dim
350
35
  3
Facepattern
350
39
  3
Flat
350
2B
  3
FlatWithEdges
350
2C
  3
Gouraud
350
2D
  3
GouraudWithEdges
350
2E
  3
Linepattern
350
38
  3
Realistic
350
33
  3
Thicken
350
37
  0
LAYOUT
  5
1E
102
{ACAD_REACTORS
330
1A
102
}
330
1A
100
AcDbPlotSettings
  1

  2
none_device
  4

  6

 40
0.0
 41
0.0
 42
0.0
 43
0.0
 44
0.0
 45
0.0
 46
0.0
 47
0.0
 48
0.0
 49
0.0
140
0.0
141
0.0
142
1.0
143
1.0
 70
   688
 72
     0
 73
     0
 74
     5
  7

 75
    16
 76
     0
 77
     2
 78
   300
147
1.0
148
0.0
149
0.0
100
AcDbLayout
  1
Layout1
 70
     1
 71
     1
 10
0.0
 20
0.0
 11
12.0
 21
9.0
 12
0.0
 22
0.0
 32
0.0
 14
1.000000000000000E+20
 24
1.000000000000000E+20
 34
1.000000000000000E+20
 15
-1.000000000000000E+20
 25
-1.000000000000000E+20
 35
-1.000000000000000E+20
146
0.0
 13
0.0
 23
0.0
 33
0.0
 16
1.0
 26
0.0
 36
0.0
 17
0.0
 27
1.0
 37
0.0
 76
     0
330
1B
  0
LAYOUT
  5
26
102
{ACAD_REACTORS
330
1A
102
}
330
1A
100
AcDbPlotSettings
  1

  2
none_device
  4

  6

 40
0.0
 41
0.0
 42
0.0
 43
0.0
 44
0.0
 45
0.0
 46
0.0
 47
0.0
 48
0.0
 49
0.0
140
0.0
141
0.0
142
1.0
143
1.0
 70
   688
 72
     0
 73
     0
 74
     5
  7

 75
    16
 76
     0
 77
     2
 78
   300
147
1.0
148
0.0
149
0.0
100
AcDbLayout
  1
Layout2
 70
     1
 71
     2
 10
0.0
 20
0.0
 11
0.0
 21
0.0
 12
0.0
 22
0.0
 32
0.0
 14
0.0
 24
0.0
 34
0.0
 15
0.0
 25
0.0
 35
0.0
146
0.0
 13
0.0
 23
0.0
 33
0.0
 16
1.0
 26
0.0
 36
0.0
 17
0.0
 27
1.0
 37
0.0
 76
     0
330
23
  0
LAYOUT
  5
22
102
{ACAD_REACTORS
330
1A
102
}
330
1A
100
AcDbPlotSettings
  1

  2
none_device
  4

  6

 40
0.0
 41
0.0
 42
0.0
 43
0.0
 44
0.0
 45
0.0
 46
0.0
 47
0.0
 48
0.0
 49
0.0
140
0.0
141
0.0
142
1.0
143
1.0
 70
  1712
 72
     0
 73
     0
 74
     0
  7

 75
     0
 76
     0
 77
     2
 78
   300
147
1.0
148
0.0
149
0.0
100
AcDbLayout
  1
Model
 70
     1
 71
     0
 10
0.0
 20
0.0
 11
12.0
 21
9.0
 12
0.0
 22
0.0
 32
0.0
 14
1.000000000000000E+20
 24
1.000000000000000E+20
 34
1.000000000000000E+20
 15
-1.000000000000000E+20
 25
-1.000000000000000E+20
 35
-1.000000000000000E+20
146
0.0
 13
0.0
 23
0.0
 33
0.0
 16
1.0
 26
0.0
 36
0.0
 17
0.0
 27
1.0
 37
0.0
 76
     0
330
1F
331
29
  0
MATERIAL
  5
3D
102
{ACAD_REACTORS
330
3B
102
}
330
3B
100
AcDbMaterial
  1
ByBlock
 72
     1
 94
      127
  0
MATERIAL
  5
3C
102
{ACAD_REACTORS
330
3B
102
}
330
3B
100
AcDbMaterial
  1
ByLayer
 72
     1
 94
      127
  0
MATERIAL
  5
3E
102
{ACAD_REACTORS
330
3B
102
}
330
3B
100
AcDbMaterial
  1
Global
 72
     1
 94
      127
  0
MLINESTYLE
  5
18
102
{ACAD_REACTORS
330
17
102
}
330
17
100
AcDbMlineStyle
  2
Standard
 70
     0
  3

 62
   256
 51
90.0
 52
90.0
 71
     2
 49
0.5
 62
   256
  6
BYLAYER
 49
-0.5
 62
   256
  6
BYLAYER
  0
ACDBPLACEHOLDER
  5
F
102
{ACAD_REACTORS
330
E
102
}
330
E
  0
VISUALSTYLE
  5
2F
102
{ACAD_REACTORS
330
2A
102
}
330
2A
100
AcDbVisualStyle
  2
2dWireframe
 70
     4
177
     2
291
     0
 71
     0
176
     1
 72
     2
176
     1
 73
     0
176
     1
 90
        0
176
     1
 40
-0.6
176
     1
 41
-30.0
176
     1
 62
     5
 63
     7
421
 16777215
176
     1
 74
     1
176
     1
 91
        4
176
     1
 64
     7
176
     1
 65
   257
176
     1
 75
     1
176
     1
175
     1
176
     1
 42
1.0
176
     1
 92
        0
176
     1
 66
   257
176
     1
 43
1.0
176
     1
 76
     1
176
     1
 77
     6
176
     1
 78
     2
176
     1
 67
     7
176
     1
 79
     5
176
     1
170
     0
176
     1
171
     0
176
     1
290
     0
176
     1
 93
        1
176
     1
 44
0.0
176
     1
173
     0
176
     1
  0
VISUALSTYLE
  5
31
102
{ACAD_REACTORS
330
2A
102
}
330
2A
100
AcDbVisualStyle
  2
3D Hidden
 70
     6
177
     2
291
     0
 71
     1
176
     1
 72
     2
176
     1
 73
     2
176
     1
 90
        0
176
     1
 40
-0.6
176
     1
 41
-30.0
176
     1
 62
     5
 63
     7
421
 16777215
176
     1
 74
     2
176
     1
 91
        2
176
     1
 64
     7
176
     1
 65
   257
176
     1
 75
     2
176
     1
175
     1
176
     1
 42
40.0
176
     1
 92
        0
176
     1
 66
   257
176
     1
 43
1.0
176
     1
 76
     1
176
     1
 77
     6
176
     1
 78
     2
176
     1
 67
     7
176
     1
 79
     3
176
     1
170
     0
176
     1
171
     0
176
     1
290
     0
176
     1
 93
        1
176
     1
 44
0.0
176
     1
173
     0
176
     1
  0
VISUALSTYLE
  5
30
102
{ACAD_REACTORS
330
2A
102
}
330
2A
100
AcDbVisualStyle
  2
3dWireframe
 70
     5
177
     2
291
     0
 71
     0
176
     1
 72
     2
176
     1
 73
     0
176
     1
 90
        0
176
     1
 40
-0.6
176
     1
 41
-30.0
176
     1
 62
     5
 63
     7
421
 16777215
176
     1
 74
     1
176
     1
 91
        4
176
     1
 64
     7
176
     1
 65
   257
176
     1
 75
     1
176
     1
175
     1
176
     1
 42
1.0
176
     1
 92
        0
176
     1
 66
   257
176
     1
 43
1.0
176
     1
 76
     1
176
     1
 77
     6
176
     1
 78
     2
176
     1
 67
     7
176
     1
 79
     5
176
     1
170
     0
176
     1
171
     0
176
     1
290
     0
176
     1
 93
        1
176
     1
 44
0.0
176
     1
173
     0
176
     1
  0
VISUALSTYLE
  5
32
102
{ACAD_REACTORS
330
2A
102
}
330
2A
100
AcDbVisualStyle
  2
Basic
 70
     7
177
     2
291
     1
 71
     1
176
     1
 72
     0
176
     1
 73
     1
176
     1
 90
        0
176
     1
 40
-0.6
176
     1
 41
-30.0
176
     1
 62
     5
 63
     7
421
 16777215
176
     1
 74
     0
176
     1
 91
        4
176
     1
 64
     7
176
     1
 65
   257
176
     1
 75
     1
176
     1
175
     1
176
     1
 42
1.0
176
     1
 92
        8
176
     1
 66
     7
176
     1
 43
1.0
176
     1
 76
     1
176
     1
 77
     6
176
     1
 78
     2
176
     1
 67
     7
176
     1
 79
     5
176
     1
170
     0
176
     1
171
     0
176
     1
290
     0
176
     1
 93
        1
176
     1
 44
0.0
176
     1
173
     0
176
     1
  0
VISUALSTYLE
  5
36
102
{ACAD_REACTORS
330
2A
102
}
330
2A
100
AcDbVisualStyle
  2
Brighten
 70
    12
177
     2
291
     1
 71
     2
176
     1
 72
     2
176
     1
 73
     0
176
     1
 90
        0
176
     1
 40
-0.6
176
     1
 41
-30.0
176
     1
 62
     5
 63
     7
421
 16777215
176
     1
 74
     1
176
     1
 91
        4
176
     1
 64
     7
176
     1
 65
   257
176
     1
 75
     1
176
     1
175
     1
176
     1
 42
1.0
176
     1
 92
        8
176
     1
 66
     7
176
     1
 43
1.0
176
     1
 76
     1
176
     1
 77
     6
176
     1
 78
     2
176
     1
 67
     7
176
     1
 79
     5
176
     1
170
     0
176
     1
171
     0
176
     1
290
     0
176
     1
 93
        1
176
     1
 44
50.0
176
     1
173
     0
176
     1
  0
VISUALSTYLE
  5
3A
102
{ACAD_REACTORS
330
2A
102
}
330
2A
100
AcDbVisualStyle
  2
ColorChange
 70
    16
177
     2
291
     1
 71
     2
176
     1
 72
     2
176
     1
 73
     3
176
     1
 90
        0
176
     1
 40
-0.6
176
     1
 41
-30.0
176
     1
 62
     5
 63
     8
421
  8421504
176
     1
 74
     1
176
     1
 91
        4
176
     1
 64
     7
176
     1
 65
   257
176
     1
 75
     1
176
     1
175
     1
176
     1
 42
1.0
176
     1
 92
        8
176
     1
 66
     8
424
  8421504
176
     1
 43
1.0
176
     1
 76
     1
176
     1
 77
     6
176
     1
 78
     2
176
     1
 67
     7
176
     1
 79
     5
176
     1
170
     0
176
     1
171
     0
176
     1
290
     0
176
     1
 93
        1
176
     1
 44
0.0
176
     1
173
     0
176
     1
  0
VISUALSTYLE
  5
34
102
{ACAD_REACTORS
330
2A
102
}
330
2A
100
AcDbVisualStyle
  2
Conceptual
 70
     9
177
     2
291
     0
 71
     3
176
     1
 72
     2
176
     1
 73
     0
176
     1
 90
        0
176
     1
 40
-0.6
176
     1
 41
-30.0
176
     1
 62
     5
 63
     7
421
 16777215
176
     1
 74
     2
176
     1
 91
        2
176
     1
 64
     7
176
     1
 65
   257
176
     1
 75
     1
176
     1
175
     1
176
     1
 42
40.0
176
     1
 92
        8
176
     1
 66
     7
176
     1
 43
1.0
176
     1
 76
     1
176
     1
 77
     6
176
     1
 78
     2
176
     1
 67
     7
176
     1
 79
     3
176
     1
170
     0
176
     1
171
     0
176
     1
290
     0
176
     1
 93
        1
176
     1
 44
0.0
176
     1
173
     0
176
     1
  0
VISUALSTYLE
  5
35
102
{ACAD_REACTORS
330
2A
102
}
330
2A
100
AcDbVisualStyle
  2
Dim
 70
    11
177
     2
291
     1
 71
     2
176
     1
 72
     2
176
     1
 73
     0
176
     1
 90
        0
176
     1
 40
-0.6
176
     1
 41
-30.0
176
     1
 62
     5
 63
     7
421
 16777215
176
     1
 74
     1
176
     1
 91
        4
176
     1
 64
     7
176
     1
 65
   257
176
     1
 75
     1
176
     1
175
     1
176
     1
 42
1.0
176
     1
 92
        8
176
     1
 66
     7
176
     1
 43
1.0
176
     1
 76
     1
176
     1
 77
     6
176
     1
 78
     2
176
     1
 67
     7
176
     1
 79
     5
176
     1
170
     0
176
     1
171
     0
176
     1
290
     0
176
     1
 93
        1
176
     1
 44
-50.0
176
     1
173
     0
176
     1
  0
VISUALSTYLE
  5
39
102
{ACAD_REACTORS
330
2A
102
}
330
2A
100
AcDbVisualStyle
  2
Facepattern
 70
    15
177
     2
291
     1
 71
     2
176
     1
 72
     2
176
     1
 73
     0
176
     1
 90
        0
176
     1
 40
-0.6
176
     1
 41
-30.0
176
     1
 62
     5
 63
     7
421
 16777215
176
     1
 74
     1
176
     1
 91
        4
176
     1
 64
     7
176
     1
 65
   257
176
     1
 75
     1
176
     1
175
     1
176
     1
 42
1.0
176
     1
 92
        8
176
     1
 66
     7
176
     1
 43
1.0
176
     1
 76
     1
176
     1
 77
     6
176
     1
 78
     2
176
     1
 67
     7
176
     1
 79
     5
176
     1
170
     0
176
     1
171
     0
176
     1
290
     0
176
     1
 93
        1
176
     1
 44
0.0
176
     1
173
     0
176
     1
  0
VISUALSTYLE
  5
2B
102
{ACAD_REACTORS
330
2A
102
}
330
2A
100
AcDbVisualStyle
  2
Flat
 70
     0
177
     2
291
     1
 71
     2
176
     1
 72
     1
176
     1
 73
     1
176
     1
 90
        2
176
     1
 40
-0.6
176
     1
 41
30.0
176
     1
 62
     5
 63
     7
421
 16777215
176
     1
 74
     0
176
     1
 91
        4
176
     1
 64
     7
176
     1
 65
   257
176
     1
 75
     1
176
     1
175
     1
176
     1
 42
1.0
176
     1
 92
        8
176
     1
 66
     7
176
     1
 43
1.0
176
     1
 76
     1
176
     1
 77
     6
176
     1
 78
     2
176
     1
 67
     7
176
     1
 79
     5
176
     1
170
     0
176
     1
171
     0
176
     1
290
     0
176
     1
 93
       13
176
     1
 44
0.0
176
     1
173
     0
176
     1
  0
VISUALSTYLE
  5
2C
102
{ACAD_REACTORS
330
2A
102
}
330
2A
100
AcDbVisualStyle
  2
FlatWithEdges
 70
     1
177
     2
291
     1
 71
     2
176
     1
 72
     1
176
     1
 73
     1
176
     1
 90
        2
176
     1
 40
-0.6
176
     1
 41
30.0
176
     1
 62
     5
 63
     7
421
 16777215
176
     1
 74
     1
176
     1
 91
        4
176
     1
 64
     7
176
     1
 65
   257
176
     1
 75
     1
176
     1
175
     1
176
     1
 42
1.0
176
     1
 92
        0
176
     1
 66
   257
176
     1
 43
1.0
176
     1
 76
     1
176
     1
 77
     6
176
     1
 78
     2
176
     1
 67
     7
176
     1
 79
     5
176
     1
170
     0
176
     1
171
     0
176
     1
290
     0
176
     1
 93
       13
176
     1
 44
0.0
176
     1
173
     0
176
     1
  0
VISUALSTYLE
  5
2D
102
{ACAD_REACTORS
330
2A
102
}
330
2A
100
AcDbVisualStyle
  2
Gouraud
 70
     2
177
     2
291
     1
 71
     2
176
     1
 72
     2
176
     1
 73
     1
176
     1
 90
        2
176
     1
 40
-0.6
176
     1
 41
30.0
176
     1
 62
     5
 63
     7
421
 16777215
176
     1
 74
     0
176
     1
 91
        4
176
     1
 64
     7
176
     1
 65
   257
176
     1
 75
     1
176
     1
175
     1
176
     1
 42
1.0
176
     1
 92
        0
176
     1
 66
     7
176
     1
 43
1.0
176
     1
 76
     1
176
     1
 77
     6
176
     1
 78
     2
176
     1
 67
     7
176
     1
 79
     5
176
     1
170
     0
176
     1
171
     0
176
     1
290
     0
176
     1
 93
       13
176
     1
 44
0.0
176
     1
173
     0
176
     1
  0
VISUALSTYLE
  5
2E
102
{ACAD_REACTORS
330
2A
102
}
330
2A
100
AcDbVisualStyle
  2
GouraudWithEdges
 70
     3
177
     2
291
     1
 71
     2
176
     1
 72
     2
176
     1
 73
     1
176
     1
 90
        2
176
     1
 40
-0.6
176
     1
 41
30.0
176
     1
 62
     5
 63
     7
421
 16777215
176
     1
 74
     1
176
     1
 91
        4
176
     1
 64
     7
176
     1
 65
   257
176
     1
 75
     1
176
     1
175
     1
176
     1
 42
1.0
176
     1
 92
        0
176
     1
 66
   257
176
     1
 43
1.0
176
     1
 76
     1
176
     1
 77
     6
176
     1
 78
     2
176
     1
 67
     7
176
     1
 79
     5
176
     1
170
     0
176
     1
171
     0
176
     1
290
     0
176
     1
 93
       13
176
     1
 44
0.0
176
     1
173
     0
176
     1
  0
VISUALSTYLE
  5
38
102
{ACAD_REACTORS
330
2A
102
}
330
2A
100
AcDbVisualStyle
  2
Linepattern
 70
    14
177
     2
291
     1
 71
     2
176
     1
 72
     2
176
     1
 73
     0
176
     1
 90
        0
176
     1
 40
-0.6
176
     1
 41
-30.0
176
     1
 62
     5
 63
     7
421
 16777215
176
     1
 74
     1
176
     1
 91
        4
176
     1
 64
     7
176
     1
 65
   257
176
     1
 75
     7
176
     1
175
     7
176
     1
 42
1.0
176
     1
 92
        8
176
     1
 66
     7
176
     1
 43
1.0
176
     1
 76
     1
176
     1
 77
     6
176
     1
 78
     2
176
     1
 67
     7
176
     1
 79
     5
176
     1
170
     0
176
     1
171
     0
176
     1
290
     0
176
     1
 93
        1
176
     1
 44
0.0
176
     1
173
     0
176
     1
  0
VISUALSTYLE
  5
33
102
{ACAD_REACTORS
330
2A
102
}
330
2A
100
AcDbVisualStyle
  2
Realistic
 70
     8
177
     2
291
     0
 71
     2
176
     1
 72
     2
176
     1
 73
     0
176
     1
 90
        0
176
     1
 40
-0.6
176
     1
 41
-30.0
176
     1
 62
     5
 63
     7
421
 16777215
176
     1
 74
     1
176
     1
 91
        0
176
     1
 64
     7
176
     1
 65
   257
176
     1
 75
     1
176
     1
175
     1
176
     1
 42
1.0
176
     1
 92
        8
176
     1
 66
     8
424
  7895160
176
     1
 43
1.0
176
     1
 76
     1
176
     1
 77
     6
176
     1
 78
     2
176
     1
 67
     7
176
     1
 79
     5
176
     1
170
     0
176
     1
171
     0
176
     1
290
     0
176
     1
 93
       13
176
     1
 44
0.0
176
     1
173
     0
176
     1
  0
VISUALSTYLE
  5
37
102
{ACAD_REACTORS
330
2A
102
}
330
2A
100
AcDbVisualStyle
  2
Thicken
 70
    13
177
     2
291
     1
 71
     2
176
     1
 72
     2
176
     1
 73
     0
176
     1
 90
        0
176
     1
 40
-0.6
176
     1
 41
-30.0
176
     1
 62
     5
 63
     7
421
 16777215
176
     1
 74
     1
176
     1
 91
        4
176
     1
 64
     7
176
     1
 65
   257
176
     1
 75
     1
176
     1
175
     1
176
     1
 42
1.0
176
     1
 92
       12
176
     1
 66
     7
176
     1
 43
1.0
176
     1
 76
     1
176
     1
 77
     6
176
     1
 78
     2
176
     1
 67
     7
176
     1
 79
     5
176
     1
170
     0
176
     1
171
     0
176
     1
290
     0
176
     1
 93
        1
176
     1
 44
0.0
176
     1
173
     0
176
     1
  0
ENDSEC
  0
EOF
