  0
SECTION
  2
HEADER
  9
$ACADVER
  1
AC1024
  9
$ACADMAINTVER
 70
     6
  9
$DWGCODEPAGE
  3
ANSI_1252
  9
$INSBASE
 10
0.0
 20
0.0
 30
0.0
  9
$EXTMIN
 10
1.000000000000000E+20
 20
1.000000000000000E+20
 30
1.000000000000000E+20
  9
$EXTMAX
 10
-1.000000000000000E+20
 20
-1.000000000000000E+20
 30
-1.000000000000000E+20
  9
$LIMMIN
 10
0.0
 20
0.0
  9
$LIMMAX
 10
12.0
 20
9.0
  9
$ORTHOMODE
 70
     0
  9
$REGENMODE
 70
     1
  9
$FILLMODE
 70
     1
  9
$QTEXTMODE
 70
     0
  9
$MIRRTEXT
 70
     1
  9
$LTSCALE
 40
1.0
  9
$ATTMODE
 70
     1
  9
$TEXTSIZE
 40
0.2
  9
$TRACEWID
 40
0.05
  9
$TEXTSTYLE
  7
Standard
  9
$CLAYER
  8
0
  9
$CELTYPE
  6
ByLayer
  9
$CECOLOR
 62
   256
  9
$CELTSCALE
 40
1.0
  9
$DISPSILH
 70
     0
  9
$DIMSCALE
 40
1.0
  9
$DIMASZ
 40
0.18
  9
$DIMEXO
 40
0.0625
  9
$DIMDLI
 40
0.38
  9
$DIMRND
 40
0.0
  9
$DIMDLE
 40
0.0
  9
$DIMEXE
 40
0.18
  9
$DIMTP
 40
0.0
  9
$DIMTM
 40
0.0
  9
$DIMTXT
 40
0.18
  9
$DIMCEN
 40
0.09
  9
$DIMTSZ
 40
0.0
  9
$DIMTOL
 70
     0
  9
$DIMLIM
 70
     0
  9
$DIMTIH
 70
     1
  9
$DIMTOH
 70
     1
  9
$DIMSE1
 70
     0
  9
$DIMSE2
 70
     0
  9
$DIMTAD
 70
     0
  9
$DIMZIN
 70
     0
  9
$DIMBLK
  1

  9
$DIMASO
 70
     1
  9
$DIMSHO
 70
     1
  9
$DIMPOST
  1

  9
$DIMAPOST
  1

  9
$DIMALT
 70
     0
  9
$DIMALTD
 70
     2
  9
$DIMALTF
 40
25.4
  9
$DIMLFAC
 40
1.0
  9
$DIMTOFL
 70
     0
  9
$DIMTVP
 40
0.0
  9
$DIMTIX
 70
     0
  9
$DIMSOXD
 70
     0
  9
$DIMSAH
 70
     0
  9
$DIMBLK1
  1

  9
$DIMBLK2
  1

  9
$DIMSTYLE
  2
Standard
  9
$DIMCLRD
 70
     0
  9
$DIMCLRE
 70
     0
  9
$DIMCLRT
 70
     0
  9
$DIMTFAC
 40
1.0
  9
$DIMGAP
 40
0.09
  9
$DIMJUST
 70
     0
  9
$DIMSD1
 70
     0
  9
$DIMSD2
 70
     0
  9
$DIMTOLJ
 70
     1
  9
$DIMTZIN
 70
     0
  9
$DIMALTZ
 70
     0
  9
$DIMALTTZ
 70
     0
  9
$DIMUPT
 70
     0
  9
$DIMDEC
 70
     4
  9
$DIMTDEC
 70
     4
  9
$DIMALTU
 70
     2
  9
$DIMALTTD
 70
     2
  9
$DIMTXSTY
  7
Standard
  9
$DIMAUNIT
 70
     0
  9
$DIMADEC
 70
     0
  9
$DIMALTRND
 40
0.0
  9
$DIMAZIN
 70
     0
  9
$DIMDSEP
 70
    46
  9
$DIMATFIT
 70
     3
  9
$DIMFRAC
 70
     0
  9
$DIMLDRBLK
  1

  9
$DIMLUNIT
 70
     2
  9
$DIMLWD
 70
    -2
  9
$DIMLWE
 70
    -2
  9
$DIMTMOVE
 70
     0
  9
$DIMFXL
 40
1.0
  9
$DIMFXLON
 70
     0
  9
$DIMJOGANG
 40
0.7853981633974483
  9
$DIMTFILL
 70
     0
  9
$DIMTFILLCLR
 70
     0
  9
$DIMARCSYM
 70
     0
  9
$DIMLTYPE
  6

  9
$DIMLTEX1
  6

  9
$DIMLTEX2
  6

  9
$DIMTXTDIRECTION
 70
     0
  9
$LUNITS
 70
     2
  9
$LUPREC
 70
     4
  9
$SKETCHINC
 40
0.1
  9
$FILLETRAD
 40
0.5
  9
$AUNITS
 70
     0
  9
$AUPREC
 70
     0
  9
$MENU
  1
.
  9
$ELEVATION
 40
0.0
  9
$PELEVATION
 40
0.0
  9
$THICKNESS
 40
0.0
  9
$LIMCHECK
 70
     0
  9
$CHAMFERA
 40
0.5
  9
$CHAMFERB
 40
0.5
  9
$CHAMFERC
 40
1.0
  9
$CHAMFERD
 40
0.0
  9
$SKPOLY
 70
     0
  9
$TDCREATE
 40
2458782.604302315
  9
$TDUCREATE
 40
2458782.062635648
  9
$TDUPDATE
 40
2458782.604302488
  9
$TDUUPDATE
 40
2458782.062635822
  9
$TDINDWG
 40
0.0000000116
  9
$TDUSRTIMER
 40
0.0000000116
  9
$USRTIMER
 70
     1
  9
$ANGBASE
 50
0.0
  9
$ANGDIR
 70
     0
  9
$PDMODE
 70
     0
  9
$PDSIZE
 40
0.0
  9
$PLINEWID
 40
0.0
  9
$SPLFRAME
 70
     0
  9
$SPLINETYPE
 70
     6
  9
$SPLINESEGS
 70
     8
  9
$HANDSEED
  5
1DF
  9
$SURFTAB1
 70
     6
  9
$SURFTAB2
 70
     6
  9
$SURFTYPE
 70
     6
  9
$SURFU
 70
     6
  9
$SURFV
 70
     6
  9
$UCSBASE
  2

  9
$UCSNAME
  2

  9
$UCSORG
 10
0.0
 20
0.0
 30
0.0
  9
$UCSXDIR
 10
1.0
 20
0.0
 30
0.0
  9
$UCSYDIR
 10
0.0
 20
1.0
 30
0.0
  9
$UCSORTHOREF
  2

  9
$UCSORTHOVIEW
 70
     0
  9
$UCSORGTOP
 10
0.0
 20
0.0
 30
0.0
  9
$UCSORGBOTTOM
 10
0.0
 20
0.0
 30
0.0
  9
$UCSORGLEFT
 10
0.0
 20
0.0
 30
0.0
  9
$UCSORGRIGHT
 10
0.0
 20
0.0
 30
0.0
  9
$UCSORGFRONT
 10
0.0
 20
0.0
 30
0.0
  9
$UCSORGBACK
 10
0.0
 20
0.0
 30
0.0
  9
$PUCSBASE
  2

  9
$PUCSNAME
  2

  9
$PUCSORG
 10
0.0
 20
0.0
 30
0.0
  9
$PUCSXDIR
 10
1.0
 20
0.0
 30
0.0
  9
$PUCSYDIR
 10
0.0
 20
1.0
 30
0.0
  9
$PUCSORTHOREF
  2

  9
$PUCSORTHOVIEW
 70
     0
  9
$PUCSORGTOP
 10
0.0
 20
0.0
 30
0.0
  9
$PUCSORGBOTTOM
 10
0.0
 20
0.0
 30
0.0
  9
$PUCSORGLEFT
 10
0.0
 20
0.0
 30
0.0
  9
$PUCSORGRIGHT
 10
0.0
 20
0.0
 30
0.0
  9
$PUCSORGFRONT
 10
0.0
 20
0.0
 30
0.0
  9
$PUCSORGBACK
 10
0.0
 20
0.0
 30
0.0
  9
$USERI1
 70
     0
  9
$USERI2
 70
     0
  9
$USERI3
 70
     0
  9
$USERI4
 70
     0
  9
$USERI5
 70
     0
  9
$USERR1
 40
0.0
  9
$USERR2
 40
0.0
  9
$USERR3
 40
0.0
  9
$USERR4
 40
0.0
  9
$USERR5
 40
0.0
  9
$WORLDVIEW
 70
     1
  9
$SHADEDGE
 70
     3
  9
$SHADEDIF
 70
    70
  9
$TILEMODE
 70
     1
  9
$MAXACTVP
 70
    64
  9
$PINSBASE
 10
0.0
 20
0.0
 30
0.0
  9
$PLIMCHECK
 70
     0
  9
$PEXTMIN
 10
1.000000000000000E+20
 20
1.000000000000000E+20
 30
1.000000000000000E+20
  9
$PEXTMAX
 10
-1.000000000000000E+20
 20
-1.000000000000000E+20
 30
-1.000000000000000E+20
  9
$PLIMMIN
 10
0.0
 20
0.0
  9
$PLIMMAX
 10
12.0
 20
9.0
  9
$UNITMODE
 70
     0
  9
$VISRETAIN
 70
     1
  9
$PLINEGEN
 70
     0
  9
$PSLTSCALE
 70
     1
  9
$TREEDEPTH
 70
  3020
  9
$CMLSTYLE
  2
Standard
  9
$CMLJUST
 70
     0
  9
$CMLSCALE
 40
1.0
  9
$PROXYGRAPHICS
 70
     1
  9
$MEASUREMENT
 70
     0
  9
$CELWEIGHT
370
    -1
  9
$ENDCAPS
280
     0
  9
$JOINSTYLE
280
     0
  9
$LWDISPLAY
290
     1
  9
$INSUNITS
 70
     1
  9
$HYPERLINKBASE
  1

  9
$STYLESHEET
  1

  9
$XEDIT
290
     1
  9
$CEPSNTYPE
380
     0
  9
$PSTYLEMODE
290
     1
  9
$FINGERPRINTGUID
  2
{A54C1909-580C-4D4F-8C60-E57CF9ECF43B}
  9
$VERSIONGUID
  2
{FAEB1C32-E019-11D5-929B-00C0DF256EC4}
  9
$EXTNAMES
290
     1
  9
$PSVPSCALE
 40
0.0
  9
$OLESTARTUP
290
     0
  9
$SORTENTS
280
   127
  9
$INDEXCTL
280
     0
  9
$HIDETEXT
280
     1
  9
$XCLIPFRAME
280
     2
  9
$HALOGAP
280
     0
  9
$OBSCOLOR
 70
   257
  9
$OBSLTYPE
280
     0
  9
$INTERSECTIONDISPLAY
280
     0
  9
$INTERSECTIONCOLOR
 70
   257
  9
$DIMASSOC
280
     2
  9
$PROJECTNAME
  1

  9
$CAMERADISPLAY
290
     0
  9
$LENSLENGTH
 40
50.0
  9
$CAMERAHEIGHT
 40
0.0
  9
$STEPSPERSEC
 40
2.0
  9
$STEPSIZE
 40
6.0
  9
$3DDWFPREC
 40
2.0
  9
$PSOLWIDTH
 40
0.25
  9
$PSOLHEIGHT
 40
4.0
  9
$LOFTANG1
 40
1.570796326794897
  9
$LOFTANG2
 40
1.570796326794897
  9
$LOFTMAG1
 40
0.0
  9
$LOFTMAG2
 40
0.0
  9
$LOFTPARAM
 70
     7
  9
$LOFTNORMALS
280
     1
  9
$LATITUDE
 40
37.795
  9
$LONGITUDE
 40
-122.394
  9
$NORTHDIRECTION
 40
0.0
  9
$TIMEZONE
 70
 -8000
  9
$LIGHTGLYPHDISPLAY
280
     1
  9
$TILEMODELIGHTSYNCH
280
     1
  9
$CMATERIAL
347
3C
  9
$SOLIDHIST
280
     1
  9
$SHOWHIST
280
     1
  9
$DWFFRAME
280
     2
  9
$DGNFRAME
280
     2
  9
$REALWORLDSCALE
290
     1
  9
$INTERFERECOLOR
 62
   256
  9
$CSHADOW
280
     0
  9
$SHADOWPLANELOCATION
 40
0.0
  0
ENDSEC
  0
SECTION
  2
CLASSES
  0
CLASS
  1
ACDBDICTIONARYWDFLT
  2
AcDbDictionaryWithDefault
  3
ObjectDBX Classes
 90
        0
 91
        4
280
     0
281
     0
  0
CLASS
  1
VISUALSTYLE
  2
AcDbVisualStyle
  3
ObjectDBX Classes
 90
     4095
 91
        4
280
     0
281
     0
  0
CLASS
  1
MATERIAL
  2
AcDbMaterial
  3
ObjectDBX Classes
 90
     1153
 91
        4
280
     0
281
     0
  0
CLASS
  1
SUN
  2
AcDbSun
  3
SCENEOE
 90
     1024
 91
        4
280
     0
281
     0
  0
ENDSEC
  0
SECTION
  2
TABLES
  0
TABLE
  2
VPORT
  5
8
330
0
100
AcDbSymbolTable
 70
     1
  0
VPORT
  5
29
330
8
100
AcDbSymbolTableRecord
100
AcDbViewportTableRecord
  2
*Active
 70
     0
 10
0.0
 20
0.0
 11
1.0
 21
1.0
 12
0.0
 22
0.0
 13
0.0
 23
0.0
 14
0.5
 24
0.5
 15
0.5
 25
0.5
 16
0.0
 26
0.0
 36
1.0
 17
4.275251388888894
 27
5.617923469190423
 37
0.0
 40
11.6929138888889
 41
0.7070706700117676
 42
50.0
 43
0.0
 44
0.0
 50
0.0
 51
0.0
 71
     0
 72
   100
 73
     1
 74
     3
 75
     0
 76
     0
 77
     0
 78
     0
281
     0
 65
     1
110
0.0
120
0.0
130
0.0
111
1.0
121
0.0
131
0.0
112
0.0
122
1.0
132
0.0
 79
     0
146
0.0
 60
     3
 61
     5
292
     1
282
     1
141
0.0
142
0.0
 63
   250
361
3F
  0
ENDTAB
  0
TABLE
  2
LTYPE
  5
5
330
0
100
AcDbSymbolTable
 70
     1
  0
LTYPE
  5
14
330
5
100
AcDbSymbolTableRecord
100
AcDbLinetypeTableRecord
  2
ByBlock
 70
     0
  3

 72
    65
 73
     0
 40
0.0
  0
LTYPE
  5
15
330
5
100
AcDbSymbolTableRecord
100
AcDbLinetypeTableRecord
  2
ByLayer
 70
     0
  3

 72
    65
 73
     0
 40
0.0
  0
LTYPE
  5
16
330
5
100
AcDbSymbolTableRecord
100
AcDbLinetypeTableRecord
  2
Continuous
 70
     0
  3
Solid line
 72
    65
 73
     0
 40
0.0
  0
ENDTAB
  0
TABLE
  2
LAYER
  5
2
330
0
100
AcDbSymbolTable
 70
     4
  0
LAYER
  5
10
330
2
100
AcDbSymbolTableRecord
100
AcDbLayerTableRecord
  2
0
 70
     0
 62
     7
  6
Continuous
370
    -3
390
F
347
3E
  0
LAYER
  5
40
330
2
100
AcDbSymbolTableRecord
100
AcDbLayerTableRecord
  2
SWHPin
 70
     0
 62
     7
  6
Continuous
370
    -3
390
F
347
3E
  0
LAYER
  5
154
330
2
100
AcDbSymbolTableRecord
100
AcDbLayerTableRecord
  2
E5SS
 70
     0
 62
     7
  6
Continuous
370
    -3
390
F
347
3E
  0
LAYER
  5
1C3
330
2
100
AcDbSymbolTableRecord
100
AcDbLayerTableRecord
  2
Callout
 70
     0
 62
     7
  6
Continuous
370
    -3
390
F
347
3E
  0
ENDTAB
  0
TABLE
  2
STYLE
  5
3
330
0
100
AcDbSymbolTable
 70
     1
  0
STYLE
  5
11
330
3
100
AcDbSymbolTableRecord
100
AcDbTextStyleTableRecord
  2
Standard
 70
     0
 40
0.0
 41
1.0
 50
0.0
 71
     0
 42
0.2
  3
txt
  4

  0
ENDTAB
  0
TABLE
  2
VIEW
  5
6
330
0
100
AcDbSymbolTable
 70
     0
  0
ENDTAB
  0
TABLE
  2
UCS
  5
7
330
0
100
AcDbSymbolTable
 70
     0
  0
ENDTAB
  0
TABLE
  2
APPID
  5
9
330
0
100
AcDbSymbolTable
 70
     1
  0
APPID
  5
12
330
9
100
AcDbSymbolTableRecord
100
AcDbRegAppTableRecord
  2
ACAD
 70
     0
  0
ENDTAB
  0
TABLE
  2
DIMSTYLE
  5
A
330
0
100
AcDbSymbolTable
 70
     1
100
AcDbDimStyleTable
  0
DIMSTYLE
105
27
330
A
100
AcDbSymbolTableRecord
100
AcDbDimStyleTableRecord
  2
Standard
 70
     0
178
     0
340
11
  0
ENDTAB
  0
TABLE
  2
BLOCK_RECORD
  5
1
330
0
100
AcDbSymbolTable
 70
    15
  0
BLOCK_RECORD
  5
1F
330
1
100
AcDbSymbolTableRecord
100
AcDbBlockTableRecord
  2
*Model_Space
340
22
 70
     0
280
     1
281
     0
  0
BLOCK_RECORD
  5
1B
330
1
100
AcDbSymbolTableRecord
100
AcDbBlockTableRecord
  2
*Paper_Space
340
1E
 70
     0
280
     1
281
     0
  0
BLOCK_RECORD
  5
23
330
1
100
AcDbSymbolTableRecord
100
AcDbBlockTableRecord
  2
*Paper_Space0
340
26
 70
     0
280
     1
281
     0
  0
BLOCK_RECORD
  5
41
330
1
100
AcDbSymbolTableRecord
100
AcDbBlockTableRecord
  2
block 2
340
0
102
{BLKREFS
331
42
102
}
 70
     0
280
     1
281
     0
  0
BLOCK_RECORD
  5
DF
330
1
100
AcDbSymbolTableRecord
100
AcDbBlockTableRecord
  2
block 3
340
0
102
{BLKREFS
331
E0
102
}
 70
     0
280
     1
281
     0
  0
BLOCK_RECORD
  5
155
330
1
100
AcDbSymbolTableRecord
100
AcDbBlockTableRecord
  2
block 4
340
0
102
{BLKREFS
331
156
102
}
 70
     0
280
     1
281
     0
  0
BLOCK_RECORD
  5
164
330
1
100
AcDbSymbolTableRecord
100
AcDbBlockTableRecord
  2
block 5
340
0
102
{BLKREFS
331
165
102
}
 70
     0
280
     1
281
     0
  0
BLOCK_RECORD
  5
169
330
1
100
AcDbSymbolTableRecord
100
AcDbBlockTableRecord
  2
block 6
340
0
102
{BLKREFS
331
16A
102
}
 70
     0
280
     1
281
     0
  0
BLOCK_RECORD
  5
16E
330
1
100
AcDbSymbolTableRecord
100
AcDbBlockTableRecord
  2
block 7
340
0
102
{BLKREFS
331
16F
102
}
 70
     0
280
     1
281
     0
  0
BLOCK_RECORD
  5
173
330
1
100
AcDbSymbolTableRecord
100
AcDbBlockTableRecord
  2
block 8
340
0
102
{BLKREFS
331
174
102
}
 70
     0
280
     1
281
     0
  0
BLOCK_RECORD
  5
178
330
1
100
AcDbSymbolTableRecord
100
AcDbBlockTableRecord
  2
block 9
340
0
102
{BLKREFS
331
179
102
}
 70
     0
280
     1
281
     0
  0
BLOCK_RECORD
  5
17D
330
1
100
AcDbSymbolTableRecord
100
AcDbBlockTableRecord
  2
block 10
340
0
102
{BLKREFS
331
17E
102
}
 70
     0
280
     1
281
     0
  0
BLOCK_RECORD
  5
182
330
1
100
AcDbSymbolTableRecord
100
AcDbBlockTableRecord
  2
block 11
340
0
102
{BLKREFS
331
183
102
}
 70
     0
280
     1
281
     0
  0
BLOCK_RECORD
  5
187
330
1
100
AcDbSymbolTableRecord
100
AcDbBlockTableRecord
  2
block 12
340
0
102
{BLKREFS
331
188
102
}
 70
     0
280
     1
281
     0
  0
BLOCK_RECORD
  5
18C
330
1
100
AcDbSymbolTableRecord
100
AcDbBlockTableRecord
  2
block 13
340
0
102
{BLKREFS
331
18D
102
}
 70
     0
280
     1
281
     0
  0
BLOCK_RECORD
  5
191
330
1
100
AcDbSymbolTableRecord
100
AcDbBlockTableRecord
  2
block 14
340
0
102
{BLKREFS
331
192
102
}
 70
     0
280
     1
281
     0
  0
BLOCK_RECORD
  5
198
330
1
100
AcDbSymbolTableRecord
100
AcDbBlockTableRecord
  2
block 15
340
0
102
{BLKREFS
331
199
102
}
 70
     0
280
     1
281
     0
  0
ENDTAB
  0
ENDSEC
  0
SECTION
  2
BLOCKS
  0
BLOCK
  5
20
330
1F
100
AcDbEntity
  8
0
100
AcDbBlockBegin
  2
*Model_Space
 70
     0
 10
0.0
 20
0.0
 30
0.0
  3
*Model_Space
  1

  0
ENDBLK
  5
21
330
1F
100
AcDbEntity
  8
0
100
AcDbBlockEnd
  0
BLOCK
  5
1C
330
1B
100
AcDbEntity
 67
     1
  8
0
100
AcDbBlockBegin
  2
*Paper_Space
 70
     0
 10
0.0
 20
0.0
 30
0.0
  3
*Paper_Space
  1

  0
ENDBLK
  5
1D
330
1B
100
AcDbEntity
 67
     1
  8
0
100
AcDbBlockEnd
  0
BLOCK
  5
24
330
23
100
AcDbEntity
  8
0
100
AcDbBlockBegin
  2
*Paper_Space0
 70
     0
 10
0.0
 20
0.0
 30
0.0
  3
*Paper_Space0
  1

  0
ENDBLK
  5
25
330
23
100
AcDbEntity
  8
0
100
AcDbBlockEnd
  0
BLOCK
  5
43
330
41
100
AcDbEntity
  8
0
100
AcDbBlockBegin
  2
block 2
 70
     0
 10
0.0
 20
0.0
 30
0.0
  3
block 2
  1

  0
POLYLINE
  5
45
330
41
100
AcDbEntity
  8
SWHPin
 62
   250
420
  2301728
370
    53
100
AcDb2dPolyline
 66
     1
 10
0.0
 20
0.0
 30
0.0
  0
VERTEX
  5
46
330
45
100
AcDbEntity
  8
SWHPin
 62
   250
420
  2301728
370
    53
100
AcDbVertex
100
AcDb2dVertex
 10
6.29731789647192
 20
6.366034578945801
 30
0.0
  0
VERTEX
  5
47
330
45
100
AcDbEntity
  8
SWHPin
 62
   250
420
  2301728
370
    53
100
AcDbVertex
100
AcDb2dVertex
 10
6.176001232869971
 20
6.41507624437357
 30
0.0
  0
VERTEX
  5
48
330
45
100
AcDbEntity
  8
SWHPin
 62
   250
420
  2301728
370
    53
100
AcDbVertex
100
AcDb2dVertex
 10
3.912305555555551
 20
6.33223735757738
 30
0.0
  0
VERTEX
  5
49
330
45
100
AcDbEntity
  8
SWHPin
 62
   250
420
  2301728
370
    53
100
AcDbVertex
100
AcDb2dVertex
 10
2.712679087612742
 20
6.416795688774577
 30
0.0
  0
VERTEX
  5
4A
330
45
100
AcDbEntity
  8
SWHPin
 62
   250
420
  2301728
370
    53
100
AcDbVertex
100
AcDb2dVertex
 10
2.552398540316567
 20
6.394427633784087
 30
0.0
  0
VERTEX
  5
4B
330
45
100
AcDbEntity
  8
SWHPin
 62
   250
420
  2301728
370
    53
100
AcDbVertex
100
AcDb2dVertex
 10
2.420877713112632
 20
6.378940134175334
 30
0.0
  0
VERTEX
  5
4C
330
45
100
AcDbEntity
  8
SWHPin
 62
   250
420
  2301728
370
    53
100
AcDbVertex
100
AcDb2dVertex
 10
2.420877713112632
 20
5.532312377785185
 30
0.0
  0
VERTEX
  5
4D
330
45
100
AcDbEntity
  8
SWHPin
 62
   250
420
  2301728
370
    53
100
AcDbVertex
100
AcDb2dVertex
 10
2.452467989390647
 20
5.483270712357403
 30
0.0
  0
VERTEX
  5
4E
330
45
100
AcDbEntity
  8
SWHPin
 62
   250
420
  2301728
370
    53
100
AcDbVertex
100
AcDb2dVertex
 10
2.379579103044799
 20
5.439390157910363
 30
0.0
  0
VERTEX
  5
4F
330
45
100
AcDbEntity
  8
SWHPin
 62
   250
420
  2301728
370
    53
100
AcDbVertex
100
AcDb2dVertex
 10
2.420877713112632
 20
5.400672103332909
 30
0.0
  0
VERTEX
  5
50
330
45
100
AcDbEntity
  8
SWHPin
 62
   250
420
  2301728
370
    53
100
AcDbVertex
100
AcDb2dVertex
 10
2.420877713112632
 20
4.732147120221271
 30
0.0
  0
VERTEX
  5
51
330
45
100
AcDbEntity
  8
SWHPin
 62
   250
420
  2301728
370
    53
100
AcDbVertex
100
AcDb2dVertex
 10
2.716122143081318
 20
4.608249999999998
 30
0.0
  0
VERTEX
  5
52
330
45
100
AcDbEntity
  8
SWHPin
 62
   250
420
  2301728
370
    53
100
AcDbVertex
100
AcDb2dVertex
 10
3.912305555555551
 20
4.90250544925099
 30
0.0
  0
VERTEX
  5
53
330
45
100
AcDbEntity
  8
SWHPin
 62
   250
420
  2301728
370
    53
100
AcDbVertex
100
AcDb2dVertex
 10
6.173420677379605
 20
4.556626291321966
 30
0.0
  0
VERTEX
  5
54
330
45
100
AcDbEntity
  8
SWHPin
 62
   250
420
  2301728
370
    53
100
AcDbVertex
100
AcDb2dVertex
 10
6.29731789647192
 20
4.768283230419507
 30
0.0
  0
VERTEX
  5
55
330
45
100
AcDbEntity
  8
SWHPin
 62
   250
420
  2301728
370
    53
100
AcDbVertex
100
AcDb2dVertex
 10
6.29731789647192
 20
5.519406822555639
 30
0.0
  0
VERTEX
  5
56
330
45
100
AcDbEntity
  8
SWHPin
 62
   250
420
  2301728
370
    53
100
AcDbVertex
100
AcDb2dVertex
 10
6.245694444444451
 20
5.55296237726351
 30
0.0
  0
VERTEX
  5
57
330
45
100
AcDbEntity
  8
SWHPin
 62
   250
420
  2301728
370
    53
100
AcDbVertex
100
AcDb2dVertex
 10
6.34635956189969
 20
5.617491542300033
 30
0.0
  0
VERTEX
  5
58
330
45
100
AcDbEntity
  8
SWHPin
 62
   250
420
  2301728
370
    53
100
AcDbVertex
100
AcDb2dVertex
 10
6.29731789647192
 20
5.661377652302487
 30
0.0
  0
VERTEX
  5
59
330
45
100
AcDbEntity
  8
SWHPin
 62
   250
420
  2301728
370
    53
100
AcDbVertex
100
AcDb2dVertex
 10
6.29731789647192
 20
6.131147084879558
 30
0.0
  0
VERTEX
  5
5A
330
45
100
AcDbEntity
  8
SWHPin
 62
   250
420
  2301728
370
    53
100
AcDbVertex
100
AcDb2dVertex
 10
6.294736111111105
 20
6.224290780141827
 30
0.0
  0
VERTEX
  5
5B
330
45
100
AcDbEntity
  8
SWHPin
 62
   250
420
  2301728
370
    53
100
AcDbVertex
100
AcDb2dVertex
 10
6.29731789647192
 20
6.366034578945801
 30
0.0
  0
SEQEND
  5
5D
330
45
100
AcDbEntity
  8
SWHPin
 62
   250
420
  2301728
370
    53
  0
HATCH
  5
5C
330
41
100
AcDbEntity
  8
SWHPin
 62
    43
420
 15510365
100
AcDbHatch
 10
0.0
 20
0.0
 30
0.0
210
0.0
220
0.0
230
1.0
  2
SOLID
 70
     1
 71
     0
 91
        1
 92
        1
 93
       21
 72
     1
 10
6.29731789647192
 20
6.366034578945801
 11
6.176001232869971
 21
6.41507624437357
 72
     1
 10
6.176001232869971
 20
6.41507624437357
 11
3.912305555555551
 21
6.33223735757738
 72
     1
 10
3.912305555555551
 20
6.33223735757738
 11
2.712679087612742
 21
6.416795688774577
 72
     1
 10
2.712679087612742
 20
6.416795688774577
 11
2.552398540316568
 21
6.394427633784087
 72
     1
 10
2.552398540316567
 20
6.394427633784087
 11
2.420877713112632
 21
6.378940134175334
 72
     1
 10
2.420877713112632
 20
6.378940134175334
 11
2.420877713112632
 21
5.532312377785185
 72
     1
 10
2.420877713112632
 20
5.532312377785185
 11
2.452467989390647
 21
5.483270712357402
 72
     1
 10
2.452467989390647
 20
5.483270712357403
 11
2.379579103044799
 21
5.439390157910364
 72
     1
 10
2.379579103044799
 20
5.439390157910363
 11
2.420877713112632
 21
5.400672103332909
 72
     1
 10
2.420877713112632
 20
5.400672103332909
 11
2.420877713112632
 21
4.732147120221271
 72
     1
 10
2.420877713112632
 20
4.732147120221271
 11
2.716122143081318
 21
4.608249999999998
 72
     1
 10
2.716122143081318
 20
4.608249999999998
 11
3.912305555555551
 21
4.902505449250991
 72
     1
 10
3.912305555555551
 20
4.90250544925099
 11
6.173420677379605
 21
4.556626291321966
 72
     1
 10
6.173420677379605
 20
4.556626291321966
 11
6.29731789647192
 21
4.768283230419507
 72
     1
 10
6.29731789647192
 20
4.768283230419507
 11
6.29731789647192
 21
5.51940682255564
 72
     1
 10
6.29731789647192
 20
5.519406822555639
 11
6.245694444444451
 21
5.552962377263509
 72
     1
 10
6.245694444444451
 20
5.55296237726351
 11
6.346359561899691
 21
5.617491542300033
 72
     1
 10
6.34635956189969
 20
5.617491542300033
 11
6.29731789647192
 21
5.661377652302487
 72
     1
 10
6.29731789647192
 20
5.661377652302487
 11
6.29731789647192
 21
6.131147084879558
 72
     1
 10
6.29731789647192
 20
6.131147084879558
 11
6.294736111111105
 21
6.224290780141827
 72
     1
 10
6.294736111111105
 20
6.224290780141827
 11
6.29731789647192
 21
6.366034578945801
 97
        0
 75
     2
 76
     1
 98
        0
  0
POLYLINE
  5
5E
330
41
100
AcDbEntity
  8
SWHPin
 62
   250
420
  2301728
370
    53
100
AcDb2dPolyline
 66
     1
 10
0.0
 20
0.0
 30
0.0
  0
VERTEX
  5
5F
330
5E
100
AcDbEntity
  8
SWHPin
 62
   250
420
  2301728
370
    53
100
AcDbVertex
100
AcDb2dVertex
 10
6.29731789647192
 20
6.366034578945801
 30
0.0
  0
VERTEX
  5
60
330
5E
100
AcDbEntity
  8
SWHPin
 62
   250
420
  2301728
370
    53
100
AcDbVertex
100
AcDb2dVertex
 10
6.176001232869971
 20
6.41507624437357
 30
0.0
  0
SEQEND
  5
61
330
5E
100
AcDbEntity
  8
SWHPin
 62
   250
420
  2301728
370
    53
  0
POLYLINE
  5
62
330
41
100
AcDbEntity
  8
SWHPin
 62
   250
420
  2301728
370
    18
100
AcDb2dPolyline
 66
     1
 10
0.0
 20
0.0
 30
0.0
  0
VERTEX
  5
63
330
62
100
AcDbEntity
  8
SWHPin
 62
   250
420
  2301728
370
    18
100
AcDbVertex
100
AcDb2dVertex
 10
6.586197055840885
 20
6.354665134788572
 30
0.0
  0
VERTEX
  5
1D5
330
62
100
AcDbEntity
  8
0
100
AcDbVertex
100
AcDb2dVertex
 10
6.586197055840885
 20
6.354665134788572
 30
0.0
  0
SEQEND
  5
64
330
62
100
AcDbEntity
  8
SWHPin
 62
   250
420
  2301728
370
    18
  0
POLYLINE
  5
65
330
41
100
AcDbEntity
  8
SWHPin
 62
   250
420
  2301728
370
    18
100
AcDb2dPolyline
 66
     1
 10
0.0
 20
0.0
 30
0.0
  0
VERTEX
  5
66
330
65
100
AcDbEntity
  8
SWHPin
 62
   250
420
  2301728
370
    18
100
AcDbVertex
100
AcDb2dVertex
 10
2.556269373552115
 20
6.403460966889219
 30
0.0
  0
VERTEX
  5
1D6
330
65
100
AcDbEntity
  8
0
100
AcDbVertex
100
AcDb2dVertex
 10
2.556269373552115
 20
6.403460966889219
 30
0.0
  0
SEQEND
  5
67
330
65
100
AcDbEntity
  8
SWHPin
 62
   250
420
  2301728
370
    18
  0
POLYLINE
  5
68
330
41
100
AcDbEntity
  8
SWHPin
 62
   250
420
  2301728
370
    53
100
AcDb2dPolyline
 66
     1
 10
0.0
 20
0.0
 30
0.0
  0
VERTEX
  5
69
330
68
100
AcDbEntity
  8
SWHPin
 62
   250
420
  2301728
370
    53
100
AcDbVertex
100
AcDb2dVertex
 10
2.547236111111109
 20
6.394427633784087
 30
0.0
  0
VERTEX
  5
6A
330
68
100
AcDbEntity
  8
SWHPin
 62
   250
420
  2301728
370
    53
100
AcDbVertex
100
AcDb2dVertex
 10
2.712679087612742
 20
6.416795688774577
 30
0.0
  0
SEQEND
  5
6B
330
68
100
AcDbEntity
  8
SWHPin
 62
   250
420
  2301728
370
    53
  0
POLYLINE
  5
6C
330
41
100
AcDbEntity
  8
SWHPin
 62
   250
420
  2301728
370
    25
100
AcDb2dPolyline
 66
     1
 10
0.0
 20
0.0
 30
0.0
  0
VERTEX
  5
6D
330
6C
100
AcDbEntity
  8
SWHPin
 62
   250
420
  2301728
370
    25
100
AcDbVertex
100
AcDb2dVertex
 10
6.17588039953969
 20
5.427431824879123
 30
0.0
  0
VERTEX
  5
6E
330
6C
100
AcDbEntity
  8
SWHPin
 62
   250
420
  2301728
370
    25
100
AcDbVertex
100
AcDb2dVertex
 10
6.297992896454868
 20
5.517127655946549
 30
0.0
  0
SEQEND
  5
6F
330
6C
100
AcDbEntity
  8
SWHPin
 62
   250
420
  2301728
370
    25
  0
POLYLINE
  5
70
330
41
100
AcDbEntity
  8
SWHPin
 62
   250
420
  2301728
370
    25
100
AcDb2dPolyline
 66
     1
 10
0.0
 20
0.0
 30
0.0
  0
VERTEX
  5
71
330
70
100
AcDbEntity
  8
SWHPin
 62
   250
420
  2301728
370
    25
100
AcDbVertex
100
AcDb2dVertex
 10
6.176001232869971
 20
5.589098487461746
 30
0.0
  0
VERTEX
  5
72
330
70
100
AcDbEntity
  8
SWHPin
 62
   250
420
  2301728
370
    25
100
AcDbVertex
100
AcDb2dVertex
 10
6.29731789647192
 20
5.661377652302487
 30
0.0
  0
SEQEND
  5
73
330
70
100
AcDbEntity
  8
SWHPin
 62
   250
420
  2301728
370
    25
  0
POLYLINE
  5
74
330
41
100
AcDbEntity
  8
SWHPin
 62
   250
420
  2301728
370
    25
100
AcDb2dPolyline
 66
     1
 10
0.0
 20
0.0
 30
0.0
  0
VERTEX
  5
75
330
74
100
AcDbEntity
  8
SWHPin
 62
   250
420
  2301728
370
    25
100
AcDbVertex
100
AcDb2dVertex
 10
2.821088807096304
 20
6.406470689035422
 30
0.0
  0
VERTEX
  5
1D7
330
74
100
AcDbEntity
  8
0
100
AcDbVertex
100
AcDb2dVertex
 10
2.821088807096304
 20
6.406470689035422
 30
0.0
  0
SEQEND
  5
76
330
74
100
AcDbEntity
  8
SWHPin
 62
   250
420
  2301728
370
    25
  0
POLYLINE
  5
77
330
41
100
AcDbEntity
  8
SWHPin
 62
   250
420
  2301728
370
    25
100
AcDb2dPolyline
 66
     1
 10
0.0
 20
0.0
 30
0.0
  0
VERTEX
  5
78
330
77
100
AcDbEntity
  8
SWHPin
 62
   250
420
  2301728
370
    25
100
AcDbVertex
100
AcDb2dVertex
 10
6.584736111111119
 20
6.340933190691025
 30
0.0
  0
VERTEX
  5
1D8
330
77
100
AcDbEntity
  8
0
100
AcDbVertex
100
AcDb2dVertex
 10
6.584736111111119
 20
6.340933190691025
 30
0.0
  0
SEQEND
  5
79
330
77
100
AcDbEntity
  8
SWHPin
 62
   250
420
  2301728
370
    25
  0
POLYLINE
  5
7A
330
41
100
AcDbEntity
  8
SWHPin
 62
   250
420
  2301728
370
    35
100
AcDb2dPolyline
 66
     1
 10
0.0
 20
0.0
 30
0.0
  0
VERTEX
  5
7B
330
7A
100
AcDbEntity
  8
SWHPin
 62
   250
420
  2301728
370
    35
100
AcDbVertex
100
AcDb2dVertex
 10
6.238917897947228
 20
5.548677655149529
 30
0.0
  0
VERTEX
  5
7C
330
7A
100
AcDbEntity
  8
SWHPin
 62
   250
420
  2301728
370
    35
100
AcDbVertex
100
AcDb2dVertex
 10
6.1269595674422
 20
5.472945712618235
 30
0.0
  0
SEQEND
  5
7D
330
7A
100
AcDbEntity
  8
SWHPin
 62
   250
420
  2301728
370
    35
  0
POLYLINE
  5
7E
330
41
100
AcDbEntity
  8
SWHPin
 62
   250
420
  2301728
370
    18
100
AcDb2dPolyline
 66
     1
 10
0.0
 20
0.0
 30
0.0
  0
VERTEX
  5
7F
330
7E
100
AcDbEntity
  8
SWHPin
 62
   250
420
  2301728
370
    18
100
AcDbVertex
100
AcDb2dVertex
 10
6.176001232869971
 20
6.066617919843035
 30
0.0
  0
VERTEX
  5
80
330
7E
100
AcDbEntity
  8
SWHPin
 62
   250
420
  2301728
370
    18
100
AcDbVertex
100
AcDb2dVertex
 10
6.194070676857942
 20
5.893677646434096
 30
0.0
  0
VERTEX
  5
81
330
7E
100
AcDbEntity
  8
SWHPin
 62
   250
420
  2301728
370
    18
100
AcDbVertex
100
AcDb2dVertex
 10
6.194070676857942
 20
5.669115152107022
 30
0.0
  0
VERTEX
  5
82
330
7E
100
AcDbEntity
  8
SWHPin
 62
   250
420
  2301728
370
    18
100
AcDbVertex
100
AcDb2dVertex
 10
6.206976232087476
 20
5.607166666666672
 30
0.0
  0
VERTEX
  5
83
330
7E
100
AcDbEntity
  8
SWHPin
 62
   250
420
  2301728
370
    18
100
AcDbVertex
100
AcDb2dVertex
 10
6.258599841894465
 20
5.565867932493044
 30
0.0
  0
SEQEND
  5
84
330
7E
100
AcDbEntity
  8
SWHPin
 62
   250
420
  2301728
370
    18
  0
POLYLINE
  5
85
330
41
100
AcDbEntity
  8
SWHPin
 62
   250
420
  2301728
370
    18
100
AcDb2dPolyline
 66
     1
 10
0.0
 20
0.0
 30
0.0
  0
VERTEX
  5
86
330
85
100
AcDbEntity
  8
SWHPin
 62
   250
420
  2301728
370
    18
100
AcDbVertex
100
AcDb2dVertex
 10
6.176001232869971
 20
6.327316524368345
 30
0.0
  0
VERTEX
  5
87
330
85
100
AcDbEntity
  8
SWHPin
 62
   250
420
  2301728
370
    18
100
AcDbVertex
100
AcDb2dVertex
 10
6.186326232609139
 20
6.190513888888884
 30
0.0
  0
VERTEX
  5
88
330
85
100
AcDbEntity
  8
SWHPin
 62
   250
420
  2301728
370
    18
100
AcDbVertex
100
AcDb2dVertex
 10
6.21988178731701
 20
6.048549864743917
 30
0.0
  0
VERTEX
  5
89
330
85
100
AcDbEntity
  8
SWHPin
 62
   250
420
  2301728
370
    18
100
AcDbVertex
100
AcDb2dVertex
 10
6.214719287447426
 20
5.857541666666672
 30
0.0
  0
VERTEX
  5
8A
330
85
100
AcDbEntity
  8
SWHPin
 62
   250
420
  2301728
370
    18
100
AcDbVertex
100
AcDb2dVertex
 10
6.227624999999989
 20
5.622654042169617
 30
0.0
  0
VERTEX
  5
8B
330
85
100
AcDbEntity
  8
SWHPin
 62
   250
420
  2301728
370
    18
100
AcDbVertex
100
AcDb2dVertex
 10
6.281830396863167
 20
5.578774876611432
 30
0.0
  0
SEQEND
  5
8C
330
85
100
AcDbEntity
  8
SWHPin
 62
   250
420
  2301728
370
    18
  0
SPLINE
  5
8D
330
41
100
AcDbEntity
  8
SWHPin
 62
   250
420
  2301728
370
    18
100
AcDbSpline
210
0.0
220
0.0
230
1.0
 70
     8
 71
     3
 72
    17
 73
    13
 74
     0
 42
0.0000000001
 43
0.0000000001
 12
1.0
 22
0.0
 32
0.0
 13
1.0
 23
0.0
 33
0.0
 40
0.0
 40
0.0
 40
0.0
 40
0.0
 40
1.0
 40
1.0
 40
1.0
 40
2.0
 40
2.0
 40
2.0
 40
3.0
 40
3.0
 40
3.0
 40
4.0
 40
4.0
 40
4.0
 40
4.0
 10
6.194070676857942
 20
6.402170689144036
 30
0.0
 10
6.194070676857942
 20
6.402170689144036
 30
0.0
 10
6.268924841633634
 20
6.02789986526558
 30
0.0
 10
6.268924841633634
 20
6.02789986526558
 30
0.0
 10
6.268924841633634
 20
6.02789986526558
 30
0.0
 10
6.248274842155297
 20
5.909165146042849
 30
0.0
 10
6.256017897515246
 20
5.823986111111101
 30
0.0
 10
6.256017897515246
 20
5.823986111111101
 30
0.0
 10
6.253437342024881
 20
5.630398486418421
 30
0.0
 10
6.253437342024881
 20
5.630398486418421
 30
0.0
 10
6.253437342024881
 20
5.630398486418421
 30
0.0
 10
6.310223451701454
 20
5.594260987331331
 30
0.0
 10
6.310223451701454
 20
5.594260987331331
 30
0.0
  0
POLYLINE
  5
8E
330
41
100
AcDbEntity
  8
SWHPin
 62
   250
420
  2301728
370
    18
100
AcDb2dPolyline
 66
     1
 10
0.0
 20
0.0
 30
0.0
  0
VERTEX
  5
8F
330
8E
100
AcDbEntity
  8
SWHPin
 62
   250
420
  2301728
370
    18
100
AcDbVertex
100
AcDb2dVertex
 10
6.250855397645662
 20
6.381522078554553
 30
0.0
  0
VERTEX
  5
90
330
8E
100
AcDbEntity
  8
SWHPin
 62
   250
420
  2301728
370
    18
100
AcDbVertex
100
AcDb2dVertex
 10
6.279248452483948
 20
6.24729985972307
 30
0.0
  0
VERTEX
  5
91
330
8E
100
AcDbEntity
  8
SWHPin
 62
   250
420
  2301728
370
    18
100
AcDbVertex
100
AcDb2dVertex
 10
6.276667896993583
 20
6.185351250176912
 30
0.0
  0
VERTEX
  5
92
330
8E
100
AcDbEntity
  8
SWHPin
 62
   250
420
  2301728
370
    18
100
AcDbVertex
100
AcDb2dVertex
 10
6.294736111111105
 20
6.110497085401221
 30
0.0
  0
SEQEND
  5
93
330
8E
100
AcDbEntity
  8
SWHPin
 62
   250
420
  2301728
370
    18
  0
POLYLINE
  5
94
330
41
100
AcDbEntity
  8
SWHPin
 62
   250
420
  2301728
370
    18
100
AcDb2dPolyline
 66
     1
 10
0.0
 20
0.0
 30
0.0
  0
VERTEX
  5
95
330
94
100
AcDbEntity
  8
SWHPin
 62
   250
420
  2301728
370
    18
100
AcDbVertex
100
AcDb2dVertex
 10
6.294736111111105
 20
6.002087365917658
 30
0.0
  0
VERTEX
  5
96
330
94
100
AcDbEntity
  8
SWHPin
 62
   250
420
  2301728
370
    18
100
AcDbVertex
100
AcDb2dVertex
 10
6.284410952353532
 20
5.909165146042849
 30
0.0
  0
VERTEX
  5
97
330
94
100
AcDbEntity
  8
SWHPin
 62
   250
420
  2301728
370
    18
100
AcDbVertex
100
AcDb2dVertex
 10
6.271505397123999
 20
5.823986111111101
 30
0.0
  0
VERTEX
  5
98
330
94
100
AcDbEntity
  8
SWHPin
 62
   250
420
  2301728
370
    18
100
AcDbVertex
100
AcDb2dVertex
 10
6.279248452483948
 20
5.793012371199337
 30
0.0
  0
VERTEX
  5
99
330
94
100
AcDbEntity
  8
SWHPin
 62
   250
420
  2301728
370
    18
100
AcDbVertex
100
AcDb2dVertex
 10
6.281830396863167
 20
5.653629041387123
 30
0.0
  0
VERTEX
  5
9A
330
94
100
AcDbEntity
  8
SWHPin
 62
   250
420
  2301728
370
    18
100
AcDbVertex
100
AcDb2dVertex
 10
6.325709562421353
 20
5.607166666666672
 30
0.0
  0
SEQEND
  5
9B
330
94
100
AcDbEntity
  8
SWHPin
 62
   250
420
  2301728
370
    18
  0
POLYLINE
  5
9C
330
41
100
AcDbEntity
  8
SWHPin
 62
   250
420
  2301728
370
    18
100
AcDb2dPolyline
 66
     1
 10
0.0
 20
0.0
 30
0.0
  0
VERTEX
  5
9D
330
9C
100
AcDbEntity
  8
SWHPin
 62
   250
420
  2301728
370
    18
100
AcDbVertex
100
AcDb2dVertex
 10
6.139865122671734
 20
5.480688767978184
 30
0.0
  0
VERTEX
  5
9E
330
9C
100
AcDbEntity
  8
SWHPin
 62
   250
420
  2301728
370
    18
100
AcDbVertex
100
AcDb2dVertex
 10
6.194070676857942
 20
5.439390157910363
 30
0.0
  0
VERTEX
  5
9F
330
9C
100
AcDbEntity
  8
SWHPin
 62
   250
420
  2301728
370
    18
100
AcDbVertex
100
AcDb2dVertex
 10
6.199231787838673
 20
5.114160999459677
 30
0.0
  0
VERTEX
  5
A0
330
9C
100
AcDbEntity
  8
SWHPin
 62
   250
420
  2301728
370
    18
100
AcDbVertex
100
AcDb2dVertex
 10
6.206976232087476
 20
5.090930555555562
 30
0.0
  0
VERTEX
  5
A1
330
9C
100
AcDbEntity
  8
SWHPin
 62
   250
420
  2301728
370
    18
100
AcDbVertex
100
AcDb2dVertex
 10
6.209556787577841
 20
5.031563779324036
 30
0.0
  0
VERTEX
  5
A2
330
9C
100
AcDbEntity
  8
SWHPin
 62
   250
420
  2301728
370
    18
100
AcDbVertex
100
AcDb2dVertex
 10
6.201813732217892
 20
4.977359614026682
 30
0.0
  0
VERTEX
  5
A3
330
9C
100
AcDbEntity
  8
SWHPin
 62
   250
420
  2301728
370
    18
100
AcDbVertex
100
AcDb2dVertex
 10
6.212138888888881
 20
4.840556839704832
 30
0.0
  0
VERTEX
  5
A4
330
9C
100
AcDbEntity
  8
SWHPin
 62
   250
420
  2301728
370
    18
100
AcDbVertex
100
AcDb2dVertex
 10
6.204394287708257
 20
4.791513888888883
 30
0.0
  0
VERTEX
  5
A5
330
9C
100
AcDbEntity
  8
SWHPin
 62
   250
420
  2301728
370
    18
100
AcDbVertex
100
AcDb2dVertex
 10
6.199231787838673
 20
4.665036010805529
 30
0.0
  0
VERTEX
  5
A6
330
9C
100
AcDbEntity
  8
SWHPin
 62
   250
420
  2301728
370
    18
100
AcDbVertex
100
AcDb2dVertex
 10
6.204394287708257
 20
4.610831845508174
 30
0.0
  0
SEQEND
  5
A7
330
9C
100
AcDbEntity
  8
SWHPin
 62
   250
420
  2301728
370
    18
  0
SPLINE
  5
A8
330
41
100
AcDbEntity
  8
SWHPin
 62
   250
420
  2301728
370
    18
100
AcDbSpline
210
0.0
220
0.0
230
1.0
 70
     8
 71
     3
 72
    32
 73
    28
 74
     0
 42
0.0000000001
 43
0.0000000001
 12
1.0
 22
0.0
 32
0.0
 13
1.0
 23
0.0
 33
0.0
 40
0.0
 40
0.0
 40
0.0
 40
0.0
 40
1.0
 40
1.0
 40
1.0
 40
2.0
 40
2.0
 40
2.0
 40
3.0
 40
3.0
 40
3.0
 40
4.0
 40
4.0
 40
4.0
 40
5.0
 40
5.0
 40
5.0
 40
6.0
 40
6.0
 40
6.0
 40
7.0
 40
7.0
 40
7.0
 40
8.0
 40
8.0
 40
8.0
 40
9.0
 40
9.0
 40
9.0
 40
9.0
 10
6.163095677640436
 20
5.491013888888877
 30
0.0
 10
6.163095677640436
 20
5.491013888888877
 30
0.0
 10
6.214719287447426
 20
5.452295713139898
 30
0.0
 10
6.214719287447426
 20
5.452295713139898
 30
0.0
 10
6.214719287447426
 20
5.452295713139898
 30
0.0
 10
6.217301231826645
 20
5.258708333333339
 30
0.0
 10
6.217301231826645
 20
5.258708333333339
 30
0.0
 10
6.217301231826645
 20
5.258708333333339
 30
0.0
 10
6.222462342807376
 20
5.222570718943239
 30
0.0
 10
6.222462342807376
 20
5.222570718943239
 30
0.0
 10
6.222462342807376
 20
5.222570718943239
 30
0.0
 10
6.217301231826645
 20
5.1632040537763
 30
0.0
 10
6.217301231826645
 20
5.1632040537763
 30
0.0
 10
6.217301231826645
 20
5.1632040537763
 30
0.0
 10
6.227624999999989
 20
5.127067943578064
 30
0.0
 10
6.227624999999989
 20
5.127067943578064
 30
0.0
 10
6.227624999999989
 20
5.127067943578064
 30
0.0
 10
6.230206787056178
 20
5.028983223833671
 30
0.0
 10
6.230206787056178
 20
5.028983223833671
 30
0.0
 10
6.230206787056178
 20
5.028983223833671
 30
0.0
 10
6.237949842416128
 20
4.990265169256215
 30
0.0
 10
6.237949842416128
 20
4.990265169256215
 30
0.0
 10
6.237949842416128
 20
4.990265169256215
 30
0.0
 10
6.240531786795347
 20
4.804419340617742
 30
0.0
 10
6.240531786795347
 20
4.804419340617742
 30
0.0
 10
6.240531786795347
 20
4.804419340617742
 30
0.0
 10
6.214719287447426
 20
4.711497120742933
 30
0.0
 10
6.237949842416128
 20
4.672779066165478
 30
0.0
  0
SPLINE
  5
A9
330
41
100
AcDbEntity
  8
SWHPin
 62
   250
420
  2301728
370
    18
100
AcDbSpline
210
0.0
220
0.0
230
1.0
 70
     8
 71
     3
 72
    23
 73
    19
 74
     0
 42
0.0000000001
 43
0.0000000001
 12
1.0
 22
0.0
 32
0.0
 13
1.0
 23
0.0
 33
0.0
 40
0.0
 40
0.0
 40
0.0
 40
0.0
 40
1.0
 40
1.0
 40
1.0
 40
2.0
 40
2.0
 40
2.0
 40
3.0
 40
3.0
 40
3.0
 40
4.0
 40
4.0
 40
4.0
 40
5.0
 40
5.0
 40
5.0
 40
6.0
 40
6.0
 40
6.0
 40
6.0
 10
6.183745677118774
 20
5.50908182281647
 30
0.0
 10
6.183745677118774
 20
5.50908182281647
 30
0.0
 10
6.235369286925763
 20
5.472945712618235
 30
0.0
 10
6.235369286925763
 20
5.472945712618235
 30
0.0
 10
6.235369286925763
 20
5.472945712618235
 30
0.0
 10
6.243112342285713
 20
5.245801273911941
 30
0.0
 10
6.243112342285713
 20
5.245801273911941
 30
0.0
 10
6.243112342285713
 20
5.245801273911941
 30
0.0
 10
6.250855397645662
 20
5.214827663583289
 30
0.0
 10
6.250855397645662
 20
5.214827663583289
 30
0.0
 10
6.250855397645662
 20
5.214827663583289
 30
0.0
 10
6.243112342285713
 20
5.111580443969311
 30
0.0
 10
6.243112342285713
 20
5.111580443969311
 30
0.0
 10
6.243112342285713
 20
5.111580443969311
 30
0.0
 10
6.274085952614364
 20
4.938641559449226
 30
0.0
 10
6.268924841633634
 20
4.807001284996962
 30
0.0
 10
6.26376234176405
 20
4.675361111111114
 30
0.0
 10
6.274085952614364
 20
4.729565175842051
 30
0.0
 10
6.274085952614364
 20
4.729565175842051
 30
0.0
  0
POLYLINE
  5
AA
330
41
100
AcDbEntity
  8
SWHPin
 62
   250
420
  2301728
370
    18
100
AcDb2dPolyline
 66
     1
 10
0.0
 20
0.0
 30
0.0
  0
VERTEX
  5
AB
330
AA
100
AcDbEntity
  8
SWHPin
 62
   250
420
  2301728
370
    18
100
AcDbVertex
100
AcDb2dVertex
 10
6.212138888888881
 20
5.524569444444447
 30
0.0
  0
VERTEX
  5
AC
330
AA
100
AcDbEntity
  8
SWHPin
 62
   250
420
  2301728
370
    18
100
AcDbVertex
100
AcDb2dVertex
 10
6.26376234176405
 20
5.485851267847768
 30
0.0
  0
VERTEX
  5
AD
330
AA
100
AcDbEntity
  8
SWHPin
 62
   250
420
  2301728
370
    18
100
AcDbVertex
100
AcDb2dVertex
 10
6.261180555555559
 20
5.225152777777768
 30
0.0
  0
VERTEX
  5
AE
330
AA
100
AcDbEntity
  8
SWHPin
 62
   250
420
  2301728
370
    18
100
AcDbVertex
100
AcDb2dVertex
 10
6.26376234176405
 20
5.183854053254637
 30
0.0
  0
VERTEX
  5
AF
330
AA
100
AcDbEntity
  8
SWHPin
 62
   250
420
  2301728
370
    18
100
AcDbVertex
100
AcDb2dVertex
 10
6.26376234176405
 20
5.119323499329261
 30
0.0
  0
VERTEX
  5
B0
330
AA
100
AcDbEntity
  8
SWHPin
 62
   250
420
  2301728
370
    18
100
AcDbVertex
100
AcDb2dVertex
 10
6.284410952353532
 20
5.028983223833671
 30
0.0
  0
VERTEX
  5
B1
330
AA
100
AcDbEntity
  8
SWHPin
 62
   250
420
  2301728
370
    18
100
AcDbVertex
100
AcDb2dVertex
 10
6.29731789647192
 20
4.871530450033484
 30
0.0
  0
SEQEND
  5
B2
330
AA
100
AcDbEntity
  8
SWHPin
 62
   250
420
  2301728
370
    18
  0
POLYLINE
  5
B3
330
41
100
AcDbEntity
  8
SWHPin
 62
   250
420
  2301728
370
    18
100
AcDb2dPolyline
 66
     1
 10
0.0
 20
0.0
 30
0.0
  0
VERTEX
  5
B4
330
B3
100
AcDbEntity
  8
SWHPin
 62
   250
420
  2301728
370
    18
100
AcDbVertex
100
AcDb2dVertex
 10
6.237949842416128
 20
5.542637377524342
 30
0.0
  0
VERTEX
  5
B5
330
B3
100
AcDbEntity
  8
SWHPin
 62
   250
420
  2301728
370
    18
100
AcDbVertex
100
AcDb2dVertex
 10
6.281830396863167
 20
5.506501267326105
 30
0.0
  0
VERTEX
  5
B6
330
B3
100
AcDbEntity
  8
SWHPin
 62
   250
420
  2301728
370
    18
100
AcDbVertex
100
AcDb2dVertex
 10
6.281830396863167
 20
5.274194444444447
 30
0.0
  0
VERTEX
  5
B7
330
B3
100
AcDbEntity
  8
SWHPin
 62
   250
420
  2301728
370
    18
100
AcDbVertex
100
AcDb2dVertex
 10
6.294736111111105
 20
5.137392943317233
 30
0.0
  0
SEQEND
  5
B8
330
B3
100
AcDbEntity
  8
SWHPin
 62
   250
420
  2301728
370
    18
  0
SPLINE
  5
B9
330
41
100
AcDbEntity
  8
SWHPin
 62
   250
420
  2301728
370
    25
100
AcDbSpline
210
0.0
220
0.0
230
1.0
 70
     8
 71
     3
 72
    41
 73
    37
 74
     0
 42
0.0000000001
 43
0.0000000001
 12
1.0
 22
0.0
 32
0.0
 13
1.0
 23
0.0
 33
0.0
 40
0.0
 40
0.0
 40
0.0
 40
0.0
 40
1.0
 40
1.0
 40
1.0
 40
2.0
 40
2.0
 40
2.0
 40
3.0
 40
3.0
 40
3.0
 40
4.0
 40
4.0
 40
4.0
 40
5.0
 40
5.0
 40
5.0
 40
6.0
 40
6.0
 40
6.0
 40
7.0
 40
7.0
 40
7.0
 40
8.0
 40
8.0
 40
8.0
 40
9.0
 40
9.0
 40
9.0
 40
10.0
 40
10.0
 40
10.0
 40
11.0
 40
11.0
 40
11.0
 40
12.0
 40
12.0
 40
12.0
 40
12.0
 10
2.716122143081318
 20
4.616316567591841
 30
0.0
 10
2.716122143081318
 20
4.616316567591841
 30
0.0
 10
2.716122143081318
 20
5.343887382545189
 30
0.0
 10
2.716122143081318
 20
5.343887382545189
 30
0.0
 10
2.716122143081318
 20
5.343887382545189
 30
0.0
 10
2.672242977523132
 20
5.387766548103374
 30
0.0
 10
2.672242977523132
 20
5.387766548103374
 30
0.0
 10
2.672242977523132
 20
5.387766548103374
 30
0.0
 10
2.767745752888307
 20
5.436809602419999
 30
0.0
 10
2.767745752888307
 20
5.436809602419999
 30
0.0
 10
2.767745752888307
 20
5.436809602419999
 30
0.0
 10
2.716122143081318
 20
5.485851267847768
 30
0.0
 10
2.716122143081318
 20
5.485851267847768
 30
0.0
 10
2.716122143081318
 20
5.485851267847768
 30
0.0
 10
2.716122143081318
 20
6.41693179988225
 30
0.0
 10
2.716122143081318
 20
6.41693179988225
 30
0.0
 10
3.502092280174704
 20
6.361152149746494
 30
0.0
 10
3.923400739699281
 20
6.331172846040848
 30
0.0
 10
3.923400739699281
 20
6.331172846040848
 30
0.0
 10
3.923400739699281
 20
6.331172846040848
 30
0.0
 10
6.176001232869971
 20
6.41507624437357
 30
0.0
 10
6.176001232869971
 20
6.41507624437357
 30
0.0
 10
6.176001232869971
 20
6.41507624437357
 30
0.0
 10
6.176001232869971
 20
5.589098487461746
 30
0.0
 10
6.176001232869971
 20
5.589098487461746
 30
0.0
 10
6.176001232869971
 20
5.589098487461746
 30
0.0
 10
6.238917897947228
 20
5.548677655149529
 30
0.0
 10
6.238917897947228
 20
5.548677655149529
 30
0.0
 10
6.238917897947228
 20
5.548677655149529
 30
0.0
 10
6.1269595674422
 20
5.472945712618235
 30
0.0
 10
6.1269595674422
 20
5.472945712618235
 30
0.0
 10
6.1269595674422
 20
5.472945712618235
 30
0.0
 10
6.176001232869971
 20
5.429065158171195
 30
0.0
 10
6.176001232869971
 20
5.429065158171195
 30
0.0
 10
6.176001232869971
 20
5.429065158171195
 30
0.0
 10
6.176001232869971
 20
4.562112402294487
 30
0.0
 10
6.176001232869971
 20
4.562112402294487
 30
0.0
  0
POLYLINE
  5
BA
330
41
100
AcDbEntity
  8
SWHPin
 62
   250
420
  2301728
370
    25
100
AcDb2dPolyline
 66
     1
 10
0.0
 20
0.0
 30
0.0
  0
VERTEX
  5
BB
330
BA
100
AcDbEntity
  8
SWHPin
 62
   250
420
  2301728
370
    25
100
AcDbVertex
100
AcDb2dVertex
 10
2.420877713112632
 20
5.529731822294807
 30
0.0
  0
VERTEX
  5
BC
330
BA
100
AcDbEntity
  8
SWHPin
 62
   250
420
  2301728
370
    25
100
AcDbVertex
100
AcDb2dVertex
 10
2.716122143081318
 20
5.485851267847768
 30
0.0
  0
SEQEND
  5
BD
330
BA
100
AcDbEntity
  8
SWHPin
 62
   250
420
  2301728
370
    25
  0
POLYLINE
  5
BE
330
41
100
AcDbEntity
  8
SWHPin
 62
   250
420
  2301728
370
    25
100
AcDb2dPolyline
 66
     1
 10
0.0
 20
0.0
 30
0.0
  0
VERTEX
  5
BF
330
BE
100
AcDbEntity
  8
SWHPin
 62
   250
420
  2301728
370
    25
100
AcDbVertex
100
AcDb2dVertex
 10
2.452467989390647
 20
5.480688767978184
 30
0.0
  0
VERTEX
  5
C0
330
BE
100
AcDbEntity
  8
SWHPin
 62
   250
420
  2301728
370
    25
100
AcDbVertex
100
AcDb2dVertex
 10
2.767745752888307
 20
5.436809602419999
 30
0.0
  0
SEQEND
  5
C1
330
BE
100
AcDbEntity
  8
SWHPin
 62
   250
420
  2301728
370
    25
  0
POLYLINE
  5
C2
330
41
100
AcDbEntity
  8
SWHPin
 62
   250
420
  2301728
370
    25
100
AcDb2dPolyline
 66
     1
 10
0.0
 20
0.0
 30
0.0
  0
VERTEX
  5
C3
330
C2
100
AcDbEntity
  8
SWHPin
 62
   250
420
  2301728
370
    25
100
AcDbVertex
100
AcDb2dVertex
 10
2.379579103044799
 20
5.439390157910363
 30
0.0
  0
VERTEX
  5
C4
330
C2
100
AcDbEntity
  8
SWHPin
 62
   250
420
  2301728
370
    25
100
AcDbVertex
100
AcDb2dVertex
 10
2.679986111111109
 20
5.385185992613009
 30
0.0
  0
SEQEND
  5
C5
330
C2
100
AcDbEntity
  8
SWHPin
 62
   250
420
  2301728
370
    25
  0
POLYLINE
  5
C6
330
41
100
AcDbEntity
  8
SWHPin
 62
   250
420
  2301728
370
    25
100
AcDb2dPolyline
 66
     1
 10
0.0
 20
0.0
 30
0.0
  0
VERTEX
  5
C7
330
C6
100
AcDbEntity
  8
SWHPin
 62
   250
420
  2301728
370
    25
100
AcDbVertex
100
AcDb2dVertex
 10
2.423459657491851
 20
5.400672103332909
 30
0.0
  0
VERTEX
  5
C8
330
C6
100
AcDbEntity
  8
SWHPin
 62
   250
420
  2301728
370
    25
100
AcDbVertex
100
AcDb2dVertex
 10
2.716122143081318
 20
5.336142938296385
 30
0.0
  0
SEQEND
  5
C9
330
C6
100
AcDbEntity
  8
SWHPin
 62
   250
420
  2301728
370
    25
  0
SPLINE
  5
CA
330
41
100
AcDbEntity
  8
SWHPin
 62
   250
420
  2301728
370
    18
100
AcDbSpline
210
0.0
220
0.0
230
1.0
 70
     8
 71
     3
 72
    38
 73
    34
 74
     0
 42
0.0000000001
 43
0.0000000001
 12
1.0
 22
0.0
 32
0.0
 13
1.0
 23
0.0
 33
0.0
 40
0.0
 40
0.0
 40
0.0
 40
0.0
 40
1.0
 40
1.0
 40
1.0
 40
2.0
 40
2.0
 40
2.0
 40
3.0
 40
3.0
 40
3.0
 40
4.0
 40
4.0
 40
4.0
 40
5.0
 40
5.0
 40
5.0
 40
6.0
 40
6.0
 40
6.0
 40
7.0
 40
7.0
 40
7.0
 40
8.0
 40
8.0
 40
8.0
 40
9.0
 40
9.0
 40
9.0
 40
10.0
 40
10.0
 40
10.0
 40
11.0
 40
11.0
 40
11.0
 40
11.0
 10
2.420877713112632
 20
5.774944444444448
 30
0.0
 10
2.420877713112632
 20
5.774944444444448
 30
0.0
 10
2.441527777777777
 20
5.657929041278495
 30
0.0
 10
2.441527777777777
 20
5.657929041278495
 30
0.0
 10
2.441527777777777
 20
5.657929041278495
 30
0.0
 10
2.455048544881012
 20
5.561562377046256
 30
0.0
 10
2.455048544881012
 20
5.561562377046256
 30
0.0
 10
2.455048544881012
 20
5.561562377046256
 30
0.0
 10
2.4446027114607
 20
5.523712378002427
 30
0.0
 10
2.4446027114607
 20
5.523712378002427
 30
0.0
 10
2.4446027114607
 20
5.523712378002427
 30
0.0
 10
2.489219376649392
 20
5.475527777777769
 30
0.0
 10
2.489219376649392
 20
5.475527777777769
 30
0.0
 10
2.489219376649392
 20
5.475527777777769
 30
0.0
 10
2.451852712330138
 20
5.427341547103626
 30
0.0
 10
2.451852712330138
 20
5.427341547103626
 30
0.0
 10
2.451852712330138
 20
5.427341547103626
 30
0.0
 10
2.458366600001884
 20
5.386042937035805
 30
0.0
 10
2.458366600001884
 20
5.386042937035805
 30
0.0
 10
2.458366600001884
 20
5.386042937035805
 30
0.0
 10
2.506545765451442
 20
5.358516548842291
 30
0.0
 10
2.492783265799112
 20
5.176109609005834
 30
0.0
 10
2.492783265799112
 20
5.176109609005834
 30
0.0
 10
2.489219376649392
 20
5.028126279410874
 30
0.0
 10
2.489219376649392
 20
5.028126279410874
 30
0.0
 10
2.489219376649392
 20
5.028126279410874
 30
0.0
 10
2.506424931770312
 20
4.914554060057728
 30
0.0
 10
2.506424931770312
 20
4.914554060057728
 30
0.0
 10
2.506424931770312
 20
4.914554060057728
 30
0.0
 10
2.540595763538679
 20
4.825069444444453
 30
0.0
 10
2.540595763538679
 20
4.825069444444453
 30
0.0
 10
2.540595763538679
 20
4.825069444444453
 30
0.0
 10
2.554116595828721
 20
4.677084621612266
 30
0.0
 10
2.554116595828721
 20
4.677084621612266
 30
0.0
  0
SPLINE
  5
CB
330
41
100
AcDbEntity
  8
SWHPin
 62
   250
420
  2301728
370
    18
100
AcDbSpline
210
0.0
220
0.0
230
1.0
 70
     8
 71
     3
 72
    14
 73
    10
 74
     0
 42
0.0000000001
 43
0.0000000001
 12
1.0
 22
0.0
 32
0.0
 13
1.0
 23
0.0
 33
0.0
 40
0.0
 40
0.0
 40
0.0
 40
0.0
 40
1.0
 40
1.0
 40
1.0
 40
2.0
 40
2.0
 40
2.0
 40
3.0
 40
3.0
 40
3.0
 40
3.0
 10
2.400229102523149
 20
5.437666666666675
 30
0.0
 10
2.400229102523149
 20
5.437666666666675
 30
0.0
 10
2.444970768059546
 20
5.389491548059797
 30
0.0
 10
2.444970768059546
 20
5.389491548059797
 30
0.0
 10
2.444970768059546
 20
5.389491548059797
 30
0.0
 10
2.449987433546893
 20
5.133581832302398
 30
0.0
 10
2.458970766653288
 20
4.813817951491425
 30
0.0
 10
2.458970766653288
 20
4.813817951491425
 30
0.0
 10
2.476379099195987
 20
4.792079063151706
 30
0.0
 10
2.493586043205748
 20
4.70603184310322
 30
0.0
  0
SPLINE
  5
CC
330
41
100
AcDbEntity
  8
SWHPin
 62
   250
420
  2301728
370
    18
100
AcDbSpline
210
0.0
220
0.0
230
1.0
 70
     8
 71
     3
 72
    29
 73
    25
 74
     0
 42
0.0000000001
 43
0.0000000001
 12
1.0
 22
0.0
 32
0.0
 13
1.0
 23
0.0
 33
0.0
 40
0.0
 40
0.0
 40
0.0
 40
0.0
 40
1.0
 40
1.0
 40
1.0
 40
2.0
 40
2.0
 40
2.0
 40
3.0
 40
3.0
 40
3.0
 40
4.0
 40
4.0
 40
4.0
 40
5.0
 40
5.0
 40
5.0
 40
6.0
 40
6.0
 40
6.0
 40
7.0
 40
7.0
 40
7.0
 40
8.0
 40
8.0
 40
8.0
 40
8.0
 10
2.420877713112632
 20
6.015855421125403
 30
0.0
 10
2.420877713112632
 20
6.015855421125403
 30
0.0
 10
2.482458333333334
 20
5.626959597616406
 30
0.0
 10
2.482458333333334
 20
5.626959597616406
 30
0.0
 10
2.482458333333334
 20
5.626959597616406
 30
0.0
 10
2.489219376649392
 20
5.520263888888899
 30
0.0
 10
2.489219376649392
 20
5.520263888888899
 30
0.0
 10
2.489219376649392
 20
5.520263888888899
 30
0.0
 10
2.523390208417772
 20
5.472088768195438
 30
0.0
 10
2.523390208417772
 20
5.472088768195438
 30
0.0
 10
2.523390208417772
 20
5.472088768195438
 30
0.0
 10
2.485902777777773
 20
5.423904047190464
 30
0.0
 10
2.485902777777773
 20
5.423904047190464
 30
0.0
 10
2.485902777777773
 20
5.423904047190464
 30
0.0
 10
2.51650826414718
 20
5.372280437383475
 30
0.0
 10
2.51650826414718
 20
5.372280437383475
 30
0.0
 10
2.51650826414718
 20
5.372280437383475
 30
0.0
 10
2.540595763538679
 20
5.155460998416351
 30
0.0
 10
2.53027076379951
 20
5.021238779584867
 30
0.0
 10
2.53027076379951
 20
5.021238779584867
 30
0.0
 10
2.546988817529281
 20
4.89390406057939
 30
0.0
 10
2.546988817529281
 20
4.89390406057939
 30
0.0
 10
2.546988817529281
 20
4.89390406057939
 30
0.0
 10
2.577841594176789
 20
4.666761010761951
 30
0.0
 10
2.577841594176789
 20
4.666761010761951
 30
0.0
  0
SPLINE
  5
CD
330
41
100
AcDbEntity
  8
SWHPin
 62
   250
420
  2301728
370
    18
100
AcDbSpline
210
0.0
220
0.0
230
1.0
 70
     8
 71
     3
 72
    35
 73
    31
 74
     0
 42
0.0000000001
 43
0.0000000001
 12
1.0
 22
0.0
 32
0.0
 13
1.0
 23
0.0
 33
0.0
 40
0.0
 40
0.0
 40
0.0
 40
0.0
 40
1.0
 40
1.0
 40
1.0
 40
2.0
 40
2.0
 40
2.0
 40
3.0
 40
3.0
 40
3.0
 40
4.0
 40
4.0
 40
4.0
 40
5.0
 40
5.0
 40
5.0
 40
6.0
 40
6.0
 40
6.0
 40
7.0
 40
7.0
 40
7.0
 40
8.0
 40
8.0
 40
8.0
 40
9.0
 40
9.0
 40
9.0
 40
10.0
 40
10.0
 40
10.0
 40
10.0
 10
2.420877713112632
 20
6.291180555555557
 30
0.0
 10
2.420877713112632
 20
6.291180555555557
 30
0.0
 10
2.389530490629719
 20
6.043391531540894
 30
0.0
 10
2.479015210591367
 20
5.881634591182774
 30
0.0
 10
2.479015210591367
 20
5.881634591182774
 30
0.0
 10
2.492415209200266
 20
5.706113762283469
 30
0.0
 10
2.492415209200266
 20
5.706113762283469
 30
0.0
 10
2.492415209200266
 20
5.706113762283469
 30
0.0
 10
2.506183264408012
 20
5.60286237600293
 30
0.0
 10
2.506183264408012
 20
5.60286237600293
 30
0.0
 10
2.506183264408012
 20
5.60286237600293
 30
0.0
 10
2.52683333333333
 20
5.509938767239267
 30
0.0
 10
2.52683333333333
 20
5.509938767239267
 30
0.0
 10
2.52683333333333
 20
5.509938767239267
 30
0.0
 10
2.546988817529281
 20
5.465202657258285
 30
0.0
 10
2.546988817529281
 20
5.465202657258285
 30
0.0
 10
2.546988817529281
 20
5.465202657258285
 30
0.0
 10
2.523390208417772
 20
5.423904047190464
 30
0.0
 10
2.523390208417772
 20
5.423904047190464
 30
0.0
 10
2.523390208417772
 20
5.423904047190464
 30
0.0
 10
2.56444159556789
 20
5.365392937557468
 30
0.0
 10
2.56444159556789
 20
5.365392937557468
 30
0.0
 10
2.56444159556789
 20
5.365392937557468
 30
0.0
 10
2.550437428553272
 20
5.272470717682659
 30
0.0
 10
2.543551317616119
 20
5.176109609005834
 30
0.0
 10
2.543551317616119
 20
5.176109609005834
 30
0.0
 10
2.577841594176789
 20
5.079750000000002
 30
0.0
 10
2.577841594176789
 20
5.079750000000002
 30
0.0
 10
2.577841594176789
 20
5.079750000000002
 30
0.0
 10
2.642987425162674
 20
4.642662400259622
 30
0.0
 10
2.642987425162674
 20
4.642662400259622
 30
0.0
  0
SPLINE
  5
CE
330
41
100
AcDbEntity
  8
SWHPin
 62
   250
420
  2301728
370
    18
100
AcDbSpline
210
0.0
220
0.0
230
1.0
 70
     8
 71
     3
 72
    38
 73
    34
 74
     0
 42
0.0000000001
 43
0.0000000001
 12
1.0
 22
0.0
 32
0.0
 13
1.0
 23
0.0
 33
0.0
 40
0.0
 40
0.0
 40
0.0
 40
0.0
 40
1.0
 40
1.0
 40
1.0
 40
2.0
 40
2.0
 40
2.0
 40
3.0
 40
3.0
 40
3.0
 40
4.0
 40
4.0
 40
4.0
 40
5.0
 40
5.0
 40
5.0
 40
6.0
 40
6.0
 40
6.0
 40
7.0
 40
7.0
 40
7.0
 40
8.0
 40
8.0
 40
8.0
 40
9.0
 40
9.0
 40
9.0
 40
10.0
 40
10.0
 40
10.0
 40
11.0
 40
11.0
 40
11.0
 40
11.0
 10
2.455295767798702
 20
6.377220689774326
 30
0.0
 10
2.455295767798702
 20
6.377220689774326
 30
0.0
 10
2.465247155383622
 20
6.232669304537112
 30
0.0
 10
2.458366600001884
 20
6.194813749937869
 30
0.0
 10
2.458366600001884
 20
6.194813749937869
 30
0.0
 10
2.506183264408012
 20
6.11566514082622
 30
0.0
 10
2.513065208678603
 20
5.912608201511426
 30
0.0
 10
2.513065208678603
 20
5.912608201511426
 30
0.0
 10
2.540595763538679
 20
5.802474870960294
 30
0.0
 10
2.540595763538679
 20
5.802474870960294
 30
0.0
 10
2.540595763538679
 20
5.802474870960294
 30
0.0
 10
2.557313817268449
 20
5.506501267326105
 30
0.0
 10
2.557313817268449
 20
5.506501267326105
 30
0.0
 10
2.557313817268449
 20
5.506501267326105
 30
0.0
 10
2.62258464860204
 20
5.458315157432278
 30
0.0
 10
2.62258464860204
 20
5.458315157432278
 30
0.0
 10
2.62258464860204
 20
5.458315157432278
 30
0.0
 10
2.56444159556789
 20
5.410140158649281
 30
0.0
 10
2.56444159556789
 20
5.410140158649281
 30
0.0
 10
2.56444159556789
 20
5.410140158649281
 30
0.0
 10
2.626022148515214
 20
5.358516548842291
 30
0.0
 10
2.626022148515214
 20
5.358516548842291
 30
0.0
 10
2.626022148515214
 20
5.358516548842291
 30
0.0
 10
2.639790203722946
 20
5.255269329228313
 30
0.0
 10
2.639790203722946
 20
5.255269329228313
 30
0.0
 10
2.639790203722946
 20
5.255269329228313
 30
0.0
 10
2.632662425423506
 20
5.231172107614839
 30
0.0
 10
2.632662425423506
 20
5.231172107614839
 30
0.0
 10
2.632662425423506
 20
5.231172107614839
 30
0.0
 10
2.673472222222219
 20
4.787208333333334
 30
0.0
 10
2.673472222222219
 20
4.787208333333334
 30
0.0
 10
2.673472222222219
 20
4.787208333333334
 30
0.0
 10
2.663142978805606
 20
4.666749999999992
 30
0.0
 10
2.666586034274183
 20
4.632337400520454
 30
0.0
  0
SPLINE
  5
CF
330
41
100
AcDbEntity
  8
SWHPin
 62
   250
420
  2301728
370
    18
100
AcDbSpline
210
0.0
220
0.0
230
1.0
 70
     8
 71
     3
 72
    32
 73
    28
 74
     0
 42
0.0000000001
 43
0.0000000001
 12
1.0
 22
0.0
 32
0.0
 13
1.0
 23
0.0
 33
0.0
 40
0.0
 40
0.0
 40
0.0
 40
0.0
 40
1.0
 40
1.0
 40
1.0
 40
2.0
 40
2.0
 40
2.0
 40
3.0
 40
3.0
 40
3.0
 40
4.0
 40
4.0
 40
4.0
 40
5.0
 40
5.0
 40
5.0
 40
6.0
 40
6.0
 40
6.0
 40
7.0
 40
7.0
 40
7.0
 40
8.0
 40
8.0
 40
8.0
 40
9.0
 40
9.0
 40
9.0
 40
9.0
 10
2.479015210591367
 20
6.377220689774326
 30
0.0
 10
2.479015210591367
 20
6.377220689774326
 30
0.0
 10
2.502987431857137
 20
6.260205414952603
 30
0.0
 10
2.502987431857137
 20
6.260205414952603
 30
0.0
 10
2.502987431857137
 20
6.260205414952603
 30
0.0
 10
2.553874999999998
 20
6.14319014013088
 30
0.0
 10
2.560756872737026
 20
6.091566530323891
 30
0.0
 10
2.567638888888887
 20
6.039942920516902
 30
0.0
 10
2.636347222222222
 20
5.503062378524103
 30
0.0
 10
2.636347222222222
 20
5.503062378524103
 30
0.0
 10
2.636347222222222
 20
5.503062378524103
 30
0.0
 10
2.628730479674939
 20
5.447991546581963
 30
0.0
 10
2.628730479674939
 20
5.447991546581963
 30
0.0
 10
2.628730479674939
 20
5.447991546581963
 30
0.0
 10
2.615697148776033
 20
5.403254047712127
 30
0.0
 10
2.615697148776033
 20
5.403254047712127
 30
0.0
 10
2.615697148776033
 20
5.403254047712127
 30
0.0
 10
2.632173535143516
 20
5.348191549103123
 30
0.0
 10
2.632173535143516
 20
5.348191549103123
 30
0.0
 10
2.632173535143516
 20
5.348191549103123
 30
0.0
 10
2.655892977936168
 20
4.983379058319062
 30
0.0
 10
2.655892977936168
 20
4.983379058319062
 30
0.0
 10
2.655892977936168
 20
4.983379058319062
 30
0.0
 10
2.697191588003989
 20
4.883579060840222
 30
0.0
 10
2.697191588003989
 20
4.883579060840222
 30
0.0
 10
2.697191588003989
 20
4.883579060840222
 30
0.0
 10
2.721284642950903
 20
4.814744340356911
 30
0.0
 10
2.690311032622251
 20
4.618574900868124
 30
0.0
  0
SPLINE
  5
D0
330
41
100
AcDbEntity
  8
SWHPin
 62
   250
420
  2301728
370
    18
100
AcDbSpline
210
0.0
220
0.0
230
1.0
 70
     8
 71
     3
 72
    29
 73
    25
 74
     0
 42
0.0000000001
 43
0.0000000001
 12
1.0
 22
0.0
 32
0.0
 13
1.0
 23
0.0
 33
0.0
 40
0.0
 40
0.0
 40
0.0
 40
0.0
 40
1.0
 40
1.0
 40
1.0
 40
2.0
 40
2.0
 40
2.0
 40
3.0
 40
3.0
 40
3.0
 40
4.0
 40
4.0
 40
4.0
 40
5.0
 40
5.0
 40
5.0
 40
6.0
 40
6.0
 40
6.0
 40
7.0
 40
7.0
 40
7.0
 40
8.0
 40
8.0
 40
8.0
 40
8.0
 10
2.516261041229477
 20
6.384102634044918
 30
0.0
 10
2.516261041229477
 20
6.384102634044918
 30
0.0
 10
2.536911040707814
 20
6.311829024759592
 30
0.0
 10
2.536911040707814
 20
6.311829024759592
 30
0.0
 10
2.536911040707814
 20
6.311829024759592
 30
0.0
 10
2.629465203983778
 20
6.177613750372378
 30
0.0
 10
2.639790203722946
 20
6.108779029889067
 30
0.0
 10
2.650115203462115
 20
6.039942920516902
 30
0.0
 10
2.646672147993538
 20
5.843773481028115
 30
0.0
 10
2.646672147993538
 20
5.843773481028115
 30
0.0
 10
2.646672147993538
 20
5.843773481028115
 30
0.0
 10
2.628730479674939
 20
5.503062378524103
 30
0.0
 10
2.628730479674939
 20
5.503062378524103
 30
0.0
 10
2.628730479674939
 20
5.503062378524103
 30
0.0
 10
2.676542977414505
 20
5.444552657779948
 30
0.0
 10
2.676542977414505
 20
5.444552657779948
 30
0.0
 10
2.676542977414505
 20
5.444552657779948
 30
0.0
 10
2.649626313182125
 20
5.392929047972959
 30
0.0
 10
2.649626313182125
 20
5.392929047972959
 30
0.0
 10
2.649626313182125
 20
5.392929047972959
 30
0.0
 10
2.676542977414505
 20
5.334419327228816
 30
0.0
 10
2.676542977414505
 20
5.334419327228816
 30
0.0
 10
2.676542977414505
 20
5.334419327228816
 30
0.0
 10
2.717841587482326
 20
5.093512388870193
 30
0.0
 10
2.717841587482326
 20
5.093512388870193
 30
0.0
  0
SPLINE
  5
D1
330
41
100
AcDbEntity
  8
SWHPin
 62
   250
420
  2301728
370
    18
100
AcDbSpline
210
0.0
220
0.0
230
1.0
 70
     8
 71
     3
 72
    23
 73
    19
 74
     0
 42
0.0000000001
 43
0.0000000001
 12
1.0
 22
0.0
 32
0.0
 13
1.0
 23
0.0
 33
0.0
 40
0.0
 40
0.0
 40
0.0
 40
0.0
 40
1.0
 40
1.0
 40
1.0
 40
2.0
 40
2.0
 40
2.0
 40
3.0
 40
3.0
 40
3.0
 40
4.0
 40
4.0
 40
4.0
 40
5.0
 40
5.0
 40
5.0
 40
6.0
 40
6.0
 40
6.0
 40
6.0
 10
2.574398538708212
 20
6.394427633784087
 30
0.0
 10
2.574398538708212
 20
6.394427633784087
 30
0.0
 10
2.556704093307316
 20
6.246442915300273
 30
0.0
 10
2.649626313182125
 20
6.139752640217718
 30
0.0
 10
2.649626313182125
 20
6.139752640217718
 30
0.0
 10
2.600831868216018
 20
5.661381818969049
 30
0.0
 10
2.67310408861249
 20
5.492738767673775
 30
0.0
 10
2.67310408861249
 20
5.492738767673775
 30
0.0
 10
2.728166666666665
 20
5.437666666666675
 30
0.0
 10
2.728166666666665
 20
5.437666666666675
 30
0.0
 10
2.728166666666665
 20
5.437666666666675
 30
0.0
 10
2.652455478023019
 20
5.389491548059797
 30
0.0
 10
2.652455478023019
 20
5.389491548059797
 30
0.0
 10
2.652455478023019
 20
5.389491548059797
 30
0.0
 10
2.707516587743157
 20
5.341305555555563
 30
0.0
 10
2.707516587743157
 20
5.341305555555563
 30
0.0
 10
2.707516587743157
 20
5.341305555555563
 30
0.0
 10
2.714404087569164
 20
5.300006828098149
 30
0.0
 10
2.714404087569164
 20
5.300006828098149
 30
0.0
  0
POLYLINE
  5
D2
330
41
100
AcDbEntity
  8
SWHPin
 62
   250
420
  2301728
370
    53
100
AcDb2dPolyline
 66
     1
 10
0.0
 20
0.0
 30
0.0
  0
VERTEX
  5
D3
330
D2
100
AcDbEntity
  8
SWHPin
 62
   250
420
  2301728
370
    53
100
AcDbVertex
100
AcDb2dVertex
 10
3.912305555555551
 20
6.33223735757738
 30
0.0
  0
VERTEX
  5
D4
330
D2
100
AcDbEntity
  8
SWHPin
 62
   250
420
  2301728
370
    53
100
AcDbVertex
100
AcDb2dVertex
 10
3.912305555555551
 20
4.904551282532641
 30
0.0
  0
SEQEND
  5
D5
330
D2
100
AcDbEntity
  8
SWHPin
 62
   250
420
  2301728
370
    53
  0
SPLINE
  5
D6
330
41
100
AcDbEntity
  8
SWHPin
 62
   250
420
  2301728
370
    18
100
AcDbSpline
210
0.0
220
0.0
230
1.0
 70
     8
 71
     3
 72
    11
 73
     7
 74
     0
 42
0.0000000001
 43
0.0000000001
 12
1.0
 22
0.0
 32
0.0
 13
1.0
 23
0.0
 33
0.0
 40
0.0
 40
0.0
 40
0.0
 40
0.0
 40
1.0
 40
1.0
 40
1.0
 40
2.0
 40
2.0
 40
2.0
 40
2.0
 10
2.648976313900284
 20
6.398323467019003
 30
0.0
 10
2.648976313900284
 20
6.398323467019003
 30
0.0
 10
2.628488813014378
 20
6.275583333333328
 30
0.0
 10
2.657712423387238
 20
6.240515137672244
 30
0.0
 10
2.657712423387238
 20
6.240515137672244
 30
0.0
 10
2.648199922574956
 20
5.650180555555557
 30
0.0
 10
2.715412420877025
 20
5.577120709986553
 30
0.0
  0
POLYLINE
  5
D7
330
41
100
AcDbEntity
  8
SWHPin
 62
   250
420
  2301728
370
    18
100
AcDb2dPolyline
 66
     1
 10
0.0
 20
0.0
 30
0.0
  0
VERTEX
  5
D8
330
D7
100
AcDbEntity
  8
SWHPin
 62
   250
420
  2301728
370
    18
100
AcDbVertex
100
AcDb2dVertex
 10
2.651113811390233
 20
6.404172077982366
 30
0.0
  0
VERTEX
  5
D9
330
D7
100
AcDbEntity
  8
SWHPin
 62
   250
420
  2301728
370
    18
100
AcDbVertex
100
AcDb2dVertex
 10
2.671572144206746
 20
6.310654024789275
 30
0.0
  0
VERTEX
  5
DA
330
D7
100
AcDbEntity
  8
SWHPin
 62
   250
420
  2301728
370
    18
100
AcDbVertex
100
AcDb2dVertex
 10
2.715412420877025
 20
5.807995704154172
 30
0.0
  0
SEQEND
  5
DB
330
D7
100
AcDbEntity
  8
SWHPin
 62
   250
420
  2301728
370
    18
  0
POLYLINE
  5
DC
330
41
100
AcDbEntity
  8
SWHPin
 62
   250
420
  2301728
370
    25
100
AcDb2dPolyline
 66
     1
 10
0.0
 20
0.0
 30
0.0
  0
VERTEX
  5
DD
330
DC
100
AcDbEntity
  8
SWHPin
 62
   250
420
  2301728
370
    25
100
AcDbVertex
100
AcDb2dVertex
 10
6.29731789647192
 20
6.366034578945801
 30
0.0
  0
VERTEX
  5
1D9
330
DC
100
AcDbEntity
  8
0
100
AcDbVertex
100
AcDb2dVertex
 10
6.29731789647192
 20
6.366034578945801
 30
0.0
  0
SEQEND
  5
DE
330
DC
100
AcDbEntity
  8
SWHPin
 62
   250
420
  2301728
370
    25
  0
ENDBLK
  5
44
330
41
100
AcDbEntity
  8
0
100
AcDbBlockEnd
  0
BLOCK
  5
E1
330
DF
100
AcDbEntity
  8
0
100
AcDbBlockBegin
  2
block 3
 70
     0
 10
0.0
 20
0.0
 30
0.0
  3
block 3
  1

  0
POLYLINE
  5
E3
330
DF
100
AcDbEntity
  8
SWHPin
 62
   250
420
  2301728
370
    53
100
AcDb2dPolyline
 66
     1
 10
0.0
 20
0.0
 30
0.0
  0
VERTEX
  5
E4
330
E3
100
AcDbEntity
  8
SWHPin
 62
   250
420
  2301728
370
    53
100
AcDbVertex
100
AcDb2dVertex
 10
6.045593686523286
 20
6.418147081488819
 30
0.0
  0
VERTEX
  5
E5
330
E3
100
AcDbEntity
  8
SWHPin
 62
   250
420
  2301728
370
    53
100
AcDbVertex
100
AcDb2dVertex
 10
5.88261035625467
 20
6.467188746916589
 30
0.0
  0
VERTEX
  5
E6
330
E3
100
AcDbEntity
  8
SWHPin
 62
   250
420
  2301728
370
    53
100
AcDbVertex
100
AcDb2dVertex
 10
3.910581345606917
 20
6.32879430456483
 30
0.0
  0
VERTEX
  5
E7
330
E3
100
AcDbEntity
  8
SWHPin
 62
   250
420
  2301728
370
    53
100
AcDbVertex
100
AcDb2dVertex
 10
3.910581345606917
 20
4.899062396238453
 30
0.0
  0
VERTEX
  5
E8
330
E3
100
AcDbEntity
  8
SWHPin
 62
   250
420
  2301728
370
    53
100
AcDbVertex
100
AcDb2dVertex
 10
5.880029800764305
 20
4.386516571642763
 30
0.0
  0
VERTEX
  5
E9
330
E3
100
AcDbEntity
  8
SWHPin
 62
   250
420
  2301728
370
    53
100
AcDbVertex
100
AcDb2dVertex
 10
6.045593686523286
 20
4.570395732962525
 30
0.0
  0
VERTEX
  5
EA
330
E3
100
AcDbEntity
  8
SWHPin
 62
   250
420
  2301728
370
    53
100
AcDbVertex
100
AcDb2dVertex
 10
6.045593686523286
 20
5.41874154732088
 30
0.0
  0
VERTEX
  5
EB
330
E3
100
AcDbEntity
  8
SWHPin
 62
   250
420
  2301728
370
    53
100
AcDbVertex
100
AcDb2dVertex
 10
5.95230356782915
 20
5.452297102028751
 30
0.0
  0
VERTEX
  5
EC
330
E3
100
AcDbEntity
  8
SWHPin
 62
   250
420
  2301728
370
    53
100
AcDbVertex
100
AcDb2dVertex
 10
6.094635351951056
 20
5.516826267065274
 30
0.0
  0
VERTEX
  5
ED
330
E3
100
AcDbEntity
  8
SWHPin
 62
   250
420
  2301728
370
    53
100
AcDbVertex
100
AcDb2dVertex
 10
6.045593686523286
 20
5.560712377067741
 30
0.0
  0
VERTEX
  5
EE
330
E3
100
AcDbEntity
  8
SWHPin
 62
   250
420
  2301728
370
    53
100
AcDbVertex
100
AcDb2dVertex
 10
6.045593686523286
 20
6.030481809644798
 30
0.0
  0
VERTEX
  5
EF
330
E3
100
AcDbEntity
  8
SWHPin
 62
   250
420
  2301728
370
    53
100
AcDbVertex
100
AcDb2dVertex
 10
6.043011901162471
 20
6.276403282684845
 30
0.0
  0
VERTEX
  5
F0
330
E3
100
AcDbEntity
  8
SWHPin
 62
   250
420
  2301728
370
    53
100
AcDbVertex
100
AcDb2dVertex
 10
6.045593686523286
 20
6.418147081488819
 30
0.0
  0
SEQEND
  5
F2
330
E3
100
AcDbEntity
  8
SWHPin
 62
   250
420
  2301728
370
    53
  0
HATCH
  5
F1
330
DF
100
AcDbEntity
  8
SWHPin
 62
    43
420
 15510365
100
AcDbHatch
 10
0.0
 20
0.0
 30
0.0
210
0.0
220
0.0
230
1.0
  2
SOLID
 70
     1
 71
     0
 91
        1
 92
        1
 93
       12
 72
     1
 10
6.045593686523286
 20
6.418147081488819
 11
5.88261035625467
 21
6.467188746916588
 72
     1
 10
5.88261035625467
 20
6.467188746916589
 11
3.910581345606917
 21
6.328794304564831
 72
     1
 10
3.910581345606917
 20
6.32879430456483
 11
3.910581345606917
 21
4.899062396238453
 72
     1
 10
3.910581345606917
 20
4.899062396238453
 11
5.880029800764305
 21
4.386516571642763
 72
     1
 10
5.880029800764305
 20
4.386516571642763
 11
6.045593686523286
 21
4.570395732962525
 72
     1
 10
6.045593686523286
 20
4.570395732962525
 11
6.045593686523286
 21
5.41874154732088
 72
     1
 10
6.045593686523286
 20
5.41874154732088
 11
5.95230356782915
 21
5.452297102028751
 72
     1
 10
5.95230356782915
 20
5.452297102028751
 11
6.094635351951056
 21
5.516826267065274
 72
     1
 10
6.094635351951056
 20
5.516826267065274
 11
6.045593686523286
 21
5.560712377067741
 72
     1
 10
6.045593686523286
 20
5.560712377067741
 11
6.045593686523286
 21
6.030481809644798
 72
     1
 10
6.045593686523286
 20
6.030481809644798
 11
6.043011901162471
 21
6.276403282684845
 72
     1
 10
6.043011901162471
 20
6.276403282684845
 11
6.045593686523286
 21
6.41814708148882
 97
        0
 75
     2
 76
     1
 98
        0
  0
POLYLINE
  5
F3
330
DF
100
AcDbEntity
  8
SWHPin
 62
   250
420
  2301728
370
    53
100
AcDb2dPolyline
 66
     1
 10
0.0
 20
0.0
 30
0.0
  0
VERTEX
  5
F4
330
F3
100
AcDbEntity
  8
SWHPin
 62
   250
420
  2301728
370
    53
100
AcDbVertex
100
AcDb2dVertex
 10
6.045593686523286
 20
6.418147081488819
 30
0.0
  0
VERTEX
  5
F5
330
F3
100
AcDbEntity
  8
SWHPin
 62
   250
420
  2301728
370
    53
100
AcDbVertex
100
AcDb2dVertex
 10
5.88261035625467
 20
6.467188746916589
 30
0.0
  0
SEQEND
  5
F6
330
F3
100
AcDbEntity
  8
SWHPin
 62
   250
420
  2301728
370
    53
  0
POLYLINE
  5
F7
330
DF
100
AcDbEntity
  8
SWHPin
 62
   250
420
  2301728
370
    18
100
AcDb2dPolyline
 66
     1
 10
0.0
 20
0.0
 30
0.0
  0
VERTEX
  5
F8
330
F7
100
AcDbEntity
  8
SWHPin
 62
   250
420
  2301728
370
    18
100
AcDbVertex
100
AcDb2dVertex
 10
6.334472845892251
 20
6.253999859553813
 30
0.0
  0
VERTEX
  5
1DA
330
F7
100
AcDbEntity
  8
0
100
AcDbVertex
100
AcDb2dVertex
 10
6.334472845892251
 20
6.253999859553813
 30
0.0
  0
SEQEND
  5
F9
330
F7
100
AcDbEntity
  8
SWHPin
 62
   250
420
  2301728
370
    18
  0
POLYLINE
  5
FA
330
DF
100
AcDbEntity
  8
SWHPin
 62
   250
420
  2301728
370
    25
100
AcDb2dPolyline
 66
     1
 10
0.0
 20
0.0
 30
0.0
  0
VERTEX
  5
FB
330
FA
100
AcDbEntity
  8
SWHPin
 62
   250
420
  2301728
370
    25
100
AcDbVertex
100
AcDb2dVertex
 10
5.882489522924389
 20
5.326766549644364
 30
0.0
  0
VERTEX
  5
FC
330
FA
100
AcDbEntity
  8
SWHPin
 62
   250
420
  2301728
370
    25
100
AcDbVertex
100
AcDb2dVertex
 10
6.046268686506235
 20
5.41646238071179
 30
0.0
  0
SEQEND
  5
FD
330
FA
100
AcDbEntity
  8
SWHPin
 62
   250
420
  2301728
370
    25
  0
POLYLINE
  5
FE
330
DF
100
AcDbEntity
  8
SWHPin
 62
   250
420
  2301728
370
    25
100
AcDb2dPolyline
 66
     1
 10
0.0
 20
0.0
 30
0.0
  0
VERTEX
  5
FF
330
FE
100
AcDbEntity
  8
SWHPin
 62
   250
420
  2301728
370
    25
100
AcDbVertex
100
AcDb2dVertex
 10
5.88261035625467
 20
5.488433212226988
 30
0.0
  0
VERTEX
  5
100
330
FE
100
AcDbEntity
  8
SWHPin
 62
   250
420
  2301728
370
    25
100
AcDbVertex
100
AcDb2dVertex
 10
6.045593686523286
 20
5.560712377067741
 30
0.0
  0
SEQEND
  5
101
330
FE
100
AcDbEntity
  8
SWHPin
 62
   250
420
  2301728
370
    25
  0
POLYLINE
  5
102
330
DF
100
AcDbEntity
  8
SWHPin
 62
   250
420
  2301728
370
    25
100
AcDb2dPolyline
 66
     1
 10
0.0
 20
0.0
 30
0.0
  0
VERTEX
  5
103
330
102
100
AcDbEntity
  8
SWHPin
 62
   250
420
  2301728
370
    25
100
AcDbVertex
100
AcDb2dVertex
 10
6.333011901162485
 20
6.240267915456267
 30
0.0
  0
VERTEX
  5
1DB
330
102
100
AcDbEntity
  8
0
100
AcDbVertex
100
AcDb2dVertex
 10
6.333011901162485
 20
6.240267915456267
 30
0.0
  0
SEQEND
  5
104
330
102
100
AcDbEntity
  8
SWHPin
 62
   250
420
  2301728
370
    25
  0
POLYLINE
  5
105
330
DF
100
AcDbEntity
  8
SWHPin
 62
   250
420
  2301728
370
    35
100
AcDb2dPolyline
 66
     1
 10
0.0
 20
0.0
 30
0.0
  0
VERTEX
  5
106
330
105
100
AcDbEntity
  8
SWHPin
 62
   250
420
  2301728
370
    35
100
AcDbVertex
100
AcDb2dVertex
 10
5.945527021331928
 20
5.44801237991477
 30
0.0
  0
VERTEX
  5
107
330
105
100
AcDbEntity
  8
SWHPin
 62
   250
420
  2301728
370
    35
100
AcDbVertex
100
AcDb2dVertex
 10
5.8335686908269
 20
5.372280437383475
 30
0.0
  0
SEQEND
  5
108
330
105
100
AcDbEntity
  8
SWHPin
 62
   250
420
  2301728
370
    35
  0
POLYLINE
  5
109
330
DF
100
AcDbEntity
  8
SWHPin
 62
   250
420
  2301728
370
    18
100
AcDb2dPolyline
 66
     1
 10
0.0
 20
0.0
 30
0.0
  0
VERTEX
  5
10A
330
109
100
AcDbEntity
  8
SWHPin
 62
   250
420
  2301728
370
    18
100
AcDbVertex
100
AcDb2dVertex
 10
5.88261035625467
 20
5.965952644608276
 30
0.0
  0
VERTEX
  5
10B
330
109
100
AcDbEntity
  8
SWHPin
 62
   250
420
  2301728
370
    18
100
AcDbVertex
100
AcDb2dVertex
 10
5.900679800242642
 20
5.793012371199337
 30
0.0
  0
VERTEX
  5
10C
330
109
100
AcDbEntity
  8
SWHPin
 62
   250
420
  2301728
370
    18
100
AcDbVertex
100
AcDb2dVertex
 10
5.900679800242642
 20
5.568449876872263
 30
0.0
  0
VERTEX
  5
10D
330
109
100
AcDbEntity
  8
SWHPin
 62
   250
420
  2301728
370
    18
100
AcDbVertex
100
AcDb2dVertex
 10
5.913585355472176
 20
5.506501391431912
 30
0.0
  0
VERTEX
  5
10E
330
109
100
AcDbEntity
  8
SWHPin
 62
   250
420
  2301728
370
    18
100
AcDbVertex
100
AcDb2dVertex
 10
6.006875631945832
 20
5.465202657258285
 30
0.0
  0
SEQEND
  5
10F
330
109
100
AcDbEntity
  8
SWHPin
 62
   250
420
  2301728
370
    18
  0
POLYLINE
  5
110
330
DF
100
AcDbEntity
  8
SWHPin
 62
   250
420
  2301728
370
    18
100
AcDb2dPolyline
 66
     1
 10
0.0
 20
0.0
 30
0.0
  0
VERTEX
  5
111
330
110
100
AcDbEntity
  8
SWHPin
 62
   250
420
  2301728
370
    18
100
AcDbVertex
100
AcDb2dVertex
 10
5.88261035625467
 20
6.379429026911364
 30
0.0
  0
VERTEX
  5
112
330
110
100
AcDbEntity
  8
SWHPin
 62
   250
420
  2301728
370
    18
100
AcDbVertex
100
AcDb2dVertex
 10
5.892935355993838
 20
6.242626391431915
 30
0.0
  0
VERTEX
  5
113
330
110
100
AcDbEntity
  8
SWHPin
 62
   250
420
  2301728
370
    18
100
AcDbVertex
100
AcDb2dVertex
 10
5.92649091070171
 20
5.947884589509158
 30
0.0
  0
VERTEX
  5
114
330
110
100
AcDbEntity
  8
SWHPin
 62
   250
420
  2301728
370
    18
100
AcDbVertex
100
AcDb2dVertex
 10
5.921328410832126
 20
5.756876391431913
 30
0.0
  0
VERTEX
  5
115
330
110
100
AcDbEntity
  8
SWHPin
 62
   250
420
  2301728
370
    18
100
AcDbVertex
100
AcDb2dVertex
 10
5.934234123384688
 20
5.521988766934858
 30
0.0
  0
VERTEX
  5
116
330
110
100
AcDbEntity
  8
SWHPin
 62
   250
420
  2301728
370
    18
100
AcDbVertex
100
AcDb2dVertex
 10
6.030106186914534
 20
5.478109601376673
 30
0.0
  0
SEQEND
  5
117
330
110
100
AcDbEntity
  8
SWHPin
 62
   250
420
  2301728
370
    18
  0
SPLINE
  5
118
330
DF
100
AcDbEntity
  8
SWHPin
 62
   250
420
  2301728
370
    18
100
AcDbSpline
210
0.0
220
0.0
230
1.0
 70
     8
 71
     3
 72
    17
 73
    13
 74
     0
 42
0.0000000001
 43
0.0000000001
 12
1.0
 22
0.0
 32
0.0
 13
1.0
 23
0.0
 33
0.0
 40
0.0
 40
0.0
 40
0.0
 40
0.0
 40
1.0
 40
1.0
 40
1.0
 40
2.0
 40
2.0
 40
2.0
 40
3.0
 40
3.0
 40
3.0
 40
4.0
 40
4.0
 40
4.0
 40
4.0
 10
5.900679800242642
 20
6.454283191687055
 30
0.0
 10
5.900679800242642
 20
6.454283191687055
 30
0.0
 10
6.017200631685
 20
5.927234590030821
 30
0.0
 10
6.017200631685
 20
5.927234590030821
 30
0.0
 10
6.017200631685
 20
5.927234590030821
 30
0.0
 10
5.996550632206663
 20
5.808499870808102
 30
0.0
 10
6.004293687566612
 20
5.723320835876343
 30
0.0
 10
6.004293687566612
 20
5.723320835876343
 30
0.0
 10
5.96004646540958
 20
5.529733211183662
 30
0.0
 10
5.96004646540958
 20
5.529733211183662
 30
0.0
 10
5.96004646540958
 20
5.529733211183662
 30
0.0
 10
6.058499241752821
 20
5.493595712096572
 30
0.0
 10
6.058499241752821
 20
5.493595712096572
 30
0.0
  0
POLYLINE
  5
119
330
DF
100
AcDbEntity
  8
SWHPin
 62
   250
420
  2301728
370
    18
100
AcDb2dPolyline
 66
     1
 10
0.0
 20
0.0
 30
0.0
  0
VERTEX
  5
11A
330
119
100
AcDbEntity
  8
SWHPin
 62
   250
420
  2301728
370
    18
100
AcDbVertex
100
AcDb2dVertex
 10
5.957464521030361
 20
6.433634581097571
 30
0.0
  0
VERTEX
  5
11B
330
119
100
AcDbEntity
  8
SWHPin
 62
   250
420
  2301728
370
    18
100
AcDbVertex
100
AcDb2dVertex
 10
6.027524242535315
 20
6.299412362266088
 30
0.0
  0
VERTEX
  5
11C
330
119
100
AcDbEntity
  8
SWHPin
 62
   250
420
  2301728
370
    18
100
AcDbVertex
100
AcDb2dVertex
 10
6.024943687044949
 20
6.084685974942153
 30
0.0
  0
VERTEX
  5
11D
330
119
100
AcDbEntity
  8
SWHPin
 62
   250
420
  2301728
370
    18
100
AcDbVertex
100
AcDb2dVertex
 10
6.043011901162471
 20
6.009831810166461
 30
0.0
  0
SEQEND
  5
11E
330
119
100
AcDbEntity
  8
SWHPin
 62
   250
420
  2301728
370
    18
  0
POLYLINE
  5
11F
330
DF
100
AcDbEntity
  8
SWHPin
 62
   250
420
  2301728
370
    18
100
AcDb2dPolyline
 66
     1
 10
0.0
 20
0.0
 30
0.0
  0
VERTEX
  5
120
330
11F
100
AcDbEntity
  8
SWHPin
 62
   250
420
  2301728
370
    18
100
AcDbVertex
100
AcDb2dVertex
 10
6.043011901162471
 20
5.9014220906829
 30
0.0
  0
VERTEX
  5
121
330
11F
100
AcDbEntity
  8
SWHPin
 62
   250
420
  2301728
370
    18
100
AcDbVertex
100
AcDb2dVertex
 10
6.032686742404899
 20
5.808499870808102
 30
0.0
  0
VERTEX
  5
122
330
11F
100
AcDbEntity
  8
SWHPin
 62
   250
420
  2301728
370
    18
100
AcDbVertex
100
AcDb2dVertex
 10
6.019781187175365
 20
5.723320835876343
 30
0.0
  0
VERTEX
  5
123
330
11F
100
AcDbEntity
  8
SWHPin
 62
   250
420
  2301728
370
    18
100
AcDbVertex
100
AcDb2dVertex
 10
6.027524242535315
 20
5.692347095964578
 30
0.0
  0
VERTEX
  5
124
330
11F
100
AcDbEntity
  8
SWHPin
 62
   250
420
  2301728
370
    18
100
AcDbVertex
100
AcDb2dVertex
 10
6.030106186914534
 20
5.552963766152364
 30
0.0
  0
VERTEX
  5
125
330
11F
100
AcDbEntity
  8
SWHPin
 62
   250
420
  2301728
370
    18
100
AcDbVertex
100
AcDb2dVertex
 10
6.073985352472719
 20
5.506501391431912
 30
0.0
  0
SEQEND
  5
126
330
11F
100
AcDbEntity
  8
SWHPin
 62
   250
420
  2301728
370
    18
  0
POLYLINE
  5
127
330
DF
100
AcDbEntity
  8
SWHPin
 62
   250
420
  2301728
370
    18
100
AcDb2dPolyline
 66
     1
 10
0.0
 20
0.0
 30
0.0
  0
VERTEX
  5
128
330
127
100
AcDbEntity
  8
SWHPin
 62
   250
420
  2301728
370
    18
100
AcDbVertex
100
AcDb2dVertex
 10
5.846474246056434
 20
5.380023492743425
 30
0.0
  0
VERTEX
  5
129
330
127
100
AcDbEntity
  8
SWHPin
 62
   250
420
  2301728
370
    18
100
AcDbVertex
100
AcDb2dVertex
 10
5.900679800242642
 20
5.338724882675605
 30
0.0
  0
VERTEX
  5
12A
330
127
100
AcDbEntity
  8
SWHPin
 62
   250
420
  2301728
370
    18
100
AcDbVertex
100
AcDb2dVertex
 10
5.905840911223373
 20
5.013495724224918
 30
0.0
  0
VERTEX
  5
12B
330
127
100
AcDbEntity
  8
SWHPin
 62
   250
420
  2301728
370
    18
100
AcDbVertex
100
AcDb2dVertex
 10
5.913585355472176
 20
4.990265280320803
 30
0.0
  0
VERTEX
  5
12C
330
127
100
AcDbEntity
  8
SWHPin
 62
   250
420
  2301728
370
    18
100
AcDbVertex
100
AcDb2dVertex
 10
5.916165910962541
 20
4.833676281867055
 30
0.0
  0
VERTEX
  5
12D
330
127
100
AcDbEntity
  8
SWHPin
 62
   250
420
  2301728
370
    18
100
AcDbVertex
100
AcDb2dVertex
 10
5.908422855602591
 20
4.779472116569701
 30
0.0
  0
VERTEX
  5
12E
330
127
100
AcDbEntity
  8
SWHPin
 62
   250
420
  2301728
370
    18
100
AcDbVertex
100
AcDb2dVertex
 10
5.91874801227358
 20
4.642669342247851
 30
0.0
  0
VERTEX
  5
12F
330
127
100
AcDbEntity
  8
SWHPin
 62
   250
420
  2301728
370
    18
100
AcDbVertex
100
AcDb2dVertex
 10
5.911003411092957
 20
4.593626391431902
 30
0.0
  0
VERTEX
  5
130
330
127
100
AcDbEntity
  8
SWHPin
 62
   250
420
  2301728
370
    18
100
AcDbVertex
100
AcDb2dVertex
 10
5.905840911223373
 20
4.494926291126325
 30
0.0
  0
VERTEX
  5
131
330
127
100
AcDbEntity
  8
SWHPin
 62
   250
420
  2301728
370
    18
100
AcDbVertex
100
AcDb2dVertex
 10
5.911003411092957
 20
4.440722125828971
 30
0.0
  0
SEQEND
  5
132
330
127
100
AcDbEntity
  8
SWHPin
 62
   250
420
  2301728
370
    18
  0
SPLINE
  5
133
330
DF
100
AcDbEntity
  8
SWHPin
 62
   250
420
  2301728
370
    18
100
AcDbSpline
210
0.0
220
0.0
230
1.0
 70
     8
 71
     3
 72
    32
 73
    28
 74
     0
 42
0.0000000001
 43
0.0000000001
 12
1.0
 22
0.0
 32
0.0
 13
1.0
 23
0.0
 33
0.0
 40
0.0
 40
0.0
 40
0.0
 40
0.0
 40
1.0
 40
1.0
 40
1.0
 40
2.0
 40
2.0
 40
2.0
 40
3.0
 40
3.0
 40
3.0
 40
4.0
 40
4.0
 40
4.0
 40
5.0
 40
5.0
 40
5.0
 40
6.0
 40
6.0
 40
6.0
 40
7.0
 40
7.0
 40
7.0
 40
8.0
 40
8.0
 40
8.0
 40
9.0
 40
9.0
 40
9.0
 40
9.0
 10
5.869704801025136
 20
5.390348613654118
 30
0.0
 10
5.869704801025136
 20
5.390348613654118
 30
0.0
 10
5.921328410832126
 20
5.351630437905138
 30
0.0
 10
5.921328410832126
 20
5.351630437905138
 30
0.0
 10
5.921328410832126
 20
5.351630437905138
 30
0.0
 10
5.923910355211344
 20
5.158043058098579
 30
0.0
 10
5.923910355211344
 20
5.158043058098579
 30
0.0
 10
5.923910355211344
 20
5.158043058098579
 30
0.0
 10
5.929071466192075
 20
5.12190544370848
 30
0.0
 10
5.929071466192075
 20
5.12190544370848
 30
0.0
 10
5.929071466192075
 20
5.12190544370848
 30
0.0
 10
5.923910355211344
 20
5.062538778541541
 30
0.0
 10
5.923910355211344
 20
5.062538778541541
 30
0.0
 10
5.923910355211344
 20
5.062538778541541
 30
0.0
 10
5.934234123384688
 20
5.026402668343305
 30
0.0
 10
5.934234123384688
 20
5.026402668343305
 30
0.0
 10
5.934234123384688
 20
5.026402668343305
 30
0.0
 10
5.936815910440878
 20
4.831095726376689
 30
0.0
 10
5.936815910440878
 20
4.831095726376689
 30
0.0
 10
5.936815910440878
 20
4.831095726376689
 30
0.0
 10
5.944558965800828
 20
4.792377671799234
 30
0.0
 10
5.944558965800828
 20
4.792377671799234
 30
0.0
 10
5.944558965800828
 20
4.792377671799234
 30
0.0
 10
5.947140910180047
 20
4.606531843160761
 30
0.0
 10
5.947140910180047
 20
4.606531843160761
 30
0.0
 10
5.947140910180047
 20
4.606531843160761
 30
0.0
 10
5.9331277166159
 20
4.526602215333948
 30
0.0
 10
5.956358271584602
 20
4.487884160756494
 30
0.0
  0
SPLINE
  5
134
330
DF
100
AcDbEntity
  8
SWHPin
 62
   250
420
  2301728
370
    18
100
AcDbSpline
210
0.0
220
0.0
230
1.0
 70
     8
 71
     3
 72
    23
 73
    19
 74
     0
 42
0.0000000001
 43
0.0000000001
 12
1.0
 22
0.0
 32
0.0
 13
1.0
 23
0.0
 33
0.0
 40
0.0
 40
0.0
 40
0.0
 40
0.0
 40
1.0
 40
1.0
 40
1.0
 40
2.0
 40
2.0
 40
2.0
 40
3.0
 40
3.0
 40
3.0
 40
4.0
 40
4.0
 40
4.0
 40
5.0
 40
5.0
 40
5.0
 40
6.0
 40
6.0
 40
6.0
 40
6.0
 10
5.890354800503474
 20
5.408416547581711
 30
0.0
 10
5.890354800503474
 20
5.408416547581711
 30
0.0
 10
5.941978410310463
 20
5.372280437383475
 30
0.0
 10
5.941978410310463
 20
5.372280437383475
 30
0.0
 10
5.941978410310463
 20
5.372280437383475
 30
0.0
 10
5.949721465670412
 20
5.145135998677183
 30
0.0
 10
5.949721465670412
 20
5.145135998677183
 30
0.0
 10
5.949721465670412
 20
5.145135998677183
 30
0.0
 10
5.957464521030361
 20
5.114162388348531
 30
0.0
 10
5.957464521030361
 20
5.114162388348531
 30
0.0
 10
5.957464521030361
 20
5.114162388348531
 30
0.0
 10
5.949721465670412
 20
5.010915168734552
 30
0.0
 10
5.949721465670412
 20
5.010915168734552
 30
0.0
 10
5.949721465670412
 20
5.010915168734552
 30
0.0
 10
6.019609663221571
 20
4.740833282470703
 30
0.0
 10
6.017200469970703
 20
4.60911390516493
 30
0.0
 10
6.014977349175347
 20
4.487564510769314
 30
0.0
 10
6.027330610487196
 20
4.548739115397135
 30
0.0
 10
6.022361755371094
 20
4.531677669949001
 30
0.0
  0
POLYLINE
  5
135
330
DF
100
AcDbEntity
  8
SWHPin
 62
   250
420
  2301728
370
    18
100
AcDb2dPolyline
 66
     1
 10
0.0
 20
0.0
 30
0.0
  0
VERTEX
  5
136
330
135
100
AcDbEntity
  8
SWHPin
 62
   250
420
  2301728
370
    18
100
AcDbVertex
100
AcDb2dVertex
 10
5.91874801227358
 20
5.423904169209688
 30
0.0
  0
VERTEX
  5
137
330
135
100
AcDbEntity
  8
SWHPin
 62
   250
420
  2301728
370
    18
100
AcDbVertex
100
AcDb2dVertex
 10
6.012038131815416
 20
5.385185992613009
 30
0.0
  0
VERTEX
  5
138
330
135
100
AcDbEntity
  8
SWHPin
 62
   250
420
  2301728
370
    18
100
AcDbVertex
100
AcDb2dVertex
 10
6.009456345606925
 20
5.124487502543009
 30
0.0
  0
VERTEX
  5
139
330
135
100
AcDbEntity
  8
SWHPin
 62
   250
420
  2301728
370
    18
100
AcDbVertex
100
AcDb2dVertex
 10
6.012038131815416
 20
5.083188778019879
 30
0.0
  0
VERTEX
  5
13A
330
135
100
AcDbEntity
  8
SWHPin
 62
   250
420
  2301728
370
    18
100
AcDbVertex
100
AcDb2dVertex
 10
6.012038131815416
 20
5.018658224094502
 30
0.0
  0
VERTEX
  5
13B
330
135
100
AcDbEntity
  8
SWHPin
 62
   250
420
  2301728
370
    18
100
AcDbVertex
100
AcDb2dVertex
 10
6.032686742404899
 20
4.831095726376689
 30
0.0
  0
VERTEX
  5
13C
330
135
100
AcDbEntity
  8
SWHPin
 62
   250
420
  2301728
370
    18
100
AcDbVertex
100
AcDb2dVertex
 10
6.045593686523286
 20
4.673642952576503
 30
0.0
  0
SEQEND
  5
13D
330
135
100
AcDbEntity
  8
SWHPin
 62
   250
420
  2301728
370
    18
  0
POLYLINE
  5
13E
330
DF
100
AcDbEntity
  8
SWHPin
 62
   250
420
  2301728
370
    18
100
AcDb2dPolyline
 66
     1
 10
0.0
 20
0.0
 30
0.0
  0
VERTEX
  5
13F
330
13E
100
AcDbEntity
  8
SWHPin
 62
   250
420
  2301728
370
    18
100
AcDbVertex
100
AcDb2dVertex
 10
5.944558965800828
 20
5.441972102289583
 30
0.0
  0
VERTEX
  5
140
330
13E
100
AcDbEntity
  8
SWHPin
 62
   250
420
  2301728
370
    18
100
AcDbVertex
100
AcDb2dVertex
 10
6.030106186914534
 20
5.405835992091347
 30
0.0
  0
VERTEX
  5
141
330
13E
100
AcDbEntity
  8
SWHPin
 62
   250
420
  2301728
370
    18
100
AcDbVertex
100
AcDb2dVertex
 10
6.030106186914534
 20
5.173529169209687
 30
0.0
  0
VERTEX
  5
142
330
13E
100
AcDbEntity
  8
SWHPin
 62
   250
420
  2301728
370
    18
100
AcDbVertex
100
AcDb2dVertex
 10
6.043011901162471
 20
5.036727668082474
 30
0.0
  0
SEQEND
  5
143
330
13E
100
AcDbEntity
  8
SWHPin
 62
   250
420
  2301728
370
    18
  0
POLYLINE
  5
144
330
DF
100
AcDbEntity
  8
SWHPin
 62
   250
420
  2301728
370
    25
100
AcDb2dPolyline
 66
     1
 10
0.0
 20
0.0
 30
0.0
  0
VERTEX
  5
145
330
144
100
AcDbEntity
  8
SWHPin
 62
   250
420
  2301728
370
    25
100
AcDbVertex
100
AcDb2dVertex
 10
3.921676529750648
 20
6.327729793028311
 30
0.0
  0
VERTEX
  5
146
330
144
100
AcDbEntity
  8
SWHPin
 62
   250
420
  2301728
370
    25
100
AcDbVertex
100
AcDb2dVertex
 10
5.88261035625467
 20
6.467188746916589
 30
0.0
  0
VERTEX
  5
147
330
144
100
AcDbEntity
  8
SWHPin
 62
   250
420
  2301728
370
    25
100
AcDbVertex
100
AcDb2dVertex
 10
5.88261035625467
 20
5.488433212226988
 30
0.0
  0
VERTEX
  5
148
330
144
100
AcDbEntity
  8
SWHPin
 62
   250
420
  2301728
370
    25
100
AcDbVertex
100
AcDb2dVertex
 10
5.945527021331928
 20
5.44801237991477
 30
0.0
  0
VERTEX
  5
149
330
144
100
AcDbEntity
  8
SWHPin
 62
   250
420
  2301728
370
    25
100
AcDbVertex
100
AcDb2dVertex
 10
5.8335686908269
 20
5.372280437383475
 30
0.0
  0
VERTEX
  5
14A
330
144
100
AcDbEntity
  8
SWHPin
 62
   250
420
  2301728
370
    25
100
AcDbVertex
100
AcDb2dVertex
 10
5.88261035625467
 20
5.328399882936436
 30
0.0
  0
VERTEX
  5
14B
330
144
100
AcDbEntity
  8
SWHPin
 62
   250
420
  2301728
370
    25
100
AcDbVertex
100
AcDb2dVertex
 10
5.88261035625467
 20
4.392002682615283
 30
0.0
  0
SEQEND
  5
14C
330
144
100
AcDbEntity
  8
SWHPin
 62
   250
420
  2301728
370
    25
  0
POLYLINE
  5
14D
330
DF
100
AcDbEntity
  8
SWHPin
 62
   250
420
  2301728
370
    53
100
AcDb2dPolyline
 66
     1
 10
0.0
 20
0.0
 30
0.0
  0
VERTEX
  5
14E
330
14D
100
AcDbEntity
  8
SWHPin
 62
   250
420
  2301728
370
    53
100
AcDbVertex
100
AcDb2dVertex
 10
3.910581345606917
 20
6.32879430456483
 30
0.0
  0
VERTEX
  5
14F
330
14D
100
AcDbEntity
  8
SWHPin
 62
   250
420
  2301728
370
    53
100
AcDbVertex
100
AcDb2dVertex
 10
3.910581345606917
 20
4.901108229520105
 30
0.0
  0
SEQEND
  5
150
330
14D
100
AcDbEntity
  8
SWHPin
 62
   250
420
  2301728
370
    53
  0
POLYLINE
  5
151
330
DF
100
AcDbEntity
  8
SWHPin
 62
   250
420
  2301728
370
    25
100
AcDb2dPolyline
 66
     1
 10
0.0
 20
0.0
 30
0.0
  0
VERTEX
  5
152
330
151
100
AcDbEntity
  8
SWHPin
 62
   250
420
  2301728
370
    25
100
AcDbVertex
100
AcDb2dVertex
 10
6.045593686523286
 20
6.418147081488819
 30
0.0
  0
VERTEX
  5
1DC
330
151
100
AcDbEntity
  8
0
100
AcDbVertex
100
AcDb2dVertex
 10
6.045593686523286
 20
6.418147081488819
 30
0.0
  0
SEQEND
  5
153
330
151
100
AcDbEntity
  8
SWHPin
 62
   250
420
  2301728
370
    25
  0
ENDBLK
  5
E2
330
DF
100
AcDbEntity
  8
0
100
AcDbBlockEnd
  0
BLOCK
  5
157
330
155
100
AcDbEntity
  8
0
100
AcDbBlockBegin
  2
block 4
 70
     0
 10
0.0
 20
0.0
 30
0.0
  3
block 4
  1

  0
SPLINE
  5
159
330
155
100
AcDbEntity
  8
E5SS
 62
   250
420
  2301728
370
    20
100
AcDbSpline
210
0.0
220
0.0
230
1.0
 70
    11
 71
     3
 72
    44
 73
    40
 74
     0
 42
0.0000000001
 43
0.0000000001
 12
1.0
 22
0.0
 32
0.0
 13
1.0
 23
0.0
 33
0.0
 40
0.0
 40
0.0
 40
0.0
 40
0.0
 40
1.0
 40
1.0
 40
1.0
 40
2.0
 40
2.0
 40
2.0
 40
3.0
 40
3.0
 40
3.0
 40
4.0
 40
4.0
 40
4.0
 40
5.0
 40
5.0
 40
5.0
 40
6.0
 40
6.0
 40
6.0
 40
7.0
 40
7.0
 40
7.0
 40
8.0
 40
8.0
 40
8.0
 40
9.0
 40
9.0
 40
9.0
 40
10.0
 40
10.0
 40
10.0
 40
11.0
 40
11.0
 40
11.0
 40
12.0
 40
12.0
 40
12.0
 40
13.0
 40
13.0
 40
13.0
 40
13.0
 10
4.553240183750555
 20
5.221486454441926
 30
0.0
 10
4.553240183750555
 20
5.221486454441926
 30
0.0
 10
4.566614282327615
 20
5.236756457646075
 30
0.0
 10
4.566614282327615
 20
5.236756457646075
 30
0.0
 10
4.566614282327615
 20
5.236756457646075
 30
0.0
 10
4.573754186023709
 20
5.877104560745364
 30
0.0
 10
4.573754186023709
 20
5.877104560745364
 30
0.0
 10
4.573754186023709
 20
5.877104560745364
 30
0.0
 10
4.530587715397713
 20
5.932284697401529
 30
0.0
 10
4.530587715397713
 20
5.932284697401529
 30
0.0
 10
4.530587715397713
 20
5.932284697401529
 30
0.0
 10
3.966049249070566
 20
5.936459657007996
 30
0.0
 10
3.950108782371494
 20
5.937971546116589
 30
0.0
 10
3.937600268183865
 20
5.939157928342537
 30
0.0
 10
3.912744731371983
 20
5.939796888118281
 30
0.0
 10
3.888080155947541
 20
5.935853057227202
 30
0.0
 10
3.855849520377761
 20
5.930699423969322
 30
0.0
 10
3.579224776755192
 20
5.909082626703113
 30
0.0
 10
3.579224776755192
 20
5.909082626703113
 30
0.0
 10
3.579224776755192
 20
5.909082626703113
 30
0.0
 10
3.57309645221206
 20
5.230111970467937
 30
0.0
 10
3.57309645221206
 20
5.230111970467937
 30
0.0
 10
3.57309645221206
 20
5.230111970467937
 30
0.0
 10
3.59363405467823
 20
5.222870754395444
 30
0.0
 10
3.59363405467823
 20
5.222870754395444
 30
0.0
 10
3.59363405467823
 20
5.222870754395444
 30
0.0
 10
3.879487659285574
 20
5.257425949284172
 30
0.0
 10
3.892309017981435
 20
5.263564915935957
 30
0.0
 10
3.905130376677284
 20
5.269703882587716
 30
0.0
 10
3.919906942877168
 20
5.266270572671778
 30
0.0
 10
3.926230137316843
 20
5.264042021028192
 30
0.0
 10
3.932548702770823
 20
5.261815100827966
 30
0.0
 10
4.513997619288653
 20
5.195777674238469
 30
0.0
 10
4.513997619288653
 20
5.195777674238469
 30
0.0
 10
4.513997619288653
 20
5.195777674238469
 30
0.0
 10
4.553240100830458
 20
5.2214816049418
 30
0.0
 10
4.553240100830458
 20
5.2214816049418
 30
0.0
 10
4.553240100830458
 20
5.2214816049418
 30
0.0
 10
4.553240183750555
 20
5.221486454441926
 30
0.0
 10
4.553240183750555
 20
5.221486454441926
 30
0.0
  0
SPLINE
  5
15A
330
155
100
AcDbEntity
  8
E5SS
 62
   250
420
  2301728
370
    20
100
AcDbSpline
210
0.0
220
0.0
230
1.0
 70
    11
 71
     3
 72
    11
 73
     7
 74
     0
 42
0.0000000001
 43
0.0000000001
 12
1.0
 22
0.0
 32
0.0
 13
1.0
 23
0.0
 33
0.0
 40
0.0
 40
0.0
 40
0.0
 40
0.0
 40
1.0
 40
1.0
 40
1.0
 40
2.0
 40
2.0
 40
2.0
 40
2.0
 10
3.971310418291359
 20
5.385747666520071
 30
0.0
 10
3.99407696367795
 20
5.384829832233663
 30
0.0
 10
4.007003333064668
 20
5.3660620024852
 30
0.0
 10
3.99813776327451
 20
5.343432129168352
 30
0.0
 10
3.972253889532301
 20
5.348115673219328
 30
0.0
 10
3.964114630790505
 20
5.367855560047297
 30
0.0
 10
3.971310418291359
 20
5.385747666520071
 30
0.0
  0
SPLINE
  5
15B
330
155
100
AcDbEntity
  8
E5SS
 62
   250
420
  2301728
370
    20
100
AcDbSpline
210
0.0
220
0.0
230
1.0
 70
    11
 71
     3
 72
    11
 73
     7
 74
     0
 42
0.0000000001
 43
0.0000000001
 12
1.0
 22
0.0
 32
0.0
 13
1.0
 23
0.0
 33
0.0
 40
0.0
 40
0.0
 40
0.0
 40
0.0
 40
1.0
 40
1.0
 40
1.0
 40
2.0
 40
2.0
 40
2.0
 40
2.0
 10
3.733551617067544
 20
5.670241910284213
 30
0.0
 10
3.770850833737957
 20
5.643773974345574
 30
0.0
 10
3.718353588002249
 20
5.525060390435126
 30
0.0
 10
3.686358038978142
 20
5.536336927009466
 30
0.0
 10
3.674398442753234
 20
5.555815077274019
 30
0.0
 10
3.678655230169662
 20
5.654610921603029
 30
0.0
 10
3.733551617067544
 20
5.670241910284213
 30
0.0
  0
SPLINE
  5
15C
330
155
100
AcDbEntity
  8
E5SS
 62
   250
420
  2301728
370
    20
100
AcDbSpline
210
0.0
220
0.0
230
1.0
 70
    11
 71
     3
 72
    11
 73
     7
 74
     0
 42
0.0000000001
 43
0.0000000001
 12
1.0
 22
0.0
 32
0.0
 13
1.0
 23
0.0
 33
0.0
 40
0.0
 40
0.0
 40
0.0
 40
0.0
 40
1.0
 40
1.0
 40
1.0
 40
2.0
 40
2.0
 40
2.0
 40
2.0
 10
4.047376558812781
 20
5.573873343371487
 30
0.0
 10
4.021488973771739
 20
5.578561122670331
 30
0.0
 10
4.013352610607045
 20
5.598294459757628
 30
0.0
 10
4.020547684351426
 20
5.616184541049178
 30
0.0
 10
4.04331494349449
 20
5.615268731943969
 30
0.0
 10
4.056241312881221
 20
5.596500902195506
 30
0.0
 10
4.047376558812781
 20
5.573873343371487
 30
0.0
  0
SPLINE
  5
15D
330
155
100
AcDbEntity
  8
E5SS
 62
   250
420
  2301728
370
    20
100
AcDbSpline
210
0.0
220
0.0
230
1.0
 70
    11
 71
     3
 72
    26
 73
    22
 74
     0
 42
0.0000000001
 43
0.0000000001
 12
1.0
 22
0.0
 32
0.0
 13
1.0
 23
0.0
 33
0.0
 40
0.0
 40
0.0
 40
0.0
 40
0.0
 40
1.0
 40
1.0
 40
1.0
 40
2.0
 40
2.0
 40
2.0
 40
3.0
 40
3.0
 40
3.0
 40
4.0
 40
4.0
 40
4.0
 40
5.0
 40
5.0
 40
5.0
 40
6.0
 40
6.0
 40
6.0
 40
7.0
 40
7.0
 40
7.0
 40
7.0
 10
4.329399427479984
 20
5.633426127171055
 30
0.0
 10
4.328440085993508
 20
5.600464341090653
 30
0.0
 10
4.327916821518405
 20
5.523380171650438
 30
0.0
 10
4.327916821518405
 20
5.523380171650438
 30
0.0
 10
4.327916821518405
 20
5.523380171650438
 30
0.0
 10
4.323686577699593
 20
5.491563053764505
 30
0.0
 10
4.288967167754082
 20
5.499805540855454
 30
0.0
 10
4.254250466039315
 20
5.508041869482591
 30
0.0
 10
4.238971450590459
 20
5.550728570047075
 30
0.0
 10
4.23597081312553
 20
5.561114563704867
 30
0.0
 10
4.23296834028675
 20
5.571495349753731
 30
0.0
 10
4.237950810631042
 20
5.653671925664008
 30
0.0
 10
4.237872801998416
 20
5.672350457856939
 30
0.0
 10
4.237794793365828
 20
5.691028990049896
 30
0.0
 10
4.246361648401552
 20
5.703996285552345
 30
0.0
 10
4.246361648401552
 20
5.703996285552345
 30
0.0
 10
4.246361648401552
 20
5.703996285552345
 30
0.0
 10
4.258483564439972
 20
5.715710632546537
 30
0.0
 10
4.279813930456031
 20
5.708192941496969
 30
0.0
 10
4.301144296472103
 20
5.7006752504474
 30
0.0
 10
4.33036223578357
 20
5.66639774984603
 30
0.0
 10
4.329399427479984
 20
5.633426127171055
 30
0.0
  0
SPLINE
  5
15E
330
155
100
AcDbEntity
  8
E5SS
 62
   250
420
  2301728
370
    20
100
AcDbSpline
210
0.0
220
0.0
230
1.0
 70
    11
 71
     3
 72
    11
 73
     7
 74
     0
 42
0.0000000001
 43
0.0000000001
 12
1.0
 22
0.0
 32
0.0
 13
1.0
 23
0.0
 33
0.0
 40
0.0
 40
0.0
 40
0.0
 40
0.0
 40
1.0
 40
1.0
 40
1.0
 40
2.0
 40
2.0
 40
2.0
 40
2.0
 10
4.004460902340712
 20
5.8376941579975
 30
0.0
 10
3.978577419875301
 20
5.842377889394962
 30
0.0
 10
3.970437769856719
 20
5.862117588876471
 30
0.0
 10
3.977632741635817
 20
5.880007380856417
 30
0.0
 10
4.000400102744139
 20
5.879091861062837
 30
0.0
 10
4.01332647213082
 20
5.860324031314399
 30
0.0
 10
4.004460902340712
 20
5.8376941579975
 30
0.0
  0
HATCH
  5
15F
330
155
100
AcDbEntity
  8
E5SS
 62
   254
420
 13358815
100
AcDbHatch
 10
0.0
 20
0.0
 30
0.0
210
0.0
220
0.0
230
1.0
  2
SOLID
 70
     1
 71
     0
 91
        6
 92
        1
 93
        1
 72
     4
 94
        3
 73
     0
 74
     1
 95
       44
 96
       40
 40
0.0
 40
0.0
 40
0.0
 40
0.0
 40
1.0
 40
1.0
 40
1.0
 40
2.0
 40
2.0
 40
2.0
 40
3.0
 40
3.0
 40
3.0
 40
4.0
 40
4.0
 40
4.0
 40
5.0
 40
5.0
 40
5.0
 40
6.0
 40
6.0
 40
6.0
 40
7.0
 40
7.0
 40
7.0
 40
8.0
 40
8.0
 40
8.0
 40
9.0
 40
9.0
 40
9.0
 40
10.0
 40
10.0
 40
10.0
 40
11.0
 40
11.0
 40
11.0
 40
12.0
 40
12.0
 40
12.0
 40
13.0
 40
13.0
 40
13.0
 40
13.0
 10
4.553240183750555
 20
5.221486454441926
 10
4.553240183750555
 20
5.221486454441926
 10
4.566614282327615
 20
5.236756457646075
 10
4.566614282327615
 20
5.236756457646075
 10
4.566614282327615
 20
5.236756457646075
 10
4.573754186023709
 20
5.877104560745364
 10
4.573754186023709
 20
5.877104560745364
 10
4.573754186023709
 20
5.877104560745364
 10
4.530587715397713
 20
5.932284697401529
 10
4.530587715397713
 20
5.932284697401529
 10
4.530587715397713
 20
5.932284697401529
 10
3.966049249070566
 20
5.936459657007996
 10
3.950108782371494
 20
5.937971546116589
 10
3.937600268183865
 20
5.939157928342537
 10
3.912744731371983
 20
5.939796888118281
 10
3.888080155947541
 20
5.935853057227202
 10
3.855849520377761
 20
5.930699423969322
 10
3.579224776755192
 20
5.909082626703113
 10
3.579224776755192
 20
5.909082626703113
 10
3.579224776755192
 20
5.909082626703113
 10
3.57309645221206
 20
5.230111970467937
 10
3.57309645221206
 20
5.230111970467937
 10
3.57309645221206
 20
5.230111970467937
 10
3.59363405467823
 20
5.222870754395444
 10
3.59363405467823
 20
5.222870754395444
 10
3.59363405467823
 20
5.222870754395444
 10
3.879487659285574
 20
5.257425949284172
 10
3.892309017981435
 20
5.263564915935957
 10
3.905130376677284
 20
5.269703882587716
 10
3.919906942877168
 20
5.266270572671778
 10
3.926230137316843
 20
5.264042021028192
 10
3.932548702770823
 20
5.261815100827966
 10
4.513997619288653
 20
5.195777674238469
 10
4.513997619288653
 20
5.195777674238469
 10
4.513997619288653
 20
5.195777674238469
 10
4.553240100830458
 20
5.2214816049418
 10
4.553240100830458
 20
5.2214816049418
 10
4.553240100830458
 20
5.2214816049418
 10
4.553240183750555
 20
5.221486454441926
 10
4.553240183750555
 20
5.221486454441926
 97
        0
 97
        0
 92
        1
 93
        1
 72
     4
 94
        3
 73
     0
 74
     1
 95
       11
 96
        7
 40
0.0
 40
0.0
 40
0.0
 40
0.0
 40
1.0
 40
1.0
 40
1.0
 40
2.0
 40
2.0
 40
2.0
 40
2.0
 10
3.971310418291359
 20
5.385747666520071
 10
3.99407696367795
 20
5.384829832233663
 10
4.007003333064668
 20
5.3660620024852
 10
3.99813776327451
 20
5.343432129168352
 10
3.972253889532301
 20
5.348115673219328
 10
3.964114630790505
 20
5.367855560047297
 10
3.971310418291359
 20
5.385747666520071
 97
        0
 97
        0
 92
        1
 93
        1
 72
     4
 94
        3
 73
     0
 74
     1
 95
       11
 96
        7
 40
0.0
 40
0.0
 40
0.0
 40
0.0
 40
1.0
 40
1.0
 40
1.0
 40
2.0
 40
2.0
 40
2.0
 40
2.0
 10
3.733551617067544
 20
5.670241910284213
 10
3.770850833737957
 20
5.643773974345574
 10
3.718353588002249
 20
5.525060390435126
 10
3.686358038978142
 20
5.536336927009466
 10
3.674398442753234
 20
5.555815077274019
 10
3.678655230169662
 20
5.654610921603029
 10
3.733551617067544
 20
5.670241910284213
 97
        0
 97
        0
 92
        1
 93
        1
 72
     4
 94
        3
 73
     0
 74
     1
 95
       11
 96
        7
 40
0.0
 40
0.0
 40
0.0
 40
0.0
 40
1.0
 40
1.0
 40
1.0
 40
2.0
 40
2.0
 40
2.0
 40
2.0
 10
4.047376558812781
 20
5.573873343371487
 10
4.021488973771739
 20
5.578561122670331
 10
4.013352610607045
 20
5.598294459757628
 10
4.020547684351426
 20
5.616184541049178
 10
4.04331494349449
 20
5.615268731943969
 10
4.056241312881221
 20
5.596500902195506
 10
4.047376558812781
 20
5.573873343371487
 97
        0
 97
        0
 92
        1
 93
        1
 72
     4
 94
        3
 73
     0
 74
     1
 95
       26
 96
       22
 40
0.0
 40
0.0
 40
0.0
 40
0.0
 40
1.0
 40
1.0
 40
1.0
 40
2.0
 40
2.0
 40
2.0
 40
3.0
 40
3.0
 40
3.0
 40
4.0
 40
4.0
 40
4.0
 40
5.0
 40
5.0
 40
5.0
 40
6.0
 40
6.0
 40
6.0
 40
7.0
 40
7.0
 40
7.0
 40
7.0
 10
4.329399427479984
 20
5.633426127171055
 10
4.328440085993508
 20
5.600464341090653
 10
4.327916821518405
 20
5.523380171650438
 10
4.327916821518405
 20
5.523380171650438
 10
4.327916821518405
 20
5.523380171650438
 10
4.323686577699593
 20
5.491563053764505
 10
4.288967167754082
 20
5.499805540855454
 10
4.254250466039315
 20
5.508041869482591
 10
4.238971450590459
 20
5.550728570047075
 10
4.23597081312553
 20
5.561114563704867
 10
4.23296834028675
 20
5.571495349753731
 10
4.237950810631042
 20
5.653671925664008
 10
4.237872801998416
 20
5.672350457856939
 10
4.237794793365828
 20
5.691028990049896
 10
4.246361648401552
 20
5.703996285552345
 10
4.246361648401552
 20
5.703996285552345
 10
4.246361648401552
 20
5.703996285552345
 10
4.258483564439972
 20
5.715710632546537
 10
4.279813930456031
 20
5.708192941496969
 10
4.301144296472103
 20
5.7006752504474
 10
4.33036223578357
 20
5.66639774984603
 10
4.329399427479984
 20
5.633426127171055
 97
        0
 97
        0
 92
        1
 93
        1
 72
     4
 94
        3
 73
     0
 74
     1
 95
       11
 96
        7
 40
0.0
 40
0.0
 40
0.0
 40
0.0
 40
1.0
 40
1.0
 40
1.0
 40
2.0
 40
2.0
 40
2.0
 40
2.0
 10
4.004460902340712
 20
5.8376941579975
 10
3.978577419875301
 20
5.842377889394962
 10
3.970437769856719
 20
5.862117588876471
 10
3.977632741635817
 20
5.880007380856417
 10
4.000400102744139
 20
5.879091861062837
 10
4.01332647213082
 20
5.860324031314399
 10
4.004460902340712
 20
5.8376941579975
 97
        0
 97
        0
 75
     2
 76
     1
 98
        0
  0
SPLINE
  5
160
330
155
100
AcDbEntity
  8
E5SS
 62
   250
420
  2301728
370
    15
100
AcDbSpline
210
0.0
220
0.0
230
1.0
 70
    11
 71
     3
 72
    23
 73
    19
 74
     0
 42
0.0000000001
 43
0.0000000001
 12
1.0
 22
0.0
 32
0.0
 13
1.0
 23
0.0
 33
0.0
 40
0.0
 40
0.0
 40
0.0
 40
0.0
 40
1.0
 40
1.0
 40
1.0
 40
2.0
 40
2.0
 40
2.0
 40
3.0
 40
3.0
 40
3.0
 40
4.0
 40
4.0
 40
4.0
 40
5.0
 40
5.0
 40
5.0
 40
6.0
 40
6.0
 40
6.0
 40
6.0
 10
3.733551591905918
 20
5.670241739962749
 30
0.0
 10
3.758448491849764
 20
5.646322511030525
 30
0.0
 10
3.739870761642654
 20
5.600166030024992
 30
0.0
 10
3.738429694045256
 20
5.595253261325752
 30
0.0
 10
3.728513038469512
 20
5.561446217713309
 30
0.0
 10
3.706187633471397
 20
5.534010849132478
 30
0.0
 10
3.686358045031259
 20
5.536336845255341
 30
0.0
 10
3.686358045031259
 20
5.536336845255341
 30
0.0
 10
3.697824562957799
 20
5.532961685146271
 30
0.0
 10
3.701170799209105
 20
5.531116226470936
 30
0.0
 10
3.704517035460387
 20
5.52927076779555
 30
0.0
 10
3.735599276846402
 20
5.534302722745742
 30
0.0
 10
3.755855277729918
 20
5.591776208955682
 30
0.0
 10
3.776111278613446
 20
5.649249695165635
 30
0.0
 10
3.747840611027136
 20
5.669205059495298
 30
0.0
 10
3.747840611027136
 20
5.669205059495298
 30
0.0
 10
3.747840611027136
 20
5.669205059495298
 30
0.0
 10
3.741706684604587
 20
5.670700796841957
 30
0.0
 10
3.733551591905918
 20
5.670241739962749
 30
0.0
  0
SPLINE
  5
161
330
155
100
AcDbEntity
  8
E5SS
 62
   250
420
  2301728
370
    15
100
AcDbSpline
210
0.0
220
0.0
230
1.0
 70
    11
 71
     3
 72
    17
 73
    13
 74
     0
 42
0.0000000001
 43
0.0000000001
 12
1.0
 22
0.0
 32
0.0
 13
1.0
 23
0.0
 33
0.0
 40
0.0
 40
0.0
 40
0.0
 40
0.0
 40
1.0
 40
1.0
 40
1.0
 40
2.0
 40
2.0
 40
2.0
 40
3.0
 40
3.0
 40
3.0
 40
4.0
 40
4.0
 40
4.0
 40
4.0
 10
3.99813690585798
 20
5.343430303601432
 30
0.0
 10
3.99813690585798
 20
5.343430303601432
 30
0.0
 10
3.958222962869943
 20
5.348614382102091
 30
0.0
 10
3.97130959205861
 20
5.385745808316693
 30
0.0
 10
3.97130959205861
 20
5.385745808316693
 30
0.0
 10
3.962251396710144
 20
5.382724327117229
 30
0.0
 10
3.962251396710144
 20
5.382724327117229
 30
0.0
 10
3.962251396710144
 20
5.382724327117229
 30
0.0
 10
3.953707652377867
 20
5.363532727892889
 30
0.0
 10
3.964029566163504
 20
5.347459984242505
 30
0.0
 10
3.974351458960389
 20
5.331387181039544
 30
0.0
 10
3.996422602468038
 20
5.336041191914874
 30
0.0
 10
3.99813690585798
 20
5.343430303601432
 30
0.0
  0
SPLINE
  5
162
330
155
100
AcDbEntity
  8
E5SS
 62
   250
420
  2301728
370
    15
100
AcDbSpline
210
0.0
220
0.0
230
1.0
 70
    11
 71
     3
 72
    17
 73
    13
 74
     0
 42
0.0000000001
 43
0.0000000001
 12
1.0
 22
0.0
 32
0.0
 13
1.0
 23
0.0
 33
0.0
 40
0.0
 40
0.0
 40
0.0
 40
0.0
 40
1.0
 40
1.0
 40
1.0
 40
2.0
 40
2.0
 40
2.0
 40
3.0
 40
3.0
 40
3.0
 40
4.0
 40
4.0
 40
4.0
 40
4.0
 10
4.047375681699501
 20
5.573871087984167
 30
0.0
 10
4.047375681699501
 20
5.573871087984167
 30
0.0
 10
4.007465281116601
 20
5.579051746512934
 30
0.0
 10
4.020547686202867
 20
5.616184661473552
 30
0.0
 10
4.020547686202867
 20
5.616184661473552
 30
0.0
 10
4.011489492637224
 20
5.613163185905452
 30
0.0
 10
4.011489492637224
 20
5.613163185905452
 30
0.0
 10
4.011489492637224
 20
5.613163185905452
 30
0.0
 10
4.002941854075478
 20
5.593975657389592
 30
0.0
 10
4.013263745170686
 20
5.577902848212412
 30
0.0
 10
4.023585661179519
 20
5.561830109724168
 30
0.0
 10
4.04566069757027
 20
5.566480044734059
 30
0.0
 10
4.047375681699501
 20
5.573871087984167
 30
0.0
  0
SPLINE
  5
163
330
155
100
AcDbEntity
  8
E5SS
 62
   250
420
  2301728
370
    15
100
AcDbSpline
210
0.0
220
0.0
230
1.0
 70
    11
 71
     3
 72
    17
 73
    13
 74
     0
 42
0.0000000001
 43
0.0000000001
 12
1.0
 22
0.0
 32
0.0
 13
1.0
 23
0.0
 33
0.0
 40
0.0
 40
0.0
 40
0.0
 40
0.0
 40
1.0
 40
1.0
 40
1.0
 40
2.0
 40
2.0
 40
2.0
 40
3.0
 40
3.0
 40
3.0
 40
4.0
 40
4.0
 40
4.0
 40
4.0
 10
4.004459266021677
 20
5.837689534373011
 30
0.0
 10
4.004459266021677
 20
5.837689534373011
 30
0.0
 10
3.96455480218799
 20
5.842870271808629
 30
0.0
 10
3.977632786843603
 20
5.880007410197991
 30
0.0
 10
3.977632786843603
 20
5.880007410197991
 30
0.0
 10
3.968574747557404
 20
5.876986372375667
 30
0.0
 10
3.968574747557404
 20
5.876986372375667
 30
0.0
 10
3.968574747557404
 20
5.876986372375667
 30
0.0
 10
3.960030178478974
 20
5.857792433180444
 30
0.0
 10
3.970352917330009
 20
5.841722029388393
 30
0.0
 10
3.980673985582989
 20
5.825646885515046
 30
0.0
 10
4.002744962588395
 20
5.830300422499804
 30
0.0
 10
4.004459266021677
 20
5.837689534373011
 30
0.0
  0
INSERT
  5
165
330
155
100
AcDbEntity
  8
E5SS
100
AcDbBlockReference
  2
block 5
 10
0.0
 20
0.0
 30
0.0
  0
INSERT
  5
16A
330
155
100
AcDbEntity
  8
E5SS
100
AcDbBlockReference
  2
block 6
 10
0.0
 20
0.0
 30
0.0
  0
INSERT
  5
16F
330
155
100
AcDbEntity
  8
E5SS
100
AcDbBlockReference
  2
block 7
 10
0.0
 20
0.0
 30
0.0
  0
INSERT
  5
174
330
155
100
AcDbEntity
  8
E5SS
100
AcDbBlockReference
  2
block 8
 10
0.0
 20
0.0
 30
0.0
  0
INSERT
  5
179
330
155
100
AcDbEntity
  8
E5SS
100
AcDbBlockReference
  2
block 9
 10
0.0
 20
0.0
 30
0.0
  0
INSERT
  5
17E
330
155
100
AcDbEntity
  8
E5SS
100
AcDbBlockReference
  2
block 10
 10
0.0
 20
0.0
 30
0.0
  0
INSERT
  5
183
330
155
100
AcDbEntity
  8
E5SS
100
AcDbBlockReference
  2
block 11
 10
0.0
 20
0.0
 30
0.0
  0
INSERT
  5
188
330
155
100
AcDbEntity
  8
E5SS
100
AcDbBlockReference
  2
block 12
 10
0.0
 20
0.0
 30
0.0
  0
INSERT
  5
18D
330
155
100
AcDbEntity
  8
E5SS
100
AcDbBlockReference
  2
block 13
 10
0.0
 20
0.0
 30
0.0
  0
INSERT
  5
192
330
155
100
AcDbEntity
  8
E5SS
100
AcDbBlockReference
  2
block 14
 10
0.0
 20
0.0
 30
0.0
  0
SPLINE
  5
196
330
155
100
AcDbEntity
  8
E5SS
 62
   250
420
  2301728
370
    15
100
AcDbSpline
210
0.0
220
0.0
230
1.0
 70
     8
 71
     3
 72
    35
 73
    31
 74
     0
 42
0.0000000001
 43
0.0000000001
 12
1.0
 22
0.0
 32
0.0
 13
1.0
 23
0.0
 33
0.0
 40
0.0
 40
0.0
 40
0.0
 40
0.0
 40
1.0
 40
1.0
 40
1.0
 40
2.0
 40
2.0
 40
2.0
 40
3.0
 40
3.0
 40
3.0
 40
4.0
 40
4.0
 40
4.0
 40
5.0
 40
5.0
 40
5.0
 40
6.0
 40
6.0
 40
6.0
 40
7.0
 40
7.0
 40
7.0
 40
8.0
 40
8.0
 40
8.0
 40
9.0
 40
9.0
 40
9.0
 40
10.0
 40
10.0
 40
10.0
 40
10.0
 10
3.85079843167211
 20
5.509594428389442
 30
0.0
 10
3.848608391744556
 20
5.507979993982897
 30
0.0
 10
3.849750768794807
 20
5.503777328134977
 30
0.0
 10
3.848254458408316
 20
5.502845179140599
 30
0.0
 10
3.839151867069404
 20
5.497172708589864
 30
0.0
 10
3.819352115764319
 20
5.463939842898526
 30
0.0
 10
3.819290705911751
 20
5.435784597766466
 30
0.0
 10
3.819252607063188
 20
5.418031578710396
 30
0.0
 10
3.832057844874473
 20
5.407749956909356
 30
0.0
 10
3.842205125586714
 20
5.412606609059442
 30
0.0
 10
3.842205125586714
 20
5.412606609059442
 30
0.0
 10
3.845133145990859
 20
5.413354497220451
 30
0.0
 10
3.845133145990859
 20
5.413354497220451
 30
0.0
 10
3.845133145990859
 20
5.413354497220451
 30
0.0
 10
3.88958577803866
 20
5.441203114346055
 30
0.0
 10
3.898181329711001
 20
5.44794683563911
 30
0.0
 10
3.906776034900607
 20
5.454688155159121
 30
0.0
 10
3.924107633817369
 20
5.451403756228223
 30
0.0
 10
3.938840481543517
 20
5.445321378744059
 30
0.0
 10
3.953574999867669
 20
5.439243741341291
 30
0.0
 10
4.083229627810144
 20
5.421166410224865
 30
0.0
 10
4.094009247708363
 20
5.416477311501922
 30
0.0
 10
4.104788043484291
 20
5.411785874450642
 30
0.0
 10
4.129690973938573
 20
5.411894917848586
 30
0.0
 10
4.138927708249487
 20
5.440612724421372
 30
0.0
 10
4.148159702479094
 20
5.469332201592175
 30
0.0
 10
4.112693142660924
 20
5.502254988896033
 30
0.0
 10
4.084252654639474
 20
5.51227857696209
 30
0.0
 10
4.082309348588486
 20
5.512963477281901
 30
0.0
 10
4.079923429597152
 20
5.51380437245608
 30
0.0
 10
4.077162441397769
 20
5.514777457318208
 30
0.0
  0
SPLINE
  5
197
330
155
100
AcDbEntity
  8
E5SS
 62
   250
420
  2301728
370
    15
100
AcDbSpline
210
0.0
220
0.0
230
1.0
 70
     8
 71
     3
 72
    14
 73
    10
 74
     0
 42
0.0000000001
 43
0.0000000001
 12
1.0
 22
0.0
 32
0.0
 13
1.0
 23
0.0
 33
0.0
 40
0.0
 40
0.0
 40
0.0
 40
0.0
 40
1.0
 40
1.0
 40
1.0
 40
2.0
 40
2.0
 40
2.0
 40
3.0
 40
3.0
 40
3.0
 40
3.0
 10
4.061932951308803
 20
5.520144950836412
 30
0.0
 10
4.004918139736938
 20
5.540239296068092
 30
0.0
 10
3.941744620907204
 20
5.538174418389669
 30
0.0
 10
3.926251523436425
 20
5.540186842685393
 30
0.0
 10
3.919320731813248
 20
5.54108709478007
 30
0.0
 10
3.904866131952998
 20
5.538818967504994
 30
0.0
 10
3.893308775614072
 20
5.534926013968995
 30
0.0
 10
3.886292062893997
 20
5.532562520468091
 30
0.0
 10
3.854676712394646
 20
5.519992042745242
 30
0.0
 10
3.85079843167211
 20
5.509594428389442
 30
0.0
  0
INSERT
  5
199
330
155
100
AcDbEntity
  8
E5SS
100
AcDbBlockReference
  2
block 15
 10
0.0
 20
0.0
 30
0.0
  0
POLYLINE
  5
19E
330
155
100
AcDbEntity
  8
E5SS
 62
   250
420
  2301728
370
    15
100
AcDb2dPolyline
 66
     1
 10
0.0
 20
0.0
 30
0.0
  0
VERTEX
  5
19F
330
19E
100
AcDbEntity
  8
E5SS
 62
   250
420
  2301728
370
    15
100
AcDbVertex
100
AcDb2dVertex
 10
3.918412318430935
 20
5.805340702252402
 30
0.0
  0
VERTEX
  5
1A0
330
19E
100
AcDbEntity
  8
E5SS
 62
   250
420
  2301728
370
    15
100
AcDbVertex
100
AcDb2dVertex
 10
3.919776619888087
 20
5.918131152936742
 30
0.0
  0
SEQEND
  5
1A1
330
19E
100
AcDbEntity
  8
E5SS
 62
   250
420
  2301728
370
    15
  0
POLYLINE
  5
1A2
330
155
100
AcDbEntity
  8
E5SS
 62
   250
420
  2301728
370
    15
100
AcDb2dPolyline
 66
     1
 10
0.0
 20
0.0
 30
0.0
  0
VERTEX
  5
1A3
330
1A2
100
AcDbEntity
  8
E5SS
 62
   250
420
  2301728
370
    15
100
AcDbVertex
100
AcDb2dVertex
 10
3.915721348142407
 20
5.555476321344208
 30
0.0
  0
VERTEX
  5
1A4
330
1A2
100
AcDbEntity
  8
E5SS
 62
   250
420
  2301728
370
    15
100
AcDbVertex
100
AcDb2dVertex
 10
3.917130348554779
 20
5.686306088297442
 30
0.0
  0
SEQEND
  5
1A5
330
1A2
100
AcDbEntity
  8
E5SS
 62
   250
420
  2301728
370
    15
  0
POLYLINE
  5
1A6
330
155
100
AcDbEntity
  8
E5SS
 62
   250
420
  2301728
370
    15
100
AcDb2dPolyline
 66
     1
 10
0.0
 20
0.0
 30
0.0
  0
VERTEX
  5
1A7
330
1A6
100
AcDbEntity
  8
E5SS
 62
   250
420
  2301728
370
    15
100
AcDbVertex
100
AcDb2dVertex
 10
3.913261146790622
 20
5.285372837557866
 30
0.0
  0
VERTEX
  5
1A8
330
1A6
100
AcDbEntity
  8
E5SS
 62
   250
420
  2301728
370
    15
100
AcDbVertex
100
AcDb2dVertex
 10
3.914496289988733
 20
5.441726125568266
 30
0.0
  0
SEQEND
  5
1A9
330
1A6
100
AcDbEntity
  8
E5SS
 62
   250
420
  2301728
370
    15
  0
SPLINE
  5
1AA
330
155
100
AcDbEntity
  8
E5SS
 62
   250
420
  2301728
370
    15
100
AcDbSpline
210
0.0
220
0.0
230
1.0
 70
    11
 71
     3
 72
    35
 73
    31
 74
     0
 42
0.0000000001
 43
0.0000000001
 12
1.0
 22
0.0
 32
0.0
 13
1.0
 23
0.0
 33
0.0
 40
0.0
 40
0.0
 40
0.0
 40
0.0
 40
1.0
 40
1.0
 40
1.0
 40
2.0
 40
2.0
 40
2.0
 40
3.0
 40
3.0
 40
3.0
 40
4.0
 40
4.0
 40
4.0
 40
5.0
 40
5.0
 40
5.0
 40
6.0
 40
6.0
 40
6.0
 40
7.0
 40
7.0
 40
7.0
 40
8.0
 40
8.0
 40
8.0
 40
9.0
 40
9.0
 40
9.0
 40
10.0
 40
10.0
 40
10.0
 40
10.0
 10
4.51609470833177
 20
5.921395286408167
 30
0.0
 10
4.51609470833177
 20
5.921395286408167
 30
0.0
 10
4.559261178957816
 20
5.866215149752002
 30
0.0
 10
4.559261178957816
 20
5.866215149752002
 30
0.0
 10
4.559261178957816
 20
5.866215149752002
 30
0.0
 10
4.553240100830458
 20
5.2214816049418
 30
0.0
 10
4.553240100830458
 20
5.2214816049418
 30
0.0
 10
4.553240100830458
 20
5.2214816049418
 30
0.0
 10
4.513997619288653
 20
5.195777674238469
 30
0.0
 10
4.513997619288653
 20
5.195777674238469
 30
0.0
 10
4.513997619288653
 20
5.195777674238469
 30
0.0
 10
3.932548702770823
 20
5.261815100827966
 30
0.0
 10
3.926230137316843
 20
5.264042021028192
 30
0.0
 10
3.919906942877168
 20
5.266270572671778
 30
0.0
 10
3.905130376677284
 20
5.269703882587716
 30
0.0
 10
3.892309017981435
 20
5.263564915935957
 30
0.0
 10
3.879487659285574
 20
5.257425949284172
 30
0.0
 10
3.59363405467823
 20
5.222870754395444
 30
0.0
 10
3.59363405467823
 20
5.222870754395444
 30
0.0
 10
3.59363405467823
 20
5.222870754395444
 30
0.0
 10
3.595697764271866
 20
5.904171632054638
 30
0.0
 10
3.595697764271866
 20
5.904171632054638
 30
0.0
 10
3.595697764271866
 20
5.904171632054638
 30
0.0
 10
3.877250813261374
 20
5.926511782751908
 30
0.0
 10
3.889977812300458
 20
5.929848733323903
 30
0.0
 10
3.898706586121976
 20
5.932137370787232
 30
0.0
 10
3.927328295529024
 20
5.933519044592154
 30
0.0
 10
3.964103932700418
 20
5.931106729951302
 30
0.0
 10
4.007276058624825
 20
5.928274834722439
 30
0.0
 10
4.51609470833177
 20
5.921395286408167
 30
0.0
 10
4.51609470833177
 20
5.921395286408167
 30
0.0
  0
POLYLINE
  5
1AB
330
155
100
AcDbEntity
  8
E5SS
 62
   250
420
  2301728
370
    15
100
AcDb2dPolyline
 66
     1
 10
0.0
 20
0.0
 30
0.0
  0
VERTEX
  5
1AC
330
1AB
100
AcDbEntity
  8
E5SS
 62
   250
420
  2301728
370
    15
100
AcDbVertex
100
AcDb2dVertex
 10
3.579224637151949
 20
5.909082797722249
 30
0.0
  0
VERTEX
  5
1AD
330
1AB
100
AcDbEntity
  8
E5SS
 62
   250
420
  2301728
370
    15
100
AcDbVertex
100
AcDb2dVertex
 10
3.595689956450618
 20
5.904179833449764
 30
0.0
  0
SEQEND
  5
1AE
330
1AB
100
AcDbEntity
  8
E5SS
 62
   250
420
  2301728
370
    15
  0
POLYLINE
  5
1AF
330
155
100
AcDbEntity
  8
E5SS
 62
   250
420
  2301728
370
    15
100
AcDb2dPolyline
 66
     1
 10
0.0
 20
0.0
 30
0.0
  0
VERTEX
  5
1B0
330
1AF
100
AcDbEntity
  8
E5SS
 62
   250
420
  2301728
370
    15
100
AcDbVertex
100
AcDb2dVertex
 10
4.530587721450805
 20
5.932284615647379
 30
0.0
  0
VERTEX
  5
1B1
330
1AF
100
AcDbEntity
  8
E5SS
 62
   250
420
  2301728
370
    15
100
AcDbVertex
100
AcDb2dVertex
 10
4.516095764743972
 20
5.921405567658641
 30
0.0
  0
SEQEND
  5
1B2
330
1AF
100
AcDbEntity
  8
E5SS
 62
   250
420
  2301728
370
    15
  0
POLYLINE
  5
1B3
330
155
100
AcDbEntity
  8
E5SS
 62
   250
420
  2301728
370
    15
100
AcDb2dPolyline
 66
     1
 10
0.0
 20
0.0
 30
0.0
  0
VERTEX
  5
1B4
330
1B3
100
AcDbEntity
  8
E5SS
 62
   250
420
  2301728
370
    15
100
AcDbVertex
100
AcDb2dVertex
 10
4.559262235370018
 20
5.866225431002501
 30
0.0
  0
VERTEX
  5
1B5
330
1B3
100
AcDbEntity
  8
E5SS
 62
   250
420
  2301728
370
    15
100
AcDbVertex
100
AcDb2dVertex
 10
4.573754192076901
 20
5.877104478991214
 30
0.0
  0
SEQEND
  5
1B6
330
1B3
100
AcDbEntity
  8
E5SS
 62
   250
420
  2301728
370
    15
  0
SPLINE
  5
1B7
330
155
100
AcDbEntity
  8
E5SS
 62
   250
420
  2301728
370
    20
100
AcDbSpline
210
0.0
220
0.0
230
1.0
 70
    11
 71
     3
 72
    17
 73
    13
 74
     0
 42
0.0000000001
 43
0.0000000001
 12
1.0
 22
0.0
 32
0.0
 13
1.0
 23
0.0
 33
0.0
 40
0.0
 40
0.0
 40
0.0
 40
0.0
 40
1.0
 40
1.0
 40
1.0
 40
2.0
 40
2.0
 40
2.0
 40
3.0
 40
3.0
 40
3.0
 40
4.0
 40
4.0
 40
4.0
 40
4.0
 10
4.224401688353029
 20
5.388058926862009
 30
0.0
 10
4.209228282068882
 20
5.402651174513645
 30
0.0
 10
4.189043038529095
 20
5.404498757364561
 30
0.0
 10
4.179323061654322
 20
5.392187793351064
 30
0.0
 10
4.169599743583603
 20
5.379867349175129
 30
0.0
 10
4.174022184656653
 20
5.358055271618796
 30
0.0
 10
4.189190645881366
 20
5.343464266739955
 30
0.0
 10
4.204362420398866
 20
5.328867232502438
 30
0.0
 10
4.224543181685741
 20
5.327020696493491
 30
0.0
 10
4.234273835312769
 20
5.339333226452077
 30
0.0
 10
4.243984499084933
 20
5.351648005669605
 30
0.0
 10
4.23957576287632
 20
5.373468575242896
 30
0.0
 10
4.224401688353029
 20
5.388058926862009
 30
0.0
  0
SPLINE
  5
1B8
330
155
100
AcDbEntity
  8
E5SS
 62
   250
420
  2301728
370
    20
100
AcDbSpline
210
0.0
220
0.0
230
1.0
 70
    11
 71
     3
 72
    17
 73
    13
 74
     0
 42
0.0000000001
 43
0.0000000001
 12
1.0
 22
0.0
 32
0.0
 13
1.0
 23
0.0
 33
0.0
 40
0.0
 40
0.0
 40
0.0
 40
0.0
 40
1.0
 40
1.0
 40
1.0
 40
2.0
 40
2.0
 40
2.0
 40
3.0
 40
3.0
 40
3.0
 40
4.0
 40
4.0
 40
4.0
 40
4.0
 10
4.449939026571125
 20
5.38717117346184
 30
0.0
 10
4.434769886360098
 20
5.401761917575312
 30
0.0
 10
4.414584642820298
 20
5.403609500426253
 30
0.0
 10
4.404867035986172
 20
5.391297701113772
 30
0.0
 10
4.395141347874818
 20
5.378978092236821
 30
0.0
 10
4.399563740740733
 20
5.357166031670633
 30
0.0
 10
4.41473462083569
 20
5.342574176268853
 30
0.0
 10
4.429906345610663
 20
5.327977157577051
 30
0.0
 10
4.450087210680926
 20
5.326130584990576
 30
0.0
 10
4.4598130695634
 20
5.338444804812727
 30
0.0
 10
4.469528473416782
 20
5.350757913432314
 30
0.0
 10
4.465115051760121
 20
5.372580134348582
 30
0.0
 10
4.449939026571125
 20
5.38717117346184
 30
0.0
  0
SPLINE
  5
1B9
330
155
100
AcDbEntity
  8
E5SS
 62
   250
420
  2301728
370
    20
100
AcDbSpline
210
0.0
220
0.0
230
1.0
 70
    11
 71
     3
 72
    17
 73
    13
 74
     0
 42
0.0000000001
 43
0.0000000001
 12
1.0
 22
0.0
 32
0.0
 13
1.0
 23
0.0
 33
0.0
 40
0.0
 40
0.0
 40
0.0
 40
0.0
 40
1.0
 40
1.0
 40
1.0
 40
2.0
 40
2.0
 40
2.0
 40
3.0
 40
3.0
 40
3.0
 40
4.0
 40
4.0
 40
4.0
 40
4.0
 10
4.456652124655092
 20
5.72984941237683
 30
0.0
 10
4.441482149145031
 20
5.744437786449629
 30
0.0
 10
4.421297072665007
 20
5.746285843308644
 30
0.0
 10
4.411579298771104
 20
5.733973569988065
 30
0.0
 10
4.401856031147519
 20
5.721653108032519
 30
0.0
 10
4.406276054244952
 20
5.699841882669438
 30
0.0
 10
4.421447772827984
 20
5.68525240490088
 30
0.0
 10
4.436618608395595
 20
5.67065302645138
 30
0.0
 10
4.456799418802499
 20
5.668806473130492
 30
0.0
 10
4.466525346085291
 20
5.681120712663642
 30
0.0
 10
4.476240736201715
 20
5.693433782306644
 30
0.0
 10
4.471830465251464
 20
5.715257557219502
 30
0.0
 10
4.456652124655092
 20
5.72984941237683
 30
0.0
  0
SPLINE
  5
1BA
330
155
100
AcDbEntity
  8
E5SS
 62
   250
420
  2301728
370
    20
100
AcDbSpline
210
0.0
220
0.0
230
1.0
 70
    11
 71
     3
 72
    17
 73
    13
 74
     0
 42
0.0000000001
 43
0.0000000001
 12
1.0
 22
0.0
 32
0.0
 13
1.0
 23
0.0
 33
0.0
 40
0.0
 40
0.0
 40
0.0
 40
0.0
 40
1.0
 40
1.0
 40
1.0
 40
2.0
 40
2.0
 40
2.0
 40
3.0
 40
3.0
 40
3.0
 40
4.0
 40
4.0
 40
4.0
 40
4.0
 10
4.233912630359643
 20
5.824736059301661
 30
0.0
 10
4.218738388776513
 20
5.83932593691265
 30
0.0
 10
4.198553312296515
 20
5.841173993771728
 30
0.0
 10
4.18883316836194
 20
5.828862555750119
 30
0.0
 10
4.179109894541625
 20
5.816542095978497
 30
0.0
 10
4.183532243157148
 20
5.794730051007946
 30
0.0
 10
4.19870163679175
 20
5.780141394463397
 30
0.0
 10
4.213872481776207
 20
5.765542008566373
 30
0.0
 10
4.234053285252672
 20
5.763695454915983
 30
0.0
 10
4.243779216245899
 20
5.776009700042196
 30
0.0
 10
4.253494605792588
 20
5.788322768068635
 30
0.0
 10
4.249086704882946
 20
5.810145707682523
 30
0.0
 10
4.233912630359643
 20
5.824736059301661
 30
0.0
  0
SPLINE
  5
1BB
330
155
100
AcDbEntity
  8
E5SS
 62
   250
420
  2301728
370
    20
100
AcDbSpline
210
0.0
220
0.0
230
1.0
 70
    11
 71
     3
 72
    17
 73
    13
 74
     0
 42
0.0000000001
 43
0.0000000001
 12
1.0
 22
0.0
 32
0.0
 13
1.0
 23
0.0
 33
0.0
 40
0.0
 40
0.0
 40
0.0
 40
0.0
 40
1.0
 40
1.0
 40
1.0
 40
2.0
 40
2.0
 40
2.0
 40
3.0
 40
3.0
 40
3.0
 40
4.0
 40
4.0
 40
4.0
 40
4.0
 10
3.721007787630419
 20
5.81064419820215
 30
0.0
 10
3.718427246325227
 20
5.787966517413476
 30
0.0
 10
3.728198677413363
 20
5.770480033343725
 30
0.0
 10
3.74281340797471
 20
5.771592224819478
 30
0.0
 10
3.757441974349755
 20
5.772686217819884
 30
0.0
 10
3.771383660622102
 20
5.79197098887049
 30
0.0
 10
3.773974642934895
 20
5.814634332085967
 30
0.0
 10
3.776552642375084
 20
5.837304915429386
 30
0.0
 10
3.766788624324931
 20
5.854797313031137
 30
0.0
 10
3.752160982827023
 20
5.853692336330091
 30
0.0
 10
3.737544325029754
 20
5.852588284506206
 30
0.0
 10
3.723594829192949
 20
5.833311594732802
 30
0.0
 10
3.721007787630419
 20
5.81064419820215
 30
0.0
  0
SPLINE
  5
1BC
330
155
100
AcDbEntity
  8
E5SS
 62
   250
420
  2301728
370
    20
100
AcDbSpline
210
0.0
220
0.0
230
1.0
 70
    11
 71
     3
 72
    17
 73
    13
 74
     0
 42
0.0000000001
 43
0.0000000001
 12
1.0
 22
0.0
 32
0.0
 13
1.0
 23
0.0
 33
0.0
 40
0.0
 40
0.0
 40
0.0
 40
0.0
 40
1.0
 40
1.0
 40
1.0
 40
2.0
 40
2.0
 40
2.0
 40
3.0
 40
3.0
 40
3.0
 40
4.0
 40
4.0
 40
4.0
 40
4.0
 10
3.803470996230405
 20
5.813782408326713
 30
0.0
 10
3.800889619626256
 20
5.791102357497468
 30
0.0
 10
3.810661886013362
 20
5.773618243468288
 30
0.0
 10
3.825275794787722
 20
5.774728103241791
 30
0.0
 10
3.839904347650771
 20
5.775822057903926
 30
0.0
 10
3.85384603392308
 20
5.795106828954431
 30
0.0
 10
3.856437852373081
 20
5.817772541915095
 30
0.0
 10
3.859015850975058
 20
5.840443125553924
 30
0.0
 10
3.84925183292493
 20
5.857935523155725
 30
0.0
 10
3.834624191427022
 20
5.856830546454678
 30
0.0
 10
3.820007533629753
 20
5.855726494630769
 30
0.0
 10
3.806056367194994
 20
5.836445064776146
 30
0.0
 10
3.803470996230405
 20
5.813782408326713
 30
0.0
  0
SPLINE
  5
1BD
330
155
100
AcDbEntity
  8
E5SS
 62
   250
420
  2301728
370
    20
100
AcDbSpline
210
0.0
220
0.0
230
1.0
 70
    11
 71
     3
 72
    17
 73
    13
 74
     0
 42
0.0000000001
 43
0.0000000001
 12
1.0
 22
0.0
 32
0.0
 13
1.0
 23
0.0
 33
0.0
 40
0.0
 40
0.0
 40
0.0
 40
0.0
 40
1.0
 40
1.0
 40
1.0
 40
2.0
 40
2.0
 40
2.0
 40
3.0
 40
3.0
 40
3.0
 40
4.0
 40
4.0
 40
4.0
 40
4.0
 10
3.797417943471701
 20
5.320331019113281
 30
0.0
 10
3.794837402166523
 20
5.297653338324633
 30
0.0
 10
3.804608833254658
 20
5.280166854254857
 30
0.0
 10
3.819223563816005
 20
5.281279045730596
 30
0.0
 10
3.833852130191051
 20
5.282373038731091
 30
0.0
 10
3.847793816463384
 20
5.301657809781621
 30
0.0
 10
3.850385638685313
 20
5.324323521412932
 30
0.0
 10
3.852963633515376
 20
5.34699410638114
 30
0.0
 10
3.843198780166239
 20
5.364484133942319
 30
0.0
 10
3.828571806907537
 20
5.363381053273693
 30
0.0
 10
3.813955326383974
 20
5.362277504438528
 30
0.0
 10
3.80000498503427
 20
5.342998415643958
 30
0.0
 10
3.797417943471701
 20
5.320331019113281
 30
0.0
  0
SPLINE
  5
1BE
330
155
100
AcDbEntity
  8
E5SS
 62
   250
420
  2301728
370
    20
100
AcDbSpline
210
0.0
220
0.0
230
1.0
 70
    11
 71
     3
 72
    17
 73
    13
 74
     0
 42
0.0000000001
 43
0.0000000001
 12
1.0
 22
0.0
 32
0.0
 13
1.0
 23
0.0
 33
0.0
 40
0.0
 40
0.0
 40
0.0
 40
0.0
 40
1.0
 40
1.0
 40
1.0
 40
2.0
 40
2.0
 40
2.0
 40
3.0
 40
3.0
 40
3.0
 40
4.0
 40
4.0
 40
4.0
 40
4.0
 10
3.719420468363801
 20
5.462162774687688
 30
0.0
 10
3.716839927058623
 20
5.439485093899066
 30
0.0
 10
3.726611358146745
 20
5.421998609829264
 30
0.0
 10
3.741226088708117
 20
5.423110801305029
 30
0.0
 10
3.755854655083163
 20
5.424204794305498
 30
0.0
 10
3.769796341355471
 20
5.443489565356028
 30
0.0
 10
3.772388161691462
 20
5.466155277652054
 30
0.0
 10
3.774966158407513
 20
5.488825861955572
 30
0.0
 10
3.765201305058339
 20
5.506315889516751
 30
0.0
 10
3.750574331799637
 20
5.505212808848177
 30
0.0
 10
3.735957851191655
 20
5.50410925977346
 30
0.0
 10
3.722007509926344
 20
5.484830171218391
 30
0.0
 10
3.719420468363801
 20
5.462162774687688
 30
0.0
  0
SPLINE
  5
1BF
330
155
100
AcDbEntity
  8
E5SS
 62
   250
420
  2301728
370
    20
100
AcDbSpline
210
0.0
220
0.0
230
1.0
 70
    11
 71
     3
 72
    17
 73
    13
 74
     0
 42
0.0000000001
 43
0.0000000001
 12
1.0
 22
0.0
 32
0.0
 13
1.0
 23
0.0
 33
0.0
 40
0.0
 40
0.0
 40
0.0
 40
0.0
 40
1.0
 40
1.0
 40
1.0
 40
2.0
 40
2.0
 40
2.0
 40
3.0
 40
3.0
 40
3.0
 40
4.0
 40
4.0
 40
4.0
 40
4.0
 10
3.614801675760494
 20
5.316520972688042
 30
0.0
 10
3.612221134455303
 20
5.293843291899393
 30
0.0
 10
3.621992565543426
 20
5.276356807829592
 30
0.0
 10
3.636607296104772
 20
5.277468999305357
 30
0.0
 10
3.65123586247983
 20
5.278562992305852
 30
0.0
 10
3.665177548752176
 20
5.297847763356382
 30
0.0
 10
3.667769367890678
 20
5.320513476074439
 30
0.0
 10
3.670347365804168
 20
5.343184059955901
 30
0.0
 10
3.660582512455019
 20
5.360674087517054
 30
0.0
 10
3.645955539196304
 20
5.359571006848506
 30
0.0
 10
3.631339057142908
 20
5.358467453672549
 30
0.0
 10
3.617388717323011
 20
5.339188369218694
 30
0.0
 10
3.614801675760494
 20
5.316520972688042
 30
0.0
  0
SPLINE
  5
1C0
330
155
100
AcDbEntity
  8
E5SS
 62
   250
420
  2301728
370
    20
100
AcDbSpline
210
0.0
220
0.0
230
1.0
 70
    11
 71
     3
 72
    17
 73
    13
 74
     0
 42
0.0000000001
 43
0.0000000001
 12
1.0
 22
0.0
 32
0.0
 13
1.0
 23
0.0
 33
0.0
 40
0.0
 40
0.0
 40
0.0
 40
0.0
 40
1.0
 40
1.0
 40
1.0
 40
2.0
 40
2.0
 40
2.0
 40
3.0
 40
3.0
 40
3.0
 40
4.0
 40
4.0
 40
4.0
 40
4.0
 10
3.61960178004257
 20
5.806417300988616
 30
0.0
 10
3.617021238737379
 20
5.783739620199968
 30
0.0
 10
3.62679266982554
 20
5.766253136130191
 30
0.0
 10
3.641407400386874
 20
5.767365327605956
 30
0.0
 10
3.65603596676192
 20
5.768459320606401
 30
0.0
 10
3.669977653034266
 20
5.787744091656956
 30
0.0
 10
3.672569468400853
 20
5.810409805704365
 30
0.0
 10
3.675147470086269
 20
5.833080388256449
 30
0.0
 10
3.665382616737095
 20
5.850570415817629
 30
0.0
 10
3.650754975239213
 20
5.849465439116557
 30
0.0
 10
3.636138317441944
 20
5.848361387292672
 30
0.0
 10
3.622188821605139
 20
5.829084697519268
 30
0.0
 10
3.61960178004257
 20
5.806417300988616
 30
0.0
  0
HATCH
  5
1C1
330
155
100
AcDbEntity
  8
E5SS
 62
   254
420
 13358815
100
AcDbHatch
 10
0.0
 20
0.0
 30
0.0
210
0.0
220
0.0
230
1.0
  2
SOLID
 70
     1
 71
     0
 91
        1
 92
        1
 93
        1
 72
     4
 94
        3
 73
     0
 74
     1
 95
       17
 96
       13
 40
0.0
 40
0.0
 40
0.0
 40
0.0
 40
1.0
 40
1.0
 40
1.0
 40
2.0
 40
2.0
 40
2.0
 40
3.0
 40
3.0
 40
3.0
 40
4.0
 40
4.0
 40
4.0
 40
4.0
 10
3.61960178004257
 20
5.806417300988616
 10
3.617021238737379
 20
5.783739620199968
 10
3.62679266982554
 20
5.766253136130191
 10
3.641407400386874
 20
5.767365327605956
 10
3.65603596676192
 20
5.768459320606401
 10
3.669977653034266
 20
5.787744091656956
 10
3.672569468400853
 20
5.810409805704365
 10
3.675147470086269
 20
5.833080388256449
 10
3.665382616737095
 20
5.850570415817629
 10
3.650754975239213
 20
5.849465439116557
 10
3.636138317441944
 20
5.848361387292672
 10
3.622188821605139
 20
5.829084697519268
 10
3.61960178004257
 20
5.806417300988616
 97
        0
 97
        0
 75
     2
 76
     1
 98
        0
  0
SPLINE
  5
1C2
330
155
100
AcDbEntity
  8
E5SS
 62
   250
420
  2301728
370
    15
100
AcDbSpline
210
0.0
220
0.0
230
1.0
 70
    11
 71
     3
 72
    44
 73
    40
 74
     0
 42
0.0000000001
 43
0.0000000001
 12
1.0
 22
0.0
 32
0.0
 13
1.0
 23
0.0
 33
0.0
 40
0.0
 40
0.0
 40
0.0
 40
0.0
 40
1.0
 40
1.0
 40
1.0
 40
2.0
 40
2.0
 40
2.0
 40
3.0
 40
3.0
 40
3.0
 40
4.0
 40
4.0
 40
4.0
 40
5.0
 40
5.0
 40
5.0
 40
6.0
 40
6.0
 40
6.0
 40
7.0
 40
7.0
 40
7.0
 40
8.0
 40
8.0
 40
8.0
 40
9.0
 40
9.0
 40
9.0
 40
10.0
 40
10.0
 40
10.0
 40
11.0
 40
11.0
 40
11.0
 40
12.0
 40
12.0
 40
12.0
 40
13.0
 40
13.0
 40
13.0
 40
13.0
 10
4.261874914907834
 20
5.710449453254896
 30
0.0
 10
4.251841518205007
 20
5.709249365706151
 30
0.0
 10
4.246361648401552
 20
5.703996285552345
 30
0.0
 10
4.246361648401552
 20
5.703996285552345
 30
0.0
 10
4.246361648401552
 20
5.703996285552345
 30
0.0
 10
4.237794793365828
 20
5.691028990049896
 30
0.0
 10
4.237872801998416
 20
5.672350457856939
 30
0.0
 10
4.237950810631042
 20
5.653671925664008
 30
0.0
 10
4.23296834028675
 20
5.571495349753731
 30
0.0
 10
4.23597081312553
 20
5.561114563704867
 30
0.0
 10
4.237289533437206
 20
5.556549712750893
 30
0.0
 10
4.240986093817936
 20
5.545744439628025
 30
0.0
 10
4.247656871743819
 20
5.534367419689866
 30
0.0
 10
4.249888835247664
 20
5.530194624612022
 30
0.0
 10
4.252819844386383
 20
5.52577383109681
 30
0.0
 10
4.256676310086492
 20
5.521409686194324
 30
0.0
 10
4.264746848531205
 20
5.511597504823536
 30
0.0
 10
4.275339945502107
 20
5.50303835626591
 30
0.0
 10
4.288967167754082
 20
5.499805540855454
 30
0.0
 10
4.299962930420305
 20
5.497195076230658
 30
0.0
 10
4.307884688171321
 20
5.49861444071645
 30
0.0
 10
4.313598373605954
 20
5.501756866278129
 30
0.0
 10
4.313612222472885
 20
5.501761092325043
 30
0.0
 10
4.313624880925342
 20
5.501763786432775
 30
0.0
 10
4.313638729792173
 20
5.501768012479689
 30
0.0
 10
4.313638729792173
 20
5.501768012479689
 30
0.0
 10
4.30179779118675
 20
5.483290950316031
 30
0.0
 10
4.275727343833852
 20
5.492479239376608
 30
0.0
 10
4.255931719480688
 20
5.496791590752182
 30
0.0
 10
4.227520155317001
 20
5.520127155420166
 30
0.0
 10
4.226421804590788
 20
5.560480445417018
 30
0.0
 10
4.225396947016621
 20
5.598266343178516
 30
0.0
 10
4.225051443302606
 20
5.666211491205179
 30
0.0
 10
4.226438514750359
 20
5.677707054921408
 30
0.0
 10
4.227829053015234
 20
5.68921245523226
 30
0.0
 10
4.243326129162685
 20
5.712393320152968
 30
0.0
 10
4.262772032187071
 20
5.710868658948584
 30
0.0
 10
4.262772032187071
 20
5.710868658948584
 30
0.0
 10
4.262439569721778
 20
5.710739294067758
 30
0.0
 10
4.261874914907834
 20
5.710449453254896
 30
0.0
  0
ENDBLK
  5
158
330
155
100
AcDbEntity
  8
0
100
AcDbBlockEnd
  0
BLOCK
  5
166
330
164
100
AcDbEntity
  8
0
100
AcDbBlockBegin
  2
block 5
 70
     0
 10
0.0
 20
0.0
 30
0.0
  3
block 5
  1

  0
SPLINE
  5
168
330
164
100
AcDbEntity
  8
E5SS
 62
   250
420
  2301728
370
    15
100
AcDbSpline
210
0.0
220
0.0
230
1.0
 70
    11
 71
     3
 72
    17
 73
    13
 74
     0
 42
0.0000000001
 43
0.0000000001
 12
1.0
 22
0.0
 32
0.0
 13
1.0
 23
0.0
 33
0.0
 40
0.0
 40
0.0
 40
0.0
 40
0.0
 40
1.0
 40
1.0
 40
1.0
 40
2.0
 40
2.0
 40
2.0
 40
3.0
 40
3.0
 40
3.0
 40
4.0
 40
4.0
 40
4.0
 40
4.0
 10
4.231955857579729
 20
5.393947007272749
 30
0.0
 10
4.216782451295582
 20
5.408539254924411
 30
0.0
 10
4.196597207755809
 20
5.410386837775326
 30
0.0
 10
4.186877230881047
 20
5.398075873761804
 30
0.0
 10
4.177153912810303
 20
5.385755429585919
 30
0.0
 10
4.181576354033053
 20
5.363943351976811
 30
0.0
 10
4.196744815208326
 20
5.349352347435089
 30
0.0
 10
4.211916589775279
 20
5.334755312860478
 30
0.0
 10
4.232097350912454
 20
5.332908776904231
 30
0.0
 10
4.241828004539507
 20
5.345221306862817
 30
0.0
 10
4.251538668311645
 20
5.357536086080371
 30
0.0
 10
4.247129932103058
 20
5.379356655653661
 30
0.0
 10
4.231955857579729
 20
5.393947007272749
 30
0.0
  0
ENDBLK
  5
167
330
164
100
AcDbEntity
  8
0
100
AcDbBlockEnd
  0
BLOCK
  5
16B
330
169
100
AcDbEntity
  8
0
100
AcDbBlockBegin
  2
block 6
 70
     0
 10
0.0
 20
0.0
 30
0.0
  3
block 6
  1

  0
SPLINE
  5
16D
330
169
100
AcDbEntity
  8
E5SS
 62
   250
420
  2301728
370
    15
100
AcDbSpline
210
0.0
220
0.0
230
1.0
 70
    11
 71
     3
 72
    17
 73
    13
 74
     0
 42
0.0000000001
 43
0.0000000001
 12
1.0
 22
0.0
 32
0.0
 13
1.0
 23
0.0
 33
0.0
 40
0.0
 40
0.0
 40
0.0
 40
0.0
 40
1.0
 40
1.0
 40
1.0
 40
2.0
 40
2.0
 40
2.0
 40
3.0
 40
3.0
 40
3.0
 40
4.0
 40
4.0
 40
4.0
 40
4.0
 10
4.457493195797825
 20
5.393059253872656
 30
0.0
 10
4.442324055586848
 20
5.407649997986078
 30
0.0
 10
4.422138812047049
 20
5.409497580837018
 30
0.0
 10
4.412421205212872
 20
5.397185781524513
 30
0.0
 10
4.402695517101519
 20
5.384866172647561
 30
0.0
 10
4.407117909967484
 20
5.363054112081373
 30
0.0
 10
4.422288790162636
 20
5.348462256964037
 30
0.0
 10
4.437460514837413
 20
5.333865237987816
 30
0.0
 10
4.457641380057339
 20
5.332018665348591
 30
0.0
 10
4.4673672387901
 20
5.344332885223467
 30
0.0
 10
4.477082642643482
 20
5.356645993843054
 30
0.0
 10
4.472669221136534
 20
5.378468214706597
 30
0.0
 10
4.457493195797825
 20
5.393059253872656
 30
0.0
  0
ENDBLK
  5
16C
330
169
100
AcDbEntity
  8
0
100
AcDbBlockEnd
  0
BLOCK
  5
170
330
16E
100
AcDbEntity
  8
0
100
AcDbBlockBegin
  2
block 7
 70
     0
 10
0.0
 20
0.0
 30
0.0
  3
block 7
  1

  0
SPLINE
  5
172
330
16E
100
AcDbEntity
  8
E5SS
 62
   250
420
  2301728
370
    15
100
AcDbSpline
210
0.0
220
0.0
230
1.0
 70
    11
 71
     3
 72
    17
 73
    13
 74
     0
 42
0.0000000001
 43
0.0000000001
 12
1.0
 22
0.0
 32
0.0
 13
1.0
 23
0.0
 33
0.0
 40
0.0
 40
0.0
 40
0.0
 40
0.0
 40
1.0
 40
1.0
 40
1.0
 40
2.0
 40
2.0
 40
2.0
 40
3.0
 40
3.0
 40
3.0
 40
4.0
 40
4.0
 40
4.0
 40
4.0
 10
4.464206293881842
 20
5.73573749278757
 30
0.0
 10
4.449036318371782
 20
5.750325866860394
 30
0.0
 10
4.428851241891758
 20
5.752173923719434
 30
0.0
 10
4.419133467997804
 20
5.739861650398855
 30
0.0
 10
4.409410200523931
 20
5.727541188390533
 30
0.0
 10
4.413830223621314
 20
5.705729963027452
 30
0.0
 10
4.429001942304593
 20
5.691140485543252
 30
0.0
 10
4.444172777622346
 20
5.676541106862159
 30
0.0
 10
4.464353588029199
 20
5.674694553541258
 30
0.0
 10
4.474079515412237
 20
5.6870087933588
 30
0.0
 10
4.483794905428415
 20
5.699321862717372
 30
0.0
 10
4.479384634478214
 20
5.721145637630242
 30
0.0
 10
4.464206293881842
 20
5.73573749278757
 30
0.0
  0
ENDBLK
  5
171
330
16E
100
AcDbEntity
  8
0
100
AcDbBlockEnd
  0
BLOCK
  5
175
330
173
100
AcDbEntity
  8
0
100
AcDbBlockBegin
  2
block 8
 70
     0
 10
0.0
 20
0.0
 30
0.0
  3
block 8
  1

  0
SPLINE
  5
177
330
173
100
AcDbEntity
  8
E5SS
 62
   250
420
  2301728
370
    15
100
AcDbSpline
210
0.0
220
0.0
230
1.0
 70
    11
 71
     3
 72
    17
 73
    13
 74
     0
 42
0.0000000001
 43
0.0000000001
 12
1.0
 22
0.0
 32
0.0
 13
1.0
 23
0.0
 33
0.0
 40
0.0
 40
0.0
 40
0.0
 40
0.0
 40
1.0
 40
1.0
 40
1.0
 40
2.0
 40
2.0
 40
2.0
 40
3.0
 40
3.0
 40
3.0
 40
4.0
 40
4.0
 40
4.0
 40
4.0
 10
4.241466799586356
 20
5.830624139712376
 30
0.0
 10
4.226292558003226
 20
5.845214017323415
 30
0.0
 10
4.206107481523254
 20
5.847062074182455
 30
0.0
 10
4.196387337588653
 20
5.834750636160834
 30
0.0
 10
4.186664063918013
 20
5.822430176336511
 30
0.0
 10
4.191086412383886
 20
5.800618131418711
 30
0.0
 10
4.206255806268422
 20
5.786029475105781
 30
0.0
 10
4.221426647213181
 20
5.771430092624137
 30
0.0
 10
4.241607457620072
 20
5.769583539303262
 30
0.0
 10
4.251333385572821
 20
5.781897780737305
 30
0.0
 10
4.261048774196663
 20
5.794210847436767
 30
0.0
 10
4.256640877899397
 20
5.816033784449372
 30
0.0
 10
4.241466799586356
 20
5.830624139712376
 30
0.0
  0
ENDBLK
  5
176
330
173
100
AcDbEntity
  8
0
100
AcDbBlockEnd
  0
BLOCK
  5
17A
330
178
100
AcDbEntity
  8
0
100
AcDbBlockBegin
  2
block 9
 70
     0
 10
0.0
 20
0.0
 30
0.0
  3
block 9
  1

  0
SPLINE
  5
17C
330
178
100
AcDbEntity
  8
E5SS
 62
   250
420
  2301728
370
    15
100
AcDbSpline
210
0.0
220
0.0
230
1.0
 70
    11
 71
     3
 72
    17
 73
    13
 74
     0
 42
0.0000000001
 43
0.0000000001
 12
1.0
 22
0.0
 32
0.0
 13
1.0
 23
0.0
 33
0.0
 40
0.0
 40
0.0
 40
0.0
 40
0.0
 40
1.0
 40
1.0
 40
1.0
 40
2.0
 40
2.0
 40
2.0
 40
3.0
 40
3.0
 40
3.0
 40
4.0
 40
4.0
 40
4.0
 40
4.0
 10
3.714237187293254
 20
5.812637736267662
 30
0.0
 10
3.711649297940489
 20
5.789967934254264
 30
0.0
 10
3.721420561968835
 20
5.772480976176363
 30
0.0
 10
3.736041792787546
 20
5.773582883394182
 30
0.0
 10
3.750666377094578
 20
5.774694305652398
 30
0.0
 10
3.764610452318543
 20
5.793970735113286
 30
0.0
 10
3.767190158324764
 20
5.816646045861325
 30
0.0
 10
3.769772188093409
 20
5.839299222148333
 30
0.0
 10
3.760009673581408
 20
5.856795885823228
 30
0.0
 10
3.745380668078724
 20
5.855702047589248
 30
0.0
 10
3.730765541346058
 20
5.854587331306371
 30
0.0
 10
3.716806565346802
 20
5.835313982728924
 30
0.0
 10
3.714237187293254
 20
5.812637736267662
 30
0.0
  0
ENDBLK
  5
17B
330
178
100
AcDbEntity
  8
0
100
AcDbBlockEnd
  0
BLOCK
  5
17F
330
17D
100
AcDbEntity
  8
0
100
AcDbBlockBegin
  2
block 10
 70
     0
 10
0.0
 20
0.0
 30
0.0
  3
block 10
  1

  0
SPLINE
  5
181
330
17D
100
AcDbEntity
  8
E5SS
 62
   250
420
  2301728
370
    15
100
AcDbSpline
210
0.0
220
0.0
230
1.0
 70
    11
 71
     3
 72
    17
 73
    13
 74
     0
 42
0.0000000001
 43
0.0000000001
 12
1.0
 22
0.0
 32
0.0
 13
1.0
 23
0.0
 33
0.0
 40
0.0
 40
0.0
 40
0.0
 40
0.0
 40
1.0
 40
1.0
 40
1.0
 40
2.0
 40
2.0
 40
2.0
 40
3.0
 40
3.0
 40
3.0
 40
4.0
 40
4.0
 40
4.0
 40
4.0
 10
3.79669954810303
 20
5.815773540909529
 30
0.0
 10
3.794112506540462
 20
5.793106144378852
 30
0.0
 10
3.803882935269813
 20
5.775616816260304
 30
0.0
 10
3.818504333148338
 20
5.776719197486247
 30
0.0
 10
3.833128738103179
 20
5.777830110858379
 30
0.0
 10
3.847073660918555
 20
5.797108945237849
 30
0.0
 10
3.849653366924763
 20
5.819784255985875
 30
0.0
 10
3.852235396693408
 20
5.842437432272921
 30
0.0
 10
3.842472882181406
 20
5.859934095947791
 30
0.0
 10
3.827843877516936
 20
5.858840257418402
 30
0.0
 10
3.813228749946031
 20
5.85772554143096
 30
0.0
 10
3.799269773946801
 20
5.838452192853487
 30
0.0
 10
3.79669954810303
 20
5.815773540909529
 30
0.0
  0
ENDBLK
  5
180
330
17D
100
AcDbEntity
  8
0
100
AcDbBlockEnd
  0
BLOCK
  5
184
330
182
100
AcDbEntity
  8
0
100
AcDbBlockBegin
  2
block 11
 70
     0
 10
0.0
 20
0.0
 30
0.0
  3
block 11
  1

  0
SPLINE
  5
186
330
182
100
AcDbEntity
  8
E5SS
 62
   250
420
  2301728
370
    15
100
AcDbSpline
210
0.0
220
0.0
230
1.0
 70
    11
 71
     3
 72
    17
 73
    13
 74
     0
 42
0.0000000001
 43
0.0000000001
 12
1.0
 22
0.0
 32
0.0
 13
1.0
 23
0.0
 33
0.0
 40
0.0
 40
0.0
 40
0.0
 40
0.0
 40
1.0
 40
1.0
 40
1.0
 40
2.0
 40
2.0
 40
2.0
 40
3.0
 40
3.0
 40
3.0
 40
4.0
 40
4.0
 40
4.0
 40
4.0
 10
3.790647340454686
 20
5.322324549575038
 30
0.0
 10
3.788059453781809
 20
5.29965475516542
 30
0.0
 10
3.79783071781013
 20
5.282167797087494
 30
0.0
 10
3.812451948628829
 20
5.283269704305313
 30
0.0
 10
3.827076530256022
 20
5.284381118959774
 30
0.0
 10
3.841020608159864
 20
5.303657556024442
 30
0.0
 10
3.843600314166085
 20
5.326332866772494
 30
0.0
 10
3.8461831792337
 20
5.348988413100086
 30
0.0
 10
3.836420664721699
 20
5.366485076774956
 30
0.0
 10
3.821790828530197
 20
5.365388866875592
 30
0.0
 10
3.807175697187315
 20
5.364274152217503
 30
0.0
 10
3.793217389427279
 20
5.345002699672528
 30
0.0
 10
3.790647340454686
 20
5.322324549575038
 30
0.0
  0
ENDBLK
  5
185
330
182
100
AcDbEntity
  8
0
100
AcDbBlockEnd
  0
BLOCK
  5
189
330
187
100
AcDbEntity
  8
0
100
AcDbBlockBegin
  2
block 12
 70
     0
 10
0.0
 20
0.0
 30
0.0
  3
block 12
  1

  0
SPLINE
  5
18B
330
187
100
AcDbEntity
  8
E5SS
 62
   250
420
  2301728
370
    15
100
AcDbSpline
210
0.0
220
0.0
230
1.0
 70
    11
 71
     3
 72
    17
 73
    13
 74
     0
 42
0.0000000001
 43
0.0000000001
 12
1.0
 22
0.0
 32
0.0
 13
1.0
 23
0.0
 33
0.0
 40
0.0
 40
0.0
 40
0.0
 40
0.0
 40
1.0
 40
1.0
 40
1.0
 40
2.0
 40
2.0
 40
2.0
 40
3.0
 40
3.0
 40
3.0
 40
4.0
 40
4.0
 40
4.0
 40
4.0
 10
3.712649865262367
 20
5.464156304909971
 30
0.0
 10
3.710061978673884
 20
5.441486510739828
 30
0.0
 10
3.71983324270223
 20
5.423999552661901
 30
0.0
 10
3.734454473520941
 20
5.425101459879721
 30
0.0
 10
3.749079055063728
 20
5.426212874294682
 30
0.0
 10
3.763023133051964
 20
5.445489311598849
 30
0.0
 10
3.765602839058172
 20
5.468164622346901
 30
0.0
 10
3.768185704125787
 20
5.490820168674544
 30
0.0
 10
3.758423189613773
 20
5.508316832349388
 30
0.0
 10
3.743793351536308
 20
5.507220623114689
 30
0.0
 10
3.729178222079415
 20
5.506105907791961
 30
0.0
 10
3.715219914319404
 20
5.48683445524696
 30
0.0
 10
3.712649865262367
 20
5.464156304909971
 30
0.0
  0
ENDBLK
  5
18A
330
187
100
AcDbEntity
  8
0
100
AcDbBlockEnd
  0
BLOCK
  5
18E
330
18C
100
AcDbEntity
  8
0
100
AcDbBlockBegin
  2
block 13
 70
     0
 10
0.0
 20
0.0
 30
0.0
  3
block 13
  1

  0
SPLINE
  5
190
330
18C
100
AcDbEntity
  8
E5SS
 62
   250
420
  2301728
370
    15
100
AcDbSpline
210
0.0
220
0.0
230
1.0
 70
    11
 71
     3
 72
    17
 73
    13
 74
     0
 42
0.0000000001
 43
0.0000000001
 12
1.0
 22
0.0
 32
0.0
 13
1.0
 23
0.0
 33
0.0
 40
0.0
 40
0.0
 40
0.0
 40
0.0
 40
1.0
 40
1.0
 40
1.0
 40
2.0
 40
2.0
 40
2.0
 40
3.0
 40
3.0
 40
3.0
 40
4.0
 40
4.0
 40
4.0
 40
4.0
 10
3.608031071213595
 20
5.318514498809059
 30
0.0
 10
3.605443186070538
 20
5.295844708740206
 30
0.0
 10
3.615214450098923
 20
5.278357750662281
 30
0.0
 10
3.629835680917633
 20
5.279459657880074
 30
0.0
 10
3.644460261014956
 20
5.280571068193795
 30
0.0
 10
3.658404340448644
 20
5.299847509599203
 30
0.0
 10
3.660984046454852
 20
5.322522820347254
 30
0.0
 10
3.663566911522492
 20
5.345178366674872
 30
0.0
 10
3.653804397010465
 20
5.362675030349717
 30
0.0
 10
3.63917455773555
 20
5.361578821537048
 30
0.0
 10
3.624559429476108
 20
5.360464105792289
 30
0.0
 10
3.610601121716071
 20
5.341192653247314
 30
0.0
 10
3.608031071213595
 20
5.318514498809059
 30
0.0
  0
ENDBLK
  5
18F
330
18C
100
AcDbEntity
  8
0
100
AcDbBlockEnd
  0
BLOCK
  5
193
330
191
100
AcDbEntity
  8
0
100
AcDbBlockBegin
  2
block 14
 70
     0
 10
0.0
 20
0.0
 30
0.0
  3
block 14
  1

  0
SPLINE
  5
195
330
191
100
AcDbEntity
  8
E5SS
 62
   250
420
  2301728
370
    15
100
AcDbSpline
210
0.0
220
0.0
230
1.0
 70
    11
 71
     3
 72
    17
 73
    13
 74
     0
 42
0.0000000001
 43
0.0000000001
 12
1.0
 22
0.0
 32
0.0
 13
1.0
 23
0.0
 33
0.0
 40
0.0
 40
0.0
 40
0.0
 40
0.0
 40
1.0
 40
1.0
 40
1.0
 40
2.0
 40
2.0
 40
2.0
 40
3.0
 40
3.0
 40
3.0
 40
4.0
 40
4.0
 40
4.0
 40
4.0
 10
3.612831179388902
 20
5.808410838156052
 30
0.0
 10
3.610243290352653
 20
5.785741037040755
 30
0.0
 10
3.620014554381012
 20
5.768254078962829
 30
0.0
 10
3.63463578519971
 20
5.769355986180623
 30
0.0
 10
3.649260369190238
 20
5.770467407540789
 30
0.0
 10
3.663204444730708
 20
5.789743837899778
 30
0.0
 10
3.665784150736929
 20
5.812419148647804
 30
0.0
 10
3.668367015804569
 20
5.835074694975421
 30
0.0
 10
3.658603665993572
 20
5.852568988609694
 30
0.0
 10
3.643974658245674
 20
5.851475151167025
 30
0.0
 10
3.629359533758184
 20
5.850360434092863
 30
0.0
 10
3.61540122599816
 20
5.831088981547863
 30
0.0
 10
3.612831179388902
 20
5.808410838156052
 30
0.0
  0
ENDBLK
  5
194
330
191
100
AcDbEntity
  8
0
100
AcDbBlockEnd
  0
BLOCK
  5
19A
330
198
100
AcDbEntity
  8
0
100
AcDbBlockBegin
  2
block 15
 70
     0
 10
0.0
 20
0.0
 30
0.0
  3
block 15
  1

  0
SPLINE
  5
19C
330
198
100
AcDbEntity
  8
E5SS
 62
   250
420
  2301728
370
    15
100
AcDbSpline
210
0.0
220
0.0
230
1.0
 70
     8
 71
     3
 72
    14
 73
    10
 74
     0
 42
0.0000000001
 43
0.0000000001
 12
1.0
 22
0.0
 32
0.0
 13
1.0
 23
0.0
 33
0.0
 40
0.0
 40
0.0
 40
0.0
 40
0.0
 40
1.0
 40
1.0
 40
1.0
 40
2.0
 40
2.0
 40
2.0
 40
3.0
 40
3.0
 40
3.0
 40
3.0
 10
4.070543201489297
 20
5.766234936730243
 30
0.0
 10
4.028368632610105
 20
5.781098975103633
 30
0.0
 10
3.928322355372567
 20
5.785013553115101
 30
0.0
 10
3.922439772323653
 20
5.784417123424873
 30
0.0
 10
3.914711452362262
 20
5.783633556165013
 30
0.0
 10
3.901163176578974
 20
5.782021027612283
 30
0.0
 10
3.8883085666499
 20
5.77666981857745
 30
0.0
 10
3.880477824874257
 20
5.773409981338495
 30
0.0
 10
3.872625675171839
 20
5.770341764405505
 30
0.0
 10
3.862025067350841
 20
5.762184823993999
 30
0.0
  0
SPLINE
  5
19D
330
198
100
AcDbEntity
  8
E5SS
 62
   250
420
  2301728
370
    15
100
AcDbSpline
210
0.0
220
0.0
230
1.0
 70
     8
 71
     3
 72
    29
 73
    25
 74
     0
 42
0.0000000001
 43
0.0000000001
 12
1.0
 22
0.0
 32
0.0
 13
1.0
 23
0.0
 33
0.0
 40
0.0
 40
0.0
 40
0.0
 40
0.0
 40
1.0
 40
1.0
 40
1.0
 40
2.0
 40
2.0
 40
2.0
 40
3.0
 40
3.0
 40
3.0
 40
4.0
 40
4.0
 40
4.0
 40
5.0
 40
5.0
 40
5.0
 40
6.0
 40
6.0
 40
6.0
 40
7.0
 40
7.0
 40
7.0
 40
8.0
 40
8.0
 40
8.0
 40
8.0
 10
3.84814357336418
 20
5.752008848822621
 30
0.0
 10
3.839038487459776
 20
5.746329300301353
 30
0.0
 10
3.819238724826025
 20
5.713096396164297
 30
0.0
 10
3.819179820867627
 20
5.684948267448489
 30
0.0
 10
3.819141722019102
 20
5.667195248392418
 30
0.0
 10
3.831946135134823
 20
5.656911286636563
 30
0.0
 10
3.842094240542615
 20
5.66177027874149
 30
0.0
 10
3.842094240542615
 20
5.66177027874149
 30
0.0
 10
3.845022260946722
 20
5.662518166902499
 30
0.0
 10
3.845022260946722
 20
5.662518166902499
 30
0.0
 10
3.845022260946722
 20
5.662518166902499
 30
0.0
 10
3.889474892994523
 20
5.676477895139164
 30
0.0
 10
3.89807044466689
 20
5.683221616432219
 30
0.0
 10
3.906662655143236
 20
5.689955857562583
 30
0.0
 10
3.919776619888087
 20
5.694092809590503
 30
0.0
 10
3.936180907075431
 20
5.692661804275935
 30
0.0
 10
3.952059355021788
 20
5.691276669820606
 30
0.0
 10
4.083117918657851
 20
5.67032774161857
 30
0.0
 10
4.093895867951005
 20
5.665633902794272
 30
0.0
 10
4.104677158440166
 20
5.660949544132639
 30
0.0
 10
4.129577594244489
 20
5.661051509320575
 30
0.0
 10
4.138814328808684
 20
5.689769316611824
 30
0.0
 10
4.148046323291472
 20
5.718488794501101
 30
0.0
 10
4.112582257616824
 20
5.751418658578055
 30
0.0
 10
4.084141769595362
 20
5.761442246644113
 30
0.0
  0
ENDBLK
  5
19B
330
198
100
AcDbEntity
  8
0
100
AcDbBlockEnd
  0
ENDSEC
  0
SECTION
  2
ENTITIES
  0
INSERT
  5
42
330
1F
100
AcDbEntity
  8
SWHPin
100
AcDbBlockReference
  2
block 2
 10
0.0
 20
0.0
 30
0.0
  0
INSERT
  5
E0
330
1F
100
AcDbEntity
  8
SWHPin
100
AcDbBlockReference
  2
block 3
 10
0.0
 20
0.0
 30
0.0
  0
INSERT
  5
156
330
1F
100
AcDbEntity
  8
E5SS
100
AcDbBlockReference
  2
block 4
 10
0.0
 20
0.0
 30
0.0
  0
MTEXT
  5
1C4
330
1F
100
AcDbEntity
  8
Callout
 62
   250
420
  2236191
100
AcDbMText
 10
3.382619539896647
 20
3.97511174943712
 30
0.0
 40
0.118
 41
0.0
 46
0.0
 71
     7
 72
     1
  1
\fHelvetica Neue LT Std 55 Roman|b0|i0|c0|p34;\W1;SIMPSON Strong-Tie\H0.068794;®\H0.118; ^C
 73
     1
 44
1.0
  0
MTEXT
  5
1C5
330
1F
100
AcDbEntity
  8
Callout
 62
   250
420
  2236191
100
AcDbMText
 10
3.350487920973036
 20
3.775119887457953
 30
0.0
 40
0.118
 41
0.0
 46
0.0
 71
     7
 72
     1
  1
\fHelvetica Neue LT Std 55 Roman|b0|i0|c0|p34;\W1;E5SS Deck Joist Fixing 
 73
     1
 44
1.0
  0
MTEXT
  5
1C6
330
1F
100
AcDbEntity
  8
Callout
 62
   250
420
  2236191
100
AcDbMText
 10
4.683107164171006
 20
6.793730841742621
 30
0.0
 40
0.118
 41
0.0
 46
0.0
 71
     7
 72
     1
  1
\fHelvetica Neue LT Std 57 Condensed|b0|i0|c0|p34;\W1;E5SS
 73
     1
 44
1.0
  0
MTEXT
  5
1C7
330
1F
100
AcDbEntity
  8
Callout
 62
   250
420
  2236191
100
AcDbMText
 10
3.531740612453884
 20
6.793728086683485
 30
0.0
 40
0.118
 41
0.0
 46
0.0
 71
     7
 72
     1
  1
\fHelvetica Neue LT Std 57 Condensed|b0|i0|c0|p34;\W1;Joist
 73
     1
 44
1.0
  0
POLYLINE
  5
1C8
330
1F
100
AcDbEntity
  8
Callout
 62
   250
420
  2236191
370
    18
100
AcDb2dPolyline
 66
     1
 10
0.0
 20
0.0
 30
0.0
  0
VERTEX
  5
1C9
330
1C8
100
AcDbEntity
  8
Callout
 62
   250
420
  2236191
370
    18
100
AcDbVertex
100
AcDb2dVertex
 10
4.793439716312049
 20
6.751174820793999
 30
0.0
  0
VERTEX
  5
1CA
330
1C8
100
AcDbEntity
  8
Callout
 62
   250
420
  2236191
370
    18
100
AcDbVertex
100
AcDb2dVertex
 10
4.47816782000162
 20
5.941208930548706
 30
0.0
  0
SEQEND
  5
1CB
330
1C8
100
AcDbEntity
  8
Callout
 62
   250
420
  2236191
370
    18
  0
POLYLINE
  5
1CC
330
1F
100
AcDbEntity
  8
Callout
 62
   250
420
  2236191
370
    18
100
AcDb2dPolyline
 66
     1
 10
0.0
 20
0.0
 30
0.0
  0
VERTEX
  5
1CD
330
1CC
100
AcDbEntity
  8
Callout
 62
   250
420
  2236191
370
    18
100
AcDbVertex
100
AcDb2dVertex
 10
4.140420565553288
 20
4.530957363026245
 30
0.0
  0
VERTEX
  5
1CE
330
1CC
100
AcDbEntity
  8
Callout
 62
   250
420
  2236191
370
    18
100
AcDbVertex
100
AcDb2dVertex
 10
4.530587721450805
 20
4.718510187839607
 30
0.0
  0
SEQEND
  5
1CF
330
1CC
100
AcDbEntity
  8
Callout
 62
   250
420
  2236191
370
    18
  0
MTEXT
  5
1D0
330
1F
100
AcDbEntity
  8
Callout
 62
   250
420
  2301728
100
AcDbMText
 10
3.061671786838108
 20
4.48789087931315
 30
0.0
 40
0.118
 41
0.0
 46
0.0
 71
     7
 72
     1
  1
\fHelvetica LT Std Condensed|b0|i0|c0|p34;\W1;Boundary Joist
 73
     1
 44
1.0
  0
POLYLINE
  5
1D1
330
1F
100
AcDbEntity
  8
Callout
 62
   250
420
  2236191
370
    18
100
AcDb2dPolyline
 66
     1
 10
0.0
 20
0.0
 30
0.0
  0
VERTEX
  5
1D2
330
1D1
100
AcDbEntity
  8
Callout
 62
   250
420
  2236191
370
    18
100
AcDbVertex
100
AcDb2dVertex
 10
3.61438834182958
 20
6.751174820793999
 30
0.0
  0
VERTEX
  5
1D3
330
1D1
100
AcDbEntity
  8
Callout
 62
   250
420
  2236191
370
    18
100
AcDbVertex
100
AcDb2dVertex
 10
3.449098935302244
 20
6.364887503147505
 30
0.0
  0
SEQEND
  5
1D4
330
1D1
100
AcDbEntity
  8
Callout
 62
   250
420
  2236191
370
    18
  0
ENDSEC
  0
SECTION
  2
OBJECTS
  0
DICTIONARY
  5
C
330
0
100
AcDbDictionary
281
     1
  3
ACAD_GROUP
350
D
  3
ACAD_LAYOUT
350
1A
  3
ACAD_MATERIAL
350
3B
  3
ACAD_MLEADERSTYLE
350
1DE
  3
ACAD_MLINESTYLE
350
17
  3
ACAD_PLOTSETTINGS
350
19
  3
ACAD_PLOTSTYLENAME
350
E
  3
ACAD_TABLESTYLE
350
1DD
  3
ACAD_VISUALSTYLE
350
2A
  0
SUN
  5
3F
330
29
100
AcDbSun
 90
        1
290
     0
 63
     7
421
 16777215
 40
1.0
291
     1
 91
  2455826
 92
 54000000
292
     0
 70
     2
 71
   256
280
     1
  0
DICTIONARY
  5
D
102
{ACAD_REACTORS
330
C
102
}
330
C
100
AcDbDictionary
281
     1
  0
DICTIONARY
  5
1A
102
{ACAD_REACTORS
330
C
102
}
330
C
100
AcDbDictionary
281
     1
  3
Layout1
350
1E
  3
Layout2
350
26
  3
Model
350
22
  0
DICTIONARY
  5
3B
102
{ACAD_REACTORS
330
C
102
}
330
C
100
AcDbDictionary
281
     1
  3
ByBlock
350
3D
  3
ByLayer
350
3C
  3
Global
350
3E
  0
DICTIONARY
  5
1DE
102
{ACAD_REACTORS
330
C
102
}
330
C
100
AcDbDictionary
281
     1
  0
DICTIONARY
  5
17
102
{ACAD_REACTORS
330
C
102
}
330
C
100
AcDbDictionary
281
     1
  3
Standard
350
18
  0
DICTIONARY
  5
19
102
{ACAD_REACTORS
330
C
102
}
330
C
100
AcDbDictionary
281
     1
  0
ACDBDICTIONARYWDFLT
  5
E
102
{ACAD_REACTORS
330
C
102
}
330
C
100
AcDbDictionary
281
     1
  3
Normal
350
F
100
AcDbDictionaryWithDefault
340
F
  0
DICTIONARY
  5
1DD
102
{ACAD_REACTORS
330
C
102
}
330
C
100
AcDbDictionary
281
     1
  0
DICTIONARY
  5
2A
102
{ACAD_REACTORS
330
C
102
}
330
C
100
AcDbDictionary
281
     1
  3
2dWireframe
350
2F
  3
3D Hidden
350
31
  3
3dWireframe
350
30
  3
Basic
350
32
  3
Brighten
350
36
  3
ColorChange
350
3A
  3
Conceptual
350
34
  3
Dim
350
35
  3
Facepattern
350
39
  3
Flat
350
2B
  3
FlatWithEdges
350
2C
  3
Gouraud
350
2D
  3
GouraudWithEdges
350
2E
  3
Linepattern
350
38
  3
Realistic
350
33
  3
Thicken
350
37
  0
LAYOUT
  5
1E
102
{ACAD_REACTORS
330
1A
102
}
330
1A
100
AcDbPlotSettings
  1

  2
none_device
  4

  6

 40
0.0
 41
0.0
 42
0.0
 43
0.0
 44
0.0
 45
0.0
 46
0.0
 47
0.0
 48
0.0
 49
0.0
140
0.0
141
0.0
142
1.0
143
1.0
 70
   688
 72
     0
 73
     0
 74
     5
  7

 75
    16
 76
     0
 77
     2
 78
   300
147
1.0
148
0.0
149
0.0
100
AcDbLayout
  1
Layout1
 70
     1
 71
     1
 10
0.0
 20
0.0
 11
12.0
 21
9.0
 12
0.0
 22
0.0
 32
0.0
 14
1.000000000000000E+20
 24
1.000000000000000E+20
 34
1.000000000000000E+20
 15
-1.000000000000000E+20
 25
-1.000000000000000E+20
 35
-1.000000000000000E+20
146
0.0
 13
0.0
 23
0.0
 33
0.0
 16
1.0
 26
0.0
 36
0.0
 17
0.0
 27
1.0
 37
0.0
 76
     0
330
1B
  0
LAYOUT
  5
26
102
{ACAD_REACTORS
330
1A
102
}
330
1A
100
AcDbPlotSettings
  1

  2
none_device
  4

  6

 40
0.0
 41
0.0
 42
0.0
 43
0.0
 44
0.0
 45
0.0
 46
0.0
 47
0.0
 48
0.0
 49
0.0
140
0.0
141
0.0
142
1.0
143
1.0
 70
   688
 72
     0
 73
     0
 74
     5
  7

 75
    16
 76
     0
 77
     2
 78
   300
147
1.0
148
0.0
149
0.0
100
AcDbLayout
  1
Layout2
 70
     1
 71
     2
 10
0.0
 20
0.0
 11
0.0
 21
0.0
 12
0.0
 22
0.0
 32
0.0
 14
0.0
 24
0.0
 34
0.0
 15
0.0
 25
0.0
 35
0.0
146
0.0
 13
0.0
 23
0.0
 33
0.0
 16
1.0
 26
0.0
 36
0.0
 17
0.0
 27
1.0
 37
0.0
 76
     0
330
23
  0
LAYOUT
  5
22
102
{ACAD_REACTORS
330
1A
102
}
330
1A
100
AcDbPlotSettings
  1

  2
none_device
  4

  6

 40
0.0
 41
0.0
 42
0.0
 43
0.0
 44
0.0
 45
0.0
 46
0.0
 47
0.0
 48
0.0
 49
0.0
140
0.0
141
0.0
142
1.0
143
1.0
 70
  1712
 72
     0
 73
     0
 74
     0
  7

 75
     0
 76
     0
 77
     2
 78
   300
147
1.0
148
0.0
149
0.0
100
AcDbLayout
  1
Model
 70
     1
 71
     0
 10
0.0
 20
0.0
 11
12.0
 21
9.0
 12
0.0
 22
0.0
 32
0.0
 14
1.000000000000000E+20
 24
1.000000000000000E+20
 34
1.000000000000000E+20
 15
-1.000000000000000E+20
 25
-1.000000000000000E+20
 35
-1.000000000000000E+20
146
0.0
 13
0.0
 23
0.0
 33
0.0
 16
1.0
 26
0.0
 36
0.0
 17
0.0
 27
1.0
 37
0.0
 76
     0
330
1F
331
29
  0
MATERIAL
  5
3D
102
{ACAD_REACTORS
330
3B
102
}
330
3B
100
AcDbMaterial
  1
ByBlock
 72
     1
 94
      127
  0
MATERIAL
  5
3C
102
{ACAD_REACTORS
330
3B
102
}
330
3B
100
AcDbMaterial
  1
ByLayer
 72
     1
 94
      127
  0
MATERIAL
  5
3E
102
{ACAD_REACTORS
330
3B
102
}
330
3B
100
AcDbMaterial
  1
Global
 72
     1
 94
      127
  0
MLINESTYLE
  5
18
102
{ACAD_REACTORS
330
17
102
}
330
17
100
AcDbMlineStyle
  2
Standard
 70
     0
  3

 62
   256
 51
90.0
 52
90.0
 71
     2
 49
0.5
 62
   256
  6
BYLAYER
 49
-0.5
 62
   256
  6
BYLAYER
  0
ACDBPLACEHOLDER
  5
F
102
{ACAD_REACTORS
330
E
102
}
330
E
  0
VISUALSTYLE
  5
2F
102
{ACAD_REACTORS
330
2A
102
}
330
2A
100
AcDbVisualStyle
  2
2dWireframe
 70
     4
177
     2
291
     0
 71
     0
176
     1
 72
     2
176
     1
 73
     0
176
     1
 90
        0
176
     1
 40
-0.6
176
     1
 41
-30.0
176
     1
 62
     5
 63
     7
421
 16777215
176
     1
 74
     1
176
     1
 91
        4
176
     1
 64
     7
176
     1
 65
   257
176
     1
 75
     1
176
     1
175
     1
176
     1
 42
1.0
176
     1
 92
        0
176
     1
 66
   257
176
     1
 43
1.0
176
     1
 76
     1
176
     1
 77
     6
176
     1
 78
     2
176
     1
 67
     7
176
     1
 79
     5
176
     1
170
     0
176
     1
171
     0
176
     1
290
     0
176
     1
 93
        1
176
     1
 44
0.0
176
     1
173
     0
176
     1
  0
VISUALSTYLE
  5
31
102
{ACAD_REACTORS
330
2A
102
}
330
2A
100
AcDbVisualStyle
  2
3D Hidden
 70
     6
177
     2
291
     0
 71
     1
176
     1
 72
     2
176
     1
 73
     2
176
     1
 90
        0
176
     1
 40
-0.6
176
     1
 41
-30.0
176
     1
 62
     5
 63
     7
421
 16777215
176
     1
 74
     2
176
     1
 91
        2
176
     1
 64
     7
176
     1
 65
   257
176
     1
 75
     2
176
     1
175
     1
176
     1
 42
40.0
176
     1
 92
        0
176
     1
 66
   257
176
     1
 43
1.0
176
     1
 76
     1
176
     1
 77
     6
176
     1
 78
     2
176
     1
 67
     7
176
     1
 79
     3
176
     1
170
     0
176
     1
171
     0
176
     1
290
     0
176
     1
 93
        1
176
     1
 44
0.0
176
     1
173
     0
176
     1
  0
VISUALSTYLE
  5
30
102
{ACAD_REACTORS
330
2A
102
}
330
2A
100
AcDbVisualStyle
  2
3dWireframe
 70
     5
177
     2
291
     0
 71
     0
176
     1
 72
     2
176
     1
 73
     0
176
     1
 90
        0
176
     1
 40
-0.6
176
     1
 41
-30.0
176
     1
 62
     5
 63
     7
421
 16777215
176
     1
 74
     1
176
     1
 91
        4
176
     1
 64
     7
176
     1
 65
   257
176
     1
 75
     1
176
     1
175
     1
176
     1
 42
1.0
176
     1
 92
        0
176
     1
 66
   257
176
     1
 43
1.0
176
     1
 76
     1
176
     1
 77
     6
176
     1
 78
     2
176
     1
 67
     7
176
     1
 79
     5
176
     1
170
     0
176
     1
171
     0
176
     1
290
     0
176
     1
 93
        1
176
     1
 44
0.0
176
     1
173
     0
176
     1
  0
VISUALSTYLE
  5
32
102
{ACAD_REACTORS
330
2A
102
}
330
2A
100
AcDbVisualStyle
  2
Basic
 70
     7
177
     2
291
     1
 71
     1
176
     1
 72
     0
176
     1
 73
     1
176
     1
 90
        0
176
     1
 40
-0.6
176
     1
 41
-30.0
176
     1
 62
     5
 63
     7
421
 16777215
176
     1
 74
     0
176
     1
 91
        4
176
     1
 64
     7
176
     1
 65
   257
176
     1
 75
     1
176
     1
175
     1
176
     1
 42
1.0
176
     1
 92
        8
176
     1
 66
     7
176
     1
 43
1.0
176
     1
 76
     1
176
     1
 77
     6
176
     1
 78
     2
176
     1
 67
     7
176
     1
 79
     5
176
     1
170
     0
176
     1
171
     0
176
     1
290
     0
176
     1
 93
        1
176
     1
 44
0.0
176
     1
173
     0
176
     1
  0
VISUALSTYLE
  5
36
102
{ACAD_REACTORS
330
2A
102
}
330
2A
100
AcDbVisualStyle
  2
Brighten
 70
    12
177
     2
291
     1
 71
     2
176
     1
 72
     2
176
     1
 73
     0
176
     1
 90
        0
176
     1
 40
-0.6
176
     1
 41
-30.0
176
     1
 62
     5
 63
     7
421
 16777215
176
     1
 74
     1
176
     1
 91
        4
176
     1
 64
     7
176
     1
 65
   257
176
     1
 75
     1
176
     1
175
     1
176
     1
 42
1.0
176
     1
 92
        8
176
     1
 66
     7
176
     1
 43
1.0
176
     1
 76
     1
176
     1
 77
     6
176
     1
 78
     2
176
     1
 67
     7
176
     1
 79
     5
176
     1
170
     0
176
     1
171
     0
176
     1
290
     0
176
     1
 93
        1
176
     1
 44
50.0
176
     1
173
     0
176
     1
  0
VISUALSTYLE
  5
3A
102
{ACAD_REACTORS
330
2A
102
}
330
2A
100
AcDbVisualStyle
  2
ColorChange
 70
    16
177
     2
291
     1
 71
     2
176
     1
 72
     2
176
     1
 73
     3
176
     1
 90
        0
176
     1
 40
-0.6
176
     1
 41
-30.0
176
     1
 62
     5
 63
     8
421
  8421504
176
     1
 74
     1
176
     1
 91
        4
176
     1
 64
     7
176
     1
 65
   257
176
     1
 75
     1
176
     1
175
     1
176
     1
 42
1.0
176
     1
 92
        8
176
     1
 66
     8
424
  8421504
176
     1
 43
1.0
176
     1
 76
     1
176
     1
 77
     6
176
     1
 78
     2
176
     1
 67
     7
176
     1
 79
     5
176
     1
170
     0
176
     1
171
     0
176
     1
290
     0
176
     1
 93
        1
176
     1
 44
0.0
176
     1
173
     0
176
     1
  0
VISUALSTYLE
  5
34
102
{ACAD_REACTORS
330
2A
102
}
330
2A
100
AcDbVisualStyle
  2
Conceptual
 70
     9
177
     2
291
     0
 71
     3
176
     1
 72
     2
176
     1
 73
     0
176
     1
 90
        0
176
     1
 40
-0.6
176
     1
 41
-30.0
176
     1
 62
     5
 63
     7
421
 16777215
176
     1
 74
     2
176
     1
 91
        2
176
     1
 64
     7
176
     1
 65
   257
176
     1
 75
     1
176
     1
175
     1
176
     1
 42
40.0
176
     1
 92
        8
176
     1
 66
     7
176
     1
 43
1.0
176
     1
 76
     1
176
     1
 77
     6
176
     1
 78
     2
176
     1
 67
     7
176
     1
 79
     3
176
     1
170
     0
176
     1
171
     0
176
     1
290
     0
176
     1
 93
        1
176
     1
 44
0.0
176
     1
173
     0
176
     1
  0
VISUALSTYLE
  5
35
102
{ACAD_REACTORS
330
2A
102
}
330
2A
100
AcDbVisualStyle
  2
Dim
 70
    11
177
     2
291
     1
 71
     2
176
     1
 72
     2
176
     1
 73
     0
176
     1
 90
        0
176
     1
 40
-0.6
176
     1
 41
-30.0
176
     1
 62
     5
 63
     7
421
 16777215
176
     1
 74
     1
176
     1
 91
        4
176
     1
 64
     7
176
     1
 65
   257
176
     1
 75
     1
176
     1
175
     1
176
     1
 42
1.0
176
     1
 92
        8
176
     1
 66
     7
176
     1
 43
1.0
176
     1
 76
     1
176
     1
 77
     6
176
     1
 78
     2
176
     1
 67
     7
176
     1
 79
     5
176
     1
170
     0
176
     1
171
     0
176
     1
290
     0
176
     1
 93
        1
176
     1
 44
-50.0
176
     1
173
     0
176
     1
  0
VISUALSTYLE
  5
39
102
{ACAD_REACTORS
330
2A
102
}
330
2A
100
AcDbVisualStyle
  2
Facepattern
 70
    15
177
     2
291
     1
 71
     2
176
     1
 72
     2
176
     1
 73
     0
176
     1
 90
        0
176
     1
 40
-0.6
176
     1
 41
-30.0
176
     1
 62
     5
 63
     7
421
 16777215
176
     1
 74
     1
176
     1
 91
        4
176
     1
 64
     7
176
     1
 65
   257
176
     1
 75
     1
176
     1
175
     1
176
     1
 42
1.0
176
     1
 92
        8
176
     1
 66
     7
176
     1
 43
1.0
176
     1
 76
     1
176
     1
 77
     6
176
     1
 78
     2
176
     1
 67
     7
176
     1
 79
     5
176
     1
170
     0
176
     1
171
     0
176
     1
290
     0
176
     1
 93
        1
176
     1
 44
0.0
176
     1
173
     0
176
     1
  0
VISUALSTYLE
  5
2B
102
{ACAD_REACTORS
330
2A
102
}
330
2A
100
AcDbVisualStyle
  2
Flat
 70
     0
177
     2
291
     1
 71
     2
176
     1
 72
     1
176
     1
 73
     1
176
     1
 90
        2
176
     1
 40
-0.6
176
     1
 41
30.0
176
     1
 62
     5
 63
     7
421
 16777215
176
     1
 74
     0
176
     1
 91
        4
176
     1
 64
     7
176
     1
 65
   257
176
     1
 75
     1
176
     1
175
     1
176
     1
 42
1.0
176
     1
 92
        8
176
     1
 66
     7
176
     1
 43
1.0
176
     1
 76
     1
176
     1
 77
     6
176
     1
 78
     2
176
     1
 67
     7
176
     1
 79
     5
176
     1
170
     0
176
     1
171
     0
176
     1
290
     0
176
     1
 93
       13
176
     1
 44
0.0
176
     1
173
     0
176
     1
  0
VISUALSTYLE
  5
2C
102
{ACAD_REACTORS
330
2A
102
}
330
2A
100
AcDbVisualStyle
  2
FlatWithEdges
 70
     1
177
     2
291
     1
 71
     2
176
     1
 72
     1
176
     1
 73
     1
176
     1
 90
        2
176
     1
 40
-0.6
176
     1
 41
30.0
176
     1
 62
     5
 63
     7
421
 16777215
176
     1
 74
     1
176
     1
 91
        4
176
     1
 64
     7
176
     1
 65
   257
176
     1
 75
     1
176
     1
175
     1
176
     1
 42
1.0
176
     1
 92
        0
176
     1
 66
   257
176
     1
 43
1.0
176
     1
 76
     1
176
     1
 77
     6
176
     1
 78
     2
176
     1
 67
     7
176
     1
 79
     5
176
     1
170
     0
176
     1
171
     0
176
     1
290
     0
176
     1
 93
       13
176
     1
 44
0.0
176
     1
173
     0
176
     1
  0
VISUALSTYLE
  5
2D
102
{ACAD_REACTORS
330
2A
102
}
330
2A
100
AcDbVisualStyle
  2
Gouraud
 70
     2
177
     2
291
     1
 71
     2
176
     1
 72
     2
176
     1
 73
     1
176
     1
 90
        2
176
     1
 40
-0.6
176
     1
 41
30.0
176
     1
 62
     5
 63
     7
421
 16777215
176
     1
 74
     0
176
     1
 91
        4
176
     1
 64
     7
176
     1
 65
   257
176
     1
 75
     1
176
     1
175
     1
176
     1
 42
1.0
176
     1
 92
        0
176
     1
 66
     7
176
     1
 43
1.0
176
     1
 76
     1
176
     1
 77
     6
176
     1
 78
     2
176
     1
 67
     7
176
     1
 79
     5
176
     1
170
     0
176
     1
171
     0
176
     1
290
     0
176
     1
 93
       13
176
     1
 44
0.0
176
     1
173
     0
176
     1
  0
VISUALSTYLE
  5
2E
102
{ACAD_REACTORS
330
2A
102
}
330
2A
100
AcDbVisualStyle
  2
GouraudWithEdges
 70
     3
177
     2
291
     1
 71
     2
176
     1
 72
     2
176
     1
 73
     1
176
     1
 90
        2
176
     1
 40
-0.6
176
     1
 41
30.0
176
     1
 62
     5
 63
     7
421
 16777215
176
     1
 74
     1
176
     1
 91
        4
176
     1
 64
     7
176
     1
 65
   257
176
     1
 75
     1
176
     1
175
     1
176
     1
 42
1.0
176
     1
 92
        0
176
     1
 66
   257
176
     1
 43
1.0
176
     1
 76
     1
176
     1
 77
     6
176
     1
 78
     2
176
     1
 67
     7
176
     1
 79
     5
176
     1
170
     0
176
     1
171
     0
176
     1
290
     0
176
     1
 93
       13
176
     1
 44
0.0
176
     1
173
     0
176
     1
  0
VISUALSTYLE
  5
38
102
{ACAD_REACTORS
330
2A
102
}
330
2A
100
AcDbVisualStyle
  2
Linepattern
 70
    14
177
     2
291
     1
 71
     2
176
     1
 72
     2
176
     1
 73
     0
176
     1
 90
        0
176
     1
 40
-0.6
176
     1
 41
-30.0
176
     1
 62
     5
 63
     7
421
 16777215
176
     1
 74
     1
176
     1
 91
        4
176
     1
 64
     7
176
     1
 65
   257
176
     1
 75
     7
176
     1
175
     7
176
     1
 42
1.0
176
     1
 92
        8
176
     1
 66
     7
176
     1
 43
1.0
176
     1
 76
     1
176
     1
 77
     6
176
     1
 78
     2
176
     1
 67
     7
176
     1
 79
     5
176
     1
170
     0
176
     1
171
     0
176
     1
290
     0
176
     1
 93
        1
176
     1
 44
0.0
176
     1
173
     0
176
     1
  0
VISUALSTYLE
  5
33
102
{ACAD_REACTORS
330
2A
102
}
330
2A
100
AcDbVisualStyle
  2
Realistic
 70
     8
177
     2
291
     0
 71
     2
176
     1
 72
     2
176
     1
 73
     0
176
     1
 90
        0
176
     1
 40
-0.6
176
     1
 41
-30.0
176
     1
 62
     5
 63
     7
421
 16777215
176
     1
 74
     1
176
     1
 91
        0
176
     1
 64
     7
176
     1
 65
   257
176
     1
 75
     1
176
     1
175
     1
176
     1
 42
1.0
176
     1
 92
        8
176
     1
 66
     8
424
  7895160
176
     1
 43
1.0
176
     1
 76
     1
176
     1
 77
     6
176
     1
 78
     2
176
     1
 67
     7
176
     1
 79
     5
176
     1
170
     0
176
     1
171
     0
176
     1
290
     0
176
     1
 93
       13
176
     1
 44
0.0
176
     1
173
     0
176
     1
  0
VISUALSTYLE
  5
37
102
{ACAD_REACTORS
330
2A
102
}
330
2A
100
AcDbVisualStyle
  2
Thicken
 70
    13
177
     2
291
     1
 71
     2
176
     1
 72
     2
176
     1
 73
     0
176
     1
 90
        0
176
     1
 40
-0.6
176
     1
 41
-30.0
176
     1
 62
     5
 63
     7
421
 16777215
176
     1
 74
     1
176
     1
 91
        4
176
     1
 64
     7
176
     1
 65
   257
176
     1
 75
     1
176
     1
175
     1
176
     1
 42
1.0
176
     1
 92
       12
176
     1
 66
     7
176
     1
 43
1.0
176
     1
 76
     1
176
     1
 77
     6
176
     1
 78
     2
176
     1
 67
     7
176
     1
 79
     5
176
     1
170
     0
176
     1
171
     0
176
     1
290
     0
176
     1
 93
        1
176
     1
 44
0.0
176
     1
173
     0
176
     1
  0
ENDSEC
  0
EOF
