  0
SECTION
  2
HEADER
  9
$ACADVER
  1
AC1024
  9
$ACADMAINTVER
 70
     6
  9
$DWGCODEPAGE
  3
ANSI_1252
  9
$INSBASE
 10
0.0
 20
0.0
 30
0.0
  9
$EXTMIN
 10
1.000000000000000E+20
 20
1.000000000000000E+20
 30
1.000000000000000E+20
  9
$EXTMAX
 10
-1.000000000000000E+20
 20
-1.000000000000000E+20
 30
-1.000000000000000E+20
  9
$LIMMIN
 10
0.0
 20
0.0
  9
$LIMMAX
 10
12.0
 20
9.0
  9
$ORTHOMODE
 70
     0
  9
$REGENMODE
 70
     1
  9
$FILLMODE
 70
     1
  9
$QTEXTMODE
 70
     0
  9
$MIRRTEXT
 70
     1
  9
$LTSCALE
 40
1.0
  9
$ATTMODE
 70
     1
  9
$TEXTSIZE
 40
0.2
  9
$TRACEWID
 40
0.05
  9
$TEXTSTYLE
  7
Standard
  9
$CLAYER
  8
0
  9
$CELTYPE
  6
ByLayer
  9
$CECOLOR
 62
   256
  9
$CELTSCALE
 40
1.0
  9
$DISPSILH
 70
     0
  9
$DIMSCALE
 40
1.0
  9
$DIMASZ
 40
0.18
  9
$DIMEXO
 40
0.0625
  9
$DIMDLI
 40
0.38
  9
$DIMRND
 40
0.0
  9
$DIMDLE
 40
0.0
  9
$DIMEXE
 40
0.18
  9
$DIMTP
 40
0.0
  9
$DIMTM
 40
0.0
  9
$DIMTXT
 40
0.18
  9
$DIMCEN
 40
0.09
  9
$DIMTSZ
 40
0.0
  9
$DIMTOL
 70
     0
  9
$DIMLIM
 70
     0
  9
$DIMTIH
 70
     1
  9
$DIMTOH
 70
     1
  9
$DIMSE1
 70
     0
  9
$DIMSE2
 70
     0
  9
$DIMTAD
 70
     0
  9
$DIMZIN
 70
     0
  9
$DIMBLK
  1

  9
$DIMASO
 70
     1
  9
$DIMSHO
 70
     1
  9
$DIMPOST
  1

  9
$DIMAPOST
  1

  9
$DIMALT
 70
     0
  9
$DIMALTD
 70
     2
  9
$DIMALTF
 40
25.4
  9
$DIMLFAC
 40
1.0
  9
$DIMTOFL
 70
     0
  9
$DIMTVP
 40
0.0
  9
$DIMTIX
 70
     0
  9
$DIMSOXD
 70
     0
  9
$DIMSAH
 70
     0
  9
$DIMBLK1
  1

  9
$DIMBLK2
  1

  9
$DIMSTYLE
  2
Standard
  9
$DIMCLRD
 70
     0
  9
$DIMCLRE
 70
     0
  9
$DIMCLRT
 70
     0
  9
$DIMTFAC
 40
1.0
  9
$DIMGAP
 40
0.09
  9
$DIMJUST
 70
     0
  9
$DIMSD1
 70
     0
  9
$DIMSD2
 70
     0
  9
$DIMTOLJ
 70
     1
  9
$DIMTZIN
 70
     0
  9
$DIMALTZ
 70
     0
  9
$DIMALTTZ
 70
     0
  9
$DIMUPT
 70
     0
  9
$DIMDEC
 70
     4
  9
$DIMTDEC
 70
     4
  9
$DIMALTU
 70
     2
  9
$DIMALTTD
 70
     2
  9
$DIMTXSTY
  7
Standard
  9
$DIMAUNIT
 70
     0
  9
$DIMADEC
 70
     0
  9
$DIMALTRND
 40
0.0
  9
$DIMAZIN
 70
     0
  9
$DIMDSEP
 70
    46
  9
$DIMATFIT
 70
     3
  9
$DIMFRAC
 70
     0
  9
$DIMLDRBLK
  1

  9
$DIMLUNIT
 70
     2
  9
$DIMLWD
 70
    -2
  9
$DIMLWE
 70
    -2
  9
$DIMTMOVE
 70
     0
  9
$DIMFXL
 40
1.0
  9
$DIMFXLON
 70
     0
  9
$DIMJOGANG
 40
0.7853981633974483
  9
$DIMTFILL
 70
     0
  9
$DIMTFILLCLR
 70
     0
  9
$DIMARCSYM
 70
     0
  9
$DIMLTYPE
  6

  9
$DIMLTEX1
  6

  9
$DIMLTEX2
  6

  9
$DIMTXTDIRECTION
 70
     0
  9
$LUNITS
 70
     2
  9
$LUPREC
 70
     4
  9
$SKETCHINC
 40
0.1
  9
$FILLETRAD
 40
0.5
  9
$AUNITS
 70
     0
  9
$AUPREC
 70
     0
  9
$MENU
  1
.
  9
$ELEVATION
 40
0.0
  9
$PELEVATION
 40
0.0
  9
$THICKNESS
 40
0.0
  9
$LIMCHECK
 70
     0
  9
$CHAMFERA
 40
0.5
  9
$CHAMFERB
 40
0.5
  9
$CHAMFERC
 40
1.0
  9
$CHAMFERD
 40
0.0
  9
$SKPOLY
 70
     0
  9
$TDCREATE
 40
2459104.584506285
  9
$TDUCREATE
 40
2459104.084506285
  9
$TDUPDATE
 40
2459104.58450669
  9
$TDUUPDATE
 40
2459104.08450669
  9
$TDINDWG
 40
0.0000000116
  9
$TDUSRTIMER
 40
0.0000000116
  9
$USRTIMER
 70
     1
  9
$ANGBASE
 50
0.0
  9
$ANGDIR
 70
     0
  9
$PDMODE
 70
     0
  9
$PDSIZE
 40
0.0
  9
$PLINEWID
 40
0.0
  9
$SPLFRAME
 70
     0
  9
$SPLINETYPE
 70
     6
  9
$SPLINESEGS
 70
     8
  9
$HANDSEED
  5
423
  9
$SURFTAB1
 70
     6
  9
$SURFTAB2
 70
     6
  9
$SURFTYPE
 70
     6
  9
$SURFU
 70
     6
  9
$SURFV
 70
     6
  9
$UCSBASE
  2

  9
$UCSNAME
  2

  9
$UCSORG
 10
0.0
 20
0.0
 30
0.0
  9
$UCSXDIR
 10
1.0
 20
0.0
 30
0.0
  9
$UCSYDIR
 10
0.0
 20
1.0
 30
0.0
  9
$UCSORTHOREF
  2

  9
$UCSORTHOVIEW
 70
     0
  9
$UCSORGTOP
 10
0.0
 20
0.0
 30
0.0
  9
$UCSORGBOTTOM
 10
0.0
 20
0.0
 30
0.0
  9
$UCSORGLEFT
 10
0.0
 20
0.0
 30
0.0
  9
$UCSORGRIGHT
 10
0.0
 20
0.0
 30
0.0
  9
$UCSORGFRONT
 10
0.0
 20
0.0
 30
0.0
  9
$UCSORGBACK
 10
0.0
 20
0.0
 30
0.0
  9
$PUCSBASE
  2

  9
$PUCSNAME
  2

  9
$PUCSORG
 10
0.0
 20
0.0
 30
0.0
  9
$PUCSXDIR
 10
1.0
 20
0.0
 30
0.0
  9
$PUCSYDIR
 10
0.0
 20
1.0
 30
0.0
  9
$PUCSORTHOREF
  2

  9
$PUCSORTHOVIEW
 70
     0
  9
$PUCSORGTOP
 10
0.0
 20
0.0
 30
0.0
  9
$PUCSORGBOTTOM
 10
0.0
 20
0.0
 30
0.0
  9
$PUCSORGLEFT
 10
0.0
 20
0.0
 30
0.0
  9
$PUCSORGRIGHT
 10
0.0
 20
0.0
 30
0.0
  9
$PUCSORGFRONT
 10
0.0
 20
0.0
 30
0.0
  9
$PUCSORGBACK
 10
0.0
 20
0.0
 30
0.0
  9
$USERI1
 70
     0
  9
$USERI2
 70
     0
  9
$USERI3
 70
     0
  9
$USERI4
 70
     0
  9
$USERI5
 70
     0
  9
$USERR1
 40
0.0
  9
$USERR2
 40
0.0
  9
$USERR3
 40
0.0
  9
$USERR4
 40
0.0
  9
$USERR5
 40
0.0
  9
$WORLDVIEW
 70
     1
  9
$SHADEDGE
 70
     3
  9
$SHADEDIF
 70
    70
  9
$TILEMODE
 70
     1
  9
$MAXACTVP
 70
    64
  9
$PINSBASE
 10
0.0
 20
0.0
 30
0.0
  9
$PLIMCHECK
 70
     0
  9
$PEXTMIN
 10
1.000000000000000E+20
 20
1.000000000000000E+20
 30
1.000000000000000E+20
  9
$PEXTMAX
 10
-1.000000000000000E+20
 20
-1.000000000000000E+20
 30
-1.000000000000000E+20
  9
$PLIMMIN
 10
0.0
 20
0.0
  9
$PLIMMAX
 10
12.0
 20
9.0
  9
$UNITMODE
 70
     0
  9
$VISRETAIN
 70
     1
  9
$PLINEGEN
 70
     0
  9
$PSLTSCALE
 70
     1
  9
$TREEDEPTH
 70
  3020
  9
$CMLSTYLE
  2
Standard
  9
$CMLJUST
 70
     0
  9
$CMLSCALE
 40
1.0
  9
$PROXYGRAPHICS
 70
     1
  9
$MEASUREMENT
 70
     0
  9
$CELWEIGHT
370
    -1
  9
$ENDCAPS
280
     0
  9
$JOINSTYLE
280
     0
  9
$LWDISPLAY
290
     1
  9
$INSUNITS
 70
     0
  9
$HYPERLINKBASE
  1

  9
$STYLESHEET
  1

  9
$XEDIT
290
     1
  9
$CEPSNTYPE
380
     0
  9
$PSTYLEMODE
290
     1
  9
$FINGERPRINTGUID
  2
{7D3D0584-0BE1-404F-BA67-8FF866B89119}
  9
$VERSIONGUID
  2
{FAEB1C32-E019-11D5-929B-00C0DF256EC4}
  9
$EXTNAMES
290
     1
  9
$PSVPSCALE
 40
0.0
  9
$OLESTARTUP
290
     0
  9
$SORTENTS
280
   127
  9
$INDEXCTL
280
     0
  9
$HIDETEXT
280
     1
  9
$XCLIPFRAME
280
     2
  9
$HALOGAP
280
     0
  9
$OBSCOLOR
 70
   257
  9
$OBSLTYPE
280
     0
  9
$INTERSECTIONDISPLAY
280
     0
  9
$INTERSECTIONCOLOR
 70
   257
  9
$DIMASSOC
280
     2
  9
$PROJECTNAME
  1

  9
$CAMERADISPLAY
290
     0
  9
$LENSLENGTH
 40
50.0
  9
$CAMERAHEIGHT
 40
0.0
  9
$STEPSPERSEC
 40
2.0
  9
$STEPSIZE
 40
6.0
  9
$3DDWFPREC
 40
2.0
  9
$PSOLWIDTH
 40
0.25
  9
$PSOLHEIGHT
 40
4.0
  9
$LOFTANG1
 40
1.570796326794897
  9
$LOFTANG2
 40
1.570796326794897
  9
$LOFTMAG1
 40
0.0
  9
$LOFTMAG2
 40
0.0
  9
$LOFTPARAM
 70
     7
  9
$LOFTNORMALS
280
     1
  9
$LATITUDE
 40
37.795
  9
$LONGITUDE
 40
-122.394
  9
$NORTHDIRECTION
 40
0.0
  9
$TIMEZONE
 70
 -8000
  9
$LIGHTGLYPHDISPLAY
280
     1
  9
$TILEMODELIGHTSYNCH
280
     1
  9
$CMATERIAL
347
3C
  9
$SOLIDHIST
280
     1
  9
$SHOWHIST
280
     1
  9
$DWFFRAME
280
     2
  9
$DGNFRAME
280
     2
  9
$REALWORLDSCALE
290
     1
  9
$INTERFERECOLOR
 62
   256
  9
$CSHADOW
280
     0
  9
$SHADOWPLANELOCATION
 40
0.0
  0
ENDSEC
  0
SECTION
  2
CLASSES
  0
CLASS
  1
ACDBDICTIONARYWDFLT
  2
AcDbDictionaryWithDefault
  3
ObjectDBX Classes
 90
        0
 91
        4
280
     0
281
     0
  0
CLASS
  1
VISUALSTYLE
  2
AcDbVisualStyle
  3
ObjectDBX Classes
 90
     4095
 91
        4
280
     0
281
     0
  0
CLASS
  1
MATERIAL
  2
AcDbMaterial
  3
ObjectDBX Classes
 90
     1153
 91
        4
280
     0
281
     0
  0
CLASS
  1
SUN
  2
AcDbSun
  3
SCENEOE
 90
     1024
 91
        4
280
     0
281
     0
  0
ENDSEC
  0
SECTION
  2
TABLES
  0
TABLE
  2
VPORT
  5
8
330
0
100
AcDbSymbolTable
 70
     1
  0
VPORT
  5
29
330
8
100
AcDbSymbolTableRecord
100
AcDbViewportTableRecord
  2
*Active
 70
     0
 10
0.0
 20
0.0
 11
1.0
 21
1.0
 12
0.0
 22
0.0
 13
0.0
 23
0.0
 14
0.5
 24
0.5
 15
0.5
 25
0.5
 16
0.0
 26
0.0
 36
1.0
 17
421.0
 27
298.0
 37
0.0
 40
841.8897637795271
 41
0.7070707070707065
 42
50.0
 43
0.0
 44
0.0
 50
0.0
 51
0.0
 71
     0
 72
   100
 73
     1
 74
     3
 75
     0
 76
     0
 77
     0
 78
     0
281
     0
 65
     1
110
0.0
120
0.0
130
0.0
111
1.0
121
0.0
131
0.0
112
0.0
122
1.0
132
0.0
 79
     0
146
0.0
 60
     3
 61
     5
292
     1
282
     1
141
0.0
142
0.0
 63
   250
361
3F
  0
ENDTAB
  0
TABLE
  2
LTYPE
  5
5
330
0
100
AcDbSymbolTable
 70
     1
  0
LTYPE
  5
14
330
5
100
AcDbSymbolTableRecord
100
AcDbLinetypeTableRecord
  2
ByBlock
 70
     0
  3

 72
    65
 73
     0
 40
0.0
  0
LTYPE
  5
15
330
5
100
AcDbSymbolTableRecord
100
AcDbLinetypeTableRecord
  2
ByLayer
 70
     0
  3

 72
    65
 73
     0
 40
0.0
  0
LTYPE
  5
16
330
5
100
AcDbSymbolTableRecord
100
AcDbLinetypeTableRecord
  2
Continuous
 70
     0
  3
Solid line
 72
    65
 73
     0
 40
0.0
  0
ENDTAB
  0
TABLE
  2
LAYER
  5
2
330
0
100
AcDbSymbolTable
 70
     3
  0
LAYER
  5
10
330
2
100
AcDbSymbolTableRecord
100
AcDbLayerTableRecord
  2
0
 70
     0
 62
     7
  6
Continuous
370
    -3
390
F
347
3E
  0
LAYER
  5
40
330
2
100
AcDbSymbolTableRecord
100
AcDbLayerTableRecord
  2
Wood
 70
     0
 62
     7
  6
Continuous
370
    -3
390
F
347
3E
  0
LAYER
  5
419
330
2
100
AcDbSymbolTableRecord
100
AcDbLayerTableRecord
  2
Layer 3
 70
     0
 62
     7
  6
Continuous
370
    -3
390
F
347
3E
  0
ENDTAB
  0
TABLE
  2
STYLE
  5
3
330
0
100
AcDbSymbolTable
 70
     1
  0
STYLE
  5
11
330
3
100
AcDbSymbolTableRecord
100
AcDbTextStyleTableRecord
  2
Standard
 70
     0
 40
0.0
 41
1.0
 50
0.0
 71
     0
 42
0.2
  3
txt
  4

  0
ENDTAB
  0
TABLE
  2
VIEW
  5
6
330
0
100
AcDbSymbolTable
 70
     0
  0
ENDTAB
  0
TABLE
  2
UCS
  5
7
330
0
100
AcDbSymbolTable
 70
     0
  0
ENDTAB
  0
TABLE
  2
APPID
  5
9
330
0
100
AcDbSymbolTable
 70
     1
  0
APPID
  5
12
330
9
100
AcDbSymbolTableRecord
100
AcDbRegAppTableRecord
  2
ACAD
 70
     0
  0
ENDTAB
  0
TABLE
  2
DIMSTYLE
  5
A
330
0
100
AcDbSymbolTable
 70
     1
100
AcDbDimStyleTable
  0
DIMSTYLE
105
27
330
A
100
AcDbSymbolTableRecord
100
AcDbDimStyleTableRecord
  2
Standard
 70
     0
178
     0
340
11
  0
ENDTAB
  0
TABLE
  2
BLOCK_RECORD
  5
1
330
0
100
AcDbSymbolTable
 70
    21
  0
BLOCK_RECORD
  5
1F
330
1
100
AcDbSymbolTableRecord
100
AcDbBlockTableRecord
  2
*Model_Space
340
22
 70
     0
280
     1
281
     0
  0
BLOCK_RECORD
  5
1B
330
1
100
AcDbSymbolTableRecord
100
AcDbBlockTableRecord
  2
*Paper_Space
340
1E
 70
     0
280
     1
281
     0
  0
BLOCK_RECORD
  5
23
330
1
100
AcDbSymbolTableRecord
100
AcDbBlockTableRecord
  2
*Paper_Space0
340
26
 70
     0
280
     1
281
     0
  0
BLOCK_RECORD
  5
41
330
1
100
AcDbSymbolTableRecord
100
AcDbBlockTableRecord
  2
block 2
340
0
102
{BLKREFS
331
42
102
}
 70
     0
280
     1
281
     0
  0
BLOCK_RECORD
  5
8F
330
1
100
AcDbSymbolTableRecord
100
AcDbBlockTableRecord
  2
block 3
340
0
102
{BLKREFS
331
90
102
}
 70
     0
280
     1
281
     0
  0
BLOCK_RECORD
  5
96
330
1
100
AcDbSymbolTableRecord
100
AcDbBlockTableRecord
  2
block 4
340
0
102
{BLKREFS
331
97
102
}
 70
     0
280
     1
281
     0
  0
BLOCK_RECORD
  5
9D
330
1
100
AcDbSymbolTableRecord
100
AcDbBlockTableRecord
  2
block 5
340
0
102
{BLKREFS
331
9E
102
}
 70
     0
280
     1
281
     0
  0
BLOCK_RECORD
  5
A1
330
1
100
AcDbSymbolTableRecord
100
AcDbBlockTableRecord
  2
block 6
340
0
102
{BLKREFS
331
A2
102
}
 70
     0
280
     1
281
     0
  0
BLOCK_RECORD
  5
15A
330
1
100
AcDbSymbolTableRecord
100
AcDbBlockTableRecord
  2
block 7
340
0
102
{BLKREFS
331
15B
102
}
 70
     0
280
     1
281
     0
  0
BLOCK_RECORD
  5
15E
330
1
100
AcDbSymbolTableRecord
100
AcDbBlockTableRecord
  2
block 8
340
0
102
{BLKREFS
331
15F
102
}
 70
     0
280
     1
281
     0
  0
BLOCK_RECORD
  5
172
330
1
100
AcDbSymbolTableRecord
100
AcDbBlockTableRecord
  2
block 9
340
0
102
{BLKREFS
331
173
102
}
 70
     0
280
     1
281
     0
  0
BLOCK_RECORD
  5
17F
330
1
100
AcDbSymbolTableRecord
100
AcDbBlockTableRecord
  2
block 10
340
0
102
{BLKREFS
331
180
102
}
 70
     0
280
     1
281
     0
  0
BLOCK_RECORD
  5
238
330
1
100
AcDbSymbolTableRecord
100
AcDbBlockTableRecord
  2
block 11
340
0
102
{BLKREFS
331
239
102
}
 70
     0
280
     1
281
     0
  0
BLOCK_RECORD
  5
23C
330
1
100
AcDbSymbolTableRecord
100
AcDbBlockTableRecord
  2
block 12
340
0
102
{BLKREFS
331
23D
102
}
 70
     0
280
     1
281
     0
  0
BLOCK_RECORD
  5
250
330
1
100
AcDbSymbolTableRecord
100
AcDbBlockTableRecord
  2
block 13
340
0
102
{BLKREFS
331
251
102
}
 70
     0
280
     1
281
     0
  0
BLOCK_RECORD
  5
25D
330
1
100
AcDbSymbolTableRecord
100
AcDbBlockTableRecord
  2
block 14
340
0
102
{BLKREFS
331
25E
102
}
 70
     0
280
     1
281
     0
  0
BLOCK_RECORD
  5
316
330
1
100
AcDbSymbolTableRecord
100
AcDbBlockTableRecord
  2
block 15
340
0
102
{BLKREFS
331
317
102
}
 70
     0
280
     1
281
     0
  0
BLOCK_RECORD
  5
31A
330
1
100
AcDbSymbolTableRecord
100
AcDbBlockTableRecord
  2
block 16
340
0
102
{BLKREFS
331
31B
102
}
 70
     0
280
     1
281
     0
  0
BLOCK_RECORD
  5
32E
330
1
100
AcDbSymbolTableRecord
100
AcDbBlockTableRecord
  2
block 17
340
0
102
{BLKREFS
331
32F
102
}
 70
     0
280
     1
281
     0
  0
BLOCK_RECORD
  5
33B
330
1
100
AcDbSymbolTableRecord
100
AcDbBlockTableRecord
  2
block 18
340
0
102
{BLKREFS
331
33C
102
}
 70
     0
280
     1
281
     0
  0
BLOCK_RECORD
  5
3F4
330
1
100
AcDbSymbolTableRecord
100
AcDbBlockTableRecord
  2
block 19
340
0
102
{BLKREFS
331
3F5
102
}
 70
     0
280
     1
281
     0
  0
BLOCK_RECORD
  5
3F8
330
1
100
AcDbSymbolTableRecord
100
AcDbBlockTableRecord
  2
block 20
340
0
102
{BLKREFS
331
3F9
102
}
 70
     0
280
     1
281
     0
  0
BLOCK_RECORD
  5
40C
330
1
100
AcDbSymbolTableRecord
100
AcDbBlockTableRecord
  2
block 21
340
0
102
{BLKREFS
331
40D
102
}
 70
     0
280
     1
281
     0
  0
ENDTAB
  0
ENDSEC
  0
SECTION
  2
BLOCKS
  0
BLOCK
  5
20
330
1F
100
AcDbEntity
  8
0
100
AcDbBlockBegin
  2
*Model_Space
 70
     0
 10
0.0
 20
0.0
 30
0.0
  3
*Model_Space
  1

  0
ENDBLK
  5
21
330
1F
100
AcDbEntity
  8
0
100
AcDbBlockEnd
  0
BLOCK
  5
1C
330
1B
100
AcDbEntity
 67
     1
  8
0
100
AcDbBlockBegin
  2
*Paper_Space
 70
     0
 10
0.0
 20
0.0
 30
0.0
  3
*Paper_Space
  1

  0
ENDBLK
  5
1D
330
1B
100
AcDbEntity
 67
     1
  8
0
100
AcDbBlockEnd
  0
BLOCK
  5
24
330
23
100
AcDbEntity
  8
0
100
AcDbBlockBegin
  2
*Paper_Space0
 70
     0
 10
0.0
 20
0.0
 30
0.0
  3
*Paper_Space0
  1

  0
ENDBLK
  5
25
330
23
100
AcDbEntity
  8
0
100
AcDbBlockEnd
  0
BLOCK
  5
43
330
41
100
AcDbEntity
  8
0
100
AcDbBlockBegin
  2
block 2
 70
     0
 10
0.0
 20
0.0
 30
0.0
  3
block 2
  1

  0
POLYLINE
  5
45
330
41
100
AcDbEntity
  8
Wood
 62
   250
420
  2301728
370
    25
100
AcDb2dPolyline
 66
     1
 10
0.0
 20
0.0
 30
0.0
  0
VERTEX
  5
46
330
45
100
AcDbEntity
  8
Wood
 62
   250
420
  2301728
370
    25
100
AcDbVertex
100
AcDb2dVertex
 10
611.6001968173441
 20
271.7315232826259
 30
0.0
  0
VERTEX
  5
47
330
45
100
AcDbEntity
  8
Wood
 62
   250
420
  2301728
370
    25
100
AcDbVertex
100
AcDb2dVertex
 10
611.6001968173441
 20
307.2009778317552
 30
0.0
  0
VERTEX
  5
48
330
45
100
AcDbEntity
  8
Wood
 62
   250
420
  2301728
370
    25
100
AcDbVertex
100
AcDb2dVertex
 10
616.819667604861
 20
311.3283770578064
 30
0.0
  0
VERTEX
  5
49
330
45
100
AcDbEntity
  8
Wood
 62
   250
420
  2301728
370
    25
100
AcDbVertex
100
AcDb2dVertex
 10
606.3600651380657
 20
317.0984921641066
 30
0.0
  0
VERTEX
  5
4A
330
45
100
AcDbEntity
  8
Wood
 62
   250
420
  2301728
370
    25
100
AcDbVertex
100
AcDb2dVertex
 10
611.6001968173441
 20
321.2144936602635
 30
0.0
  0
VERTEX
  5
4B
330
45
100
AcDbEntity
  8
Wood
 62
   250
420
  2301728
370
    25
100
AcDbVertex
100
AcDb2dVertex
 10
611.6001968173441
 20
356.6839482093928
 30
0.0
  0
VERTEX
  5
4C
330
45
100
AcDbEntity
  8
Wood
 62
   250
420
  2301728
370
    25
100
AcDbVertex
100
AcDb2dVertex
 10
569.9713184125358
 20
372.0677234532777
 30
0.0
  0
VERTEX
  5
4D
330
45
100
AcDbEntity
  8
Wood
 62
   250
420
  2301728
370
    25
100
AcDbVertex
100
AcDb2dVertex
 10
231.5439660382472
 20
339.9553118093427
 30
0.0
  0
VERTEX
  5
4E
330
45
100
AcDbEntity
  8
Wood
 62
   250
420
  2301728
370
    25
100
AcDbVertex
100
AcDb2dVertex
 10
231.5439660382472
 20
302.2927558000156
 30
0.0
  0
VERTEX
  5
4F
330
45
100
AcDbEntity
  8
Wood
 62
   250
420
  2301728
370
    25
100
AcDbVertex
100
AcDb2dVertex
 10
236.1407108238018
 20
298.0501859540454
 30
0.0
  0
VERTEX
  5
50
330
45
100
AcDbEntity
  8
Wood
 62
   250
420
  2301728
370
    25
100
AcDbVertex
100
AcDb2dVertex
 10
225.180332395139
 20
290.426325087843
 30
0.0
  0
VERTEX
  5
51
330
45
100
AcDbEntity
  8
Wood
 62
   250
420
  2301728
370
    25
100
AcDbVertex
100
AcDb2dVertex
 10
231.5439660382472
 20
284.2264602206196
 30
0.0
  0
VERTEX
  5
52
330
45
100
AcDbEntity
  8
Wood
 62
   250
420
  2301728
370
    25
100
AcDbVertex
100
AcDb2dVertex
 10
231.5439660382472
 20
249.7502183675824
 30
0.0
  0
VERTEX
  5
53
330
45
100
AcDbEntity
  8
Wood
 62
   250
420
  2301728
370
    25
100
AcDbVertex
100
AcDb2dVertex
 10
255.6236376488159
 20
223.9322765467223
 30
0.0
  0
VERTEX
  5
54
330
45
100
AcDbEntity
  8
Wood
 62
   250
420
  2301728
370
    25
100
AcDbVertex
100
AcDb2dVertex
 10
611.6001968173441
 20
271.7315232826259
 30
0.0
  0
SEQEND
  5
56
330
45
100
AcDbEntity
  8
Wood
 62
   250
420
  2301728
370
    25
  0
HATCH
  5
55
330
41
100
AcDbEntity
  8
Wood
 62
    43
420
 15510364
100
AcDbHatch
 10
0.0
 20
0.0
 30
0.0
210
0.0
220
0.0
230
1.0
  2
SOLID
 70
     1
 71
     0
 91
        1
 92
        1
 93
       14
 72
     1
 10
611.6001968173441
 20
271.7315232826259
 11
611.6001968173441
 21
307.2009778317552
 72
     1
 10
611.6001968173441
 20
307.2009778317552
 11
616.819667604861
 21
311.3283770578064
 72
     1
 10
616.819667604861
 20
311.3283770578064
 11
606.3600651380657
 21
317.0984921641066
 72
     1
 10
606.3600651380657
 20
317.0984921641066
 11
611.6001968173441
 21
321.2144936602635
 72
     1
 10
611.6001968173441
 20
321.2144936602635
 11
611.6001968173441
 21
356.6839482093928
 72
     1
 10
611.6001968173441
 20
356.6839482093928
 11
569.9713184125358
 21
372.0677234532777
 72
     1
 10
569.9713184125358
 20
372.0677234532777
 11
231.5439660382472
 21
339.9553118093427
 72
     1
 10
231.5439660382472
 20
339.9553118093427
 11
231.5439660382472
 21
302.2927558000156
 72
     1
 10
231.5439660382472
 20
302.2927558000156
 11
236.1407108238018
 21
298.0501859540454
 72
     1
 10
236.1407108238018
 20
298.0501859540454
 11
225.180332395139
 21
290.426325087843
 72
     1
 10
225.180332395139
 20
290.426325087843
 11
231.5439660382472
 21
284.2264602206196
 72
     1
 10
231.5439660382472
 20
284.2264602206196
 11
231.5439660382472
 21
249.7502183675824
 72
     1
 10
231.5439660382472
 20
249.7502183675824
 11
255.6236376488159
 21
223.9322765467223
 72
     1
 10
255.6236376488159
 20
223.9322765467223
 11
611.6001968173441
 21
271.7315232826259
 97
        0
 75
     2
 76
     1
 98
        0
  0
POLYLINE
  5
57
330
41
100
AcDbEntity
  8
Wood
 62
   250
420
  2301728
370
    25
100
AcDb2dPolyline
 66
     1
 10
0.0
 20
0.0
 30
0.0
  0
VERTEX
  5
58
330
57
100
AcDbEntity
  8
Wood
 62
   250
420
  2301728
370
    25
100
AcDbVertex
100
AcDb2dVertex
 10
410.7747885127646
 20
356.9620162326246
 30
0.0
  0
VERTEX
  5
59
330
57
100
AcDbEntity
  8
Wood
 62
   250
420
  2301728
370
    25
100
AcDbVertex
100
AcDb2dVertex
 10
444.8237477287876
 20
339.6411286570692
 30
0.0
  0
SEQEND
  5
5A
330
57
100
AcDbEntity
  8
Wood
 62
   250
420
  2301728
370
    25
  0
POLYLINE
  5
5B
330
41
100
AcDbEntity
  8
Wood
 62
   250
420
  2301728
370
    18
100
AcDb2dPolyline
 66
     1
 10
0.0
 20
0.0
 30
0.0
  0
VERTEX
  5
5C
330
5B
100
AcDbEntity
  8
Wood
 62
   250
420
  2301728
370
    18
100
AcDbVertex
100
AcDb2dVertex
 10
611.6001968173441
 20
356.6839482093928
 30
0.0
  0
VERTEX
  5
5D
330
5B
100
AcDbEntity
  8
Wood
 62
   250
420
  2301728
370
    18
100
AcDbVertex
100
AcDb2dVertex
 10
444.8237477287876
 20
339.6411286570692
 30
0.0
  0
VERTEX
  5
5E
330
5B
100
AcDbEntity
  8
Wood
 62
   250
420
  2301728
370
    18
100
AcDbVertex
100
AcDb2dVertex
 10
255.6236376488159
 20
320.3068440323841
 30
0.0
  0
VERTEX
  5
5F
330
5B
100
AcDbEntity
  8
Wood
 62
   250
420
  2301728
370
    18
100
AcDbVertex
100
AcDb2dVertex
 10
255.6236376488159
 20
280.068400643966
 30
0.0
  0
VERTEX
  5
60
330
5B
100
AcDbEntity
  8
Wood
 62
   250
420
  2301728
370
    18
100
AcDbVertex
100
AcDb2dVertex
 10
262.3392357097255
 20
276.8790994269257
 30
0.0
  0
VERTEX
  5
61
330
5B
100
AcDbEntity
  8
Wood
 62
   250
420
  2301728
370
    18
100
AcDbVertex
100
AcDb2dVertex
 10
248.8778741569113
 20
267.3386420362658
 30
0.0
  0
VERTEX
  5
62
330
5B
100
AcDbEntity
  8
Wood
 62
   250
420
  2301728
370
    18
100
AcDbVertex
100
AcDb2dVertex
 10
255.6236376488159
 20
264.170719935144
 30
0.0
  0
VERTEX
  5
63
330
5B
100
AcDbEntity
  8
Wood
 62
   250
420
  2301728
370
    18
100
AcDbVertex
100
AcDb2dVertex
 10
255.6236376488159
 20
223.9322765467223
 30
0.0
  0
SEQEND
  5
64
330
5B
100
AcDbEntity
  8
Wood
 62
   250
420
  2301728
370
    18
  0
POLYLINE
  5
65
330
41
100
AcDbEntity
  8
Wood
 62
   250
420
  2301728
370
    18
100
AcDb2dPolyline
 66
     1
 10
0.0
 20
0.0
 30
0.0
  0
VERTEX
  5
66
330
65
100
AcDbEntity
  8
Wood
 62
   250
420
  2301728
370
    18
100
AcDbVertex
100
AcDb2dVertex
 10
231.5439660382472
 20
339.9553118093427
 30
0.0
  0
VERTEX
  5
67
330
65
100
AcDbEntity
  8
Wood
 62
   250
420
  2301728
370
    18
100
AcDbVertex
100
AcDb2dVertex
 10
255.6236376488159
 20
320.3068440323841
 30
0.0
  0
SEQEND
  5
68
330
65
100
AcDbEntity
  8
Wood
 62
   250
420
  2301728
370
    18
  0
POLYLINE
  5
69
330
41
100
AcDbEntity
  8
Wood
 62
   250
420
  2301728
370
    18
100
AcDb2dPolyline
 66
     1
 10
0.0
 20
0.0
 30
0.0
  0
VERTEX
  5
6A
330
69
100
AcDbEntity
  8
Wood
 62
   250
420
  2301728
370
    18
100
AcDbVertex
100
AcDb2dVertex
 10
255.6236376488159
 20
280.068400643966
 30
0.0
  0
VERTEX
  5
6B
330
69
100
AcDbEntity
  8
Wood
 62
   250
420
  2301728
370
    18
100
AcDbVertex
100
AcDb2dVertex
 10
231.5439660382472
 20
302.2927558000156
 30
0.0
  0
SEQEND
  5
6C
330
69
100
AcDbEntity
  8
Wood
 62
   250
420
  2301728
370
    18
  0
POLYLINE
  5
6D
330
41
100
AcDbEntity
  8
Wood
 62
   250
420
  2301728
370
    18
100
AcDb2dPolyline
 66
     1
 10
0.0
 20
0.0
 30
0.0
  0
VERTEX
  5
6E
330
6D
100
AcDbEntity
  8
Wood
 62
   250
420
  2301728
370
    18
100
AcDbVertex
100
AcDb2dVertex
 10
248.8778741569113
 20
267.3386420362658
 30
0.0
  0
VERTEX
  5
6F
330
6D
100
AcDbEntity
  8
Wood
 62
   250
420
  2301728
370
    18
100
AcDbVertex
100
AcDb2dVertex
 10
225.180332395139
 20
290.426325087843
 30
0.0
  0
SEQEND
  5
70
330
6D
100
AcDbEntity
  8
Wood
 62
   250
420
  2301728
370
    18
  0
POLYLINE
  5
71
330
41
100
AcDbEntity
  8
Wood
 62
   250
420
  2301728
370
    25
100
AcDb2dPolyline
 66
     1
 10
0.0
 20
0.0
 30
0.0
  0
VERTEX
  5
72
330
71
100
AcDbEntity
  8
Wood
 62
   250
420
  2301728
370
    25
100
AcDbVertex
100
AcDb2dVertex
 10
444.8237477287876
 20
339.6411286570692
 30
0.0
  0
VERTEX
  5
73
330
71
100
AcDbEntity
  8
Wood
 62
   250
420
  2301728
370
    25
100
AcDbVertex
100
AcDb2dVertex
 10
444.8237477287876
 20
249.3373840214845
 30
0.0
  0
SEQEND
  5
74
330
71
100
AcDbEntity
  8
Wood
 62
   250
420
  2301728
370
    25
  0
SPLINE
  5
75
330
41
100
AcDbEntity
  8
Wood
 62
   250
420
  2301728
370
    13
100
AcDbSpline
210
0.0
220
0.0
230
1.0
 70
     8
 71
     3
 72
    14
 73
    10
 74
     0
 42
0.0000000001
 43
0.0000000001
 12
1.0
 22
0.0
 32
0.0
 13
1.0
 23
0.0
 33
0.0
 40
0.0
 40
0.0
 40
0.0
 40
0.0
 40
1.0
 40
1.0
 40
1.0
 40
2.0
 40
2.0
 40
2.0
 40
3.0
 40
3.0
 40
3.0
 40
3.0
 10
231.5439660382472
 20
327.2315789473678
 30
0.0
 10
231.5439660382472
 20
327.2315789473678
 30
0.0
 10
233.0315789473689
 20
328.652631578947
 30
0.0
 10
233.6000000000004
 20
329.031578947368
 30
0.0
 10
234.1684210526319
 20
329.410526315789
 30
0.0
 10
236.7634697099447
 20
331.4947368421035
 30
0.0
 10
237.0291032760251
 20
331.9684210526311
 30
0.0
 10
237.2947368421064
 20
332.4421052631578
 30
0.0
 10
238.0431308845136
 20
334.652140191215
 30
0.0
 10
238.0431308845136
 20
334.652140191215
 30
0.0
  0
SPLINE
  5
76
330
41
100
AcDbEntity
  8
Wood
 62
   250
420
  2301728
370
    13
100
AcDbSpline
210
0.0
220
0.0
230
1.0
 70
     8
 71
     3
 72
    14
 73
    10
 74
     0
 42
0.0000000001
 43
0.0000000001
 12
1.0
 22
0.0
 32
0.0
 13
1.0
 23
0.0
 33
0.0
 40
0.0
 40
0.0
 40
0.0
 40
0.0
 40
1.0
 40
1.0
 40
1.0
 40
2.0
 40
2.0
 40
2.0
 40
3.0
 40
3.0
 40
3.0
 40
3.0
 10
231.5439660382472
 20
318.2315789473678
 30
0.0
 10
232.1789473684221
 20
318.4210526315783
 30
0.0
 10
235.4947368421062
 20
320.3068440323841
 30
0.0
 10
235.4947368421062
 20
320.3068440323841
 30
0.0
 10
235.4947368421062
 20
320.3068440323841
 30
0.0
 10
238.0526315789484
 20
321.926315789472
 30
0.0
 10
238.9052631578952
 20
322.8736842105254
 30
0.0
 10
239.7578947368429
 20
323.8210526315788
 30
0.0
 10
243.5838018435315
 20
330.1310779208634
 30
0.0
 10
243.5838018435315
 20
330.1310779208634
 30
0.0
  0
SPLINE
  5
77
330
41
100
AcDbEntity
  8
Wood
 62
   250
420
  2301728
370
    13
100
AcDbSpline
210
0.0
220
0.0
230
1.0
 70
     8
 71
     3
 72
    17
 73
    13
 74
     0
 42
0.0000000001
 43
0.0000000001
 12
1.0
 22
0.0
 32
0.0
 13
1.0
 23
0.0
 33
0.0
 40
0.0
 40
0.0
 40
0.0
 40
0.0
 40
1.0
 40
1.0
 40
1.0
 40
2.0
 40
2.0
 40
2.0
 40
3.0
 40
3.0
 40
3.0
 40
4.0
 40
4.0
 40
4.0
 40
4.0
 10
231.5439660382472
 20
308.6631578947363
 30
0.0
 10
231.9894736842116
 20
308.6631578947363
 30
0.0
 10
236.5178407163949
 20
310.5578947368413
 30
0.0
 10
238.0431308845136
 20
311.2210526315775
 30
0.0
 10
239.5684210526324
 20
311.8842105263157
 30
0.0
 10
244.3052631578958
 20
314.1578947368416
 30
0.0
 10
245.0631578947377
 20
315.1052631578941
 30
0.0
 10
245.8210526315797
 20
316.0526315789466
 30
0.0
 10
247.7157894736847
 20
318.2315789473678
 30
0.0
 10
247.7157894736847
 20
318.2315789473678
 30
0.0
 10
247.7157894736847
 20
318.2315789473678
 30
0.0
 10
250.4631578947374
 20
324.1813284341151
 30
0.0
 10
250.4631578947374
 20
324.1813284341151
 30
0.0
  0
SPLINE
  5
78
330
41
100
AcDbEntity
  8
Wood
 62
   250
420
  2301728
370
    13
100
AcDbSpline
210
0.0
220
0.0
230
1.0
 70
     8
 71
     3
 72
    17
 73
    13
 74
     0
 42
0.0000000001
 43
0.0000000001
 12
1.0
 22
0.0
 32
0.0
 13
1.0
 23
0.0
 33
0.0
 40
0.0
 40
0.0
 40
0.0
 40
0.0
 40
1.0
 40
1.0
 40
1.0
 40
2.0
 40
2.0
 40
2.0
 40
3.0
 40
3.0
 40
3.0
 40
4.0
 40
4.0
 40
4.0
 40
4.0
 10
233.8842105263166
 20
300.0421052631573
 30
0.0
 10
233.8842105263166
 20
300.0421052631573
 30
0.0
 10
243.5838018435315
 20
305.3473684210521
 30
0.0
 10
243.5838018435315
 20
305.3473684210521
 30
0.0
 10
243.5838018435315
 20
305.3473684210521
 30
0.0
 10
248.8778741569113
 20
308.6631578947363
 30
0.0
 10
248.8778741569113
 20
308.6631578947363
 30
0.0
 10
248.8778741569113
 20
308.6631578947363
 30
0.0
 10
251.6000000000013
 20
310.273684210526
 30
0.0
 10
252.0736842105271
 20
310.8421052631566
 30
0.0
 10
252.5473684210529
 20
311.410526315789
 30
0.0
 10
255.6236376488159
 20
316.9052631578943
 30
0.0
 10
255.6236376488159
 20
316.9052631578943
 30
0.0
  0
SPLINE
  5
79
330
41
100
AcDbEntity
  8
Wood
 62
   250
420
  2301728
370
    13
100
AcDbSpline
210
0.0
220
0.0
230
1.0
 70
     8
 71
     3
 72
    14
 73
    10
 74
     0
 42
0.0000000001
 43
0.0000000001
 12
1.0
 22
0.0
 32
0.0
 13
1.0
 23
0.0
 33
0.0
 40
0.0
 40
0.0
 40
0.0
 40
0.0
 40
1.0
 40
1.0
 40
1.0
 40
2.0
 40
2.0
 40
2.0
 40
3.0
 40
3.0
 40
3.0
 40
3.0
 10
241.0035619664923
 20
293.5620129999443
 30
0.0
 10
241.0035619664923
 20
293.5620129999443
 30
0.0
 10
244.6842105263167
 20
294.7368421052633
 30
0.0
 10
246.0105263157902
 20
295.4947368421053
 30
0.0
 10
247.3368421052637
 20
296.2526315789473
 30
0.0
 10
251.031578947368
 20
297.6736842105256
 30
0.0
 10
251.9789473684214
 20
298.9052631578943
 30
0.0
 10
252.9263157894748
 20
300.136842105263
 30
0.0
 10
255.6236376488159
 20
305.2526315789473
 30
0.0
 10
255.6236376488159
 20
305.2526315789473
 30
0.0
  0
SPLINE
  5
7A
330
41
100
AcDbEntity
  8
Wood
 62
   250
420
  2301728
370
    13
100
AcDbSpline
210
0.0
220
0.0
230
1.0
 70
     8
 71
     3
 72
    14
 73
    10
 74
     0
 42
0.0000000001
 43
0.0000000001
 12
1.0
 22
0.0
 32
0.0
 13
1.0
 23
0.0
 33
0.0
 40
0.0
 40
0.0
 40
0.0
 40
0.0
 40
1.0
 40
1.0
 40
1.0
 40
2.0
 40
2.0
 40
2.0
 40
3.0
 40
3.0
 40
3.0
 40
3.0
 10
248.3135998076541
 20
286.8152068219551
 30
0.0
 10
248.3135998076541
 20
286.8152068219551
 30
0.0
 10
250.1789473684212
 20
287.2526315789473
 30
0.0
 10
251.0315789473689
 20
288.0105263157893
 30
0.0
 10
251.8842105263166
 20
288.7684210526313
 30
0.0
 10
252.5473684210538
 20
289.9530668613788
 30
0.0
 10
253.1157894736853
 20
290.3081123780576
 30
0.0
 10
253.6842105263167
 20
290.6631578947363
 30
0.0
 10
255.6236376488159
 20
295.1157894736843
 30
0.0
 10
255.6236376488159
 20
295.1157894736843
 30
0.0
  0
SPLINE
  5
7B
330
41
100
AcDbEntity
  8
Wood
 62
   250
420
  2301728
370
    13
100
AcDbSpline
210
0.0
220
0.0
230
1.0
 70
     8
 71
     3
 72
    11
 73
     7
 74
     0
 42
0.0000000001
 43
0.0000000001
 12
1.0
 22
0.0
 32
0.0
 13
1.0
 23
0.0
 33
0.0
 40
0.0
 40
0.0
 40
0.0
 40
0.0
 40
1.0
 40
1.0
 40
1.0
 40
2.0
 40
2.0
 40
2.0
 40
2.0
 10
231.5439660382472
 20
274.7473684210527
 30
0.0
 10
231.5439660382472
 20
274.8421052631584
 30
0.0
 10
233.4105263157908
 20
275.78947368421
 30
0.0
 10
233.8842105263166
 20
276.1684210526309
 30
0.0
 10
234.3578947368424
 20
276.5473684210519
 30
0.0
 10
236.3287355560751
 20
279.5648272456456
 30
0.0
 10
236.3287355560751
 20
279.5648272456456
 30
0.0
  0
SPLINE
  5
7C
330
41
100
AcDbEntity
  8
Wood
 62
   250
420
  2301728
370
    13
100
AcDbSpline
210
0.0
220
0.0
230
1.0
 70
     8
 71
     3
 72
    14
 73
    10
 74
     0
 42
0.0000000001
 43
0.0000000001
 12
1.0
 22
0.0
 32
0.0
 13
1.0
 23
0.0
 33
0.0
 40
0.0
 40
0.0
 40
0.0
 40
0.0
 40
1.0
 40
1.0
 40
1.0
 40
2.0
 40
2.0
 40
2.0
 40
3.0
 40
3.0
 40
3.0
 40
3.0
 10
231.5439660382472
 20
266.1263157894737
 30
0.0
 10
231.5439660382472
 20
266.2210526315794
 30
0.0
 10
236.3287355560751
 20
269.6315789473683
 30
0.0
 10
236.3287355560751
 20
269.6315789473683
 30
0.0
 10
236.3287355560751
 20
269.6315789473683
 30
0.0
 10
239.6631578947372
 20
273.2315789473687
 30
0.0
 10
239.6631578947372
 20
273.2315789473687
 30
0.0
 10
239.6631578947372
 20
273.2315789473687
 30
0.0
 10
240.5532773726118
 20
275.4490044536087
 30
0.0
 10
240.5532773726118
 20
275.4490044536087
 30
0.0
  0
SPLINE
  5
7D
330
41
100
AcDbEntity
  8
Wood
 62
   250
420
  2301728
370
    13
100
AcDbSpline
210
0.0
220
0.0
230
1.0
 70
     8
 71
     3
 72
    14
 73
    10
 74
     0
 42
0.0000000001
 43
0.0000000001
 12
1.0
 22
0.0
 32
0.0
 13
1.0
 23
0.0
 33
0.0
 40
0.0
 40
0.0
 40
0.0
 40
0.0
 40
1.0
 40
1.0
 40
1.0
 40
2.0
 40
2.0
 40
2.0
 40
3.0
 40
3.0
 40
3.0
 40
3.0
 10
231.5439660382472
 20
257.3157894736833
 30
0.0
 10
231.5439660382472
 20
257.410526315789
 30
0.0
 10
238.8105263157904
 20
261.2947368421046
 30
0.0
 10
238.8105263157904
 20
261.2947368421046
 30
0.0
 10
238.8105263157904
 20
261.2947368421046
 30
0.0
 10
243.0736842105262
 20
266.1263157894737
 30
0.0
 10
243.0736842105262
 20
266.1263157894737
 30
0.0
 10
243.0736842105262
 20
266.1263157894737
 30
0.0
 10
245.7361229740736
 20
270.3995399245559
 30
0.0
 10
245.7361229740736
 20
270.3995399245559
 30
0.0
  0
SPLINE
  5
7E
330
41
100
AcDbEntity
  8
Wood
 62
   250
420
  2301728
370
    13
100
AcDbSpline
210
0.0
220
0.0
230
1.0
 70
     8
 71
     3
 72
    17
 73
    13
 74
     0
 42
0.0000000001
 43
0.0000000001
 12
1.0
 22
0.0
 32
0.0
 13
1.0
 23
0.0
 33
0.0
 40
0.0
 40
0.0
 40
0.0
 40
0.0
 40
1.0
 40
1.0
 40
1.0
 40
2.0
 40
2.0
 40
2.0
 40
3.0
 40
3.0
 40
3.0
 40
4.0
 40
4.0
 40
4.0
 40
4.0
 10
232.6775104012186
 20
248.5348453804472
 30
0.0
 10
232.8097266972618
 20
248.3930846166713
 30
0.0
 10
241.8421052631584
 20
252.0105263157893
 30
0.0
 10
241.8421052631584
 20
252.0105263157893
 30
0.0
 10
241.8421052631584
 20
252.0105263157893
 30
0.0
 10
246.5789473684217
 20
256.4631578947374
 30
0.0
 10
246.5789473684217
 20
256.4631578947374
 30
0.0
 10
246.5789473684217
 20
256.4631578947374
 30
0.0
 10
251.3157894736842
 20
260.2526315789473
 30
0.0
 10
251.3157894736842
 20
260.2526315789473
 30
0.0
 10
251.3157894736842
 20
260.2526315789473
 30
0.0
 10
254.4816595469974
 20
264.7070117384501
 30
0.0
 10
254.4816595469974
 20
264.7070117384501
 30
0.0
  0
POLYLINE
  5
7F
330
41
100
AcDbEntity
  8
Wood
 62
   250
420
  2301728
370
    13
100
AcDb2dPolyline
 66
     1
 10
0.0
 20
0.0
 30
0.0
  0
VERTEX
  5
80
330
7F
100
AcDbEntity
  8
Wood
 62
   250
420
  2301728
370
    13
100
AcDbVertex
100
AcDb2dVertex
 10
241.0035619664923
 20
239.6077504272362
 30
0.0
  0
VERTEX
  5
81
330
7F
100
AcDbEntity
  8
Wood
 62
   250
420
  2301728
370
    13
100
AcDbVertex
100
AcDb2dVertex
 10
248.3135998076541
 20
243.5789473684217
 30
0.0
  0
VERTEX
  5
82
330
7F
100
AcDbEntity
  8
Wood
 62
   250
420
  2301728
370
    13
100
AcDbVertex
100
AcDb2dVertex
 10
251.968618728235
 20
246.8947368421068
 30
0.0
  0
VERTEX
  5
83
330
7F
100
AcDbEntity
  8
Wood
 62
   250
420
  2301728
370
    13
100
AcDbVertex
100
AcDb2dVertex
 10
255.6236376488159
 20
254.4736842105267
 30
0.0
  0
SEQEND
  5
84
330
7F
100
AcDbEntity
  8
Wood
 62
   250
420
  2301728
370
    13
  0
SPLINE
  5
85
330
41
100
AcDbEntity
  8
Wood
 62
   250
420
  2301728
370
    13
100
AcDbSpline
210
0.0
220
0.0
230
1.0
 70
     8
 71
     3
 72
    14
 73
    10
 74
     0
 42
0.0000000001
 43
0.0000000001
 12
1.0
 22
0.0
 32
0.0
 13
1.0
 23
0.0
 33
0.0
 40
0.0
 40
0.0
 40
0.0
 40
0.0
 40
1.0
 40
1.0
 40
1.0
 40
2.0
 40
2.0
 40
2.0
 40
3.0
 40
3.0
 40
3.0
 40
3.0
 10
248.3135998076541
 20
231.7700134869792
 30
0.0
 10
248.4046174330206
 20
231.6724254552828
 30
0.0
 10
250.3684210526308
 20
232.968421052632
 30
0.0
 10
251.3157894736842
 20
234.3894736842121
 30
0.0
 10
252.2631578947376
 20
235.8105263157922
 30
0.0
 10
254.4816595469974
 20
238.3684210526335
 30
0.0
 10
254.4816595469974
 20
238.3684210526335
 30
0.0
 10
254.4816595469974
 20
238.3684210526335
 30
0.0
 10
255.6236376488159
 20
241.5894736842129
 30
0.0
 10
255.6236376488159
 20
241.5894736842129
 30
0.0
  0
POLYLINE
  5
86
330
41
100
AcDbEntity
  8
Wood
 62
   250
420
  2301728
370
    13
100
AcDb2dPolyline
 66
     1
 10
0.0
 20
0.0
 30
0.0
  0
VERTEX
  5
87
330
86
100
AcDbEntity
  8
Wood
 62
   250
420
  2301728
370
    13
100
AcDbVertex
100
AcDb2dVertex
 10
230.526844401722
 20
294.1452718306919
 30
0.0
  0
VERTEX
  5
88
330
86
100
AcDbEntity
  8
Wood
 62
   250
420
  2301728
370
    13
100
AcDbVertex
100
AcDb2dVertex
 10
234.3578947368424
 20
293.5620129999443
 30
0.0
  0
VERTEX
  5
89
330
86
100
AcDbEntity
  8
Wood
 62
   250
420
  2301728
370
    13
100
AcDbVertex
100
AcDb2dVertex
 10
239.9421150100652
 20
294.5416764488673
 30
0.0
  0
SEQEND
  5
8A
330
86
100
AcDbEntity
  8
Wood
 62
   250
420
  2301728
370
    13
  0
SPLINE
  5
8B
330
41
100
AcDbEntity
  8
Wood
 62
   250
420
  2301728
370
    13
100
AcDbSpline
210
0.0
220
0.0
230
1.0
 70
     8
 71
     3
 72
    14
 73
    10
 74
     0
 42
0.0000000001
 43
0.0000000001
 12
1.0
 22
0.0
 32
0.0
 13
1.0
 23
0.0
 33
0.0
 40
0.0
 40
0.0
 40
0.0
 40
0.0
 40
1.0
 40
1.0
 40
1.0
 40
2.0
 40
2.0
 40
2.0
 40
3.0
 40
3.0
 40
3.0
 40
3.0
 10
226.3020154769629
 20
289.3335086371826
 30
0.0
 10
226.3020154769629
 20
289.3335086371826
 30
0.0
 10
234.5473684210529
 20
288.2947368421064
 30
0.0
 10
234.5473684210529
 20
288.2947368421064
 30
0.0
 10
234.5473684210529
 20
288.2947368421064
 30
0.0
 10
239.1894736842114
 20
287.6315789473683
 30
0.0
 10
241.4631578947374
 20
287.6315789473683
 30
0.0
 10
243.7368421052633
 20
287.6315789473683
 30
0.0
 10
246.5070714999683
 20
288.4825437922755
 30
0.0
 10
246.5070714999683
 20
288.4825437922755
 30
0.0
  0
SPLINE
  5
8C
330
41
100
AcDbEntity
  8
Wood
 62
   250
420
  2301728
370
    13
100
AcDbSpline
210
0.0
220
0.0
230
1.0
 70
     8
 71
     3
 72
    14
 73
    10
 74
     0
 42
0.0000000001
 43
0.0000000001
 12
1.0
 22
0.0
 32
0.0
 13
1.0
 23
0.0
 33
0.0
 40
0.0
 40
0.0
 40
0.0
 40
0.0
 40
1.0
 40
1.0
 40
1.0
 40
2.0
 40
2.0
 40
2.0
 40
3.0
 40
3.0
 40
3.0
 40
3.0
 10
232.519624647096
 20
283.264469521986
 30
0.0
 10
232.519624647096
 20
283.264469521986
 30
0.0
 10
238.6865126721696
 20
282.5158056301352
 30
0.0
 10
238.6865126721696
 20
282.5158056301352
 30
0.0
 10
238.6865126721696
 20
282.5158056301352
 30
0.0
 10
244.086512672171
 20
281.8526477354008
 30
0.0
 10
246.6444074090132
 20
281.9473845775046
 30
0.0
 10
249.2023021458554
 20
282.0421214196085
 30
0.0
 10
252.1868589558117
 20
283.264469521986
 30
0.0
 10
252.1868589558117
 20
283.264469521986
 30
0.0
  0
SPLINE
  5
8D
330
41
100
AcDbEntity
  8
Wood
 62
   250
420
  2301728
370
    13
100
AcDbSpline
210
0.0
220
0.0
230
1.0
 70
     8
 71
     3
 72
    14
 73
    10
 74
     0
 42
0.0000000001
 43
0.0000000001
 12
1.0
 22
0.0
 32
0.0
 13
1.0
 23
0.0
 33
0.0
 40
0.0
 40
0.0
 40
0.0
 40
0.0
 40
1.0
 40
1.0
 40
1.0
 40
2.0
 40
2.0
 40
2.0
 40
3.0
 40
3.0
 40
3.0
 40
3.0
 10
238.6400445061608
 20
277.2991743390721
 30
0.0
 10
238.7858539049503
 20
277.1571173603752
 30
0.0
 10
244.0906138036216
 20
277.0850457700017
 30
0.0
 10
244.0906138036216
 20
277.0850457700017
 30
0.0
 10
244.0906138036216
 20
277.0850457700017
 30
0.0
 10
246.6094660356794
 20
276.9145399200406
 30
0.0
 10
249.0726239304167
 20
276.9145399200406
 30
0.0
 10
251.5357818251541
 20
276.9145399200406
 30
0.0
 10
258.3609270926527
 20
278.7684359237064
 30
0.0
 10
258.3609270926527
 20
278.7684359237064
 30
0.0
  0
SPLINE
  5
8E
330
41
100
AcDbEntity
  8
Wood
 62
   250
420
  2301728
370
    13
100
AcDbSpline
210
0.0
220
0.0
230
1.0
 70
     8
 71
     3
 72
    14
 73
    10
 74
     0
 42
0.0000000001
 43
0.0000000001
 12
1.0
 22
0.0
 32
0.0
 13
1.0
 23
0.0
 33
0.0
 40
0.0
 40
0.0
 40
0.0
 40
0.0
 40
1.0
 40
1.0
 40
1.0
 40
2.0
 40
2.0
 40
2.0
 40
3.0
 40
3.0
 40
3.0
 40
3.0
 10
244.0076739024544
 20
272.0835071789443
 30
0.0
 10
244.0076739024544
 20
272.0835071789443
 30
0.0
 10
244.8736842105272
 20
272.2617511999924
 30
0.0
 10
246.9578947368427
 20
272.0835071789443
 30
0.0
 10
249.0421052631582
 20
271.9052631578961
 30
0.0
 10
250.7473684210527
 20
272.2617511999924
 30
0.0
 10
251.6000000000004
 20
272.0835071789443
 30
0.0
 10
252.4526315789481
 20
271.9052631578961
 30
0.0
 10
256.7411554753671
 20
272.9115775877817
 30
0.0
 10
256.7411554753671
 20
272.9115775877817
 30
0.0
  0
ENDBLK
  5
44
330
41
100
AcDbEntity
  8
0
100
AcDbBlockEnd
  0
BLOCK
  5
91
330
8F
100
AcDbEntity
  8
0
100
AcDbBlockBegin
  2
block 3
 70
     0
 10
0.0
 20
0.0
 30
0.0
  3
block 3
  1

  0
SPLINE
  5
93
330
8F
100
AcDbEntity
  8
0
 62
     7
420
 16776959
370
    25
100
AcDbSpline
210
0.0
220
0.0
230
1.0
 70
    11
 71
     3
 72
    68
 73
    64
 74
     0
 42
0.0000000001
 43
0.0000000001
 12
1.0
 22
0.0
 32
0.0
 13
1.0
 23
0.0
 33
0.0
 40
0.0
 40
0.0
 40
0.0
 40
0.0
 40
1.0
 40
1.0
 40
1.0
 40
2.0
 40
2.0
 40
2.0
 40
3.0
 40
3.0
 40
3.0
 40
4.0
 40
4.0
 40
4.0
 40
5.0
 40
5.0
 40
5.0
 40
6.0
 40
6.0
 40
6.0
 40
7.0
 40
7.0
 40
7.0
 40
8.0
 40
8.0
 40
8.0
 40
9.0
 40
9.0
 40
9.0
 40
10.0
 40
10.0
 40
10.0
 40
11.0
 40
11.0
 40
11.0
 40
12.0
 40
12.0
 40
12.0
 40
13.0
 40
13.0
 40
13.0
 40
14.0
 40
14.0
 40
14.0
 40
15.0
 40
15.0
 40
15.0
 40
16.0
 40
16.0
 40
16.0
 40
17.0
 40
17.0
 40
17.0
 40
18.0
 40
18.0
 40
18.0
 40
19.0
 40
19.0
 40
19.0
 40
20.0
 40
20.0
 40
20.0
 40
21.0
 40
21.0
 40
21.0
 40
21.0
 10
320.4195496067414
 20
238.5049181088507
 30
0.0
 10
320.4195496067414
 20
238.5049181088507
 30
0.0
 10
561.0506655877762
 20
270.3351790905072
 30
0.0
 10
561.0506655877762
 20
270.3351790905072
 30
0.0
 10
561.821353381154
 20
270.4685385033736
 30
0.0
 10
562.4934288398254
 20
270.875443338482
 30
0.0
 10
562.9738537538105
 20
271.4965528347457
 30
0.0
 10
562.9738537538105
 20
271.4965528347457
 30
0.0
 10
572.2213821889418
 20
283.2529349639372
 30
0.0
 10
572.2213821889418
 20
283.2529349639372
 30
0.0
 10
572.7270870856482
 20
283.9121141569722
 30
0.0
 10
573.0015691072022
 20
284.7048554564753
 30
0.0
 10
573.0117412372601
 20
285.5356033577009
 30
0.0
 10
573.0117412372601
 20
285.5356033577009
 30
0.0
 10
573.0117412372601
 20
332.3412301823846
 30
0.0
 10
573.0117412372601
 20
332.3412301823846
 30
0.0
 10
573.017020365156
 20
333.1233738230694
 30
0.0
 10
572.7414775873185
 20
333.8562085881531
 30
0.0
 10
572.2213821889418
 20
334.4365895579649
 30
0.0
 10
572.2213821889418
 20
334.4365895579649
 30
0.0
 10
562.9738537538105
 20
344.0013785428464
 30
0.0
 10
562.9738537538105
 20
344.0013785428464
 30
0.0
 10
562.6814373522029
 20
344.2949113413833
 30
0.0
 10
562.337809581848
 20
344.5019059647439
 30
0.0
 10
561.9624298989711
 20
344.6151541130748
 30
0.0
 10
561.962346946988
 20
344.6148684140844
 30
0.0
 10
560.2138106628372
 20
345.1826222170248
 30
0.0
 10
560.2138106628372
 20
345.1826222170248
 30
0.0
 10
559.8617591892908
 20
345.3273104783229
 30
0.0
 10
559.0816118480507
 20
345.2467848901397
 30
0.0
 10
558.7029690873933
 20
345.2093594889129
 30
0.0
 10
558.7029690873933
 20
345.2093594889129
 30
0.0
 10
558.6907385111444
 20
345.2081129348526
 30
0.0
 10
558.6907385111444
 20
345.2081129348526
 30
0.0
 10
558.6907385111444
 20
345.2081129348526
 30
0.0
 10
318.4168223156921
 20
320.10392928085
 30
0.0
 10
318.4168223156921
 20
320.10392928085
 30
0.0
 10
317.5248263518715
 20
319.9859489750379
 30
0.0
 10
316.7285236201606
 20
319.5574613466224
 30
0.0
 10
316.1356544951668
 20
318.8781626735772
 30
0.0
 10
316.1356544951668
 20
318.8781626735772
 30
0.0
 10
305.0711971590208
 20
306.1648380627821
 30
0.0
 10
305.0711971590208
 20
306.1648380627821
 30
0.0
 10
304.4685166580393
 20
305.4622495061667
 30
0.0
 10
304.1362199610849
 20
304.5922272300904
 30
0.0
 10
304.1181394209134
 20
303.6676154214774
 30
0.0
 10
304.1181394209134
 20
303.6676154214774
 30
0.0
 10
304.1181394209134
 20
252.3109722070221
 30
0.0
 10
304.1181394209134
 20
252.3109722070221
 30
0.0
 10
304.1174913291688
 20
251.4416909680222
 30
0.0
 10
304.4510257730399
 20
250.6444586237303
 30
0.0
 10
305.0711971590208
 20
250.0391153111195
 30
0.0
 10
305.0711971590208
 20
250.0391153111195
 30
0.0
 10
315.4754168228983
 20
240.544663632194
 30
0.0
 10
315.4754168228983
 20
240.544663632194
 30
0.0
 10
315.9726605934711
 20
240.0908999569874
 30
0.0
 10
316.5312647770425
 20
239.706728631947
 30
0.0
 10
317.1421062555701
 20
239.4238407947723
 30
0.0
 10
317.571640221212
 20
239.2249185885939
 30
0.0
 10
318.1265742475289
 20
238.991130244347
 30
0.0
 10
318.7832044306942
 20
238.7643974473522
 30
0.0
 10
319.2840656017725
 20
238.5223360453456
 30
0.0
 10
319.8429020103922
 20
238.4320153222088
 30
0.0
 10
320.4195496067414
 20
238.5049181088507
 30
0.0
  0
HATCH
  5
94
330
8F
100
AcDbEntity
  8
0
 62
   250
420
  2301728
100
AcDbHatch
 10
0.0
 20
0.0
 30
0.0
210
0.0
220
0.0
230
1.0
  2
SOLID
 70
     1
 71
     0
 91
        1
 92
        1
 93
        1
 72
     4
 94
        3
 73
     0
 74
     1
 95
       68
 96
       64
 40
0.0
 40
0.0
 40
0.0
 40
0.0
 40
1.0
 40
1.0
 40
1.0
 40
2.0
 40
2.0
 40
2.0
 40
3.0
 40
3.0
 40
3.0
 40
4.0
 40
4.0
 40
4.0
 40
5.0
 40
5.0
 40
5.0
 40
6.0
 40
6.0
 40
6.0
 40
7.0
 40
7.0
 40
7.0
 40
8.0
 40
8.0
 40
8.0
 40
9.0
 40
9.0
 40
9.0
 40
10.0
 40
10.0
 40
10.0
 40
11.0
 40
11.0
 40
11.0
 40
12.0
 40
12.0
 40
12.0
 40
13.0
 40
13.0
 40
13.0
 40
14.0
 40
14.0
 40
14.0
 40
15.0
 40
15.0
 40
15.0
 40
16.0
 40
16.0
 40
16.0
 40
17.0
 40
17.0
 40
17.0
 40
18.0
 40
18.0
 40
18.0
 40
19.0
 40
19.0
 40
19.0
 40
20.0
 40
20.0
 40
20.0
 40
21.0
 40
21.0
 40
21.0
 40
21.0
 10
320.4195496067414
 20
238.5049181088507
 10
320.4195496067414
 20
238.5049181088507
 10
561.0506655877762
 20
270.3351790905072
 10
561.0506655877762
 20
270.3351790905072
 10
561.821353381154
 20
270.4685385033736
 10
562.4934288398254
 20
270.875443338482
 10
562.9738537538105
 20
271.4965528347457
 10
562.9738537538105
 20
271.4965528347457
 10
572.2213821889418
 20
283.2529349639372
 10
572.2213821889418
 20
283.2529349639372
 10
572.7270870856482
 20
283.9121141569722
 10
573.0015691072022
 20
284.7048554564753
 10
573.0117412372601
 20
285.5356033577009
 10
573.0117412372601
 20
285.5356033577009
 10
573.0117412372601
 20
332.3412301823846
 10
573.0117412372601
 20
332.3412301823846
 10
573.017020365156
 20
333.1233738230694
 10
572.7414775873185
 20
333.8562085881531
 10
572.2213821889418
 20
334.4365895579649
 10
572.2213821889418
 20
334.4365895579649
 10
562.9738537538105
 20
344.0013785428464
 10
562.9738537538105
 20
344.0013785428464
 10
562.6814373522029
 20
344.2949113413833
 10
562.337809581848
 20
344.5019059647439
 10
561.9624298989711
 20
344.6151541130748
 10
561.962346946988
 20
344.6148684140844
 10
560.2138106628372
 20
345.1826222170248
 10
560.2138106628372
 20
345.1826222170248
 10
559.8617591892908
 20
345.3273104783229
 10
559.0816118480507
 20
345.2467848901397
 10
558.7029690873933
 20
345.2093594889129
 10
558.7029690873933
 20
345.2093594889129
 10
558.6907385111444
 20
345.2081129348526
 10
558.6907385111444
 20
345.2081129348526
 10
558.6907385111444
 20
345.2081129348526
 10
318.4168223156921
 20
320.10392928085
 10
318.4168223156921
 20
320.10392928085
 10
317.5248263518715
 20
319.9859489750379
 10
316.7285236201606
 20
319.5574613466224
 10
316.1356544951668
 20
318.8781626735772
 10
316.1356544951668
 20
318.8781626735772
 10
305.0711971590208
 20
306.1648380627821
 10
305.0711971590208
 20
306.1648380627821
 10
304.4685166580393
 20
305.4622495061667
 10
304.1362199610849
 20
304.5922272300904
 10
304.1181394209134
 20
303.6676154214774
 10
304.1181394209134
 20
303.6676154214774
 10
304.1181394209134
 20
252.3109722070221
 10
304.1181394209134
 20
252.3109722070221
 10
304.1174913291688
 20
251.4416909680222
 10
304.4510257730399
 20
250.6444586237303
 10
305.0711971590208
 20
250.0391153111195
 10
305.0711971590208
 20
250.0391153111195
 10
315.4754168228983
 20
240.544663632194
 10
315.4754168228983
 20
240.544663632194
 10
315.9726605934711
 20
240.0908999569874
 10
316.5312647770425
 20
239.706728631947
 10
317.1421062555701
 20
239.4238407947723
 10
317.571640221212
 20
239.2249185885939
 10
318.1265742475289
 20
238.991130244347
 10
318.7832044306942
 20
238.7643974473522
 10
319.2840656017725
 20
238.5223360453456
 10
319.8429020103922
 20
238.4320153222088
 10
320.4195496067414
 20
238.5049181088507
 97
        0
 97
        0
 75
     2
 76
     1
 98
        0
  0
SPLINE
  5
95
330
8F
100
AcDbEntity
  8
0
 62
     7
420
 16776959
370
    18
100
AcDbSpline
210
0.0
220
0.0
230
1.0
 70
     8
 71
     3
 72
    32
 73
    28
 74
     0
 42
0.0000000001
 43
0.0000000001
 12
1.0
 22
0.0
 32
0.0
 13
1.0
 23
0.0
 33
0.0
 40
0.0
 40
0.0
 40
0.0
 40
0.0
 40
1.0
 40
1.0
 40
1.0
 40
2.0
 40
2.0
 40
2.0
 40
3.0
 40
3.0
 40
3.0
 40
4.0
 40
4.0
 40
4.0
 40
5.0
 40
5.0
 40
5.0
 40
6.0
 40
6.0
 40
6.0
 40
7.0
 40
7.0
 40
7.0
 40
8.0
 40
8.0
 40
8.0
 40
9.0
 40
9.0
 40
9.0
 40
9.0
 10
318.7832044306942
 20
238.7643974473522
 30
0.0
 10
318.5535297318411
 20
238.8753970273156
 30
0.0
 10
318.3360458866691
 20
239.018304168023
 30
0.0
 10
318.1346256933975
 20
239.192011643303
 30
0.0
 10
318.1346256933975
 20
239.192011643303
 30
0.0
 10
307.0518526226078
 20
249.3057718210293
 30
0.0
 10
307.0518526226078
 20
249.3057718210293
 30
0.0
 10
306.4306045447902
 20
249.9122585685855
 30
0.0
 10
306.0965133368818
 20
250.7109554656672
 30
0.0
 10
306.0972096712394
 20
251.5818098887903
 30
0.0
 10
306.0972096712394
 20
251.5818098887903
 30
0.0
 10
306.0972096712394
 20
303.038331703734
 30
0.0
 10
306.0972096712394
 20
303.038331703734
 30
0.0
 10
306.1153214395554
 20
303.9647482313212
 30
0.0
 10
306.4481613840398
 20
304.8365212034023
 30
0.0
 10
307.0518526226078
 20
305.5406128116956
 30
0.0
 10
307.0518526226078
 20
305.5406128116956
 30
0.0
 10
318.1346256933975
 20
318.2809050030628
 30
0.0
 10
318.1346256933975
 20
318.2809050030628
 30
0.0
 10
318.7283789702778
 20
318.9615895796651
 30
0.0
 10
319.5259912913825
 20
319.3910751258809
 30
0.0
 10
320.4195496067414
 20
319.5095079385246
 30
0.0
 10
320.4195496067414
 20
319.5095079385246
 30
0.0
 10
561.0506655877762
 20
344.7069714771642
 30
0.0
 10
561.0506655877762
 20
344.7069714771642
 30
0.0
 10
561.3674285018842
 20
344.7337773621957
 30
0.0
 10
561.6742837727797
 20
344.7020848041284
 30
0.0
 10
561.9624298989711
 20
344.6151541130748
 30
0.0
  0
INSERT
  5
97
330
8F
100
AcDbEntity
  8
0
100
AcDbBlockReference
  2
block 4
 10
0.0
 20
0.0
 30
0.0
  0
ENDBLK
  5
92
330
8F
100
AcDbEntity
  8
0
100
AcDbBlockEnd
  0
BLOCK
  5
98
330
96
100
AcDbEntity
  8
0
100
AcDbBlockBegin
  2
block 4
 70
     0
 10
0.0
 20
0.0
 30
0.0
  3
block 4
  1

  0
MTEXT
  5
9A
330
96
100
AcDbEntity
  8
0
 62
     7
420
 16776959
100
AcDbMText
 10
371.651830638817
 20
294.6915591887664
 30
0.0
 40
4.060397946422594
 41
0.0
 46
0.0
 71
     7
 72
     1
  1
\fHelvetica LT Std Condensed|b0|i0|c0|p34;\W1.01908;SIMPSON
 11
-0.00913998351576991
 21
-0.9999582294782775
 31
0.0
 73
     1
 44
1.0
  0
MTEXT
  5
9B
330
96
100
AcDbEntity
  8
0
 62
     7
420
 16776959
100
AcDbMText
 10
365.9255057146074
 20
295.7063613662031
 30
0.0
 40
4.060397946422594
 41
0.0
 46
0.0
 71
     7
 72
     1
  1
\fHelvetica LT Std Condensed|b0|i0|c0|p34;\W1.01908;Strong-Tie\H2.0302;®
 11
-0.00913998351576991
 21
-0.9999582294782775
 31
0.0
 73
     1
 44
1.0
  0
MTEXT
  5
9C
330
96
100
AcDbEntity
  8
0
 62
     7
420
 16776959
100
AcDbMText
 10
444.7971392173349
 20
313.3053502862458
 30
0.0
 40
5.413859694812926
 41
0.0
 46
0.0
 71
     7
 72
     1
  1
\fHelvetica LT Std Condensed|b0|i0|c0|p34;\W1.01908;APVST90300
 11
-0.00913998351576991
 21
-0.9999582294782775
 31
0.0
 73
     1
 44
1.0
  0
ENDBLK
  5
99
330
96
100
AcDbEntity
  8
0
100
AcDbBlockEnd
  0
BLOCK
  5
9F
330
9D
100
AcDbEntity
  8
0
100
AcDbBlockBegin
  2
block 5
 70
     0
 10
0.0
 20
0.0
 30
0.0
  3
block 5
  1

  0
INSERT
  5
A2
330
9D
100
AcDbEntity
  8
0
100
AcDbBlockReference
  2
block 6
 10
0.0
 20
0.0
 30
0.0
  0
INSERT
  5
180
330
9D
100
AcDbEntity
  8
0
100
AcDbBlockReference
  2
block 10
 10
0.0
 20
0.0
 30
0.0
  0
INSERT
  5
25E
330
9D
100
AcDbEntity
  8
0
100
AcDbBlockReference
  2
block 14
 10
0.0
 20
0.0
 30
0.0
  0
INSERT
  5
33C
330
9D
100
AcDbEntity
  8
0
100
AcDbBlockReference
  2
block 18
 10
0.0
 20
0.0
 30
0.0
  0
ENDBLK
  5
A0
330
9D
100
AcDbEntity
  8
0
100
AcDbBlockEnd
  0
BLOCK
  5
A3
330
A1
100
AcDbEntity
  8
0
100
AcDbBlockBegin
  2
block 6
 70
     0
 10
0.0
 20
0.0
 30
0.0
  3
block 6
  1

  0
SPLINE
  5
A5
330
A1
100
AcDbEntity
  8
0
 62
     7
420
 16776959
370
    18
100
AcDbSpline
210
0.0
220
0.0
230
1.0
 70
    11
 71
     3
 72
    23
 73
    19
 74
     0
 42
0.0000000001
 43
0.0000000001
 12
1.0
 22
0.0
 32
0.0
 13
1.0
 23
0.0
 33
0.0
 40
0.0
 40
0.0
 40
0.0
 40
0.0
 40
1.0
 40
1.0
 40
1.0
 40
2.0
 40
2.0
 40
2.0
 40
3.0
 40
3.0
 40
3.0
 40
4.0
 40
4.0
 40
4.0
 40
5.0
 40
5.0
 40
5.0
 40
6.0
 40
6.0
 40
6.0
 40
6.0
 10
353.4613444645738
 20
300.1078322938865
 30
0.0
 10
344.7966213527416
 20
304.2930461719934
 30
0.0
 10
333.7458884156904
 20
300.0534493241994
 30
0.0
 10
328.4378261997108
 20
290.350776398689
 30
0.0
 10
322.9799848129869
 20
280.3743202646037
 30
0.0
 10
325.6602453495461
 20
268.4000127582094
 30
0.0
 10
334.4243556631645
 20
263.6054120157623
 30
0.0
 10
334.4243556631645
 20
263.6054120157623
 30
0.0
 10
336.3429224294541
 20
262.7417819773382
 30
0.0
 10
336.3429224294541
 20
262.7417819773382
 30
0.0
 10
345.0670804274614
 20
258.2118834566754
 30
0.0
 10
356.3903619888042
 20
262.4303096330696
 30
0.0
 10
361.7840985566909
 20
272.2895877717165
 30
0.0
 10
367.2419399434157
 20
282.2660439058018
 30
0.0
 10
364.5616794068555
 20
294.2403514121925
 30
0.0
 10
355.7975690932353
 20
299.0349521546432
 30
0.0
 10
355.7975690932353
 20
299.0349521546432
 30
0.0
 10
353.4613444645738
 20
300.1078322938865
 30
0.0
 10
353.4613444645738
 20
300.1078322938865
 30
0.0
  0
HATCH
  5
A6
330
A1
100
AcDbEntity
  8
0
 62
   250
420
  2301728
100
AcDbHatch
 10
0.0
 20
0.0
 30
0.0
210
0.0
220
0.0
230
1.0
  2
SOLID
 70
     1
 71
     0
 91
        1
 92
        1
 93
        1
 72
     4
 94
        3
 73
     0
 74
     1
 95
       23
 96
       19
 40
0.0
 40
0.0
 40
0.0
 40
0.0
 40
1.0
 40
1.0
 40
1.0
 40
2.0
 40
2.0
 40
2.0
 40
3.0
 40
3.0
 40
3.0
 40
4.0
 40
4.0
 40
4.0
 40
5.0
 40
5.0
 40
5.0
 40
6.0
 40
6.0
 40
6.0
 40
6.0
 10
353.4613444645738
 20
300.1078322938865
 10
344.7966213527416
 20
304.2930461719934
 10
333.7458884156904
 20
300.0534493241994
 10
328.4378261997108
 20
290.350776398689
 10
322.9799848129869
 20
280.3743202646037
 10
325.6602453495461
 20
268.4000127582094
 10
334.4243556631645
 20
263.6054120157623
 10
334.4243556631645
 20
263.6054120157623
 10
336.3429224294541
 20
262.7417819773382
 10
336.3429224294541
 20
262.7417819773382
 10
345.0670804274614
 20
258.2118834566754
 10
356.3903619888042
 20
262.4303096330696
 10
361.7840985566909
 20
272.2895877717165
 10
367.2419399434157
 20
282.2660439058018
 10
364.5616794068555
 20
294.2403514121925
 10
355.7975690932353
 20
299.0349521546432
 10
355.7975690932353
 20
299.0349521546432
 10
353.4613444645738
 20
300.1078322938865
 10
353.4613444645738
 20
300.1078322938865
 97
        0
 97
        0
 75
     2
 76
     1
 98
        0
  0
SPLINE
  5
A7
330
A1
100
AcDbEntity
  8
0
 62
     7
420
 16776959
370
    13
100
AcDbSpline
210
0.0
220
0.0
230
1.0
 70
    11
 71
     3
 72
    59
 73
    55
 74
     0
 42
0.0000000001
 43
0.0000000001
 12
1.0
 22
0.0
 32
0.0
 13
1.0
 23
0.0
 33
0.0
 40
0.0
 40
0.0
 40
0.0
 40
0.0
 40
1.0
 40
1.0
 40
1.0
 40
2.0
 40
2.0
 40
2.0
 40
3.0
 40
3.0
 40
3.0
 40
4.0
 40
4.0
 40
4.0
 40
5.0
 40
5.0
 40
5.0
 40
6.0
 40
6.0
 40
6.0
 40
7.0
 40
7.0
 40
7.0
 40
8.0
 40
8.0
 40
8.0
 40
9.0
 40
9.0
 40
9.0
 40
10.0
 40
10.0
 40
10.0
 40
11.0
 40
11.0
 40
11.0
 40
12.0
 40
12.0
 40
12.0
 40
13.0
 40
13.0
 40
13.0
 40
14.0
 40
14.0
 40
14.0
 40
15.0
 40
15.0
 40
15.0
 40
16.0
 40
16.0
 40
16.0
 40
17.0
 40
17.0
 40
17.0
 40
18.0
 40
18.0
 40
18.0
 40
18.0
 10
340.3521963853782
 20
264.2719105907163
 30
0.0
 10
340.3521963853782
 20
264.2719105907163
 30
0.0
 10
339.1035318537943
 20
264.1166345093225
 30
0.0
 10
339.1035318537943
 20
264.1166345093225
 30
0.0
 10
337.9477077885722
 20
264.0084111299038
 30
0.0
 10
336.9622752406394
 20
264.4835122527547
 30
0.0
 10
336.3311131086884
 20
265.4557779686002
 30
0.0
 10
336.3311131086884
 20
265.4557779686002
 30
0.0
 10
329.3769794828586
 20
277.254340268606
 30
0.0
 10
329.3769794828586
 20
277.254340268606
 30
0.0
 10
328.8193903790207
 20
278.340797423074
 30
0.0
 10
328.8217906708987
 20
279.5353723146927
 30
0.0
 10
329.3769794828586
 20
280.6301611495182
 30
0.0
 10
329.3769794828586
 20
280.6301611495182
 30
0.0
 10
336.3311131086884
 20
294.0821467804453
 30
0.0
 10
336.3311131086884
 20
294.0821467804453
 30
0.0
 10
336.9113809978417
 20
295.1718505748322
 30
0.0
 10
337.8902433910389
 20
295.8795430812042
 30
0.0
 10
339.1035318537943
 20
296.0804639172566
 30
0.0
 10
339.1035318537943
 20
296.0804639172566
 30
0.0
 10
352.8871061364989
 20
297.643624668548
 30
0.0
 10
352.8871061364989
 20
297.643624668548
 30
0.0
 10
354.0355790301146
 20
297.7359659081949
 30
0.0
 10
355.0096212172484
 20
297.2525348280888
 30
0.0
 10
355.6282207838995
 20
296.2817009767787
 30
0.0
 10
355.6282207838995
 20
296.2817009767787
 30
0.0
 10
362.45843905519
 20
284.5438465465959
 30
0.0
 10
362.45843905519
 20
284.5438465465959
 30
0.0
 10
362.45843905519
 20
284.5438465465959
 30
0.0
 10
362.4636616728094
 20
284.5348344078957
 30
0.0
 10
362.4636616728094
 20
284.5348344078957
 30
0.0
 10
362.6292028072257
 20
284.2451602279289
 30
0.0
 10
362.7456527412423
 20
283.931068742173
 30
0.0
 10
362.8126065358047
 20
283.6043121723123
 30
0.0
 10
362.8126065358047
 20
283.6043121723123
 30
0.0
 10
364.1176074580289
 20
281.3617934201247
 30
0.0
 10
364.1176074580289
 20
281.3617934201247
 30
0.0
 10
364.4094833107074
 20
280.8168708022349
 30
0.0
 10
364.4225681050384
 20
280.2134985765297
 30
0.0
 10
364.1552617538036
 20
279.6554352116073
 30
0.0
 10
364.1552617538036
 20
279.6554352116073
 30
0.0
 10
357.2802422937684
 20
266.1944105564289
 30
0.0
 10
357.2802422937684
 20
266.1944105564289
 30
0.0
 10
357.0021026203731
 20
265.6750218963643
 30
0.0
 10
356.5333993371014
 20
265.3398347642378
 30
0.0
 10
355.9526789717784
 20
265.2462603482563
 30
0.0
 10
355.9526789717784
 20
265.2462603482563
 30
0.0
 10
342.0940577483743
 20
263.5182797811394
 30
0.0
 10
342.0940577483743
 20
263.5182797811394
 30
0.0
 10
341.6558630118334
 20
263.4690580587412
 30
0.0
 10
341.2334233444499
 20
263.5868451895403
 30
0.0
 10
340.8818494147235
 20
263.8547823290064
 30
0.0
 10
340.8818494147235
 20
263.8547823290064
 30
0.0
 10
340.3521963853782
 20
264.2719105907163
 30
0.0
 10
340.3521963853782
 20
264.2719105907163
 30
0.0
  0
HATCH
  5
A8
330
A1
100
AcDbEntity
  8
0
 62
   250
420
  2301728
100
AcDbHatch
 10
0.0
 20
0.0
 30
0.0
210
0.0
220
0.0
230
1.0
  2
SOLID
 70
     1
 71
     0
 91
        1
 92
        1
 93
        1
 72
     4
 94
        3
 73
     0
 74
     1
 95
       59
 96
       55
 40
0.0
 40
0.0
 40
0.0
 40
0.0
 40
1.0
 40
1.0
 40
1.0
 40
2.0
 40
2.0
 40
2.0
 40
3.0
 40
3.0
 40
3.0
 40
4.0
 40
4.0
 40
4.0
 40
5.0
 40
5.0
 40
5.0
 40
6.0
 40
6.0
 40
6.0
 40
7.0
 40
7.0
 40
7.0
 40
8.0
 40
8.0
 40
8.0
 40
9.0
 40
9.0
 40
9.0
 40
10.0
 40
10.0
 40
10.0
 40
11.0
 40
11.0
 40
11.0
 40
12.0
 40
12.0
 40
12.0
 40
13.0
 40
13.0
 40
13.0
 40
14.0
 40
14.0
 40
14.0
 40
15.0
 40
15.0
 40
15.0
 40
16.0
 40
16.0
 40
16.0
 40
17.0
 40
17.0
 40
17.0
 40
18.0
 40
18.0
 40
18.0
 40
18.0
 10
340.3521963853782
 20
264.2719105907163
 10
340.3521963853782
 20
264.2719105907163
 10
339.1035318537943
 20
264.1166345093225
 10
339.1035318537943
 20
264.1166345093225
 10
337.9477077885722
 20
264.0084111299038
 10
336.9622752406394
 20
264.4835122527547
 10
336.3311131086884
 20
265.4557779686002
 10
336.3311131086884
 20
265.4557779686002
 10
329.3769794828586
 20
277.254340268606
 10
329.3769794828586
 20
277.254340268606
 10
328.8193903790207
 20
278.340797423074
 10
328.8217906708987
 20
279.5353723146927
 10
329.3769794828586
 20
280.6301611495182
 10
329.3769794828586
 20
280.6301611495182
 10
336.3311131086884
 20
294.0821467804453
 10
336.3311131086884
 20
294.0821467804453
 10
336.9113809978417
 20
295.1718505748322
 10
337.8902433910389
 20
295.8795430812042
 10
339.1035318537943
 20
296.0804639172566
 10
339.1035318537943
 20
296.0804639172566
 10
352.8871061364989
 20
297.643624668548
 10
352.8871061364989
 20
297.643624668548
 10
354.0355790301146
 20
297.7359659081949
 10
355.0096212172484
 20
297.2525348280888
 10
355.6282207838995
 20
296.2817009767787
 10
355.6282207838995
 20
296.2817009767787
 10
362.45843905519
 20
284.5438465465959
 10
362.45843905519
 20
284.5438465465959
 10
362.45843905519
 20
284.5438465465959
 10
362.4636616728094
 20
284.5348344078957
 10
362.4636616728094
 20
284.5348344078957
 10
362.6292028072257
 20
284.2451602279289
 10
362.7456527412423
 20
283.931068742173
 10
362.8126065358047
 20
283.6043121723123
 10
362.8126065358047
 20
283.6043121723123
 10
364.1176074580289
 20
281.3617934201247
 10
364.1176074580289
 20
281.3617934201247
 10
364.4094833107074
 20
280.8168708022349
 10
364.4225681050384
 20
280.2134985765297
 10
364.1552617538036
 20
279.6554352116073
 10
364.1552617538036
 20
279.6554352116073
 10
357.2802422937684
 20
266.1944105564289
 10
357.2802422937684
 20
266.1944105564289
 10
357.0021026203731
 20
265.6750218963643
 10
356.5333993371014
 20
265.3398347642378
 10
355.9526789717784
 20
265.2462603482563
 10
355.9526789717784
 20
265.2462603482563
 10
342.0940577483743
 20
263.5182797811394
 10
342.0940577483743
 20
263.5182797811394
 10
341.6558630118334
 20
263.4690580587412
 10
341.2334233444499
 20
263.5868451895403
 10
340.8818494147235
 20
263.8547823290064
 10
340.8818494147235
 20
263.8547823290064
 10
340.3521963853782
 20
264.2719105907163
 10
340.3521963853782
 20
264.2719105907163
 97
        0
 97
        0
 75
     2
 76
     1
 98
        0
  0
SPLINE
  5
A9
330
A1
100
AcDbEntity
  8
0
 62
     7
420
 16776959
370
     9
100
AcDbSpline
210
0.0
220
0.0
230
1.0
 70
     8
 71
     3
 72
     8
 73
     4
 74
     0
 42
0.0000000001
 43
0.0000000001
 12
1.0
 22
0.0
 32
0.0
 13
1.0
 23
0.0
 33
0.0
 40
0.0
 40
0.0
 40
0.0
 40
0.0
 40
1.0
 40
1.0
 40
1.0
 40
1.0
 10
355.6282207838995
 20
296.2817009767787
 30
0.0
 10
355.1920199643864
 20
296.0101914213865
 30
0.0
 10
354.8684768527746
 20
295.6074852698366
 30
0.0
 10
354.7112673718484
 20
295.1321601320269
 30
0.0
  0
SPLINE
  5
AA
330
A1
100
AcDbEntity
  8
0
 62
     7
420
 16776959
370
     9
100
AcDbSpline
210
0.0
220
0.0
230
1.0
 70
     8
 71
     3
 72
     8
 73
     4
 74
     0
 42
0.0000000001
 43
0.0000000001
 12
1.0
 22
0.0
 32
0.0
 13
1.0
 23
0.0
 33
0.0
 40
0.0
 40
0.0
 40
0.0
 40
0.0
 40
1.0
 40
1.0
 40
1.0
 40
1.0
 10
362.3249955415376
 20
284.4422248356641
 30
0.0
 10
362.3679253517948
 20
284.4761764249215
 30
0.0
 10
362.4113947445612
 20
284.5094230475443
 30
0.0
 10
362.4555659499174
 20
284.5417456847754
 30
0.0
  0
SPLINE
  5
AB
330
A1
100
AcDbEntity
  8
0
 62
     7
420
 16776959
370
     9
100
AcDbSpline
210
0.0
220
0.0
230
1.0
 70
     8
 71
     3
 72
     8
 73
     4
 74
     0
 42
0.0000000001
 43
0.0000000001
 12
1.0
 22
0.0
 32
0.0
 13
1.0
 23
0.0
 33
0.0
 40
0.0
 40
0.0
 40
0.0
 40
0.0
 40
1.0
 40
1.0
 40
1.0
 40
1.0
 10
353.4503091602091
 20
295.5751613073735
 30
0.0
 10
352.9427377611282
 20
295.9428064741769
 30
0.0
 10
352.8527723508641
 20
297.0859266716234
 30
0.0
 10
352.8871061364989
 20
297.643624668548
 30
0.0
  0
SPLINE
  5
AC
330
A1
100
AcDbEntity
  8
0
 62
     7
420
 16776959
370
     9
100
AcDbSpline
210
0.0
220
0.0
230
1.0
 70
     8
 71
     3
 72
     8
 73
     4
 74
     0
 42
0.0000000001
 43
0.0000000001
 12
1.0
 22
0.0
 32
0.0
 13
1.0
 23
0.0
 33
0.0
 40
0.0
 40
0.0
 40
0.0
 40
0.0
 40
1.0
 40
1.0
 40
1.0
 40
1.0
 10
354.4164621353011
 20
295.3381755593509
 30
0.0
 10
354.137566295085
 20
295.531458562964
 30
0.0
 10
353.7977230334154
 20
295.6113831401308
 30
0.0
 10
353.4612491135376
 20
295.5763701097421
 30
0.0
  0
SPLINE
  5
AD
330
A1
100
AcDbEntity
  8
0
 62
     7
420
 16776959
370
     9
100
AcDbSpline
210
0.0
220
0.0
230
1.0
 70
     8
 71
     3
 72
     8
 73
     4
 74
     0
 42
0.0000000001
 43
0.0000000001
 12
1.0
 22
0.0
 32
0.0
 13
1.0
 23
0.0
 33
0.0
 40
0.0
 40
0.0
 40
0.0
 40
0.0
 40
1.0
 40
1.0
 40
1.0
 40
1.0
 10
339.1035318537943
 20
296.0804639172566
 30
0.0
 10
339.059873878401
 20
295.3438483834489
 30
0.0
 10
339.2479694871499
 20
294.6088200804188
 30
0.0
 10
339.6438391228403
 20
294.0071263005375
 30
0.0
  0
POLYLINE
  5
AE
330
A1
100
AcDbEntity
  8
0
 62
     7
420
 16776959
370
     9
100
AcDb2dPolyline
 66
     1
 10
0.0
 20
0.0
 30
0.0
  0
VERTEX
  5
AF
330
AE
100
AcDbEntity
  8
0
 62
     7
420
 16776959
370
     9
100
AcDbVertex
100
AcDb2dVertex
 10
339.6529335787636
 20
294.0003103585841
 30
0.0
  0
VERTEX
  5
B0
330
AE
100
AcDbEntity
  8
0
 62
     7
420
 16776959
370
     9
100
AcDbVertex
100
AcDb2dVertex
 10
353.4503091602091
 20
295.5751613073735
 30
0.0
  0
SEQEND
  5
B1
330
AE
100
AcDbEntity
  8
0
 62
     7
420
 16776959
370
     9
  0
SPLINE
  5
B2
330
A1
100
AcDbEntity
  8
0
 62
     7
420
 16776959
370
     9
100
AcDbSpline
210
0.0
220
0.0
230
1.0
 70
     8
 71
     3
 72
     8
 73
     4
 74
     0
 42
0.0000000001
 43
0.0000000001
 12
1.0
 22
0.0
 32
0.0
 13
1.0
 23
0.0
 33
0.0
 40
0.0
 40
0.0
 40
0.0
 40
0.0
 40
1.0
 40
1.0
 40
1.0
 40
1.0
 10
338.2659860048188
 20
292.9994433880347
 30
0.0
 10
337.6743957593544
 20
293.4275700284397
 30
0.0
 10
336.9872976177594
 20
293.7666556149507
 30
0.0
 10
336.3311131086884
 20
294.0821467804453
 30
0.0
  0
SPLINE
  5
B3
330
A1
100
AcDbEntity
  8
0
 62
     7
420
 16776959
370
     9
100
AcDbSpline
210
0.0
220
0.0
230
1.0
 70
     8
 71
     3
 72
     8
 73
     4
 74
     0
 42
0.0000000001
 43
0.0000000001
 12
1.0
 22
0.0
 32
0.0
 13
1.0
 23
0.0
 33
0.0
 40
0.0
 40
0.0
 40
0.0
 40
0.0
 40
1.0
 40
1.0
 40
1.0
 40
1.0
 10
339.6529335787636
 20
294.0003103585841
 30
0.0
 10
339.0458388898032
 20
293.8993245392339
 30
0.0
 10
338.5561553548614
 20
293.544880210984
 30
0.0
 10
338.2659860048188
 20
292.9994433880347
 30
0.0
  0
SPLINE
  5
B4
330
A1
100
AcDbEntity
  8
0
 62
     7
420
 16776959
370
     9
100
AcDbSpline
210
0.0
220
0.0
230
1.0
 70
     8
 71
     3
 72
     8
 73
     4
 74
     0
 42
0.0000000001
 43
0.0000000001
 12
1.0
 22
0.0
 32
0.0
 13
1.0
 23
0.0
 33
0.0
 40
0.0
 40
0.0
 40
0.0
 40
0.0
 40
1.0
 40
1.0
 40
1.0
 40
1.0
 10
329.3769794828586
 20
280.6301611495182
 30
0.0
 10
330.0472725763784
 20
280.3131030207787
 30
0.0
 10
330.6952865878065
 20
279.9463367802055
 30
0.0
 10
331.3114346374168
 20
279.5351604288735
 30
0.0
  0
POLYLINE
  5
B5
330
A1
100
AcDbEntity
  8
0
 62
     7
420
 16776959
370
     9
100
AcDb2dPolyline
 66
     1
 10
0.0
 20
0.0
 30
0.0
  0
VERTEX
  5
B6
330
B5
100
AcDbEntity
  8
0
 62
     7
420
 16776959
370
     9
100
AcDbVertex
100
AcDb2dVertex
 10
331.3114346374168
 20
279.5351604288735
 30
0.0
  0
VERTEX
  5
B7
330
B5
100
AcDbEntity
  8
0
 62
     7
420
 16776959
370
     9
100
AcDbVertex
100
AcDb2dVertex
 10
338.2659860048188
 20
292.9994433880347
 30
0.0
  0
SEQEND
  5
B8
330
B5
100
AcDbEntity
  8
0
 62
     7
420
 16776959
370
     9
  0
SPLINE
  5
B9
330
A1
100
AcDbEntity
  8
0
 62
     7
420
 16776959
370
     9
100
AcDbSpline
210
0.0
220
0.0
230
1.0
 70
     8
 71
     3
 72
     8
 73
     4
 74
     0
 42
0.0000000001
 43
0.0000000001
 12
1.0
 22
0.0
 32
0.0
 13
1.0
 23
0.0
 33
0.0
 40
0.0
 40
0.0
 40
0.0
 40
0.0
 40
1.0
 40
1.0
 40
1.0
 40
1.0
 10
331.3114346374168
 20
277.8460304218715
 30
0.0
 10
330.825040090549
 20
278.2069561117441
 30
0.0
 10
329.7372623765468
 20
277.5670870046033
 30
0.0
 10
329.3769794828586
 20
277.254340268606
 30
0.0
  0
SPLINE
  5
BA
330
A1
100
AcDbEntity
  8
0
 62
     7
420
 16776959
370
     9
100
AcDbSpline
210
0.0
220
0.0
230
1.0
 70
     8
 71
     3
 72
     8
 73
     4
 74
     0
 42
0.0000000001
 43
0.0000000001
 12
1.0
 22
0.0
 32
0.0
 13
1.0
 23
0.0
 33
0.0
 40
0.0
 40
0.0
 40
0.0
 40
0.0
 40
1.0
 40
1.0
 40
1.0
 40
1.0
 10
331.3114346374168
 20
279.5351604288735
 30
0.0
 10
331.0338370347217
 20
278.9873637847595
 30
0.0
 10
331.0326374786264
 20
278.3896614561982
 30
0.0
 10
331.3114346374168
 20
277.8460304218715
 30
0.0
  0
SPLINE
  5
BB
330
A1
100
AcDbEntity
  8
0
 62
     7
420
 16776959
370
     9
100
AcDbSpline
210
0.0
220
0.0
230
1.0
 70
     8
 71
     3
 72
     8
 73
     4
 74
     0
 42
0.0000000001
 43
0.0000000001
 12
1.0
 22
0.0
 32
0.0
 13
1.0
 23
0.0
 33
0.0
 40
0.0
 40
0.0
 40
0.0
 40
0.0
 40
1.0
 40
1.0
 40
1.0
 40
1.0
 10
339.2483777523448
 20
265.1412229936141
 30
0.0
 10
339.1253787951391
 20
264.8248792019749
 30
0.0
 10
339.0940087736799
 20
264.4542496978065
 30
0.0
 10
339.1035318537906
 20
264.1166345093225
 30
0.0
  0
SPLINE
  5
BC
330
A1
100
AcDbEntity
  8
0
 62
     7
420
 16776959
370
     9
100
AcDbSpline
210
0.0
220
0.0
230
1.0
 70
     8
 71
     3
 72
     8
 73
     4
 74
     0
 42
0.0000000001
 43
0.0000000001
 12
1.0
 22
0.0
 32
0.0
 13
1.0
 23
0.0
 33
0.0
 40
0.0
 40
0.0
 40
0.0
 40
0.0
 40
1.0
 40
1.0
 40
1.0
 40
1.0
 10
338.2659860048188
 20
266.0375581142471
 30
0.0
 10
338.3546029073714
 20
265.8883909074557
 30
0.0
 10
338.4683145608169
 20
265.7564182664719
 30
0.0
 10
338.6043267641035
 20
265.648445371844
 30
0.0
  0
SPLINE
  5
BD
330
A1
100
AcDbEntity
  8
0
 62
     7
420
 16776959
370
     9
100
AcDbSpline
210
0.0
220
0.0
230
1.0
 70
     8
 71
     3
 72
     8
 73
     4
 74
     0
 42
0.0000000001
 43
0.0000000001
 12
1.0
 22
0.0
 32
0.0
 13
1.0
 23
0.0
 33
0.0
 40
0.0
 40
0.0
 40
0.0
 40
0.0
 40
1.0
 40
1.0
 40
1.0
 40
1.0
 10
336.3311131086884
 20
265.4557779686002
 30
0.0
 10
336.8782083278111
 20
265.9319276674269
 30
0.0
 10
337.5760067924457
 20
266.1549730583138
 30
0.0
 10
338.256724975723
 20
266.0445612076401
 30
0.0
  0
POLYLINE
  5
BE
330
A1
100
AcDbEntity
  8
0
 62
     7
420
 16776959
370
     9
100
AcDb2dPolyline
 66
     1
 10
0.0
 20
0.0
 30
0.0
  0
VERTEX
  5
BF
330
BE
100
AcDbEntity
  8
0
 62
     7
420
 16776959
370
     9
100
AcDbVertex
100
AcDb2dVertex
 10
338.2659860048188
 20
266.0375581142471
 30
0.0
  0
VERTEX
  5
C0
330
BE
100
AcDbEntity
  8
0
 62
     7
420
 16776959
370
     9
100
AcDbVertex
100
AcDb2dVertex
 10
331.3114346374168
 20
277.8460304218715
 30
0.0
  0
SEQEND
  5
C1
330
BE
100
AcDbEntity
  8
0
 62
     7
420
 16776959
370
     9
  0
SPLINE
  5
C2
330
A1
100
AcDbEntity
  8
0
 62
     7
420
 16776959
370
     9
100
AcDbSpline
210
0.0
220
0.0
230
1.0
 70
     8
 71
     3
 72
     8
 73
     4
 74
     0
 42
0.0000000001
 43
0.0000000001
 12
1.0
 22
0.0
 32
0.0
 13
1.0
 23
0.0
 33
0.0
 40
0.0
 40
0.0
 40
0.0
 40
0.0
 40
1.0
 40
1.0
 40
1.0
 40
1.0
 10
333.5584057111664
 20
277.806053778997
 30
0.0
 10
334.1420777596577
 20
277.3603215649473
 30
0.0
 10
334.8457392495729
 20
277.0154245976228
 30
0.0
 10
335.5069318651294
 20
276.702755922659
 30
0.0
  0
SPLINE
  5
C3
330
A1
100
AcDbEntity
  8
0
 62
     7
420
 16776959
370
     9
100
AcDbSpline
210
0.0
220
0.0
230
1.0
 70
     8
 71
     3
 72
     8
 73
     4
 74
     0
 42
0.0000000001
 43
0.0000000001
 12
1.0
 22
0.0
 32
0.0
 13
1.0
 23
0.0
 33
0.0
 40
0.0
 40
0.0
 40
0.0
 40
0.0
 40
1.0
 40
1.0
 40
1.0
 40
1.0
 10
333.5584057111664
 20
276.1085238579399
 30
0.0
 10
333.2784329307942
 20
276.6548655889073
 30
0.0
 10
333.2796361680967
 20
277.2555257257773
 30
0.0
 10
333.5584057111664
 20
277.806053778997
 30
0.0
  0
SPLINE
  5
C4
330
A1
100
AcDbEntity
  8
0
 62
     7
420
 16776959
370
     9
100
AcDbSpline
210
0.0
220
0.0
230
1.0
 70
     8
 71
     3
 72
     8
 73
     4
 74
     0
 42
0.0000000001
 43
0.0000000001
 12
1.0
 22
0.0
 32
0.0
 13
1.0
 23
0.0
 33
0.0
 40
0.0
 40
0.0
 40
0.0
 40
0.0
 40
1.0
 40
1.0
 40
1.0
 40
1.0
 10
335.5069318651294
 20
276.702755922659
 30
0.0
 10
334.9558786828602
 20
276.2259359935761
 30
0.0
 10
334.2533918264826
 20
275.9988435169507
 30
0.0
 10
333.5676418633084
 20
276.1016688426607
 30
0.0
  0
POLYLINE
  5
C5
330
A1
100
AcDbEntity
  8
0
 62
     7
420
 16776959
370
     9
100
AcDb2dPolyline
 66
     1
 10
0.0
 20
0.0
 30
0.0
  0
VERTEX
  5
C6
330
C5
100
AcDbEntity
  8
0
 62
     7
420
 16776959
370
     9
100
AcDbVertex
100
AcDb2dVertex
 10
333.5584057111664
 20
277.806053778997
 30
0.0
  0
VERTEX
  5
C7
330
C5
100
AcDbEntity
  8
0
 62
     7
420
 16776959
370
     9
100
AcDbVertex
100
AcDb2dVertex
 10
331.3114346374168
 20
279.5351604288735
 30
0.0
  0
SEQEND
  5
C8
330
C5
100
AcDbEntity
  8
0
 62
     7
420
 16776959
370
     9
  0
POLYLINE
  5
C9
330
A1
100
AcDbEntity
  8
0
 62
     7
420
 16776959
370
     9
100
AcDb2dPolyline
 66
     1
 10
0.0
 20
0.0
 30
0.0
  0
VERTEX
  5
CA
330
C9
100
AcDbEntity
  8
0
 62
     7
420
 16776959
370
     9
100
AcDbVertex
100
AcDb2dVertex
 10
331.3114346374168
 20
277.8460304218715
 30
0.0
  0
VERTEX
  5
CB
330
C9
100
AcDbEntity
  8
0
 62
     7
420
 16776959
370
     9
100
AcDbVertex
100
AcDb2dVertex
 10
333.5584057111664
 20
276.1085238579399
 30
0.0
  0
SEQEND
  5
CC
330
C9
100
AcDbEntity
  8
0
 62
     7
420
 16776959
370
     9
  0
SPLINE
  5
CD
330
A1
100
AcDbEntity
  8
0
 62
     7
420
 16776959
370
     9
100
AcDbSpline
210
0.0
220
0.0
230
1.0
 70
     8
 71
     3
 72
     8
 73
     4
 74
     0
 42
0.0000000001
 43
0.0000000001
 12
1.0
 22
0.0
 32
0.0
 13
1.0
 23
0.0
 33
0.0
 40
0.0
 40
0.0
 40
0.0
 40
0.0
 40
1.0
 40
1.0
 40
1.0
 40
1.0
 10
342.4910293675493
 20
264.8298296153152
 30
0.0
 10
342.548098280794
 20
264.3361734848113
 30
0.0
 10
342.4117812947688
 20
263.8580391507057
 30
0.0
 10
342.1012204557665
 20
263.5193333467614
 30
0.0
  0
SPLINE
  5
CE
330
A1
100
AcDbEntity
  8
0
 62
     7
420
 16776959
370
     9
100
AcDbSpline
210
0.0
220
0.0
230
1.0
 70
     8
 71
     3
 72
     8
 73
     4
 74
     0
 42
0.0000000001
 43
0.0000000001
 12
1.0
 22
0.0
 32
0.0
 13
1.0
 23
0.0
 33
0.0
 40
0.0
 40
0.0
 40
0.0
 40
0.0
 40
1.0
 40
1.0
 40
1.0
 40
1.0
 10
340.5420952825916
 20
264.2456166585762
 30
0.0
 10
341.0342248065535
 20
263.8733997000054
 30
0.0
 10
342.1251919410997
 20
264.5097400132436
 30
0.0
 10
342.4910293675493
 20
264.8298296153152
 30
0.0
  0
SPLINE
  5
CF
330
A1
100
AcDbEntity
  8
0
 62
     7
420
 16776959
370
     9
100
AcDbSpline
210
0.0
220
0.0
230
1.0
 70
     8
 71
     3
 72
     8
 73
     4
 74
     0
 42
0.0000000001
 43
0.0000000001
 12
1.0
 22
0.0
 32
0.0
 13
1.0
 23
0.0
 33
0.0
 40
0.0
 40
0.0
 40
0.0
 40
0.0
 40
1.0
 40
1.0
 40
1.0
 40
1.0
 10
340.8818494147235
 20
263.8547823290064
 30
0.0
 10
340.7456085222193
 20
263.9629622464618
 30
0.0
 10
340.6302377605516
 20
264.0956218285992
 30
0.0
 10
340.5420952825916
 20
264.2456166585762
 30
0.0
  0
POLYLINE
  5
D0
330
A1
100
AcDbEntity
  8
0
 62
     7
420
 16776959
370
     9
100
AcDb2dPolyline
 66
     1
 10
0.0
 20
0.0
 30
0.0
  0
VERTEX
  5
D1
330
D0
100
AcDbEntity
  8
0
 62
     7
420
 16776959
370
     9
100
AcDbVertex
100
AcDb2dVertex
 10
342.4910293675493
 20
264.8298296153152
 30
0.0
  0
VERTEX
  5
D2
330
D0
100
AcDbEntity
  8
0
 62
     7
420
 16776959
370
     9
100
AcDbVertex
100
AcDb2dVertex
 10
335.5069318651294
 20
276.702755922659
 30
0.0
  0
SEQEND
  5
D3
330
D0
100
AcDbEntity
  8
0
 62
     7
420
 16776959
370
     9
  0
POLYLINE
  5
D4
330
A1
100
AcDbEntity
  8
0
 62
     7
420
 16776959
370
     9
100
AcDb2dPolyline
 66
     1
 10
0.0
 20
0.0
 30
0.0
  0
VERTEX
  5
D5
330
D4
100
AcDbEntity
  8
0
 62
     7
420
 16776959
370
     9
100
AcDbVertex
100
AcDb2dVertex
 10
333.5584057111664
 20
276.1085238579399
 30
0.0
  0
VERTEX
  5
D6
330
D4
100
AcDbEntity
  8
0
 62
     7
420
 16776959
370
     9
100
AcDbVertex
100
AcDb2dVertex
 10
340.5420952825916
 20
264.2456166585762
 30
0.0
  0
SEQEND
  5
D7
330
D4
100
AcDbEntity
  8
0
 62
     7
420
 16776959
370
     9
  0
POLYLINE
  5
D8
330
A1
100
AcDbEntity
  8
0
 62
     7
420
 16776959
370
     9
100
AcDb2dPolyline
 66
     1
 10
0.0
 20
0.0
 30
0.0
  0
VERTEX
  5
D9
330
D8
100
AcDbEntity
  8
0
 62
     7
420
 16776959
370
     9
100
AcDbVertex
100
AcDb2dVertex
 10
340.5420952825916
 20
264.2456166585762
 30
0.0
  0
VERTEX
  5
DA
330
D8
100
AcDbEntity
  8
0
 62
     7
420
 16776959
370
     9
100
AcDbVertex
100
AcDb2dVertex
 10
338.2659860048188
 20
266.0375581142471
 30
0.0
  0
SEQEND
  5
DB
330
D8
100
AcDbEntity
  8
0
 62
     7
420
 16776959
370
     9
  0
SPLINE
  5
DC
330
A1
100
AcDbEntity
  8
0
 62
     7
420
 16776959
370
     9
100
AcDbSpline
210
0.0
220
0.0
230
1.0
 70
     8
 71
     3
 72
     8
 73
     4
 74
     0
 42
0.0000000001
 43
0.0000000001
 12
1.0
 22
0.0
 32
0.0
 13
1.0
 23
0.0
 33
0.0
 40
0.0
 40
0.0
 40
0.0
 40
0.0
 40
1.0
 40
1.0
 40
1.0
 40
1.0
 10
341.9348341623008
 20
292.3478824819686
 30
0.0
 10
342.4406086140161
 20
291.968887326766
 30
0.0
 10
342.5254045099191
 20
290.8144387937082
 30
0.0
 10
342.4910293675493
 20
290.250410850851
 30
0.0
  0
SPLINE
  5
DD
330
A1
100
AcDbEntity
  8
0
 62
     7
420
 16776959
370
     9
100
AcDbSpline
210
0.0
220
0.0
230
1.0
 70
     8
 71
     3
 72
     8
 73
     4
 74
     0
 42
0.0000000001
 43
0.0000000001
 12
1.0
 22
0.0
 32
0.0
 13
1.0
 23
0.0
 33
0.0
 40
0.0
 40
0.0
 40
0.0
 40
0.0
 40
1.0
 40
1.0
 40
1.0
 40
1.0
 10
340.5420952825916
 20
291.341261263482
 30
0.0
 10
340.8332902930952
 20
291.8894334025081
 30
0.0
 10
341.3250088276909
 20
292.2459245144073
 30
0.0
 10
341.9348341623008
 20
292.3478824819686
 30
0.0
  0
SPLINE
  5
DE
330
A1
100
AcDbEntity
  8
0
 62
     7
420
 16776959
370
     9
100
AcDbSpline
210
0.0
220
0.0
230
1.0
 70
     8
 71
     3
 72
     8
 73
     4
 74
     0
 42
0.0000000001
 43
0.0000000001
 12
1.0
 22
0.0
 32
0.0
 13
1.0
 23
0.0
 33
0.0
 40
0.0
 40
0.0
 40
0.0
 40
0.0
 40
1.0
 40
1.0
 40
1.0
 40
1.0
 10
342.4910293675493
 20
290.250410850851
 30
0.0
 10
341.8233249476416
 20
290.5718036990911
 30
0.0
 10
341.1745860394894
 20
290.9343765484464
 30
0.0
 10
340.5514477038669
 20
291.3344928126862
 30
0.0
  0
POLYLINE
  5
DF
330
A1
100
AcDbEntity
  8
0
 62
     7
420
 16776959
370
     9
100
AcDb2dPolyline
 66
     1
 10
0.0
 20
0.0
 30
0.0
  0
VERTEX
  5
E0
330
DF
100
AcDbEntity
  8
0
 62
     7
420
 16776959
370
     9
100
AcDbVertex
100
AcDb2dVertex
 10
338.2659860048188
 20
292.9994433880347
 30
0.0
  0
VERTEX
  5
E1
330
DF
100
AcDbEntity
  8
0
 62
     7
420
 16776959
370
     9
100
AcDbVertex
100
AcDb2dVertex
 10
340.5420952825916
 20
291.341261263482
 30
0.0
  0
SEQEND
  5
E2
330
DF
100
AcDbEntity
  8
0
 62
     7
420
 16776959
370
     9
  0
POLYLINE
  5
E3
330
A1
100
AcDbEntity
  8
0
 62
     7
420
 16776959
370
     9
100
AcDb2dPolyline
 66
     1
 10
0.0
 20
0.0
 30
0.0
  0
VERTEX
  5
E4
330
E3
100
AcDbEntity
  8
0
 62
     7
420
 16776959
370
     9
100
AcDbVertex
100
AcDb2dVertex
 10
341.9348341623008
 20
292.3478824819686
 30
0.0
  0
VERTEX
  5
E5
330
E3
100
AcDbEntity
  8
0
 62
     7
420
 16776959
370
     9
100
AcDbVertex
100
AcDb2dVertex
 10
339.6529335787636
 20
294.0003103585841
 30
0.0
  0
SEQEND
  5
E6
330
E3
100
AcDbEntity
  8
0
 62
     7
420
 16776959
370
     9
  0
POLYLINE
  5
E7
330
A1
100
AcDbEntity
  8
0
 62
     7
420
 16776959
370
     9
100
AcDb2dPolyline
 66
     1
 10
0.0
 20
0.0
 30
0.0
  0
VERTEX
  5
E8
330
E7
100
AcDbEntity
  8
0
 62
     7
420
 16776959
370
     9
100
AcDbVertex
100
AcDb2dVertex
 10
335.5069318651294
 20
276.702755922659
 30
0.0
  0
VERTEX
  5
E9
330
E7
100
AcDbEntity
  8
0
 62
     7
420
 16776959
370
     9
100
AcDbVertex
100
AcDb2dVertex
 10
342.4910293675493
 20
290.250410850851
 30
0.0
  0
SEQEND
  5
EA
330
E7
100
AcDbEntity
  8
0
 62
     7
420
 16776959
370
     9
  0
POLYLINE
  5
EB
330
A1
100
AcDbEntity
  8
0
 62
     7
420
 16776959
370
     9
100
AcDb2dPolyline
 66
     1
 10
0.0
 20
0.0
 30
0.0
  0
VERTEX
  5
EC
330
EB
100
AcDbEntity
  8
0
 62
     7
420
 16776959
370
     9
100
AcDbVertex
100
AcDb2dVertex
 10
340.5420952825916
 20
291.341261263482
 30
0.0
  0
VERTEX
  5
ED
330
EB
100
AcDbEntity
  8
0
 62
     7
420
 16776959
370
     9
100
AcDbVertex
100
AcDb2dVertex
 10
333.5584057111664
 20
277.806053778997
 30
0.0
  0
SEQEND
  5
EE
330
EB
100
AcDbEntity
  8
0
 62
     7
420
 16776959
370
     9
  0
SPLINE
  5
EF
330
A1
100
AcDbEntity
  8
0
 62
     7
420
 16776959
370
     9
100
AcDbSpline
210
0.0
220
0.0
230
1.0
 70
     8
 71
     3
 72
     8
 73
     4
 74
     0
 42
0.0000000001
 43
0.0000000001
 12
1.0
 22
0.0
 32
0.0
 13
1.0
 23
0.0
 33
0.0
 40
0.0
 40
0.0
 40
0.0
 40
0.0
 40
1.0
 40
1.0
 40
1.0
 40
1.0
 10
356.3595983969426
 20
266.5530496073079
 30
0.0
 10
356.6479714379593
 20
266.396789492248
 30
0.0
 10
356.959690897952
 20
266.2721729635996
 30
0.0
 10
357.2722771380468
 20
266.188418781916
 30
0.0
  0
SPLINE
  5
F0
330
A1
100
AcDbEntity
  8
0
 62
     7
420
 16776959
370
     9
100
AcDbSpline
210
0.0
220
0.0
230
1.0
 70
     8
 71
     3
 72
     8
 73
     4
 74
     0
 42
0.0000000001
 43
0.0000000001
 12
1.0
 22
0.0
 32
0.0
 13
1.0
 23
0.0
 33
0.0
 40
0.0
 40
0.0
 40
0.0
 40
0.0
 40
1.0
 40
1.0
 40
1.0
 40
1.0
 10
355.9526789717784
 20
265.2462603482563
 30
0.0
 10
356.3408350311765
 20
265.3031014514345
 30
0.0
 10
356.3924056534897
 20
266.2730329502538
 30
0.0
 10
356.3595983969426
 20
266.5530496073079
 30
0.0
  0
POLYLINE
  5
F1
330
A1
100
AcDbEntity
  8
0
 62
     7
420
 16776959
370
     9
100
AcDb2dPolyline
 66
     1
 10
0.0
 20
0.0
 30
0.0
  0
VERTEX
  5
F2
330
F1
100
AcDbEntity
  8
0
 62
     7
420
 16776959
370
     9
100
AcDbVertex
100
AcDb2dVertex
 10
356.3595983969426
 20
266.5530496073079
 30
0.0
  0
VERTEX
  5
F3
330
F1
100
AcDbEntity
  8
0
 62
     7
420
 16776959
370
     9
100
AcDbVertex
100
AcDb2dVertex
 10
342.4910293675493
 20
264.8298296153152
 30
0.0
  0
SEQEND
  5
F4
330
F1
100
AcDbEntity
  8
0
 62
     7
420
 16776959
370
     9
  0
SPLINE
  5
F5
330
A1
100
AcDbEntity
  8
0
 62
     7
420
 16776959
370
     9
100
AcDbSpline
210
0.0
220
0.0
230
1.0
 70
     8
 71
     3
 72
     8
 73
     4
 74
     0
 42
0.0000000001
 43
0.0000000001
 12
1.0
 22
0.0
 32
0.0
 13
1.0
 23
0.0
 33
0.0
 40
0.0
 40
0.0
 40
0.0
 40
0.0
 40
1.0
 40
1.0
 40
1.0
 40
1.0
 10
356.3595983969426
 20
291.8527586184209
 30
0.0
 10
356.403434236453
 20
292.5948975796364
 30
0.0
 10
356.2080738557506
 20
293.3328687801259
 30
0.0
 10
355.7988799117302
 20
293.9315345596115
 30
0.0
  0
SPLINE
  5
F6
330
A1
100
AcDbEntity
  8
0
 62
     7
420
 16776959
370
     9
100
AcDbSpline
210
0.0
220
0.0
230
1.0
 70
     8
 71
     3
 72
     8
 73
     4
 74
     0
 42
0.0000000001
 43
0.0000000001
 12
1.0
 22
0.0
 32
0.0
 13
1.0
 23
0.0
 33
0.0
 40
0.0
 40
0.0
 40
0.0
 40
0.0
 40
1.0
 40
1.0
 40
1.0
 40
1.0
 10
357.2447850848112
 20
293.172078600699
 30
0.0
 10
357.4862154337025
 20
292.7380484264613
 30
0.0
 10
356.6681933161344
 20
292.0270075568169
 30
0.0
 10
356.3595983969426
 20
291.8527586184209
 30
0.0
  0
SPLINE
  5
F7
330
A1
100
AcDbEntity
  8
0
 62
     7
420
 16776959
370
     9
100
AcDbSpline
210
0.0
220
0.0
230
1.0
 70
     8
 71
     3
 72
     8
 73
     4
 74
     0
 42
0.0000000001
 43
0.0000000001
 12
1.0
 22
0.0
 32
0.0
 13
1.0
 23
0.0
 33
0.0
 40
0.0
 40
0.0
 40
0.0
 40
0.0
 40
1.0
 40
1.0
 40
1.0
 40
1.0
 10
355.789464431844
 20
293.9383532630163
 30
0.0
 10
356.1304736668781
 20
293.9762554394674
 30
0.0
 10
356.4650887582848
 20
293.8961496996417
 30
0.0
 10
356.7508762499383
 20
293.7067926429736
 30
0.0
  0
SPLINE
  5
F8
330
A1
100
AcDbEntity
  8
0
 62
     7
420
 16776959
370
     9
100
AcDbSpline
210
0.0
220
0.0
230
1.0
 70
     8
 71
     3
 72
     8
 73
     4
 74
     0
 42
0.0000000001
 43
0.0000000001
 12
1.0
 22
0.0
 32
0.0
 13
1.0
 23
0.0
 33
0.0
 40
0.0
 40
0.0
 40
0.0
 40
0.0
 40
1.0
 40
1.0
 40
1.0
 40
1.0
 10
363.2445425115366
 20
280.0283803435232
 30
0.0
 10
363.7600548627461
 20
280.3240098181068
 30
0.0
 10
364.0901430252579
 20
280.8019817348068
 30
0.0
 10
364.1224000500079
 20
281.3531876657798
 30
0.0
  0
SPLINE
  5
F9
330
A1
100
AcDbEntity
  8
0
 62
     7
420
 16776959
370
     9
100
AcDbSpline
210
0.0
220
0.0
230
1.0
 70
     8
 71
     3
 72
     8
 73
     4
 74
     0
 42
0.0000000001
 43
0.0000000001
 12
1.0
 22
0.0
 32
0.0
 13
1.0
 23
0.0
 33
0.0
 40
0.0
 40
0.0
 40
0.0
 40
0.0
 40
1.0
 40
1.0
 40
1.0
 40
1.0
 10
364.1552617538036
 20
279.6554352116073
 30
0.0
 10
363.9912284735956
 20
279.5780138302689
 30
0.0
 10
363.4051689364678
 20
279.9397899134274
 30
0.0
 10
363.2445425115366
 20
280.0283803435232
 30
0.0
  0
POLYLINE
  5
FA
330
A1
100
AcDbEntity
  8
0
 62
     7
420
 16776959
370
     9
100
AcDb2dPolyline
 66
     1
 10
0.0
 20
0.0
 30
0.0
  0
VERTEX
  5
FB
330
FA
100
AcDbEntity
  8
0
 62
     7
420
 16776959
370
     9
100
AcDbVertex
100
AcDb2dVertex
 10
363.2445425115366
 20
280.0283803435232
 30
0.0
  0
VERTEX
  5
FC
330
FA
100
AcDbEntity
  8
0
 62
     7
420
 16776959
370
     9
100
AcDbVertex
100
AcDb2dVertex
 10
356.3595983969426
 20
266.5530496073079
 30
0.0
  0
SEQEND
  5
FD
330
FA
100
AcDbEntity
  8
0
 62
     7
420
 16776959
370
     9
  0
POLYLINE
  5
FE
330
A1
100
AcDbEntity
  8
0
 62
     7
420
 16776959
370
     9
100
AcDb2dPolyline
 66
     1
 10
0.0
 20
0.0
 30
0.0
  0
VERTEX
  5
FF
330
FE
100
AcDbEntity
  8
0
 62
     7
420
 16776959
370
     9
100
AcDbVertex
100
AcDb2dVertex
 10
356.3595983969426
 20
291.8527586184209
 30
0.0
  0
VERTEX
  5
100
330
FE
100
AcDbEntity
  8
0
 62
     7
420
 16776959
370
     9
100
AcDbVertex
100
AcDb2dVertex
 10
363.2445425115366
 20
280.0283803435232
 30
0.0
  0
SEQEND
  5
101
330
FE
100
AcDbEntity
  8
0
 62
     7
420
 16776959
370
     9
  0
POLYLINE
  5
102
330
A1
100
AcDbEntity
  8
0
 62
     7
420
 16776959
370
     9
100
AcDb2dPolyline
 66
     1
 10
0.0
 20
0.0
 30
0.0
  0
VERTEX
  5
103
330
102
100
AcDbEntity
  8
0
 62
     7
420
 16776959
370
     9
100
AcDbVertex
100
AcDb2dVertex
 10
353.4503091602091
 20
295.5751613073735
 30
0.0
  0
VERTEX
  5
104
330
102
100
AcDbEntity
  8
0
 62
     7
420
 16776959
370
     9
100
AcDbVertex
100
AcDb2dVertex
 10
355.789464431844
 20
293.9383532630163
 30
0.0
  0
SEQEND
  5
105
330
102
100
AcDbEntity
  8
0
 62
     7
420
 16776959
370
     9
  0
POLYLINE
  5
106
330
A1
100
AcDbEntity
  8
0
 62
     7
420
 16776959
370
     9
100
AcDb2dPolyline
 66
     1
 10
0.0
 20
0.0
 30
0.0
  0
VERTEX
  5
107
330
106
100
AcDbEntity
  8
0
 62
     7
420
 16776959
370
     9
100
AcDbVertex
100
AcDb2dVertex
 10
342.4910293675493
 20
290.250410850851
 30
0.0
  0
VERTEX
  5
108
330
106
100
AcDbEntity
  8
0
 62
     7
420
 16776959
370
     9
100
AcDbVertex
100
AcDb2dVertex
 10
356.3595983969426
 20
291.8527586184209
 30
0.0
  0
SEQEND
  5
109
330
106
100
AcDbEntity
  8
0
 62
     7
420
 16776959
370
     9
  0
POLYLINE
  5
10A
330
A1
100
AcDbEntity
  8
0
 62
     7
420
 16776959
370
     9
100
AcDb2dPolyline
 66
     1
 10
0.0
 20
0.0
 30
0.0
  0
VERTEX
  5
10B
330
10A
100
AcDbEntity
  8
0
 62
     7
420
 16776959
370
     9
100
AcDbVertex
100
AcDb2dVertex
 10
355.789464431844
 20
293.9383532630163
 30
0.0
  0
VERTEX
  5
10C
330
10A
100
AcDbEntity
  8
0
 62
     7
420
 16776959
370
     9
100
AcDbVertex
100
AcDb2dVertex
 10
341.9348341623008
 20
292.3478824819686
 30
0.0
  0
SEQEND
  5
10D
330
10A
100
AcDbEntity
  8
0
 62
     7
420
 16776959
370
     9
  0
POLYLINE
  5
10E
330
A1
100
AcDbEntity
  8
0
 62
     7
420
 16776959
370
     9
100
AcDb2dPolyline
 66
     1
 10
0.0
 20
0.0
 30
0.0
  0
VERTEX
  5
10F
330
10E
100
AcDbEntity
  8
0
 62
     7
420
 16776959
370
     9
100
AcDbVertex
100
AcDb2dVertex
 10
340.8818494147235
 20
263.8547823290064
 30
0.0
  0
VERTEX
  5
110
330
10E
100
AcDbEntity
  8
0
 62
     7
420
 16776959
370
     9
100
AcDbVertex
100
AcDb2dVertex
 10
338.6043267641035
 20
265.648445371844
 30
0.0
  0
SEQEND
  5
111
330
10E
100
AcDbEntity
  8
0
 62
     7
420
 16776959
370
     9
  0
SPLINE
  5
112
330
A1
100
AcDbEntity
  8
0
 62
     7
420
 16776959
370
     9
100
AcDbSpline
210
0.0
220
0.0
230
1.0
 70
     8
 71
     3
 72
     8
 73
     4
 74
     0
 42
0.0000000001
 43
0.0000000001
 12
1.0
 22
0.0
 32
0.0
 13
1.0
 23
0.0
 33
0.0
 40
0.0
 40
0.0
 40
0.0
 40
0.0
 40
1.0
 40
1.0
 40
1.0
 40
1.0
 10
356.7596023058722
 20
293.700745270864
 30
0.0
 10
356.9572275977534
 20
293.5612778451541
 30
0.0
 10
357.1228584223318
 20
293.3810071887983
 30
0.0
 10
357.2447850848112
 20
293.172078600699
 30
0.0
  0
POLYLINE
  5
113
330
A1
100
AcDbEntity
  8
0
 62
     7
420
 16776959
370
     9
100
AcDb2dPolyline
 66
     1
 10
0.0
 20
0.0
 30
0.0
  0
VERTEX
  5
114
330
113
100
AcDbEntity
  8
0
 62
     7
420
 16776959
370
     9
100
AcDbVertex
100
AcDb2dVertex
 10
364.1176074580289
 20
281.3617934201247
 30
0.0
  0
VERTEX
  5
115
330
113
100
AcDbEntity
  8
0
 62
     7
420
 16776959
370
     9
100
AcDbVertex
100
AcDb2dVertex
 10
357.2447850848112
 20
293.172078600699
 30
0.0
  0
SEQEND
  5
116
330
113
100
AcDbEntity
  8
0
 62
     7
420
 16776959
370
     9
  0
POLYLINE
  5
117
330
A1
100
AcDbEntity
  8
0
 62
     7
420
 16776959
370
     9
100
AcDb2dPolyline
 66
     1
 10
0.0
 20
0.0
 30
0.0
  0
VERTEX
  5
118
330
117
100
AcDbEntity
  8
0
 62
     7
420
 16776959
370
     9
100
AcDbVertex
100
AcDb2dVertex
 10
356.7596023058722
 20
293.700745270864
 30
0.0
  0
VERTEX
  5
119
330
117
100
AcDbEntity
  8
0
 62
     7
420
 16776959
370
     9
100
AcDbVertex
100
AcDb2dVertex
 10
354.4164621353011
 20
295.3381755593509
 30
0.0
  0
SEQEND
  5
11A
330
117
100
AcDbEntity
  8
0
 62
     7
420
 16776959
370
     9
  0
SPLINE
  5
11B
330
A1
100
AcDbEntity
  8
0
 62
     7
420
 16776959
370
     9
100
AcDbSpline
210
0.0
220
0.0
230
1.0
 70
     8
 71
     3
 72
     8
 73
     4
 74
     0
 42
0.0000000001
 43
0.0000000001
 12
1.0
 22
0.0
 32
0.0
 13
1.0
 23
0.0
 33
0.0
 40
0.0
 40
0.0
 40
0.0
 40
0.0
 40
1.0
 40
1.0
 40
1.0
 40
1.0
 10
349.8703926317066
 20
281.8233276731589
 30
0.0
 10
349.9938063911404
 20
281.7580938354167
 30
0.0
 10
350.0679554280632
 20
281.6554645828219
 30
0.0
 10
350.0928397424796
 20
281.5154399153726
 30
0.0
  0
SPLINE
  5
11C
330
A1
100
AcDbEntity
  8
0
 62
     7
420
 16776959
370
     9
100
AcDbSpline
210
0.0
220
0.0
230
1.0
 70
     8
 71
     3
 72
     8
 73
     4
 74
     0
 42
0.0000000001
 43
0.0000000001
 12
1.0
 22
0.0
 32
0.0
 13
1.0
 23
0.0
 33
0.0
 40
0.0
 40
0.0
 40
0.0
 40
0.0
 40
1.0
 40
1.0
 40
1.0
 40
1.0
 10
350.0928397424796
 20
281.5154399153726
 30
0.0
 10
350.220040398649
 20
280.7293107517999
 30
0.0
 10
351.1399196612692
 20
280.4845605868577
 30
0.0
 10
351.812438618028
 20
280.6714108893357
 30
0.0
  0
SPLINE
  5
11D
330
A1
100
AcDbEntity
  8
0
 62
     7
420
 16776959
370
     9
100
AcDbSpline
210
0.0
220
0.0
230
1.0
 70
     8
 71
     3
 72
     8
 73
     4
 74
     0
 42
0.0000000001
 43
0.0000000001
 12
1.0
 22
0.0
 32
0.0
 13
1.0
 23
0.0
 33
0.0
 40
0.0
 40
0.0
 40
0.0
 40
0.0
 40
1.0
 40
1.0
 40
1.0
 40
1.0
 10
351.812438618028
 20
280.6714108893357
 30
0.0
 10
352.0607801029073
 20
280.7404092143715
 30
0.0
 10
352.3827116428556
 20
280.6598240087351
 30
0.0
 10
352.5202203159388
 20
280.4245157039259
 30
0.0
  0
SPLINE
  5
11E
330
A1
100
AcDbEntity
  8
0
 62
     7
420
 16776959
370
     9
100
AcDbSpline
210
0.0
220
0.0
230
1.0
 70
     8
 71
     3
 72
     8
 73
     4
 74
     0
 42
0.0000000001
 43
0.0000000001
 12
1.0
 22
0.0
 32
0.0
 13
1.0
 23
0.0
 33
0.0
 40
0.0
 40
0.0
 40
0.0
 40
0.0
 40
1.0
 40
1.0
 40
1.0
 40
1.0
 10
352.5202203159388
 20
280.4245157039259
 30
0.0
 10
352.3245182259743
 20
280.7578780643307
 30
0.0
 10
352.0688280297945
 20
281.0513628728513
 30
0.0
 10
351.7632703699064
 20
281.2883041879868
 30
0.0
  0
SPLINE
  5
11F
330
A1
100
AcDbEntity
  8
0
 62
     7
420
 16776959
370
     9
100
AcDbSpline
210
0.0
220
0.0
230
1.0
 70
     8
 71
     3
 72
     8
 73
     4
 74
     0
 42
0.0000000001
 43
0.0000000001
 12
1.0
 22
0.0
 32
0.0
 13
1.0
 23
0.0
 33
0.0
 40
0.0
 40
0.0
 40
0.0
 40
0.0
 40
1.0
 40
1.0
 40
1.0
 40
1.0
 10
346.9475105043966
 20
280.0597489245665
 30
0.0
 10
347.0354314612896
 20
280.1075111763512
 30
0.0
 10
347.1311188516011
 20
280.1294996891011
 30
0.0
 10
347.2345726753301
 20
280.1257144628144
 30
0.0
  0
SPLINE
  5
120
330
A1
100
AcDbEntity
  8
0
 62
     7
420
 16776959
370
     9
100
AcDbSpline
210
0.0
220
0.0
230
1.0
 70
     8
 71
     3
 72
     8
 73
     4
 74
     0
 42
0.0000000001
 43
0.0000000001
 12
1.0
 22
0.0
 32
0.0
 13
1.0
 23
0.0
 33
0.0
 40
0.0
 40
0.0
 40
0.0
 40
0.0
 40
1.0
 40
1.0
 40
1.0
 40
1.0
 10
347.2345726753301
 20
280.1257144628144
 30
0.0
 10
347.9718760519963
 20
280.0652413850785
 30
0.0
 10
348.706124486268
 20
280.7362302620149
 30
0.0
 10
348.9575513233031
 20
281.3805192461259
 30
0.0
  0
SPLINE
  5
121
330
A1
100
AcDbEntity
  8
0
 62
     7
420
 16776959
370
     9
100
AcDbSpline
210
0.0
220
0.0
230
1.0
 70
     8
 71
     3
 72
     8
 73
     4
 74
     0
 42
0.0000000001
 43
0.0000000001
 12
1.0
 22
0.0
 32
0.0
 13
1.0
 23
0.0
 33
0.0
 40
0.0
 40
0.0
 40
0.0
 40
0.0
 40
1.0
 40
1.0
 40
1.0
 40
1.0
 10
348.9575513233031
 20
281.3805192461259
 30
0.0
 10
349.0144632726488
 20
281.5188485012841
 30
0.0
 10
349.1016185148319
 20
281.6326737183954
 30
0.0
 10
349.2190170498543
 20
281.7219948974598
 30
0.0
  0
SPLINE
  5
122
330
A1
100
AcDbEntity
  8
0
 62
     7
420
 16776959
370
     9
100
AcDbSpline
210
0.0
220
0.0
230
1.0
 70
     8
 71
     3
 72
     8
 73
     4
 74
     0
 42
0.0000000001
 43
0.0000000001
 12
1.0
 22
0.0
 32
0.0
 13
1.0
 23
0.0
 33
0.0
 40
0.0
 40
0.0
 40
0.0
 40
0.0
 40
1.0
 40
1.0
 40
1.0
 40
1.0
 10
346.5368752342329
 20
276.3972591719939
 30
0.0
 10
346.5227766663947
 20
276.5851179321144
 30
0.0
 10
346.5657926928816
 20
276.7588279752417
 30
0.0
 10
346.6659233136934
 20
276.9183893013796
 30
0.0
  0
SPLINE
  5
123
330
A1
100
AcDbEntity
  8
0
 62
     7
420
 16776959
370
     9
100
AcDbSpline
210
0.0
220
0.0
230
1.0
 70
     8
 71
     3
 72
     8
 73
     4
 74
     0
 42
0.0000000001
 43
0.0000000001
 12
1.0
 22
0.0
 32
0.0
 13
1.0
 23
0.0
 33
0.0
 40
0.0
 40
0.0
 40
0.0
 40
0.0
 40
1.0
 40
1.0
 40
1.0
 40
1.0
 10
346.6659233136934
 20
276.9183893013796
 30
0.0
 10
347.0336993796755
 20
277.4903036716023
 30
0.0
 10
347.2053225587679
 20
278.4907392980276
 30
0.0
 10
346.6659233136934
 20
279.0188823237841
 30
0.0
  0
SPLINE
  5
124
330
A1
100
AcDbEntity
  8
0
 62
     7
420
 16776959
370
     9
100
AcDbSpline
210
0.0
220
0.0
230
1.0
 70
     8
 71
     3
 72
     8
 73
     4
 74
     0
 42
0.0000000001
 43
0.0000000001
 12
1.0
 22
0.0
 32
0.0
 13
1.0
 23
0.0
 33
0.0
 40
0.0
 40
0.0
 40
0.0
 40
0.0
 40
1.0
 40
1.0
 40
1.0
 40
1.0
 10
346.6659233136934
 20
279.0188823237841
 30
0.0
 10
346.5958721849438
 20
279.0947580828433
 30
0.0
 10
346.5540128541979
 20
279.1818712989589
 30
0.0
 10
346.5403453214567
 20
279.2802219721343
 30
0.0
  0
SPLINE
  5
125
330
A1
100
AcDbEntity
  8
0
 62
     7
420
 16776959
370
     9
100
AcDbSpline
210
0.0
220
0.0
230
1.0
 70
     8
 71
     3
 72
     8
 73
     4
 74
     0
 42
0.0000000001
 43
0.0000000001
 12
1.0
 22
0.0
 32
0.0
 13
1.0
 23
0.0
 33
0.0
 40
0.0
 40
0.0
 40
0.0
 40
0.0
 40
1.0
 40
1.0
 40
1.0
 40
1.0
 10
349.5740916026007
 20
274.679978377193
 30
0.0
 10
349.2995546086377
 20
274.6467125319996
 30
0.0
 10
349.0440784340226
 20
274.8597603155758
 30
0.0
 10
348.9575513233031
 20
275.1063791179477
 30
0.0
  0
SPLINE
  5
126
330
A1
100
AcDbEntity
  8
0
 62
     7
420
 16776959
370
     9
100
AcDbSpline
210
0.0
220
0.0
230
1.0
 70
     8
 71
     3
 72
     8
 73
     4
 74
     0
 42
0.0000000001
 43
0.0000000001
 12
1.0
 22
0.0
 32
0.0
 13
1.0
 23
0.0
 33
0.0
 40
0.0
 40
0.0
 40
0.0
 40
0.0
 40
1.0
 40
1.0
 40
1.0
 40
1.0
 10
348.9575513233031
 20
275.1063791179477
 30
0.0
 10
348.7130372982938
 20
275.8032908201949
 30
0.0
 10
347.9582793526797
 20
276.3495190309222
 30
0.0
 10
347.2345726753301
 20
275.9479426895377
 30
0.0
  0
SPLINE
  5
127
330
A1
100
AcDbEntity
  8
0
 62
     7
420
 16776959
370
     9
100
AcDbSpline
210
0.0
220
0.0
230
1.0
 70
     8
 71
     3
 72
     8
 73
     4
 74
     0
 42
0.0000000001
 43
0.0000000001
 12
1.0
 22
0.0
 32
0.0
 13
1.0
 23
0.0
 33
0.0
 40
0.0
 40
0.0
 40
0.0
 40
0.0
 40
1.0
 40
1.0
 40
1.0
 40
1.0
 10
347.2345726753301
 20
275.9479426895377
 30
0.0
 10
347.1002504006174
 20
275.8734088357978
 30
0.0
 10
346.8976706857939
 20
275.8723386683487
 30
0.0
 10
346.7669146526641
 20
275.9626020780815
 30
0.0
  0
SPLINE
  5
128
330
A1
100
AcDbEntity
  8
0
 62
     7
420
 16776959
370
     9
100
AcDbSpline
210
0.0
220
0.0
230
1.0
 70
     8
 71
     3
 72
     8
 73
     4
 74
     0
 42
0.0000000001
 43
0.0000000001
 12
1.0
 22
0.0
 32
0.0
 13
1.0
 23
0.0
 33
0.0
 40
0.0
 40
0.0
 40
0.0
 40
0.0
 40
1.0
 40
1.0
 40
1.0
 40
1.0
 10
350.0928397424796
 20
275.2437473494065
 30
0.0
 10
350.0592294962898
 20
274.9822661583203
 30
0.0
 10
349.8495593574589
 20
274.7133570033711
 30
0.0
 10
349.5740916026007
 20
274.679978377193
 30
0.0
  0
SPLINE
  5
129
330
A1
100
AcDbEntity
  8
0
 62
     7
420
 16776959
370
     9
100
AcDbSpline
210
0.0
220
0.0
230
1.0
 70
     8
 71
     3
 72
     8
 73
     4
 74
     0
 42
0.0000000001
 43
0.0000000001
 12
1.0
 22
0.0
 32
0.0
 13
1.0
 23
0.0
 33
0.0
 40
0.0
 40
0.0
 40
0.0
 40
0.0
 40
1.0
 40
1.0
 40
1.0
 40
1.0
 10
352.5202203159388
 20
276.8328138441939
 30
0.0
 10
352.3933756896949
 20
276.5853278939849
 30
0.0
 10
352.0835092999441
 20
276.4401100050563
 30
0.0
 10
351.812438618028
 20
276.5002069785987
 30
0.0
  0
SPLINE
  5
12A
330
A1
100
AcDbEntity
  8
0
 62
     7
420
 16776959
370
     9
100
AcDbSpline
210
0.0
220
0.0
230
1.0
 70
     8
 71
     3
 72
     8
 73
     4
 74
     0
 42
0.0000000001
 43
0.0000000001
 12
1.0
 22
0.0
 32
0.0
 13
1.0
 23
0.0
 33
0.0
 40
0.0
 40
0.0
 40
0.0
 40
0.0
 40
1.0
 40
1.0
 40
1.0
 40
1.0
 10
351.812438618028
 20
276.5002069785987
 30
0.0
 10
350.9704663986622
 20
276.6868740937407
 30
0.0
 10
350.2008369618197
 20
276.083944751952
 30
0.0
 10
350.0928397424796
 20
275.2437473494065
 30
0.0
  0
SPLINE
  5
12B
330
A1
100
AcDbEntity
  8
0
 62
     7
420
 16776959
370
     9
100
AcDbSpline
210
0.0
220
0.0
230
1.0
 70
     8
 71
     3
 72
     8
 73
     4
 74
     0
 42
0.0000000001
 43
0.0000000001
 12
1.0
 22
0.0
 32
0.0
 13
1.0
 23
0.0
 33
0.0
 40
0.0
 40
0.0
 40
0.0
 40
0.0
 40
1.0
 40
1.0
 40
1.0
 40
1.0
 10
352.3790803059674
 20
277.6055745751219
 30
0.0
 10
352.5842063238524
 20
277.4181229742899
 30
0.0
 10
352.6474441632345
 20
277.0810396907709
 30
0.0
 10
352.5202203159388
 20
276.8328138441939
 30
0.0
  0
SPLINE
  5
12C
330
A1
100
AcDbEntity
  8
0
 62
     7
420
 16776959
370
     9
100
AcDbSpline
210
0.0
220
0.0
230
1.0
 70
     8
 71
     3
 72
     8
 73
     4
 74
     0
 42
0.0000000001
 43
0.0000000001
 12
1.0
 22
0.0
 32
0.0
 13
1.0
 23
0.0
 33
0.0
 40
0.0
 40
0.0
 40
0.0
 40
0.0
 40
1.0
 40
1.0
 40
1.0
 40
1.0
 10
352.5202203159388
 20
280.4245157039259
 30
0.0
 10
352.6563453792214
 20
280.1915750670523
 30
0.0
 10
352.5690154829354
 20
279.8750621759555
 30
0.0
 10
352.3790803059674
 20
279.7019472972024
 30
0.0
  0
SPLINE
  5
12D
330
A1
100
AcDbEntity
  8
0
 62
     7
420
 16776959
370
     9
100
AcDbSpline
210
0.0
220
0.0
230
1.0
 70
     8
 71
     3
 72
     8
 73
     4
 74
     0
 42
0.0000000001
 43
0.0000000001
 12
1.0
 22
0.0
 32
0.0
 13
1.0
 23
0.0
 33
0.0
 40
0.0
 40
0.0
 40
0.0
 40
0.0
 40
1.0
 40
1.0
 40
1.0
 40
1.0
 10
352.3790803059674
 20
279.7019472972024
 30
0.0
 10
351.7593825207141
 20
279.1371287696529
 30
0.0
 10
351.7564957168815
 20
278.1745149713497
 30
0.0
 10
352.3790803059674
 20
277.6055745751219
 30
0.0
  0
POLYLINE
  5
12E
330
A1
100
AcDbEntity
  8
0
 62
     7
420
 16776959
370
     9
100
AcDb2dPolyline
 66
     1
 10
0.0
 20
0.0
 30
0.0
  0
VERTEX
  5
12F
330
12E
100
AcDbEntity
  8
0
 62
     7
420
 16776959
370
     9
100
AcDbVertex
100
AcDb2dVertex
 10
351.812438618028
 20
276.5002069785987
 30
0.0
  0
VERTEX
  5
130
330
12E
100
AcDbEntity
  8
0
 62
     7
420
 16776959
370
     9
100
AcDbVertex
100
AcDb2dVertex
 10
350.7978216070014
 20
277.2536142766476
 30
0.0
  0
SEQEND
  5
131
330
12E
100
AcDbEntity
  8
0
 62
     7
420
 16776959
370
     9
  0
SPLINE
  5
132
330
A1
100
AcDbEntity
  8
0
 62
     7
420
 16776959
370
     9
100
AcDbSpline
210
0.0
220
0.0
230
1.0
 70
     8
 71
     3
 72
     8
 73
     4
 74
     0
 42
0.0000000001
 43
0.0000000001
 12
1.0
 22
0.0
 32
0.0
 13
1.0
 23
0.0
 33
0.0
 40
0.0
 40
0.0
 40
0.0
 40
0.0
 40
1.0
 40
1.0
 40
1.0
 40
1.0
 10
349.0813198878932
 20
276.0002998392411
 30
0.0
 10
349.1888892784928
 20
276.835046474951
 30
0.0
 10
349.9532200143049
 20
277.4409002579796
 30
0.0
 10
350.7978216070014
 20
277.2536142766476
 30
0.0
  0
POLYLINE
  5
133
330
A1
100
AcDbEntity
  8
0
 62
     7
420
 16776959
370
     9
100
AcDb2dPolyline
 66
     1
 10
0.0
 20
0.0
 30
0.0
  0
VERTEX
  5
134
330
133
100
AcDbEntity
  8
0
 62
     7
420
 16776959
370
     9
100
AcDbVertex
100
AcDb2dVertex
 10
350.0928397424796
 20
275.2437473494065
 30
0.0
  0
VERTEX
  5
135
330
133
100
AcDbEntity
  8
0
 62
     7
420
 16776959
370
     9
100
AcDbVertex
100
AcDb2dVertex
 10
349.0813198878932
 20
276.0002998392411
 30
0.0
  0
SEQEND
  5
136
330
133
100
AcDbEntity
  8
0
 62
     7
420
 16776959
370
     9
  0
SPLINE
  5
137
330
A1
100
AcDbEntity
  8
0
 62
     7
420
 16776959
370
     9
100
AcDbSpline
210
0.0
220
0.0
230
1.0
 70
     8
 71
     3
 72
     8
 73
     4
 74
     0
 42
0.0000000001
 43
0.0000000001
 12
1.0
 22
0.0
 32
0.0
 13
1.0
 23
0.0
 33
0.0
 40
0.0
 40
0.0
 40
0.0
 40
0.0
 40
1.0
 40
1.0
 40
1.0
 40
1.0
 10
348.7603604228716
 20
275.5023970942348
 30
0.0
 10
348.9303472163019
 20
275.5974378178435
 30
0.0
 10
349.0572896191434
 20
275.8138231298235
 30
0.0
 10
349.0813198878932
 20
276.0002998392411
 30
0.0
  0
POLYLINE
  5
138
330
A1
100
AcDbEntity
  8
0
 62
     7
420
 16776959
370
     9
100
AcDb2dPolyline
 66
     1
 10
0.0
 20
0.0
 30
0.0
  0
VERTEX
  5
139
330
138
100
AcDbEntity
  8
0
 62
     7
420
 16776959
370
     9
100
AcDbVertex
100
AcDb2dVertex
 10
352.3790803059674
 20
277.6055745751219
 30
0.0
  0
VERTEX
  5
13A
330
138
100
AcDbEntity
  8
0
 62
     7
420
 16776959
370
     9
100
AcDbVertex
100
AcDb2dVertex
 10
351.3634436763314
 20
278.3564614215611
 30
0.0
  0
SEQEND
  5
13B
330
138
100
AcDbEntity
  8
0
 62
     7
420
 16776959
370
     9
  0
SPLINE
  5
13C
330
A1
100
AcDbEntity
  8
0
 62
     7
420
 16776959
370
     9
100
AcDbSpline
210
0.0
220
0.0
230
1.0
 70
     8
 71
     3
 72
     8
 73
     4
 74
     0
 42
0.0000000001
 43
0.0000000001
 12
1.0
 22
0.0
 32
0.0
 13
1.0
 23
0.0
 33
0.0
 40
0.0
 40
0.0
 40
0.0
 40
0.0
 40
1.0
 40
1.0
 40
1.0
 40
1.0
 10
351.5042075839674
 20
277.5854143633842
 30
0.0
 10
351.631204834347
 20
277.8330786452734
 30
0.0
 10
351.5681215147461
 20
278.1694192587947
 30
0.0
 10
351.3634436763314
 20
278.3564614215611
 30
0.0
  0
SPLINE
  5
13D
330
A1
100
AcDbEntity
  8
0
 62
     7
420
 16776959
370
     9
100
AcDbSpline
210
0.0
220
0.0
230
1.0
 70
     8
 71
     3
 72
     8
 73
     4
 74
     0
 42
0.0000000001
 43
0.0000000001
 12
1.0
 22
0.0
 32
0.0
 13
1.0
 23
0.0
 33
0.0
 40
0.0
 40
0.0
 40
0.0
 40
0.0
 40
1.0
 40
1.0
 40
1.0
 40
1.0
 10
350.7978216070014
 20
277.2536142766476
 30
0.0
 10
351.0683104080808
 20
277.1936348011586
 30
0.0
 10
351.3775781364584
 20
277.3384673539658
 30
0.0
 10
351.5042075839674
 20
277.5854143633842
 30
0.0
  0
POLYLINE
  5
13E
330
A1
100
AcDbEntity
  8
0
 62
     7
420
 16776959
370
     9
100
AcDb2dPolyline
 66
     1
 10
0.0
 20
0.0
 30
0.0
  0
VERTEX
  5
13F
330
13E
100
AcDbEntity
  8
0
 62
     7
420
 16776959
370
     9
100
AcDbVertex
100
AcDb2dVertex
 10
352.3790803059674
 20
279.7019472972024
 30
0.0
  0
VERTEX
  5
140
330
13E
100
AcDbEntity
  8
0
 62
     7
420
 16776959
370
     9
100
AcDbVertex
100
AcDb2dVertex
 10
351.3634436763314
 20
280.448331894484
 30
0.0
  0
SEQEND
  5
141
330
13E
100
AcDbEntity
  8
0
 62
     7
420
 16776959
370
     9
  0
SPLINE
  5
142
330
A1
100
AcDbEntity
  8
0
 62
     7
420
 16776959
370
     9
100
AcDbSpline
210
0.0
220
0.0
230
1.0
 70
     8
 71
     3
 72
     8
 73
     4
 74
     0
 42
0.0000000001
 43
0.0000000001
 12
1.0
 22
0.0
 32
0.0
 13
1.0
 23
0.0
 33
0.0
 40
0.0
 40
0.0
 40
0.0
 40
0.0
 40
1.0
 40
1.0
 40
1.0
 40
1.0
 10
351.3634436763314
 20
278.3564614215611
 30
0.0
 10
350.7452429787754
 20
278.9213960348425
 30
0.0
 10
350.7420854040547
 20
279.8819963612677
 30
0.0
 10
351.3634436763314
 20
280.448331894484
 30
0.0
  0
SPLINE
  5
143
330
A1
100
AcDbEntity
  8
0
 62
     7
420
 16776959
370
     9
100
AcDbSpline
210
0.0
220
0.0
230
1.0
 70
     8
 71
     3
 72
     8
 73
     4
 74
     0
 42
0.0000000001
 43
0.0000000001
 12
1.0
 22
0.0
 32
0.0
 13
1.0
 23
0.0
 33
0.0
 40
0.0
 40
0.0
 40
0.0
 40
0.0
 40
1.0
 40
1.0
 40
1.0
 40
1.0
 10
351.3634436763314
 20
280.448331894484
 30
0.0
 10
351.4166459400622
 20
280.4968229724036
 30
0.0
 10
351.461520808607
 20
280.5533292981163
 30
0.0
 10
351.495521303852
 20
280.6126935197244
 30
0.0
  0
SPLINE
  5
144
330
A1
100
AcDbEntity
  8
0
 62
     7
420
 16776959
370
     9
100
AcDbSpline
210
0.0
220
0.0
230
1.0
 70
     8
 71
     3
 72
     8
 73
     4
 74
     0
 42
0.0000000001
 43
0.0000000001
 12
1.0
 22
0.0
 32
0.0
 13
1.0
 23
0.0
 33
0.0
 40
0.0
 40
0.0
 40
0.0
 40
0.0
 40
1.0
 40
1.0
 40
1.0
 40
1.0
 10
346.6199213257614
 20
276.8367748994096
 30
0.0
 10
346.8888711941263
 20
276.8727485533691
 30
0.0
 10
347.1990497443312
 20
276.7780766885771
 30
0.0
 10
347.4150527109414
 20
276.617501722907
 30
0.0
  0
POLYLINE
  5
145
330
A1
100
AcDbEntity
  8
0
 62
     7
420
 16776959
370
     9
100
AcDb2dPolyline
 66
     1
 10
0.0
 20
0.0
 30
0.0
  0
VERTEX
  5
146
330
145
100
AcDbEntity
  8
0
 62
     7
420
 16776959
370
     9
100
AcDbVertex
100
AcDb2dVertex
 10
347.2345726753301
 20
275.9479426895377
 30
0.0
  0
VERTEX
  5
147
330
145
100
AcDbEntity
  8
0
 62
     7
420
 16776959
370
     9
100
AcDbVertex
100
AcDb2dVertex
 10
346.5337156267924
 20
276.4742871582639
 30
0.0
  0
SEQEND
  5
148
330
145
100
AcDbEntity
  8
0
 62
     7
420
 16776959
370
     9
  0
POLYLINE
  5
149
330
A1
100
AcDbEntity
  8
0
 62
     7
420
 16776959
370
     9
100
AcDb2dPolyline
 66
     1
 10
0.0
 20
0.0
 30
0.0
  0
VERTEX
  5
14A
330
149
100
AcDbEntity
  8
0
 62
     7
420
 16776959
370
     9
100
AcDbVertex
100
AcDb2dVertex
 10
350.0928397424796
 20
281.5154399153726
 30
0.0
  0
VERTEX
  5
14B
330
149
100
AcDbEntity
  8
0
 62
     7
420
 16776959
370
     9
100
AcDbVertex
100
AcDb2dVertex
 10
349.6934303731723
 20
281.8088500301128
 30
0.0
  0
SEQEND
  5
14C
330
149
100
AcDbEntity
  8
0
 62
     7
420
 16776959
370
     9
  0
SPLINE
  5
14D
330
A1
100
AcDbEntity
  8
0
 62
     7
420
 16776959
370
     9
100
AcDbSpline
210
0.0
220
0.0
230
1.0
 70
     8
 71
     3
 72
     8
 73
     4
 74
     0
 42
0.0000000001
 43
0.0000000001
 12
1.0
 22
0.0
 32
0.0
 13
1.0
 23
0.0
 33
0.0
 40
0.0
 40
0.0
 40
0.0
 40
0.0
 40
1.0
 40
1.0
 40
1.0
 40
1.0
 10
349.4836380725974
 20
281.6006475198483
 30
0.0
 10
349.4245618627292
 20
281.6439166701402
 30
0.0
 10
349.3707984928196
 20
281.6926713638713
 30
0.0
 10
349.3223479628687
 20
281.7469116010434
 30
0.0
  0
POLYLINE
  5
14E
330
A1
100
AcDbEntity
  8
0
 62
     7
420
 16776959
370
     9
100
AcDb2dPolyline
 66
     1
 10
0.0
 20
0.0
 30
0.0
  0
VERTEX
  5
14F
330
14E
100
AcDbEntity
  8
0
 62
     7
420
 16776959
370
     9
100
AcDbVertex
100
AcDb2dVertex
 10
348.423387015715
 20
275.8619763137831
 30
0.0
  0
VERTEX
  5
150
330
14E
100
AcDbEntity
  8
0
 62
     7
420
 16776959
370
     9
100
AcDbVertex
100
AcDb2dVertex
 10
347.4150527109414
 20
276.617501722907
 30
0.0
  0
SEQEND
  5
151
330
14E
100
AcDbEntity
  8
0
 62
     7
420
 16776959
370
     9
  0
POLYLINE
  5
152
330
A1
100
AcDbEntity
  8
0
 62
     7
420
 16776959
370
     9
100
AcDb2dPolyline
 66
     1
 10
0.0
 20
0.0
 30
0.0
  0
VERTEX
  5
153
330
152
100
AcDbEntity
  8
0
 62
     7
420
 16776959
370
     9
100
AcDbVertex
100
AcDb2dVertex
 10
350.4957077010768
 20
280.8563908835276
 30
0.0
  0
VERTEX
  5
154
330
152
100
AcDbEntity
  8
0
 62
     7
420
 16776959
370
     9
100
AcDbVertex
100
AcDb2dVertex
 10
349.4836380725974
 20
281.6006475198483
 30
0.0
  0
SEQEND
  5
155
330
152
100
AcDbEntity
  8
0
 62
     7
420
 16776959
370
     9
  0
SPLINE
  5
156
330
A1
100
AcDbEntity
  8
0
 62
     7
420
 16776959
370
     9
100
AcDbSpline
210
0.0
220
0.0
230
1.0
 70
     8
 71
     3
 72
    14
 73
    10
 74
     0
 42
0.0000000001
 43
0.0000000001
 12
1.0
 22
0.0
 32
0.0
 13
1.0
 23
0.0
 33
0.0
 40
0.0
 40
0.0
 40
0.0
 40
0.0
 40
1.0
 40
1.0
 40
1.0
 40
2.0
 40
2.0
 40
2.0
 40
3.0
 40
3.0
 40
3.0
 40
3.0
 10
336.3429224294541
 20
262.7417819773382
 30
0.0
 10
336.2392353915457
 20
262.7956200393892
 30
0.0
 10
336.135915491197
 20
262.8506938405299
 30
0.0
 10
336.0329770464659
 20
262.9070085976327
 30
0.0
 10
327.2688667328466
 20
267.7016093400798
 30
0.0
 10
324.5886061962874
 20
279.6759168464741
 30
0.0
 10
330.0464475830113
 20
289.6523729805594
 30
0.0
 10
335.5042889697361
 20
299.6288291146448
 30
0.0
 10
347.0334587796178
 20
303.8295528970903
 30
0.0
 10
355.7975690932353
 20
299.0349521546432
 30
0.0
  0
SPLINE
  5
157
330
A1
100
AcDbEntity
  8
0
 62
     7
420
 16776959
370
    18
100
AcDbSpline
210
0.0
220
0.0
230
1.0
 70
    11
 71
     3
 72
    17
 73
    13
 74
     0
 42
0.0000000001
 43
0.0000000001
 12
1.0
 22
0.0
 32
0.0
 13
1.0
 23
0.0
 33
0.0
 40
0.0
 40
0.0
 40
0.0
 40
0.0
 40
1.0
 40
1.0
 40
1.0
 40
2.0
 40
2.0
 40
2.0
 40
3.0
 40
3.0
 40
3.0
 40
4.0
 40
4.0
 40
4.0
 40
4.0
 10
358.5424344485018
 20
273.3782785597305
 30
0.0
 10
355.5154540944477
 20
267.7251516899778
 30
0.0
 10
349.0405952625279
 20
265.2954444298648
 30
0.0
 10
344.0804324750843
 20
267.9513755024254
 30
0.0
 10
339.1202696876408
 20
270.6073065749842
 30
0.0
 10
337.5531156839115
 20
277.3431289146665
 30
0.0
 10
340.5800960379675
 20
282.9962557844174
 30
0.0
 10
343.6070763920197
 20
288.64938265417
 30
0.0
 10
350.0819352239396
 20
291.0790899142812
 30
0.0
 10
355.042098011384
 20
288.4231588417206
 30
0.0
 10
360.0022607988276
 20
285.7672277691599
 30
0.0
 10
361.569414802555
 20
279.0314054294831
 30
0.0
 10
358.5424344485018
 20
273.3782785597305
 30
0.0
  0
MTEXT
  5
158
330
A1
100
AcDbEntity
  8
0
 62
     7
420
 16776959
100
AcDbMText
 10
345.6745192607632
 20
283.0354045656277
 30
0.0
 40
2.267093040511996
 41
0.0
 46
0.0
 71
     7
 72
     1
  1
\fHelvetica Neue LT Std 77 Condensed|b1|i0|c0|p34;\W0.866268;WS22
 11
0.9881221707332019
 21
0.153670347515404
 31
0.0
 73
     1
 44
1.0
  0
MTEXT
  5
159
330
A1
100
AcDbEntity
  8
0
 62
     7
420
 16776959
100
AcDbMText
 10
347.8389266861486
 20
270.2831407365738
 30
0.0
 40
2.302555237804078
 41
0.0
 46
0.0
 71
     7
 72
     1
  1
\fHelvetica Neue LT Std 77 Condensed|b1|i0|c0|p34;\W0.955598;3.5
 11
0.9881221707332019
 21
0.153670347515404
 31
0.0
 73
     1
 44
1.0
  0
INSERT
  5
15B
330
A1
100
AcDbEntity
  8
0
100
AcDbBlockReference
  2
block 7
 10
0.0
 20
0.0
 30
0.0
  0
SPLINE
  5
17E
330
A1
100
AcDbEntity
  8
0
 62
     7
420
 16776959
370
     9
100
AcDbSpline
210
0.0
220
0.0
230
1.0
 70
    11
 71
     3
 72
    17
 73
    13
 74
     0
 42
0.0000000001
 43
0.0000000001
 12
1.0
 22
0.0
 32
0.0
 13
1.0
 23
0.0
 33
0.0
 40
0.0
 40
0.0
 40
0.0
 40
0.0
 40
1.0
 40
1.0
 40
1.0
 40
2.0
 40
2.0
 40
2.0
 40
3.0
 40
3.0
 40
3.0
 40
4.0
 40
4.0
 40
4.0
 40
4.0
 10
352.4965771338975
 20
276.6155473733197
 30
0.0
 10
351.5072703718279
 20
274.767938210085
 30
0.0
 10
349.3910948845032
 20
273.9738379711926
 30
0.0
 10
347.7699668913829
 20
274.8418748470031
 30
0.0
 10
346.1488388982634
 20
275.7099117228136
 30
0.0
 10
345.6366465905012
 20
277.9113778075935
 30
0.0
 10
346.6259533525699
 20
279.7589869708281
 30
0.0
 10
347.6152601146414
 20
281.6065961340628
 30
0.0
 10
349.7314356019642
 20
282.4006963729553
 30
0.0
 10
351.3525635950846
 20
281.5326594971448
 30
0.0
 10
352.9736915882049
 20
280.6646226213325
 30
0.0
 10
353.4858838959663
 20
278.4631565365544
 30
0.0
 10
352.4965771338975
 20
276.6155473733197
 30
0.0
  0
ENDBLK
  5
A4
330
A1
100
AcDbEntity
  8
0
100
AcDbBlockEnd
  0
BLOCK
  5
15C
330
15A
100
AcDbEntity
  8
0
100
AcDbBlockBegin
  2
block 7
 70
     0
 10
0.0
 20
0.0
 30
0.0
  3
block 7
  1

  0
INSERT
  5
15F
330
15A
100
AcDbEntity
  8
0
100
AcDbBlockReference
  2
block 8
 10
0.0
 20
0.0
 30
0.0
  0
INSERT
  5
173
330
15A
100
AcDbEntity
  8
0
100
AcDbBlockReference
  2
block 9
 10
0.0
 20
0.0
 30
0.0
  0
ENDBLK
  5
15D
330
15A
100
AcDbEntity
  8
0
100
AcDbBlockEnd
  0
BLOCK
  5
160
330
15E
100
AcDbEntity
  8
0
100
AcDbBlockBegin
  2
block 8
 70
     0
 10
0.0
 20
0.0
 30
0.0
  3
block 8
  1

  0
POLYLINE
  5
162
330
15E
100
AcDbEntity
  8
0
370
     0
100
AcDb2dPolyline
 66
     1
 10
0.0
 20
0.0
 30
0.0
  0
VERTEX
  5
163
330
162
100
AcDbEntity
  8
0
370
     0
100
AcDbVertex
100
AcDb2dVertex
 10
354.6080945062631
 20
278.8678189700404
 30
0.0
  0
VERTEX
  5
164
330
162
100
AcDbEntity
  8
0
370
     0
100
AcDbVertex
100
AcDb2dVertex
 10
357.556428577961
 20
279.2789200577299
 30
0.0
  0
VERTEX
  5
165
330
162
100
AcDbEntity
  8
0
370
     0
100
AcDbVertex
100
AcDb2dVertex
 10
357.5564285779628
 20
278.7637984962257
 30
0.0
  0
VERTEX
  5
166
330
162
100
AcDbEntity
  8
0
370
     0
100
AcDbVertex
100
AcDb2dVertex
 10
354.6080945062649
 20
278.3524974085412
 30
0.0
  0
VERTEX
  5
167
330
162
100
AcDbEntity
  8
0
370
     0
100
AcDbVertex
100
AcDb2dVertex
 10
354.6080945062631
 20
278.8678189700404
 30
0.0
  0
SEQEND
  5
169
330
162
100
AcDbEntity
  8
0
370
     0
  0
HATCH
  5
168
330
15E
100
AcDbEntity
  8
0
 62
     7
420
 16776959
100
AcDbHatch
 10
0.0
 20
0.0
 30
0.0
210
0.0
220
0.0
230
1.0
  2
SOLID
 70
     1
 71
     0
 91
        1
 92
        1
 93
        4
 72
     1
 10
354.6080945062631
 20
278.8678189700404
 11
357.556428577961
 21
279.2789200577299
 72
     1
 10
357.556428577961
 20
279.2789200577299
 11
357.5564285779628
 21
278.7637984962257
 72
     1
 10
357.5564285779628
 20
278.7637984962257
 11
354.6080945062649
 21
278.3524974085412
 72
     1
 10
354.6080945062649
 20
278.3524974085412
 11
354.6080945062631
 21
278.8678189700404
 97
        0
 75
     2
 76
     1
 98
        0
  0
POLYLINE
  5
16A
330
15E
100
AcDbEntity
  8
0
370
     0
100
AcDb2dPolyline
 66
     1
 10
0.0
 20
0.0
 30
0.0
  0
VERTEX
  5
16B
330
16A
100
AcDbEntity
  8
0
370
     0
100
AcDbVertex
100
AcDb2dVertex
 10
354.6080945062586
 20
279.7250189483839
 30
0.0
  0
VERTEX
  5
16C
330
16A
100
AcDbEntity
  8
0
370
     0
100
AcDbVertex
100
AcDb2dVertex
 10
357.5564285779565
 20
280.136120036077
 30
0.0
  0
VERTEX
  5
16D
330
16A
100
AcDbEntity
  8
0
370
     0
100
AcDbVertex
100
AcDb2dVertex
 10
357.5564285779583
 20
279.6199724674625
 30
0.0
  0
VERTEX
  5
16E
330
16A
100
AcDbEntity
  8
0
370
     0
100
AcDbVertex
100
AcDb2dVertex
 10
354.6080945062604
 20
279.208871379773
 30
0.0
  0
VERTEX
  5
16F
330
16A
100
AcDbEntity
  8
0
370
     0
100
AcDbVertex
100
AcDb2dVertex
 10
354.6080945062586
 20
279.7250189483839
 30
0.0
  0
SEQEND
  5
171
330
16A
100
AcDbEntity
  8
0
370
     0
  0
HATCH
  5
170
330
15E
100
AcDbEntity
  8
0
 62
     7
420
 16776959
100
AcDbHatch
 10
0.0
 20
0.0
 30
0.0
210
0.0
220
0.0
230
1.0
  2
SOLID
 70
     1
 71
     0
 91
        1
 92
        1
 93
        4
 72
     1
 10
354.6080945062586
 20
279.7250189483839
 11
357.5564285779565
 21
280.136120036077
 72
     1
 10
357.5564285779565
 20
280.136120036077
 11
357.5564285779583
 21
279.6199724674625
 72
     1
 10
357.5564285779583
 20
279.6199724674625
 11
354.6080945062604
 21
279.208871379773
 72
     1
 10
354.6080945062604
 20
279.208871379773
 11
354.6080945062586
 21
279.7250189483839
 97
        0
 75
     2
 76
     1
 98
        0
  0
ENDBLK
  5
161
330
15E
100
AcDbEntity
  8
0
100
AcDbBlockEnd
  0
BLOCK
  5
174
330
172
100
AcDbEntity
  8
0
100
AcDbBlockBegin
  2
block 9
 70
     0
 10
0.0
 20
0.0
 30
0.0
  3
block 9
  1

  0
POLYLINE
  5
176
330
172
100
AcDbEntity
  8
0
370
     0
100
AcDb2dPolyline
 66
     1
 10
0.0
 20
0.0
 30
0.0
  0
VERTEX
  5
177
330
176
100
AcDbEntity
  8
0
370
     0
100
AcDbVertex
100
AcDb2dVertex
 10
356.9666271585183
 20
281.0134034199109
 30
0.0
  0
VERTEX
  5
178
330
176
100
AcDbEntity
  8
0
370
     0
100
AcDbVertex
100
AcDb2dVertex
 10
357.1680395488274
 20
280.9144670351852
 30
0.0
  0
VERTEX
  5
179
330
176
100
AcDbEntity
  8
0
370
     0
100
AcDbVertex
100
AcDb2dVertex
 10
355.1386701669726
 20
277.5470405243577
 30
0.0
  0
VERTEX
  5
17A
330
176
100
AcDbEntity
  8
0
370
     0
100
AcDbVertex
100
AcDb2dVertex
 10
354.9372577766644
 20
277.6460884884818
 30
0.0
  0
VERTEX
  5
17B
330
176
100
AcDbEntity
  8
0
370
     0
100
AcDbVertex
100
AcDb2dVertex
 10
356.9666271585183
 20
281.0134034199109
 30
0.0
  0
SEQEND
  5
17D
330
176
100
AcDbEntity
  8
0
370
     0
  0
HATCH
  5
17C
330
172
100
AcDbEntity
  8
0
 62
     7
420
 16776959
100
AcDbHatch
 10
0.0
 20
0.0
 30
0.0
210
0.0
220
0.0
230
1.0
  2
SOLID
 70
     1
 71
     0
 91
        1
 92
        1
 93
        4
 72
     1
 10
356.9666271585183
 20
281.0134034199109
 11
357.1680395488274
 21
280.9144670351852
 72
     1
 10
357.1680395488274
 20
280.9144670351852
 11
355.1386701669726
 21
277.5470405243577
 72
     1
 10
355.1386701669726
 20
277.5470405243577
 11
354.9372577766644
 21
277.6460884884818
 72
     1
 10
354.9372577766644
 20
277.6460884884818
 11
356.9666271585183
 21
281.0134034199109
 97
        0
 75
     2
 76
     1
 98
        0
  0
ENDBLK
  5
175
330
172
100
AcDbEntity
  8
0
100
AcDbBlockEnd
  0
BLOCK
  5
181
330
17F
100
AcDbEntity
  8
0
100
AcDbBlockBegin
  2
block 10
 70
     0
 10
0.0
 20
0.0
 30
0.0
  3
block 10
  1

  0
SPLINE
  5
183
330
17F
100
AcDbEntity
  8
0
 62
     7
420
 16776959
370
    18
100
AcDbSpline
210
0.0
220
0.0
230
1.0
 70
    11
 71
     3
 72
    23
 73
    19
 74
     0
 42
0.0000000001
 43
0.0000000001
 12
1.0
 22
0.0
 32
0.0
 13
1.0
 23
0.0
 33
0.0
 40
0.0
 40
0.0
 40
0.0
 40
0.0
 40
1.0
 40
1.0
 40
1.0
 40
2.0
 40
2.0
 40
2.0
 40
3.0
 40
3.0
 40
3.0
 40
4.0
 40
4.0
 40
4.0
 40
5.0
 40
5.0
 40
5.0
 40
6.0
 40
6.0
 40
6.0
 40
6.0
 10
404.0700487095537
 20
305.9177751318703
 30
0.0
 10
395.5151974152714
 20
310.0499189868851
 30
0.0
 10
384.6045917618476
 20
305.8640817578744
 30
0.0
 10
379.3638376913004
 20
296.2844422283142
 30
0.0
 10
373.9752037039734
 20
286.4344911601165
 30
0.0
 10
376.6214775691924
 20
274.6120221963556
 30
0.0
 10
385.2744557996584
 20
269.878218722466
 30
0.0
 10
385.2744557996584
 20
269.878218722466
 30
0.0
 10
387.1686944466301
 20
269.0255398247518
 30
0.0
 10
387.1686944466301
 20
269.0255398247518
 30
0.0
 10
395.7822269712724
 20
264.5530820529002
 30
0.0
 10
406.9619252340226
 20
268.7180170622687
 30
0.0
 10
412.2872672747626
 20
278.4522759943193
 30
0.0
 10
417.6759012620914
 20
288.302227062517
 30
0.0
 10
415.0296273968725
 20
300.1246960262733
 30
0.0
 10
406.3766491664064
 20
304.8584995001675
 30
0.0
 10
406.3766491664064
 20
304.8584995001675
 30
0.0
 10
404.0700487095537
 20
305.9177751318703
 30
0.0
 10
404.0700487095537
 20
305.9177751318703
 30
0.0
  0
HATCH
  5
184
330
17F
100
AcDbEntity
  8
0
 62
   250
420
  2301728
100
AcDbHatch
 10
0.0
 20
0.0
 30
0.0
210
0.0
220
0.0
230
1.0
  2
SOLID
 70
     1
 71
     0
 91
        1
 92
        1
 93
        1
 72
     4
 94
        3
 73
     0
 74
     1
 95
       23
 96
       19
 40
0.0
 40
0.0
 40
0.0
 40
0.0
 40
1.0
 40
1.0
 40
1.0
 40
2.0
 40
2.0
 40
2.0
 40
3.0
 40
3.0
 40
3.0
 40
4.0
 40
4.0
 40
4.0
 40
5.0
 40
5.0
 40
5.0
 40
6.0
 40
6.0
 40
6.0
 40
6.0
 10
404.0700487095537
 20
305.9177751318703
 10
395.5151974152714
 20
310.0499189868851
 10
384.6045917618476
 20
305.8640817578744
 10
379.3638376913004
 20
296.2844422283142
 10
373.9752037039734
 20
286.4344911601165
 10
376.6214775691924
 20
274.6120221963556
 10
385.2744557996584
 20
269.878218722466
 10
385.2744557996584
 20
269.878218722466
 10
387.1686944466301
 20
269.0255398247518
 10
387.1686944466301
 20
269.0255398247518
 10
395.7822269712724
 20
264.5530820529002
 10
406.9619252340226
 20
268.7180170622687
 10
412.2872672747626
 20
278.4522759943193
 10
417.6759012620914
 20
288.302227062517
 10
415.0296273968725
 20
300.1246960262733
 10
406.3766491664064
 20
304.8584995001675
 10
406.3766491664064
 20
304.8584995001675
 10
404.0700487095537
 20
305.9177751318703
 10
404.0700487095537
 20
305.9177751318703
 97
        0
 97
        0
 75
     2
 76
     1
 98
        0
  0
SPLINE
  5
185
330
17F
100
AcDbEntity
  8
0
 62
     7
420
 16776959
370
    13
100
AcDbSpline
210
0.0
220
0.0
230
1.0
 70
    11
 71
     3
 72
    59
 73
    55
 74
     0
 42
0.0000000001
 43
0.0000000001
 12
1.0
 22
0.0
 32
0.0
 13
1.0
 23
0.0
 33
0.0
 40
0.0
 40
0.0
 40
0.0
 40
0.0
 40
1.0
 40
1.0
 40
1.0
 40
2.0
 40
2.0
 40
2.0
 40
3.0
 40
3.0
 40
3.0
 40
4.0
 40
4.0
 40
4.0
 40
5.0
 40
5.0
 40
5.0
 40
6.0
 40
6.0
 40
6.0
 40
7.0
 40
7.0
 40
7.0
 40
8.0
 40
8.0
 40
8.0
 40
9.0
 40
9.0
 40
9.0
 40
10.0
 40
10.0
 40
10.0
 40
11.0
 40
11.0
 40
11.0
 40
12.0
 40
12.0
 40
12.0
 40
13.0
 40
13.0
 40
13.0
 40
14.0
 40
14.0
 40
14.0
 40
15.0
 40
15.0
 40
15.0
 40
16.0
 40
16.0
 40
16.0
 40
17.0
 40
17.0
 40
17.0
 40
18.0
 40
18.0
 40
18.0
 40
18.0
 10
391.1271293612017
 20
270.536265854842
 30
0.0
 10
391.1271293612017
 20
270.536265854842
 30
0.0
 10
389.8942983467223
 20
270.3829587302243
 30
0.0
 10
389.8942983467223
 20
270.3829587302243
 30
0.0
 10
388.7531305479697
 20
270.2761076623319
 30
0.0
 10
387.7801936405458
 20
270.7451843314047
 30
0.0
 10
387.1570348723162
 20
271.7051213669274
 30
0.0
 10
387.1570348723162
 20
271.7051213669274
 30
0.0
 10
380.2910821717269
 20
283.3540736369705
 30
0.0
 10
380.2910821717269
 20
283.3540736369705
 30
0.0
 10
379.7405634990491
 20
284.4267541224435
 30
0.0
 10
379.7429333543596
 20
285.6061813731212
 30
0.0
 10
380.2910821717269
 20
286.6870878902355
 30
0.0
 10
380.2910821717269
 20
286.6870878902355
 30
0.0
 10
387.1570348723162
 20
299.9684974863794
 30
0.0
 10
387.1570348723162
 20
299.9684974863794
 30
0.0
 10
387.7299447551231
 20
301.0443834432026
 30
0.0
 10
388.6963948197454
 20
301.7431021530738
 30
0.0
 10
389.8942983467223
 20
301.9414752403809
 30
0.0
 10
389.8942983467223
 20
301.9414752403809
 30
0.0
 10
403.5030919308138
 20
303.4848145489505
 30
0.0
 10
403.5030919308138
 20
303.4848145489505
 30
0.0
 10
404.6370017734698
 20
303.5759848683374
 30
0.0
 10
405.5986927539834
 20
303.098683868875
 30
0.0
 10
406.2094482547745
 20
302.1401605413294
 30
0.0
 10
406.2094482547745
 20
302.1401605413294
 30
0.0
 10
412.9530568922628
 20
290.5511463433995
 30
0.0
 10
412.9530568922628
 20
290.5511463433995
 30
0.0
 10
412.9530568922628
 20
290.5511463433995
 30
0.0
 10
412.9582132852038
 20
290.5422484818719
 30
0.0
 10
412.9582132852038
 20
290.5422484818719
 30
0.0
 10
413.1216552982669
 20
290.2562474750976
 30
0.0
 10
413.2366286050737
 20
289.9461387827869
 30
0.0
 10
413.3027334013468
 20
289.623525604211
 30
0.0
 10
413.3027334013468
 20
289.623525604211
 30
0.0
 10
414.5911864406926
 20
287.4094427994878
 30
0.0
 10
414.5911864406926
 20
287.4094427994878
 30
0.0
 10
414.8793612021746
 20
286.8714299971434
 30
0.0
 10
414.8922800765904
 20
286.2757087491136
 30
0.0
 10
414.6283632664008
 20
285.7247218291523
 30
0.0
 10
414.6283632664008
 20
285.7247218291523
 30
0.0
 10
407.8405215354187
 20
272.4343878268501
 30
0.0
 10
407.8405215354187
 20
272.4343878268501
 30
0.0
 10
407.5659087735075
 20
271.9215852025263
 30
0.0
 10
407.1031488170984
 20
271.5906483642593
 30
0.0
 10
406.5297921956844
 20
271.4982605056575
 30
0.0
 10
406.5297921956844
 20
271.4982605056575
 30
0.0
 10
392.8469032931971
 20
269.7921913560385
 30
0.0
 10
392.8469032931971
 20
269.7921913560385
 30
0.0
 10
392.4142650241292
 20
269.7435937828523
 30
0.0
 10
391.9971820442561
 20
269.8598873303035
 30
0.0
 10
391.6500661988975
 20
270.1244269301005
 30
0.0
 10
391.6500661988975
 20
270.1244269301005
 30
0.0
 10
391.1271293612017
 20
270.536265854842
 30
0.0
 10
391.1271293612017
 20
270.536265854842
 30
0.0
  0
HATCH
  5
186
330
17F
100
AcDbEntity
  8
0
 62
   250
420
  2301728
100
AcDbHatch
 10
0.0
 20
0.0
 30
0.0
210
0.0
220
0.0
230
1.0
  2
SOLID
 70
     1
 71
     0
 91
        1
 92
        1
 93
        1
 72
     4
 94
        3
 73
     0
 74
     1
 95
       59
 96
       55
 40
0.0
 40
0.0
 40
0.0
 40
0.0
 40
1.0
 40
1.0
 40
1.0
 40
2.0
 40
2.0
 40
2.0
 40
3.0
 40
3.0
 40
3.0
 40
4.0
 40
4.0
 40
4.0
 40
5.0
 40
5.0
 40
5.0
 40
6.0
 40
6.0
 40
6.0
 40
7.0
 40
7.0
 40
7.0
 40
8.0
 40
8.0
 40
8.0
 40
9.0
 40
9.0
 40
9.0
 40
10.0
 40
10.0
 40
10.0
 40
11.0
 40
11.0
 40
11.0
 40
12.0
 40
12.0
 40
12.0
 40
13.0
 40
13.0
 40
13.0
 40
14.0
 40
14.0
 40
14.0
 40
15.0
 40
15.0
 40
15.0
 40
16.0
 40
16.0
 40
16.0
 40
17.0
 40
17.0
 40
17.0
 40
18.0
 40
18.0
 40
18.0
 40
18.0
 10
391.1271293612017
 20
270.536265854842
 10
391.1271293612017
 20
270.536265854842
 10
389.8942983467223
 20
270.3829587302243
 10
389.8942983467223
 20
270.3829587302243
 10
388.7531305479697
 20
270.2761076623319
 10
387.7801936405458
 20
270.7451843314047
 10
387.1570348723162
 20
271.7051213669274
 10
387.1570348723162
 20
271.7051213669274
 10
380.2910821717269
 20
283.3540736369705
 10
380.2910821717269
 20
283.3540736369705
 10
379.7405634990491
 20
284.4267541224435
 10
379.7429333543596
 20
285.6061813731212
 10
380.2910821717269
 20
286.6870878902355
 10
380.2910821717269
 20
286.6870878902355
 10
387.1570348723162
 20
299.9684974863794
 10
387.1570348723162
 20
299.9684974863794
 10
387.7299447551231
 20
301.0443834432026
 10
388.6963948197454
 20
301.7431021530738
 10
389.8942983467223
 20
301.9414752403809
 10
389.8942983467223
 20
301.9414752403809
 10
403.5030919308138
 20
303.4848145489505
 10
403.5030919308138
 20
303.4848145489505
 10
404.6370017734698
 20
303.5759848683374
 10
405.5986927539834
 20
303.098683868875
 10
406.2094482547745
 20
302.1401605413294
 10
406.2094482547745
 20
302.1401605413294
 10
412.9530568922628
 20
290.5511463433995
 10
412.9530568922628
 20
290.5511463433995
 10
412.9530568922628
 20
290.5511463433995
 10
412.9582132852038
 20
290.5422484818719
 10
412.9582132852038
 20
290.5422484818719
 10
413.1216552982669
 20
290.2562474750976
 10
413.2366286050737
 20
289.9461387827869
 10
413.3027334013468
 20
289.623525604211
 10
413.3027334013468
 20
289.623525604211
 10
414.5911864406926
 20
287.4094427994878
 10
414.5911864406926
 20
287.4094427994878
 10
414.8793612021746
 20
286.8714299971434
 10
414.8922800765904
 20
286.2757087491136
 10
414.6283632664008
 20
285.7247218291523
 10
414.6283632664008
 20
285.7247218291523
 10
407.8405215354187
 20
272.4343878268501
 10
407.8405215354187
 20
272.4343878268501
 10
407.5659087735075
 20
271.9215852025263
 10
407.1031488170984
 20
271.5906483642593
 10
406.5297921956844
 20
271.4982605056575
 10
406.5297921956844
 20
271.4982605056575
 10
392.8469032931971
 20
269.7921913560385
 10
392.8469032931971
 20
269.7921913560385
 10
392.4142650241292
 20
269.7435937828523
 10
391.9971820442561
 20
269.8598873303035
 10
391.6500661988975
 20
270.1244269301005
 10
391.6500661988975
 20
270.1244269301005
 10
391.1271293612017
 20
270.536265854842
 10
391.1271293612017
 20
270.536265854842
 97
        0
 97
        0
 75
     2
 76
     1
 98
        0
  0
SPLINE
  5
187
330
17F
100
AcDbEntity
  8
0
 62
     7
420
 16776959
370
     9
100
AcDbSpline
210
0.0
220
0.0
230
1.0
 70
     8
 71
     3
 72
     8
 73
     4
 74
     0
 42
0.0000000001
 43
0.0000000001
 12
1.0
 22
0.0
 32
0.0
 13
1.0
 23
0.0
 33
0.0
 40
0.0
 40
0.0
 40
0.0
 40
0.0
 40
1.0
 40
1.0
 40
1.0
 40
1.0
 10
406.2094482547745
 20
302.1401605413294
 30
0.0
 10
405.7787786191502
 20
301.8720938251308
 30
0.0
 10
405.4593381510122
 20
301.4744941329836
 30
0.0
 10
405.3041221430649
 20
301.0051962895432
 30
0.0
  0
SPLINE
  5
188
330
17F
100
AcDbEntity
  8
0
 62
     7
420
 16776959
370
     9
100
AcDbSpline
210
0.0
220
0.0
230
1.0
 70
     8
 71
     3
 72
     8
 73
     4
 74
     0
 42
0.0000000001
 43
0.0000000001
 12
1.0
 22
0.0
 32
0.0
 13
1.0
 23
0.0
 33
0.0
 40
0.0
 40
0.0
 40
0.0
 40
0.0
 40
1.0
 40
1.0
 40
1.0
 40
1.0
 10
412.8213054905445
 20
290.4508132324554
 30
0.0
 10
412.8636909353072
 20
290.4843343033026
 30
0.0
 10
412.9066091204804
 20
290.5171593467458
 30
0.0
 10
412.9502202190006
 20
290.5490721212664
 30
0.0
  0
SPLINE
  5
189
330
17F
100
AcDbEntity
  8
0
 62
     7
420
 16776959
370
     9
100
AcDbSpline
210
0.0
220
0.0
230
1.0
 70
     8
 71
     3
 72
     8
 73
     4
 74
     0
 42
0.0000000001
 43
0.0000000001
 12
1.0
 22
0.0
 32
0.0
 13
1.0
 23
0.0
 33
0.0
 40
0.0
 40
0.0
 40
0.0
 40
0.0
 40
1.0
 40
1.0
 40
1.0
 40
1.0
 10
404.0591533368324
 20
301.4425800500358
 30
0.0
 10
403.5580181263567
 20
301.8055633433823
 30
0.0
 10
403.4691935099772
 20
302.9341883639881
 30
0.0
 10
403.5030919308138
 20
303.4848145489505
 30
0.0
  0
SPLINE
  5
18A
330
17F
100
AcDbEntity
  8
0
 62
     7
420
 16776959
370
     9
100
AcDbSpline
210
0.0
220
0.0
230
1.0
 70
     8
 71
     3
 72
     8
 73
     4
 74
     0
 42
0.0000000001
 43
0.0000000001
 12
1.0
 22
0.0
 32
0.0
 13
1.0
 23
0.0
 33
0.0
 40
0.0
 40
0.0
 40
0.0
 40
0.0
 40
1.0
 40
1.0
 40
1.0
 40
1.0
 10
405.0130551433604
 20
301.2085993668643
 30
0.0
 10
404.7376958030964
 20
301.3994314722049
 30
0.0
 10
404.4021618766883
 20
301.4783425768765
 30
0.0
 10
404.0699545676034
 20
301.4437735243537
 30
0.0
  0
SPLINE
  5
18B
330
17F
100
AcDbEntity
  8
0
 62
     7
420
 16776959
370
     9
100
AcDbSpline
210
0.0
220
0.0
230
1.0
 70
     8
 71
     3
 72
     8
 73
     4
 74
     0
 42
0.0000000001
 43
0.0000000001
 12
1.0
 22
0.0
 32
0.0
 13
1.0
 23
0.0
 33
0.0
 40
0.0
 40
0.0
 40
0.0
 40
0.0
 40
1.0
 40
1.0
 40
1.0
 40
1.0
 10
389.8942983467223
 20
301.9414752403809
 30
0.0
 10
389.8511939702203
 20
301.2142002575047
 30
0.0
 10
390.036904458736
 20
300.4884923787467
 30
0.0
 10
390.4277543245134
 20
299.8944282932425
 30
0.0
  0
POLYLINE
  5
18C
330
17F
100
AcDbEntity
  8
0
 62
     7
420
 16776959
370
     9
100
AcDb2dPolyline
 66
     1
 10
0.0
 20
0.0
 30
0.0
  0
VERTEX
  5
18D
330
18C
100
AcDbEntity
  8
0
 62
     7
420
 16776959
370
     9
100
AcDbVertex
100
AcDb2dVertex
 10
390.4367334594517
 20
299.887698779894
 30
0.0
  0
VERTEX
  5
18E
330
18C
100
AcDbEntity
  8
0
 62
     7
420
 16776959
370
     9
100
AcDbVertex
100
AcDb2dVertex
 10
404.0591533368324
 20
301.4425800500358
 30
0.0
  0
SEQEND
  5
18F
330
18C
100
AcDbEntity
  8
0
 62
     7
420
 16776959
370
     9
  0
SPLINE
  5
190
330
17F
100
AcDbEntity
  8
0
 62
     7
420
 16776959
370
     9
100
AcDbSpline
210
0.0
220
0.0
230
1.0
 70
     8
 71
     3
 72
     8
 73
     4
 74
     0
 42
0.0000000001
 43
0.0000000001
 12
1.0
 22
0.0
 32
0.0
 13
1.0
 23
0.0
 33
0.0
 40
0.0
 40
0.0
 40
0.0
 40
0.0
 40
1.0
 40
1.0
 40
1.0
 40
1.0
 10
389.0673728815163
 20
298.8995231639055
 30
0.0
 10
388.4832842139649
 20
299.3222210039303
 30
0.0
 10
387.8048987248894
 20
299.6570068627734
 30
0.0
 10
387.1570348723162
 20
299.9684974863794
 30
0.0
  0
SPLINE
  5
191
330
17F
100
AcDbEntity
  8
0
 62
     7
420
 16776959
370
     9
100
AcDbSpline
210
0.0
220
0.0
230
1.0
 70
     8
 71
     3
 72
     8
 73
     4
 74
     0
 42
0.0000000001
 43
0.0000000001
 12
1.0
 22
0.0
 32
0.0
 13
1.0
 23
0.0
 33
0.0
 40
0.0
 40
0.0
 40
0.0
 40
0.0
 40
1.0
 40
1.0
 40
1.0
 40
1.0
 10
390.4367334594517
 20
299.887698779894
 30
0.0
 10
389.8373369503452
 20
299.7879934971952
 30
0.0
 10
389.3538627794314
 20
299.4380436510037
 30
0.0
 10
389.0673728815163
 20
298.8995231639055
 30
0.0
  0
SPLINE
  5
192
330
17F
100
AcDbEntity
  8
0
 62
     7
420
 16776959
370
     9
100
AcDbSpline
210
0.0
220
0.0
230
1.0
 70
     8
 71
     3
 72
     8
 73
     4
 74
     0
 42
0.0000000001
 43
0.0000000001
 12
1.0
 22
0.0
 32
0.0
 13
1.0
 23
0.0
 33
0.0
 40
0.0
 40
0.0
 40
0.0
 40
0.0
 40
1.0
 40
1.0
 40
1.0
 40
1.0
 10
380.2910821717269
 20
286.6870878902355
 30
0.0
 10
380.9528757068047
 20
286.3740501730463
 30
0.0
 10
381.5926726665948
 20
286.011934660828
 30
0.0
 10
382.2010077364694
 20
285.6059721740912
 30
0.0
  0
POLYLINE
  5
193
330
17F
100
AcDbEntity
  8
0
 62
     7
420
 16776959
370
     9
100
AcDb2dPolyline
 66
     1
 10
0.0
 20
0.0
 30
0.0
  0
VERTEX
  5
194
330
193
100
AcDbEntity
  8
0
 62
     7
420
 16776959
370
     9
100
AcDbVertex
100
AcDb2dVertex
 10
382.2010077364694
 20
285.6059721740912
 30
0.0
  0
VERTEX
  5
195
330
193
100
AcDbEntity
  8
0
 62
     7
420
 16776959
370
     9
100
AcDbVertex
100
AcDb2dVertex
 10
389.0673728815163
 20
298.8995231639055
 30
0.0
  0
SEQEND
  5
196
330
193
100
AcDbEntity
  8
0
 62
     7
420
 16776959
370
     9
  0
SPLINE
  5
197
330
17F
100
AcDbEntity
  8
0
 62
     7
420
 16776959
370
     9
100
AcDbSpline
210
0.0
220
0.0
230
1.0
 70
     8
 71
     3
 72
     8
 73
     4
 74
     0
 42
0.0000000001
 43
0.0000000001
 12
1.0
 22
0.0
 32
0.0
 13
1.0
 23
0.0
 33
0.0
 40
0.0
 40
0.0
 40
0.0
 40
0.0
 40
1.0
 40
1.0
 40
1.0
 40
1.0
 10
382.2010077364694
 20
283.9382609454569
 30
0.0
 10
381.7207808480725
 20
284.2946099672645
 30
0.0
 10
380.6467965482389
 20
283.662854631435
 30
0.0
 10
380.2910821717269
 20
283.3540736369705
 30
0.0
  0
SPLINE
  5
198
330
17F
100
AcDbEntity
  8
0
 62
     7
420
 16776959
370
     9
100
AcDbSpline
210
0.0
220
0.0
230
1.0
 70
     8
 71
     3
 72
     8
 73
     4
 74
     0
 42
0.0000000001
 43
0.0000000001
 12
1.0
 22
0.0
 32
0.0
 13
1.0
 23
0.0
 33
0.0
 40
0.0
 40
0.0
 40
0.0
 40
0.0
 40
1.0
 40
1.0
 40
1.0
 40
1.0
 10
382.2010077364694
 20
285.6059721740912
 30
0.0
 10
381.9269301716058
 20
285.0651217892118
 30
0.0
 10
381.9257458263146
 20
284.474998541984
 30
0.0
 10
382.2010077364694
 20
283.9382609454569
 30
0.0
  0
SPLINE
  5
199
330
17F
100
AcDbEntity
  8
0
 62
     7
420
 16776959
370
     9
100
AcDbSpline
210
0.0
220
0.0
230
1.0
 70
     8
 71
     3
 72
     8
 73
     4
 74
     0
 42
0.0000000001
 43
0.0000000001
 12
1.0
 22
0.0
 32
0.0
 13
1.0
 23
0.0
 33
0.0
 40
0.0
 40
0.0
 40
0.0
 40
0.0
 40
1.0
 40
1.0
 40
1.0
 40
1.0
 10
390.0373075469806
 20
271.3945550625976
 30
0.0
 10
389.9158682609623
 20
271.0822226244545
 30
0.0
 10
389.8848960227024
 20
270.7162928362195
 30
0.0
 10
389.8942983467186
 20
270.3829587302243
 30
0.0
  0
SPLINE
  5
19A
330
17F
100
AcDbEntity
  8
0
 62
     7
420
 16776959
370
     9
100
AcDbSpline
210
0.0
220
0.0
230
1.0
 70
     8
 71
     3
 72
     8
 73
     4
 74
     0
 42
0.0000000001
 43
0.0000000001
 12
1.0
 22
0.0
 32
0.0
 13
1.0
 23
0.0
 33
0.0
 40
0.0
 40
0.0
 40
0.0
 40
0.0
 40
1.0
 40
1.0
 40
1.0
 40
1.0
 10
389.0673728815163
 20
272.2795243302699
 30
0.0
 10
389.1548660897488
 20
272.1322486175177
 30
0.0
 10
389.2671358383714
 20
272.0019494372718
 30
0.0
 10
389.4014233578118
 20
271.8953456779327
 30
0.0
  0
SPLINE
  5
19B
330
17F
100
AcDbEntity
  8
0
 62
     7
420
 16776959
370
     9
100
AcDbSpline
210
0.0
220
0.0
230
1.0
 70
     8
 71
     3
 72
     8
 73
     4
 74
     0
 42
0.0000000001
 43
0.0000000001
 12
1.0
 22
0.0
 32
0.0
 13
1.0
 23
0.0
 33
0.0
 40
0.0
 40
0.0
 40
0.0
 40
0.0
 40
1.0
 40
1.0
 40
1.0
 40
1.0
 10
387.1570348723162
 20
271.7051213669274
 30
0.0
 10
387.6971927265258
 20
272.1752333156528
 30
0.0
 10
388.3861428546807
 20
272.3954504104513
 30
0.0
 10
389.0582292856134
 20
272.2864386219098
 30
0.0
  0
POLYLINE
  5
19C
330
17F
100
AcDbEntity
  8
0
 62
     7
420
 16776959
370
     9
100
AcDb2dPolyline
 66
     1
 10
0.0
 20
0.0
 30
0.0
  0
VERTEX
  5
19D
330
19C
100
AcDbEntity
  8
0
 62
     7
420
 16776959
370
     9
100
AcDbVertex
100
AcDb2dVertex
 10
389.0673728815163
 20
272.2795243302699
 30
0.0
  0
VERTEX
  5
19E
330
19C
100
AcDbEntity
  8
0
 62
     7
420
 16776959
370
     9
100
AcDbVertex
100
AcDb2dVertex
 10
382.2010077364694
 20
283.9382609454569
 30
0.0
  0
SEQEND
  5
19F
330
19C
100
AcDbEntity
  8
0
 62
     7
420
 16776959
370
     9
  0
SPLINE
  5
1A0
330
17F
100
AcDbEntity
  8
0
 62
     7
420
 16776959
370
     9
100
AcDbSpline
210
0.0
220
0.0
230
1.0
 70
     8
 71
     3
 72
     8
 73
     4
 74
     0
 42
0.0000000001
 43
0.0000000001
 12
1.0
 22
0.0
 32
0.0
 13
1.0
 23
0.0
 33
0.0
 40
0.0
 40
0.0
 40
0.0
 40
0.0
 40
1.0
 40
1.0
 40
1.0
 40
1.0
 10
384.4194864057108
 20
283.8987912208468
 30
0.0
 10
384.9957572818857
 20
283.4587110522079
 30
0.0
 10
385.6904960900447
 20
283.1181875029579
 30
0.0
 10
386.3433045445036
 20
282.8094835796855
 30
0.0
  0
SPLINE
  5
1A1
330
17F
100
AcDbEntity
  8
0
 62
     7
420
 16776959
370
     9
100
AcDbSpline
210
0.0
220
0.0
230
1.0
 70
     8
 71
     3
 72
     8
 73
     4
 74
     0
 42
0.0000000001
 43
0.0000000001
 12
1.0
 22
0.0
 32
0.0
 13
1.0
 23
0.0
 33
0.0
 40
0.0
 40
0.0
 40
0.0
 40
0.0
 40
1.0
 40
1.0
 40
1.0
 40
1.0
 10
384.4194864057108
 20
282.2227865921013
 30
0.0
 10
384.1430637812809
 20
282.7622005126577
 30
0.0
 10
384.1442517610994
 20
283.355244062117
 30
0.0
 10
384.4194864057108
 20
283.8987912208468
 30
0.0
  0
SPLINE
  5
1A2
330
17F
100
AcDbEntity
  8
0
 62
     7
420
 16776959
370
     9
100
AcDbSpline
210
0.0
220
0.0
230
1.0
 70
     8
 71
     3
 72
     8
 73
     4
 74
     0
 42
0.0000000001
 43
0.0000000001
 12
1.0
 22
0.0
 32
0.0
 13
1.0
 23
0.0
 33
0.0
 40
0.0
 40
0.0
 40
0.0
 40
0.0
 40
1.0
 40
1.0
 40
1.0
 40
1.0
 10
386.3433045445036
 20
282.8094835796855
 30
0.0
 10
385.7992389155506
 20
282.3387098994644
 30
0.0
 10
385.1056598461519
 20
282.1144970374371
 30
0.0
 10
384.4286054401082
 20
282.2160185008906
 30
0.0
  0
POLYLINE
  5
1A3
330
17F
100
AcDbEntity
  8
0
 62
     7
420
 16776959
370
     9
100
AcDb2dPolyline
 66
     1
 10
0.0
 20
0.0
 30
0.0
  0
VERTEX
  5
1A4
330
1A3
100
AcDbEntity
  8
0
 62
     7
420
 16776959
370
     9
100
AcDbVertex
100
AcDb2dVertex
 10
384.4194864057108
 20
283.8987912208468
 30
0.0
  0
VERTEX
  5
1A5
330
1A3
100
AcDbEntity
  8
0
 62
     7
420
 16776959
370
     9
100
AcDbVertex
100
AcDb2dVertex
 10
382.2010077364694
 20
285.6059721740912
 30
0.0
  0
SEQEND
  5
1A6
330
1A3
100
AcDbEntity
  8
0
 62
     7
420
 16776959
370
     9
  0
POLYLINE
  5
1A7
330
17F
100
AcDbEntity
  8
0
 62
     7
420
 16776959
370
     9
100
AcDb2dPolyline
 66
     1
 10
0.0
 20
0.0
 30
0.0
  0
VERTEX
  5
1A8
330
1A7
100
AcDbEntity
  8
0
 62
     7
420
 16776959
370
     9
100
AcDbVertex
100
AcDb2dVertex
 10
382.2010077364694
 20
283.9382609454569
 30
0.0
  0
VERTEX
  5
1A9
330
1A7
100
AcDbEntity
  8
0
 62
     7
420
 16776959
370
     9
100
AcDbVertex
100
AcDb2dVertex
 10
384.4194864057108
 20
282.2227865921013
 30
0.0
  0
SEQEND
  5
1AA
330
1A7
100
AcDbEntity
  8
0
 62
     7
420
 16776959
370
     9
  0
SPLINE
  5
1AB
330
17F
100
AcDbEntity
  8
0
 62
     7
420
 16776959
370
     9
100
AcDbSpline
210
0.0
220
0.0
230
1.0
 70
     8
 71
     3
 72
     8
 73
     4
 74
     0
 42
0.0000000001
 43
0.0000000001
 12
1.0
 22
0.0
 32
0.0
 13
1.0
 23
0.0
 33
0.0
 40
0.0
 40
0.0
 40
0.0
 40
0.0
 40
1.0
 40
1.0
 40
1.0
 40
1.0
 10
393.2388411689099
 20
271.087110264767
 30
0.0
 10
393.2951864277293
 20
270.5997138722378
 30
0.0
 10
393.1605979903061
 20
270.1276424541247
 30
0.0
 10
392.8539751748731
 20
269.7932315620674
 30
0.0
  0
SPLINE
  5
1AC
330
17F
100
AcDbEntity
  8
0
 62
     7
420
 16776959
370
     9
100
AcDbSpline
210
0.0
220
0.0
230
1.0
 70
     8
 71
     3
 72
     8
 73
     4
 74
     0
 42
0.0000000001
 43
0.0000000001
 12
1.0
 22
0.0
 32
0.0
 13
1.0
 23
0.0
 33
0.0
 40
0.0
 40
0.0
 40
0.0
 40
0.0
 40
1.0
 40
1.0
 40
1.0
 40
1.0
 10
391.3146202718344
 20
270.5103053392559
 30
0.0
 10
391.8005094157415
 20
270.1428082261118
 30
0.0
 10
392.8776426931172
 20
270.7710795144212
 30
0.0
 10
393.2388411689099
 20
271.087110264767
 30
0.0
  0
SPLINE
  5
1AD
330
17F
100
AcDbEntity
  8
0
 62
     7
420
 16776959
370
     9
100
AcDbSpline
210
0.0
220
0.0
230
1.0
 70
     8
 71
     3
 72
     8
 73
     4
 74
     0
 42
0.0000000001
 43
0.0000000001
 12
1.0
 22
0.0
 32
0.0
 13
1.0
 23
0.0
 33
0.0
 40
0.0
 40
0.0
 40
0.0
 40
0.0
 40
1.0
 40
1.0
 40
1.0
 40
1.0
 10
391.6500661988975
 20
270.1244269301005
 30
0.0
 10
391.5155528901023
 20
270.2312350871434
 30
0.0
 10
391.401645071348
 20
270.362212497881
 30
0.0
 10
391.3146202718344
 20
270.5103053392559
 30
0.0
  0
POLYLINE
  5
1AE
330
17F
100
AcDbEntity
  8
0
 62
     7
420
 16776959
370
     9
100
AcDb2dPolyline
 66
     1
 10
0.0
 20
0.0
 30
0.0
  0
VERTEX
  5
1AF
330
1AE
100
AcDbEntity
  8
0
 62
     7
420
 16776959
370
     9
100
AcDbVertex
100
AcDb2dVertex
 10
393.2388411689099
 20
271.087110264767
 30
0.0
  0
VERTEX
  5
1B0
330
1AE
100
AcDbEntity
  8
0
 62
     7
420
 16776959
370
     9
100
AcDbVertex
100
AcDb2dVertex
 10
386.3433045445036
 20
282.8094835796855
 30
0.0
  0
SEQEND
  5
1B1
330
1AE
100
AcDbEntity
  8
0
 62
     7
420
 16776959
370
     9
  0
POLYLINE
  5
1B2
330
17F
100
AcDbEntity
  8
0
 62
     7
420
 16776959
370
     9
100
AcDb2dPolyline
 66
     1
 10
0.0
 20
0.0
 30
0.0
  0
VERTEX
  5
1B3
330
1B2
100
AcDbEntity
  8
0
 62
     7
420
 16776959
370
     9
100
AcDbVertex
100
AcDb2dVertex
 10
384.4194864057108
 20
282.2227865921013
 30
0.0
  0
VERTEX
  5
1B4
330
1B2
100
AcDbEntity
  8
0
 62
     7
420
 16776959
370
     9
100
AcDbVertex
100
AcDb2dVertex
 10
391.3146202718344
 20
270.5103053392559
 30
0.0
  0
SEQEND
  5
1B5
330
1B2
100
AcDbEntity
  8
0
 62
     7
420
 16776959
370
     9
  0
POLYLINE
  5
1B6
330
17F
100
AcDbEntity
  8
0
 62
     7
420
 16776959
370
     9
100
AcDb2dPolyline
 66
     1
 10
0.0
 20
0.0
 30
0.0
  0
VERTEX
  5
1B7
330
1B6
100
AcDbEntity
  8
0
 62
     7
420
 16776959
370
     9
100
AcDbVertex
100
AcDb2dVertex
 10
391.3146202718344
 20
270.5103053392559
 30
0.0
  0
VERTEX
  5
1B8
330
1B6
100
AcDbEntity
  8
0
 62
     7
420
 16776959
370
     9
100
AcDbVertex
100
AcDb2dVertex
 10
389.0673728815163
 20
272.2795243302699
 30
0.0
  0
SEQEND
  5
1B9
330
1B6
100
AcDbEntity
  8
0
 62
     7
420
 16776959
370
     9
  0
SPLINE
  5
1BA
330
17F
100
AcDbEntity
  8
0
 62
     7
420
 16776959
370
     9
100
AcDbSpline
210
0.0
220
0.0
230
1.0
 70
     8
 71
     3
 72
     8
 73
     4
 74
     0
 42
0.0000000001
 43
0.0000000001
 12
1.0
 22
0.0
 32
0.0
 13
1.0
 23
0.0
 33
0.0
 40
0.0
 40
0.0
 40
0.0
 40
0.0
 40
1.0
 40
1.0
 40
1.0
 40
1.0
 10
392.6896987196842
 20
298.256224285381
 30
0.0
 10
393.189059768737
 20
297.8820349255866
 30
0.0
 10
393.2727804220631
 20
296.7422252167544
 30
0.0
 10
393.2388411689099
 20
296.1853493518611
 30
0.0
  0
SPLINE
  5
1BB
330
17F
100
AcDbEntity
  8
0
 62
     7
420
 16776959
370
     9
100
AcDbSpline
210
0.0
220
0.0
230
1.0
 70
     8
 71
     3
 72
     8
 73
     4
 74
     0
 42
0.0000000001
 43
0.0000000001
 12
1.0
 22
0.0
 32
0.0
 13
1.0
 23
0.0
 33
0.0
 40
0.0
 40
0.0
 40
0.0
 40
0.0
 40
1.0
 40
1.0
 40
1.0
 40
1.0
 10
391.3146202718344
 20
297.2623673873968
 30
0.0
 10
391.6021228244645
 20
297.8035885057761
 30
0.0
 10
392.0876061905019
 20
298.1555591816614
 30
0.0
 10
392.6896987196842
 20
298.256224285381
 30
0.0
  0
SPLINE
  5
1BC
330
17F
100
AcDbEntity
  8
0
 62
     7
420
 16776959
370
     9
100
AcDbSpline
210
0.0
220
0.0
230
1.0
 70
     8
 71
     3
 72
     8
 73
     4
 74
     0
 42
0.0000000001
 43
0.0000000001
 12
1.0
 22
0.0
 32
0.0
 13
1.0
 23
0.0
 33
0.0
 40
0.0
 40
0.0
 40
0.0
 40
0.0
 40
1.0
 40
1.0
 40
1.0
 40
1.0
 10
393.2388411689099
 20
296.1853493518611
 30
0.0
 10
392.5796034821287
 20
296.502666822742
 30
0.0
 10
391.9390908175665
 20
296.8606421174572
 30
0.0
 10
391.3238541010305
 20
297.2556847630003
 30
0.0
  0
POLYLINE
  5
1BD
330
17F
100
AcDbEntity
  8
0
 62
     7
420
 16776959
370
     9
100
AcDb2dPolyline
 66
     1
 10
0.0
 20
0.0
 30
0.0
  0
VERTEX
  5
1BE
330
1BD
100
AcDbEntity
  8
0
 62
     7
420
 16776959
370
     9
100
AcDbVertex
100
AcDb2dVertex
 10
389.0673728815163
 20
298.8995231639055
 30
0.0
  0
VERTEX
  5
1BF
330
1BD
100
AcDbEntity
  8
0
 62
     7
420
 16776959
370
     9
100
AcDbVertex
100
AcDb2dVertex
 10
391.3146202718344
 20
297.2623673873968
 30
0.0
  0
SEQEND
  5
1C0
330
1BD
100
AcDbEntity
  8
0
 62
     7
420
 16776959
370
     9
  0
POLYLINE
  5
1C1
330
17F
100
AcDbEntity
  8
0
 62
     7
420
 16776959
370
     9
100
AcDb2dPolyline
 66
     1
 10
0.0
 20
0.0
 30
0.0
  0
VERTEX
  5
1C2
330
1C1
100
AcDbEntity
  8
0
 62
     7
420
 16776959
370
     9
100
AcDbVertex
100
AcDb2dVertex
 10
392.6896987196842
 20
298.256224285381
 30
0.0
  0
VERTEX
  5
1C3
330
1C1
100
AcDbEntity
  8
0
 62
     7
420
 16776959
370
     9
100
AcDbVertex
100
AcDb2dVertex
 10
390.4367334594517
 20
299.887698779894
 30
0.0
  0
SEQEND
  5
1C4
330
1C1
100
AcDbEntity
  8
0
 62
     7
420
 16776959
370
     9
  0
POLYLINE
  5
1C5
330
17F
100
AcDbEntity
  8
0
 62
     7
420
 16776959
370
     9
100
AcDb2dPolyline
 66
     1
 10
0.0
 20
0.0
 30
0.0
  0
VERTEX
  5
1C6
330
1C5
100
AcDbEntity
  8
0
 62
     7
420
 16776959
370
     9
100
AcDbVertex
100
AcDb2dVertex
 10
386.3433045445036
 20
282.8094835796855
 30
0.0
  0
VERTEX
  5
1C7
330
1C5
100
AcDbEntity
  8
0
 62
     7
420
 16776959
370
     9
100
AcDbVertex
100
AcDb2dVertex
 10
393.2388411689099
 20
296.1853493518611
 30
0.0
  0
SEQEND
  5
1C8
330
1C5
100
AcDbEntity
  8
0
 62
     7
420
 16776959
370
     9
  0
POLYLINE
  5
1C9
330
17F
100
AcDbEntity
  8
0
 62
     7
420
 16776959
370
     9
100
AcDb2dPolyline
 66
     1
 10
0.0
 20
0.0
 30
0.0
  0
VERTEX
  5
1CA
330
1C9
100
AcDbEntity
  8
0
 62
     7
420
 16776959
370
     9
100
AcDbVertex
100
AcDb2dVertex
 10
391.3146202718344
 20
297.2623673873968
 30
0.0
  0
VERTEX
  5
1CB
330
1C9
100
AcDbEntity
  8
0
 62
     7
420
 16776959
370
     9
100
AcDbVertex
100
AcDb2dVertex
 10
384.4194864057108
 20
283.8987912208468
 30
0.0
  0
SEQEND
  5
1CC
330
1C9
100
AcDbEntity
  8
0
 62
     7
420
 16776959
370
     9
  0
SPLINE
  5
1CD
330
17F
100
AcDbEntity
  8
0
 62
     7
420
 16776959
370
     9
100
AcDbSpline
210
0.0
220
0.0
230
1.0
 70
     8
 71
     3
 72
     8
 73
     4
 74
     0
 42
0.0000000001
 43
0.0000000001
 12
1.0
 22
0.0
 32
0.0
 13
1.0
 23
0.0
 33
0.0
 40
0.0
 40
0.0
 40
0.0
 40
0.0
 40
1.0
 40
1.0
 40
1.0
 40
1.0
 10
406.9315517356135
 20
272.7884792050736
 30
0.0
 10
407.2162681023501
 20
272.6342005246934
 30
0.0
 10
407.5240348470406
 20
272.5111641786207
 30
0.0
 10
407.832657380749
 20
272.4284720302021
 30
0.0
  0
SPLINE
  5
1CE
330
17F
100
AcDbEntity
  8
0
 62
     7
420
 16776959
370
     9
100
AcDbSpline
210
0.0
220
0.0
230
1.0
 70
     8
 71
     3
 72
     8
 73
     4
 74
     0
 42
0.0000000001
 43
0.0000000001
 12
1.0
 22
0.0
 32
0.0
 13
1.0
 23
0.0
 33
0.0
 40
0.0
 40
0.0
 40
0.0
 40
0.0
 40
1.0
 40
1.0
 40
1.0
 40
1.0
 10
406.5297921956844
 20
271.4982605056575
 30
0.0
 10
406.9130262960998
 20
271.5543808431248
 30
0.0
 10
406.9639429843037
 20
272.5120132603352
 30
0.0
 10
406.9315517356135
 20
272.7884792050736
 30
0.0
  0
POLYLINE
  5
1CF
330
17F
100
AcDbEntity
  8
0
 62
     7
420
 16776959
370
     9
100
AcDb2dPolyline
 66
     1
 10
0.0
 20
0.0
 30
0.0
  0
VERTEX
  5
1D0
330
1CF
100
AcDbEntity
  8
0
 62
     7
420
 16776959
370
     9
100
AcDbVertex
100
AcDb2dVertex
 10
406.9315517356135
 20
272.7884792050736
 30
0.0
  0
VERTEX
  5
1D1
330
1CF
100
AcDbEntity
  8
0
 62
     7
420
 16776959
370
     9
100
AcDbVertex
100
AcDb2dVertex
 10
393.2388411689099
 20
271.087110264767
 30
0.0
  0
SEQEND
  5
1D2
330
1CF
100
AcDbEntity
  8
0
 62
     7
420
 16776959
370
     9
  0
SPLINE
  5
1D3
330
17F
100
AcDbEntity
  8
0
 62
     7
420
 16776959
370
     9
100
AcDbSpline
210
0.0
220
0.0
230
1.0
 70
     8
 71
     3
 72
     8
 73
     4
 74
     0
 42
0.0000000001
 43
0.0000000001
 12
1.0
 22
0.0
 32
0.0
 13
1.0
 23
0.0
 33
0.0
 40
0.0
 40
0.0
 40
0.0
 40
0.0
 40
1.0
 40
1.0
 40
1.0
 40
1.0
 10
406.9315517356135
 20
297.7673787711929
 30
0.0
 10
406.9748317208532
 20
298.5001071424231
 30
0.0
 10
406.7819485803147
 20
299.2287206016381
 30
0.0
 10
406.3779433632471
 20
299.8197950828844
 30
0.0
  0
SPLINE
  5
1D4
330
17F
100
AcDbEntity
  8
0
 62
     7
420
 16776959
370
     9
100
AcDbSpline
210
0.0
220
0.0
230
1.0
 70
     8
 71
     3
 72
     8
 73
     4
 74
     0
 42
0.0000000001
 43
0.0000000001
 12
1.0
 22
0.0
 32
0.0
 13
1.0
 23
0.0
 33
0.0
 40
0.0
 40
0.0
 40
0.0
 40
0.0
 40
1.0
 40
1.0
 40
1.0
 40
1.0
 10
407.8055139366743
 20
299.0699692997414
 30
0.0
 10
408.0438828615706
 20
298.641442784824
 30
0.0
 10
407.2362335598091
 20
297.9394181701355
 30
0.0
 10
406.9315517356135
 20
297.7673787711929
 30
0.0
  0
SPLINE
  5
1D5
330
17F
100
AcDbEntity
  8
0
 62
     7
420
 16776959
370
     9
100
AcDbSpline
210
0.0
220
0.0
230
1.0
 70
     8
 71
     3
 72
     8
 73
     4
 74
     0
 42
0.0000000001
 43
0.0000000001
 12
1.0
 22
0.0
 32
0.0
 13
1.0
 23
0.0
 33
0.0
 40
0.0
 40
0.0
 40
0.0
 40
0.0
 40
1.0
 40
1.0
 40
1.0
 40
1.0
 10
406.368647275046
 20
299.826527322668
 30
0.0
 10
406.7053323898544
 20
299.8639488858371
 30
0.0
 10
407.0357044410857
 20
299.7848589157156
 30
0.0
 10
407.3178680441588
 20
299.5979029748951
 30
0.0
  0
SPLINE
  5
1D6
330
17F
100
AcDbEntity
  8
0
 62
     7
420
 16776959
370
     9
100
AcDbSpline
210
0.0
220
0.0
230
1.0
 70
     8
 71
     3
 72
     8
 73
     4
 74
     0
 42
0.0000000001
 43
0.0000000001
 12
1.0
 22
0.0
 32
0.0
 13
1.0
 23
0.0
 33
0.0
 40
0.0
 40
0.0
 40
0.0
 40
0.0
 40
1.0
 40
1.0
 40
1.0
 40
1.0
 10
413.7291922729519
 20
286.0929378821402
 30
0.0
 10
414.2381677414169
 20
286.3848186682462
 30
0.0
 10
414.5640702668452
 20
286.8567297284662
 30
0.0
 10
414.595918260874
 20
287.4009461692149
 30
0.0
  0
SPLINE
  5
1D7
330
17F
100
AcDbEntity
  8
0
 62
     7
420
 16776959
370
     9
100
AcDbSpline
210
0.0
220
0.0
230
1.0
 70
     8
 71
     3
 72
     8
 73
     4
 74
     0
 42
0.0000000001
 43
0.0000000001
 12
1.0
 22
0.0
 32
0.0
 13
1.0
 23
0.0
 33
0.0
 40
0.0
 40
0.0
 40
0.0
 40
0.0
 40
1.0
 40
1.0
 40
1.0
 40
1.0
 10
414.6283632664008
 20
285.7247218291523
 30
0.0
 10
414.4664099874126
 20
285.6482821788832
 30
0.0
 10
413.8877818968194
 20
286.0054708106854
 30
0.0
 10
413.7291922729519
 20
286.0929378821402
 30
0.0
  0
POLYLINE
  5
1D8
330
17F
100
AcDbEntity
  8
0
 62
     7
420
 16776959
370
     9
100
AcDb2dPolyline
 66
     1
 10
0.0
 20
0.0
 30
0.0
  0
VERTEX
  5
1D9
330
1D8
100
AcDbEntity
  8
0
 62
     7
420
 16776959
370
     9
100
AcDbVertex
100
AcDb2dVertex
 10
413.7291922729519
 20
286.0929378821402
 30
0.0
  0
VERTEX
  5
1DA
330
1D8
100
AcDbEntity
  8
0
 62
     7
420
 16776959
370
     9
100
AcDbVertex
100
AcDb2dVertex
 10
406.9315517356135
 20
272.7884792050736
 30
0.0
  0
SEQEND
  5
1DB
330
1D8
100
AcDbEntity
  8
0
 62
     7
420
 16776959
370
     9
  0
POLYLINE
  5
1DC
330
17F
100
AcDbEntity
  8
0
 62
     7
420
 16776959
370
     9
100
AcDb2dPolyline
 66
     1
 10
0.0
 20
0.0
 30
0.0
  0
VERTEX
  5
1DD
330
1DC
100
AcDbEntity
  8
0
 62
     7
420
 16776959
370
     9
100
AcDbVertex
100
AcDb2dVertex
 10
406.9315517356135
 20
297.7673787711929
 30
0.0
  0
VERTEX
  5
1DE
330
1DC
100
AcDbEntity
  8
0
 62
     7
420
 16776959
370
     9
100
AcDbVertex
100
AcDb2dVertex
 10
413.7291922729519
 20
286.0929378821402
 30
0.0
  0
SEQEND
  5
1DF
330
1DC
100
AcDbEntity
  8
0
 62
     7
420
 16776959
370
     9
  0
POLYLINE
  5
1E0
330
17F
100
AcDbEntity
  8
0
 62
     7
420
 16776959
370
     9
100
AcDb2dPolyline
 66
     1
 10
0.0
 20
0.0
 30
0.0
  0
VERTEX
  5
1E1
330
1E0
100
AcDbEntity
  8
0
 62
     7
420
 16776959
370
     9
100
AcDbVertex
100
AcDb2dVertex
 10
404.0591533368324
 20
301.4425800500358
 30
0.0
  0
VERTEX
  5
1E2
330
1E0
100
AcDbEntity
  8
0
 62
     7
420
 16776959
370
     9
100
AcDbVertex
100
AcDb2dVertex
 10
406.368647275046
 20
299.826527322668
 30
0.0
  0
SEQEND
  5
1E3
330
1E0
100
AcDbEntity
  8
0
 62
     7
420
 16776959
370
     9
  0
POLYLINE
  5
1E4
330
17F
100
AcDbEntity
  8
0
 62
     7
420
 16776959
370
     9
100
AcDb2dPolyline
 66
     1
 10
0.0
 20
0.0
 30
0.0
  0
VERTEX
  5
1E5
330
1E4
100
AcDbEntity
  8
0
 62
     7
420
 16776959
370
     9
100
AcDbVertex
100
AcDb2dVertex
 10
393.2388411689099
 20
296.1853493518611
 30
0.0
  0
VERTEX
  5
1E6
330
1E4
100
AcDbEntity
  8
0
 62
     7
420
 16776959
370
     9
100
AcDbVertex
100
AcDb2dVertex
 10
406.9315517356135
 20
297.7673787711929
 30
0.0
  0
SEQEND
  5
1E7
330
1E4
100
AcDbEntity
  8
0
 62
     7
420
 16776959
370
     9
  0
POLYLINE
  5
1E8
330
17F
100
AcDbEntity
  8
0
 62
     7
420
 16776959
370
     9
100
AcDb2dPolyline
 66
     1
 10
0.0
 20
0.0
 30
0.0
  0
VERTEX
  5
1E9
330
1E8
100
AcDbEntity
  8
0
 62
     7
420
 16776959
370
     9
100
AcDbVertex
100
AcDb2dVertex
 10
406.368647275046
 20
299.826527322668
 30
0.0
  0
VERTEX
  5
1EA
330
1E8
100
AcDbEntity
  8
0
 62
     7
420
 16776959
370
     9
100
AcDbVertex
100
AcDb2dVertex
 10
392.6896987196842
 20
298.256224285381
 30
0.0
  0
SEQEND
  5
1EB
330
1E8
100
AcDbEntity
  8
0
 62
     7
420
 16776959
370
     9
  0
POLYLINE
  5
1EC
330
17F
100
AcDbEntity
  8
0
 62
     7
420
 16776959
370
     9
100
AcDb2dPolyline
 66
     1
 10
0.0
 20
0.0
 30
0.0
  0
VERTEX
  5
1ED
330
1EC
100
AcDbEntity
  8
0
 62
     7
420
 16776959
370
     9
100
AcDbVertex
100
AcDb2dVertex
 10
391.6500661988975
 20
270.1244269301005
 30
0.0
  0
VERTEX
  5
1EE
330
1EC
100
AcDbEntity
  8
0
 62
     7
420
 16776959
370
     9
100
AcDbVertex
100
AcDb2dVertex
 10
389.4014233578118
 20
271.8953456779327
 30
0.0
  0
SEQEND
  5
1EF
330
1EC
100
AcDbEntity
  8
0
 62
     7
420
 16776959
370
     9
  0
SPLINE
  5
1F0
330
17F
100
AcDbEntity
  8
0
 62
     7
420
 16776959
370
     9
100
AcDbSpline
210
0.0
220
0.0
230
1.0
 70
     8
 71
     3
 72
     8
 73
     4
 74
     0
 42
0.0000000001
 43
0.0000000001
 12
1.0
 22
0.0
 32
0.0
 13
1.0
 23
0.0
 33
0.0
 40
0.0
 40
0.0
 40
0.0
 40
0.0
 40
1.0
 40
1.0
 40
1.0
 40
1.0
 10
407.3264834505526
 20
299.5919322856471
 30
0.0
 10
407.5216027823762
 20
299.4542333572517
 30
0.0
 10
407.6851333482982
 20
299.2762485979074
 30
0.0
 10
407.8055139366743
 20
299.0699692997414
 30
0.0
  0
POLYLINE
  5
1F1
330
17F
100
AcDbEntity
  8
0
 62
     7
420
 16776959
370
     9
100
AcDb2dPolyline
 66
     1
 10
0.0
 20
0.0
 30
0.0
  0
VERTEX
  5
1F2
330
1F1
100
AcDbEntity
  8
0
 62
     7
420
 16776959
370
     9
100
AcDbVertex
100
AcDb2dVertex
 10
414.5911864406926
 20
287.4094427994878
 30
0.0
  0
VERTEX
  5
1F3
330
1F1
100
AcDbEntity
  8
0
 62
     7
420
 16776959
370
     9
100
AcDbVertex
100
AcDb2dVertex
 10
407.8055139366743
 20
299.0699692997414
 30
0.0
  0
SEQEND
  5
1F4
330
1F1
100
AcDbEntity
  8
0
 62
     7
420
 16776959
370
     9
  0
POLYLINE
  5
1F5
330
17F
100
AcDbEntity
  8
0
 62
     7
420
 16776959
370
     9
100
AcDb2dPolyline
 66
     1
 10
0.0
 20
0.0
 30
0.0
  0
VERTEX
  5
1F6
330
1F5
100
AcDbEntity
  8
0
 62
     7
420
 16776959
370
     9
100
AcDbVertex
100
AcDb2dVertex
 10
407.3264834505526
 20
299.5919322856471
 30
0.0
  0
VERTEX
  5
1F7
330
1F5
100
AcDbEntity
  8
0
 62
     7
420
 16776959
370
     9
100
AcDbVertex
100
AcDb2dVertex
 10
405.0130551433604
 20
301.2085993668643
 30
0.0
  0
SEQEND
  5
1F8
330
1F5
100
AcDbEntity
  8
0
 62
     7
420
 16776959
370
     9
  0
SPLINE
  5
1F9
330
17F
100
AcDbEntity
  8
0
 62
     7
420
 16776959
370
     9
100
AcDbSpline
210
0.0
220
0.0
230
1.0
 70
     8
 71
     3
 72
     8
 73
     4
 74
     0
 42
0.0000000001
 43
0.0000000001
 12
1.0
 22
0.0
 32
0.0
 13
1.0
 23
0.0
 33
0.0
 40
0.0
 40
0.0
 40
0.0
 40
0.0
 40
1.0
 40
1.0
 40
1.0
 40
1.0
 10
400.5246314424794
 20
287.8651246315512
 30
0.0
 10
400.6464802708824
 20
287.8007179824253
 30
0.0
 10
400.7196890712457
 20
287.6993901058086
 30
0.0
 10
400.7442578435703
 20
287.5611410016991
 30
0.0
  0
SPLINE
  5
1FA
330
17F
100
AcDbEntity
  8
0
 62
     7
420
 16776959
370
     9
100
AcDbSpline
210
0.0
220
0.0
230
1.0
 70
     8
 71
     3
 72
     8
 73
     4
 74
     0
 42
0.0000000001
 43
0.0000000001
 12
1.0
 22
0.0
 32
0.0
 13
1.0
 23
0.0
 33
0.0
 40
0.0
 40
0.0
 40
0.0
 40
0.0
 40
1.0
 40
1.0
 40
1.0
 40
1.0
 10
400.7442578435703
 20
287.5611410016991
 30
0.0
 10
400.8698455494923
 20
286.7849802397614
 30
0.0
 10
401.7780604109303
 20
286.5433335952803
 30
0.0
 10
402.4420515844968
 20
286.7278145684595
 30
0.0
  0
SPLINE
  5
1FB
330
17F
100
AcDbEntity
  8
0
 62
     7
420
 16776959
370
     9
100
AcDbSpline
210
0.0
220
0.0
230
1.0
 70
     8
 71
     3
 72
     8
 73
     4
 74
     0
 42
0.0000000001
 43
0.0000000001
 12
1.0
 22
0.0
 32
0.0
 13
1.0
 23
0.0
 33
0.0
 40
0.0
 40
0.0
 40
0.0
 40
0.0
 40
1.0
 40
1.0
 40
1.0
 40
1.0
 10
402.4420515844968
 20
286.7278145684595
 30
0.0
 10
402.6872440096822
 20
286.7959379698204
 30
0.0
 10
403.0050933414668
 20
286.7163746136885
 30
0.0
 10
403.1408583549264
 20
286.4840501031449
 30
0.0
  0
SPLINE
  5
1FC
330
17F
100
AcDbEntity
  8
0
 62
     7
420
 16776959
370
     9
100
AcDbSpline
210
0.0
220
0.0
230
1.0
 70
     8
 71
     3
 72
     8
 73
     4
 74
     0
 42
0.0000000001
 43
0.0000000001
 12
1.0
 22
0.0
 32
0.0
 13
1.0
 23
0.0
 33
0.0
 40
0.0
 40
0.0
 40
0.0
 40
0.0
 40
1.0
 40
1.0
 40
1.0
 40
1.0
 10
403.1408583549264
 20
286.4840501031449
 30
0.0
 10
402.9476378381232
 20
286.813185308456
 30
0.0
 10
402.6951898859506
 20
287.1029486236384
 30
0.0
 10
402.3935068075134
 20
287.3368854373475
 30
0.0
  0
SPLINE
  5
1FD
330
17F
100
AcDbEntity
  8
0
 62
     7
420
 16776959
370
     9
100
AcDbSpline
210
0.0
220
0.0
230
1.0
 70
     8
 71
     3
 72
     8
 73
     4
 74
     0
 42
0.0000000001
 43
0.0000000001
 12
1.0
 22
0.0
 32
0.0
 13
1.0
 23
0.0
 33
0.0
 40
0.0
 40
0.0
 40
0.0
 40
0.0
 40
1.0
 40
1.0
 40
1.0
 40
1.0
 10
397.6388125158819
 20
286.1239086982496
 30
0.0
 10
397.7256186032964
 20
286.1710653074369
 30
0.0
 10
397.8200926429499
 20
286.1927749979059
 30
0.0
 10
397.9222346348406
 20
286.1890377696545
 30
0.0
  0
SPLINE
  5
1FE
330
17F
100
AcDbEntity
  8
0
 62
     7
420
 16776959
370
     9
100
AcDbSpline
210
0.0
220
0.0
230
1.0
 70
     8
 71
     3
 72
     8
 73
     4
 74
     0
 42
0.0000000001
 43
0.0000000001
 12
1.0
 22
0.0
 32
0.0
 13
1.0
 23
0.0
 33
0.0
 40
0.0
 40
0.0
 40
0.0
 40
0.0
 40
1.0
 40
1.0
 40
1.0
 40
1.0
 10
397.9222346348406
 20
286.1890377696545
 30
0.0
 10
398.6501887384793
 20
286.1293315123803
 30
0.0
 10
399.3751266374966
 20
286.7918120080885
 30
0.0
 10
399.623365291457
 20
287.4279311752543
 30
0.0
  0
SPLINE
  5
1FF
330
17F
100
AcDbEntity
  8
0
 62
     7
420
 16776959
370
     9
100
AcDbSpline
210
0.0
220
0.0
230
1.0
 70
     8
 71
     3
 72
     8
 73
     4
 74
     0
 42
0.0000000001
 43
0.0000000001
 12
1.0
 22
0.0
 32
0.0
 13
1.0
 23
0.0
 33
0.0
 40
0.0
 40
0.0
 40
0.0
 40
0.0
 40
1.0
 40
1.0
 40
1.0
 40
1.0
 10
399.623365291457
 20
287.4279311752543
 30
0.0
 10
399.6795555767367
 20
287.564506365512
 30
0.0
 10
399.7656056589803
 20
287.676888237771
 30
0.0
 10
399.8815155381908
 20
287.765076792035
 30
0.0
  0
SPLINE
  5
200
330
17F
100
AcDbEntity
  8
0
 62
     7
420
 16776959
370
     9
100
AcDbSpline
210
0.0
220
0.0
230
1.0
 70
     8
 71
     3
 72
     8
 73
     4
 74
     0
 42
0.0000000001
 43
0.0000000001
 12
1.0
 22
0.0
 32
0.0
 13
1.0
 23
0.0
 33
0.0
 40
0.0
 40
0.0
 40
0.0
 40
0.0
 40
1.0
 40
1.0
 40
1.0
 40
1.0
 10
397.233384249208
 20
282.5078606381212
 30
0.0
 10
397.2194644563006
 20
282.6933372813346
 30
0.0
 10
397.2619350240402
 20
282.8648446183961
 30
0.0
 10
397.3607959524261
 20
283.0223826493075
 30
0.0
  0
SPLINE
  5
201
330
17F
100
AcDbEntity
  8
0
 62
     7
420
 16776959
370
     9
100
AcDbSpline
210
0.0
220
0.0
230
1.0
 70
     8
 71
     3
 72
     8
 73
     4
 74
     0
 42
0.0000000001
 43
0.0000000001
 12
1.0
 22
0.0
 32
0.0
 13
1.0
 23
0.0
 33
0.0
 40
0.0
 40
0.0
 40
0.0
 40
0.0
 40
1.0
 40
1.0
 40
1.0
 40
1.0
 10
397.3607959524261
 20
283.0223826493075
 30
0.0
 10
397.7239084851026
 20
283.5870449388203
 30
0.0
 10
397.8933554203177
 20
284.574794680284
 30
0.0
 10
397.3607959524261
 20
285.0962406617818
 30
0.0
  0
SPLINE
  5
202
330
17F
100
AcDbEntity
  8
0
 62
     7
420
 16776959
370
     9
100
AcDbSpline
210
0.0
220
0.0
230
1.0
 70
     8
 71
     3
 72
     8
 73
     4
 74
     0
 42
0.0000000001
 43
0.0000000001
 12
1.0
 22
0.0
 32
0.0
 13
1.0
 23
0.0
 33
0.0
 40
0.0
 40
0.0
 40
0.0
 40
0.0
 40
1.0
 40
1.0
 40
1.0
 40
1.0
 10
397.3607959524261
 20
285.0962406617818
 30
0.0
 10
397.2916330972821
 20
285.1711542888206
 30
0.0
 10
397.2503045579642
 20
285.2571628779024
 30
0.0
 10
397.2368103344725
 20
285.3542664290308
 30
0.0
  0
SPLINE
  5
203
330
17F
100
AcDbEntity
  8
0
 62
     7
420
 16776959
370
     9
100
AcDbSpline
210
0.0
220
0.0
230
1.0
 70
     8
 71
     3
 72
     8
 73
     4
 74
     0
 42
0.0000000001
 43
0.0000000001
 12
1.0
 22
0.0
 32
0.0
 13
1.0
 23
0.0
 33
0.0
 40
0.0
 40
0.0
 40
0.0
 40
0.0
 40
1.0
 40
1.0
 40
1.0
 40
1.0
 10
400.2320876174053
 20
280.8123555838411
 30
0.0
 10
399.9610318516498
 20
280.7795115615754
 30
0.0
 10
399.7087952071724
 20
280.9898578223329
 30
0.0
 10
399.623365291457
 20
281.2333494092472
 30
0.0
  0
SPLINE
  5
204
330
17F
100
AcDbEntity
  8
0
 62
     7
420
 16776959
370
     9
100
AcDbSpline
210
0.0
220
0.0
230
1.0
 70
     8
 71
     3
 72
     8
 73
     4
 74
     0
 42
0.0000000001
 43
0.0000000001
 12
1.0
 22
0.0
 32
0.0
 13
1.0
 23
0.0
 33
0.0
 40
0.0
 40
0.0
 40
0.0
 40
0.0
 40
1.0
 40
1.0
 40
1.0
 40
1.0
 10
399.623365291457
 20
281.2333494092472
 30
0.0
 10
399.3819517925695
 20
281.9214240194815
 30
0.0
 10
398.6367644502197
 20
282.460725859275
 30
0.0
 10
397.9222346348406
 20
282.0642416508945
 30
0.0
  0
SPLINE
  5
205
330
17F
100
AcDbEntity
  8
0
 62
     7
420
 16776959
370
     9
100
AcDbSpline
210
0.0
220
0.0
230
1.0
 70
     8
 71
     3
 72
     8
 73
     4
 74
     0
 42
0.0000000001
 43
0.0000000001
 12
1.0
 22
0.0
 32
0.0
 13
1.0
 23
0.0
 33
0.0
 40
0.0
 40
0.0
 40
0.0
 40
0.0
 40
1.0
 40
1.0
 40
1.0
 40
1.0
 10
397.9222346348406
 20
282.0642416508945
 30
0.0
 10
397.78961561507
 20
281.9906529133295
 30
0.0
 10
397.5896046841735
 20
281.9895963159906
 30
0.0
 10
397.4605066847553
 20
282.0787151530985
 30
0.0
  0
SPLINE
  5
206
330
17F
100
AcDbEntity
  8
0
 62
     7
420
 16776959
370
     9
100
AcDbSpline
210
0.0
220
0.0
230
1.0
 70
     8
 71
     3
 72
     8
 73
     4
 74
     0
 42
0.0000000001
 43
0.0000000001
 12
1.0
 22
0.0
 32
0.0
 13
1.0
 23
0.0
 33
0.0
 40
0.0
 40
0.0
 40
0.0
 40
0.0
 40
1.0
 40
1.0
 40
1.0
 40
1.0
 10
400.7442578435703
 20
281.3689757619322
 30
0.0
 10
400.7110737874382
 20
281.1108102467606
 30
0.0
 10
400.5040623416708
 20
280.8453109569873
 30
0.0
 10
400.2320876174053
 20
280.8123555838411
 30
0.0
  0
SPLINE
  5
207
330
17F
100
AcDbEntity
  8
0
 62
     7
420
 16776959
370
     9
100
AcDbSpline
210
0.0
220
0.0
230
1.0
 70
     8
 71
     3
 72
     8
 73
     4
 74
     0
 42
0.0000000001
 43
0.0000000001
 12
1.0
 22
0.0
 32
0.0
 13
1.0
 23
0.0
 33
0.0
 40
0.0
 40
0.0
 40
0.0
 40
0.0
 40
1.0
 40
1.0
 40
1.0
 40
1.0
 10
403.1408583549264
 20
282.9378923198165
 30
0.0
 10
403.0156221643419
 20
282.693544580814
 30
0.0
 10
402.7096849922937
 20
282.5501681071491
 30
0.0
 10
402.4420515844968
 20
282.6095030293691
 30
0.0
  0
SPLINE
  5
208
330
17F
100
AcDbEntity
  8
0
 62
     7
420
 16776959
370
     9
100
AcDbSpline
210
0.0
220
0.0
230
1.0
 70
     8
 71
     3
 72
     8
 73
     4
 74
     0
 42
0.0000000001
 43
0.0000000001
 12
1.0
 22
0.0
 32
0.0
 13
1.0
 23
0.0
 33
0.0
 40
0.0
 40
0.0
 40
0.0
 40
0.0
 40
1.0
 40
1.0
 40
1.0
 40
1.0
 10
402.4420515844968
 20
282.6095030293691
 30
0.0
 10
401.6107558768763
 20
282.7938031380927
 30
0.0
 10
400.8508856191756
 20
282.1985191580516
 30
0.0
 10
400.7442578435703
 20
281.3689757619322
 30
0.0
  0
SPLINE
  5
209
330
17F
100
AcDbEntity
  8
0
 62
     7
420
 16776959
370
     9
100
AcDbSpline
210
0.0
220
0.0
230
1.0
 70
     8
 71
     3
 72
     8
 73
     4
 74
     0
 42
0.0000000001
 43
0.0000000001
 12
1.0
 22
0.0
 32
0.0
 13
1.0
 23
0.0
 33
0.0
 40
0.0
 40
0.0
 40
0.0
 40
0.0
 40
1.0
 40
1.0
 40
1.0
 40
1.0
 10
403.0015080512412
 20
283.7008541656633
 30
0.0
 10
403.204032997156
 20
283.5157795188097
 30
0.0
 10
403.2664689579015
 20
283.1829705730343
 30
0.0
 10
403.1408583549264
 20
282.9378923198165
 30
0.0
  0
SPLINE
  5
20A
330
17F
100
AcDbEntity
  8
0
 62
     7
420
 16776959
370
     9
100
AcDbSpline
210
0.0
220
0.0
230
1.0
 70
     8
 71
     3
 72
     8
 73
     4
 74
     0
 42
0.0000000001
 43
0.0000000001
 12
1.0
 22
0.0
 32
0.0
 13
1.0
 23
0.0
 33
0.0
 40
0.0
 40
0.0
 40
0.0
 40
0.0
 40
1.0
 40
1.0
 40
1.0
 40
1.0
 10
403.1408583549264
 20
286.4840501031449
 30
0.0
 10
403.2752573032567
 20
286.2540632376513
 30
0.0
 10
403.189034781587
 20
285.9415638442952
 30
0.0
 10
403.0015080512412
 20
285.7706441247101
 30
0.0
  0
SPLINE
  5
20B
330
17F
100
AcDbEntity
  8
0
 62
     7
420
 16776959
370
     9
100
AcDbSpline
210
0.0
220
0.0
230
1.0
 70
     8
 71
     3
 72
     8
 73
     4
 74
     0
 42
0.0000000001
 43
0.0000000001
 12
1.0
 22
0.0
 32
0.0
 13
1.0
 23
0.0
 33
0.0
 40
0.0
 40
0.0
 40
0.0
 40
0.0
 40
1.0
 40
1.0
 40
1.0
 40
1.0
 10
403.0015080512412
 20
285.7706441247101
 30
0.0
 10
402.3896682576542
 20
285.2129877000225
 30
0.0
 10
402.3868180595373
 20
284.2625801922441
 30
0.0
 10
403.0015080512412
 20
283.7008541656633
 30
0.0
  0
POLYLINE
  5
20C
330
17F
100
AcDbEntity
  8
0
 62
     7
420
 16776959
370
     9
100
AcDb2dPolyline
 66
     1
 10
0.0
 20
0.0
 30
0.0
  0
VERTEX
  5
20D
330
20C
100
AcDbEntity
  8
0
 62
     7
420
 16776959
370
     9
100
AcDbVertex
100
AcDb2dVertex
 10
402.4420515844968
 20
282.6095030293691
 30
0.0
  0
VERTEX
  5
20E
330
20C
100
AcDbEntity
  8
0
 62
     7
420
 16776959
370
     9
100
AcDbVertex
100
AcDb2dVertex
 10
401.4403002835079
 20
283.3533568508519
 30
0.0
  0
SEQEND
  5
20F
330
20C
100
AcDbEntity
  8
0
 62
     7
420
 16776959
370
     9
  0
SPLINE
  5
210
330
17F
100
AcDbEntity
  8
0
 62
     7
420
 16776959
370
     9
100
AcDbSpline
210
0.0
220
0.0
230
1.0
 70
     8
 71
     3
 72
     8
 73
     4
 74
     0
 42
0.0000000001
 43
0.0000000001
 12
1.0
 22
0.0
 32
0.0
 13
1.0
 23
0.0
 33
0.0
 40
0.0
 40
0.0
 40
0.0
 40
0.0
 40
1.0
 40
1.0
 40
1.0
 40
1.0
 10
399.7455644259608
 20
282.1159348930341
 30
0.0
 10
399.8517697978486
 20
282.9400966400099
 30
0.0
 10
400.6064085439602
 20
283.5382679783197
 30
0.0
 10
401.4403002835079
 20
283.3533568508519
 30
0.0
  0
POLYLINE
  5
211
330
17F
100
AcDbEntity
  8
0
 62
     7
420
 16776959
370
     9
100
AcDb2dPolyline
 66
     1
 10
0.0
 20
0.0
 30
0.0
  0
VERTEX
  5
212
330
211
100
AcDbEntity
  8
0
 62
     7
420
 16776959
370
     9
100
AcDbVertex
100
AcDb2dVertex
 10
400.7442578435703
 20
281.3689757619322
 30
0.0
  0
VERTEX
  5
213
330
211
100
AcDbEntity
  8
0
 62
     7
420
 16776959
370
     9
100
AcDbVertex
100
AcDb2dVertex
 10
399.7455644259608
 20
282.1159348930341
 30
0.0
  0
SEQEND
  5
214
330
211
100
AcDbEntity
  8
0
 62
     7
420
 16776959
370
     9
  0
SPLINE
  5
215
330
17F
100
AcDbEntity
  8
0
 62
     7
420
 16776959
370
     9
100
AcDbSpline
210
0.0
220
0.0
230
1.0
 70
     8
 71
     3
 72
     8
 73
     4
 74
     0
 42
0.0000000001
 43
0.0000000001
 12
1.0
 22
0.0
 32
0.0
 13
1.0
 23
0.0
 33
0.0
 40
0.0
 40
0.0
 40
0.0
 40
0.0
 40
1.0
 40
1.0
 40
1.0
 40
1.0
 10
399.4286748428412
 20
281.6243457346081
 30
0.0
 10
399.5965061423549
 20
281.7181813075258
 30
0.0
 10
399.7218388696947
 20
281.9318227756212
 30
0.0
 10
399.7455644259608
 20
282.1159348930341
 30
0.0
  0
POLYLINE
  5
216
330
17F
100
AcDbEntity
  8
0
 62
     7
420
 16776959
370
     9
100
AcDb2dPolyline
 66
     1
 10
0.0
 20
0.0
 30
0.0
  0
VERTEX
  5
217
330
216
100
AcDbEntity
  8
0
 62
     7
420
 16776959
370
     9
100
AcDbVertex
100
AcDb2dVertex
 10
403.0015080512412
 20
283.7008541656633
 30
0.0
  0
VERTEX
  5
218
330
216
100
AcDbEntity
  8
0
 62
     7
420
 16776959
370
     9
100
AcDbVertex
100
AcDb2dVertex
 10
401.9987500607758
 20
284.4422194957733
 30
0.0
  0
SEQEND
  5
219
330
216
100
AcDbEntity
  8
0
 62
     7
420
 16776959
370
     9
  0
SPLINE
  5
21A
330
17F
100
AcDbEntity
  8
0
 62
     7
420
 16776959
370
     9
100
AcDbSpline
210
0.0
220
0.0
230
1.0
 70
     8
 71
     3
 72
     8
 73
     4
 74
     0
 42
0.0000000001
 43
0.0000000001
 12
1.0
 22
0.0
 32
0.0
 13
1.0
 23
0.0
 33
0.0
 40
0.0
 40
0.0
 40
0.0
 40
0.0
 40
1.0
 40
1.0
 40
1.0
 40
1.0
 10
402.1377290312375
 20
283.6809495926882
 30
0.0
 10
402.2631159106304
 20
283.9254734020615
 30
0.0
 10
402.2008325102979
 20
284.257549095164
 30
0.0
 10
401.9987500607758
 20
284.4422194957733
 30
0.0
  0
SPLINE
  5
21B
330
17F
100
AcDbEntity
  8
0
 62
     7
420
 16776959
370
     9
100
AcDbSpline
210
0.0
220
0.0
230
1.0
 70
     8
 71
     3
 72
     8
 73
     4
 74
     0
 42
0.0000000001
 43
0.0000000001
 12
1.0
 22
0.0
 32
0.0
 13
1.0
 23
0.0
 33
0.0
 40
0.0
 40
0.0
 40
0.0
 40
0.0
 40
1.0
 40
1.0
 40
1.0
 40
1.0
 10
401.4403002835079
 20
283.3533568508519
 30
0.0
 10
401.7073591889284
 20
283.2941379367694
 30
0.0
 10
402.0127052908447
 20
283.4371339605132
 30
0.0
 10
402.1377290312375
 20
283.6809495926882
 30
0.0
  0
POLYLINE
  5
21C
330
17F
100
AcDbEntity
  8
0
 62
     7
420
 16776959
370
     9
100
AcDb2dPolyline
 66
     1
 10
0.0
 20
0.0
 30
0.0
  0
VERTEX
  5
21D
330
21C
100
AcDbEntity
  8
0
 62
     7
420
 16776959
370
     9
100
AcDbVertex
100
AcDb2dVertex
 10
403.0015080512412
 20
285.7706441247101
 30
0.0
  0
VERTEX
  5
21E
330
21C
100
AcDbEntity
  8
0
 62
     7
420
 16776959
370
     9
100
AcDbVertex
100
AcDb2dVertex
 10
401.9987500607758
 20
286.5075642958072
 30
0.0
  0
SEQEND
  5
21F
330
21C
100
AcDbEntity
  8
0
 62
     7
420
 16776959
370
     9
  0
SPLINE
  5
220
330
17F
100
AcDbEntity
  8
0
 62
     7
420
 16776959
370
     9
100
AcDbSpline
210
0.0
220
0.0
230
1.0
 70
     8
 71
     3
 72
     8
 73
     4
 74
     0
 42
0.0000000001
 43
0.0000000001
 12
1.0
 22
0.0
 32
0.0
 13
1.0
 23
0.0
 33
0.0
 40
0.0
 40
0.0
 40
0.0
 40
0.0
 40
1.0
 40
1.0
 40
1.0
 40
1.0
 10
401.9987500607758
 20
284.4422194957733
 30
0.0
 10
401.3883883712733
 20
284.9999905341829
 30
0.0
 10
401.3852708357399
 20
285.9484101016333
 30
0.0
 10
401.9987500607758
 20
286.5075642958072
 30
0.0
  0
SPLINE
  5
221
330
17F
100
AcDbEntity
  8
0
 62
     7
420
 16776959
370
     9
100
AcDbSpline
210
0.0
220
0.0
230
1.0
 70
     8
 71
     3
 72
     8
 73
     4
 74
     0
 42
0.0000000001
 43
0.0000000001
 12
1.0
 22
0.0
 32
0.0
 13
1.0
 23
0.0
 33
0.0
 40
0.0
 40
0.0
 40
0.0
 40
0.0
 40
1.0
 40
1.0
 40
1.0
 40
1.0
 10
401.9987500607758
 20
286.5075642958072
 30
0.0
 10
402.0512777005933
 20
286.5554404893501
 30
0.0
 10
402.0955835396035
 20
286.6112302944512
 30
0.0
 10
402.1291528962911
 20
286.6698417562948
 30
0.0
  0
SPLINE
  5
222
330
17F
100
AcDbEntity
  8
0
 62
     7
420
 16776959
370
     9
100
AcDbSpline
210
0.0
220
0.0
230
1.0
 70
     8
 71
     3
 72
     8
 73
     4
 74
     0
 42
0.0000000001
 43
0.0000000001
 12
1.0
 22
0.0
 32
0.0
 13
1.0
 23
0.0
 33
0.0
 40
0.0
 40
0.0
 40
0.0
 40
0.0
 40
1.0
 40
1.0
 40
1.0
 40
1.0
 10
397.3153772863106
 20
282.9418031474215
 30
0.0
 10
397.5809167732377
 20
282.9773206424597
 30
0.0
 10
397.8871621474327
 20
282.8838492510968
 30
0.0
 10
398.1004261184362
 20
282.7253104339688
 30
0.0
  0
POLYLINE
  5
223
330
17F
100
AcDbEntity
  8
0
 62
     7
420
 16776959
370
     9
100
AcDb2dPolyline
 66
     1
 10
0.0
 20
0.0
 30
0.0
  0
VERTEX
  5
224
330
223
100
AcDbEntity
  8
0
 62
     7
420
 16776959
370
     9
100
AcDbVertex
100
AcDb2dVertex
 10
397.9222346348406
 20
282.0642416508945
 30
0.0
  0
VERTEX
  5
225
330
223
100
AcDbEntity
  8
0
 62
     7
420
 16776959
370
     9
100
AcDbVertex
100
AcDb2dVertex
 10
397.2302647067308
 20
282.5839118817148
 30
0.0
  0
SEQEND
  5
226
330
223
100
AcDbEntity
  8
0
 62
     7
420
 16776959
370
     9
  0
POLYLINE
  5
227
330
17F
100
AcDbEntity
  8
0
 62
     7
420
 16776959
370
     9
100
AcDb2dPolyline
 66
     1
 10
0.0
 20
0.0
 30
0.0
  0
VERTEX
  5
228
330
227
100
AcDbEntity
  8
0
 62
     7
420
 16776959
370
     9
100
AcDbVertex
100
AcDb2dVertex
 10
400.7442578435703
 20
287.5611410016991
 30
0.0
  0
VERTEX
  5
229
330
227
100
AcDbEntity
  8
0
 62
     7
420
 16776959
370
     9
100
AcDbVertex
100
AcDb2dVertex
 10
400.3499131292774
 20
287.8508305702471
 30
0.0
  0
SEQEND
  5
22A
330
227
100
AcDbEntity
  8
0
 62
     7
420
 16776959
370
     9
  0
SPLINE
  5
22B
330
17F
100
AcDbEntity
  8
0
 62
     7
420
 16776959
370
     9
100
AcDbSpline
210
0.0
220
0.0
230
1.0
 70
     8
 71
     3
 72
     8
 73
     4
 74
     0
 42
0.0000000001
 43
0.0000000001
 12
1.0
 22
0.0
 32
0.0
 13
1.0
 23
0.0
 33
0.0
 40
0.0
 40
0.0
 40
0.0
 40
0.0
 40
1.0
 40
1.0
 40
1.0
 40
1.0
 10
400.142781070821
 20
287.6452681429855
 30
0.0
 10
400.0844539686241
 20
287.6879886248298
 30
0.0
 10
400.0313723376585
 20
287.73612509144
 30
0.0
 10
399.9835361779196
 20
287.7896775428217
 30
0.0
  0
POLYLINE
  5
22C
330
17F
100
AcDbEntity
  8
0
 62
     7
420
 16776959
370
     9
100
AcDb2dPolyline
 66
     1
 10
0.0
 20
0.0
 30
0.0
  0
VERTEX
  5
22D
330
22C
100
AcDbEntity
  8
0
 62
     7
420
 16776959
370
     9
100
AcDbVertex
100
AcDb2dVertex
 10
399.095974380155
 20
281.9793653598226
 30
0.0
  0
VERTEX
  5
22E
330
22C
100
AcDbEntity
  8
0
 62
     7
420
 16776959
370
     9
100
AcDbVertex
100
AcDb2dVertex
 10
398.1004261184362
 20
282.7253104339688
 30
0.0
  0
SEQEND
  5
22F
330
22C
100
AcDbEntity
  8
0
 62
     7
420
 16776959
370
     9
  0
POLYLINE
  5
230
330
17F
100
AcDbEntity
  8
0
 62
     7
420
 16776959
370
     9
100
AcDb2dPolyline
 66
     1
 10
0.0
 20
0.0
 30
0.0
  0
VERTEX
  5
231
330
230
100
AcDbEntity
  8
0
 62
     7
420
 16776959
370
     9
100
AcDbVertex
100
AcDb2dVertex
 10
401.142017290993
 20
286.9104489495348
 30
0.0
  0
VERTEX
  5
232
330
230
100
AcDbEntity
  8
0
 62
     7
420
 16776959
370
     9
100
AcDbVertex
100
AcDb2dVertex
 10
400.142781070821
 20
287.6452681429855
 30
0.0
  0
SEQEND
  5
233
330
230
100
AcDbEntity
  8
0
 62
     7
420
 16776959
370
     9
  0
SPLINE
  5
234
330
17F
100
AcDbEntity
  8
0
 62
     7
420
 16776959
370
     9
100
AcDbSpline
210
0.0
220
0.0
230
1.0
 70
     8
 71
     3
 72
    14
 73
    10
 74
     0
 42
0.0000000001
 43
0.0000000001
 12
1.0
 22
0.0
 32
0.0
 13
1.0
 23
0.0
 33
0.0
 40
0.0
 40
0.0
 40
0.0
 40
0.0
 40
1.0
 40
1.0
 40
1.0
 40
2.0
 40
2.0
 40
2.0
 40
3.0
 40
3.0
 40
3.0
 40
3.0
 10
387.1686944466301
 20
269.0255398247518
 30
0.0
 10
387.0663221978002
 20
269.0786952007365
 30
0.0
 10
386.9643124310924
 20
269.133070646194
 30
0.0
 10
386.8626792830073
 20
269.1886713118438
 30
0.0
 10
378.2097010525422
 20
273.9224747857352
 30
0.0
 10
375.5634271873232
 20
285.7449437494943
 30
0.0
 10
380.9520611746511
 20
295.594894817692
 30
0.0
 10
386.3406951619791
 20
305.4448458858924
 30
0.0
 10
397.7236709359404
 20
309.5923029740579
 30
0.0
 10
406.3766491664064
 20
304.8584995001675
 30
0.0
  0
SPLINE
  5
235
330
17F
100
AcDbEntity
  8
0
 62
     7
420
 16776959
370
    18
100
AcDbSpline
210
0.0
220
0.0
230
1.0
 70
    11
 71
     3
 72
    17
 73
    13
 74
     0
 42
0.0000000001
 43
0.0000000001
 12
1.0
 22
0.0
 32
0.0
 13
1.0
 23
0.0
 33
0.0
 40
0.0
 40
0.0
 40
0.0
 40
0.0
 40
1.0
 40
1.0
 40
1.0
 40
2.0
 40
2.0
 40
2.0
 40
3.0
 40
3.0
 40
3.0
 40
4.0
 40
4.0
 40
4.0
 40
4.0
 10
409.086708637903
 20
279.527161790058
 30
0.0
 10
406.0981114876622
 20
273.9457186101354
 30
0.0
 10
399.7053562035489
 20
271.5468209153532
 30
0.0
 10
394.8080900711702
 20
274.1690738229609
 30
0.0
 10
389.9108239387924
 20
276.7913267305667
 30
0.0
 10
388.3635420136688
 20
283.4417364109413
 30
0.0
 10
391.3521391639097
 20
289.0231795908603
 30
0.0
 10
394.3407363141496
 20
294.604622770783
 30
0.0
 10
400.7334915982628
 20
297.0035204655633
 30
0.0
 10
405.6307577306434
 20
294.3812675579557
 30
0.0
 10
410.5280238630212
 20
291.759014650348
 30
0.0
 10
412.0753057881439
 20
285.1086049699788
 30
0.0
 10
409.086708637903
 20
279.527161790058
 30
0.0
  0
MTEXT
  5
236
330
17F
100
AcDbEntity
  8
0
 62
     7
420
 16776959
100
AcDbMText
 10
396.3818474112195
 20
289.0623177094967
 30
0.0
 40
2.238346858882307
 41
0.0
 46
0.0
 71
     7
 72
     1
  1
\fHelvetica Neue LT Std 77 Condensed|b1|i0|c0|p34;\W0.866268;WS22
 11
0.9881221707332019
 21
0.153670347515404
 31
0.0
 73
     1
 44
1.0
  0
MTEXT
  5
237
330
17F
100
AcDbEntity
  8
0
 62
     7
420
 16776959
100
AcDbMText
 10
398.518270968867
 20
276.4717175226542
 30
0.0
 40
2.273361377395354
 41
0.0
 46
0.0
 71
     7
 72
     1
  1
\fHelvetica Neue LT Std 77 Condensed|b1|i0|c0|p34;\W0.955598;3.5
 11
0.9881221707332019
 21
0.153670347515404
 31
0.0
 73
     1
 44
1.0
  0
INSERT
  5
239
330
17F
100
AcDbEntity
  8
0
100
AcDbBlockReference
  2
block 11
 10
0.0
 20
0.0
 30
0.0
  0
SPLINE
  5
25C
330
17F
100
AcDbEntity
  8
0
 62
     7
420
 16776959
370
     9
100
AcDbSpline
210
0.0
220
0.0
230
1.0
 70
    11
 71
     3
 72
    17
 73
    13
 74
     0
 42
0.0000000001
 43
0.0000000001
 12
1.0
 22
0.0
 32
0.0
 13
1.0
 23
0.0
 33
0.0
 40
0.0
 40
0.0
 40
0.0
 40
0.0
 40
1.0
 40
1.0
 40
1.0
 40
2.0
 40
2.0
 40
2.0
 40
3.0
 40
3.0
 40
3.0
 40
4.0
 40
4.0
 40
4.0
 40
4.0
 10
403.1175149769697
 20
282.7233808662386
 30
0.0
 10
402.1407529818425
 20
280.899200054293
 30
0.0
 10
400.0514113637664
 20
280.1151692931489
 30
0.0
 10
398.4508398589242
 20
280.9721991479601
 30
0.0
 10
396.8502683540819
 20
281.8292290027712
 30
0.0
 10
396.3445708297158
 20
284.0027797027324
 30
0.0
 10
397.3213328248421
 20
285.8269605146779
 30
0.0
 10
398.2980948199684
 20
287.6511413266235
 30
0.0
 10
400.3874364380454
 20
288.4351720877694
 30
0.0
 10
401.9880079428876
 20
287.5781422329583
 30
0.0
 10
403.5885794477299
 20
286.7211123781453
 30
0.0
 10
404.0942769720959
 20
284.5475616781841
 30
0.0
 10
403.1175149769697
 20
282.7233808662386
 30
0.0
  0
ENDBLK
  5
182
330
17F
100
AcDbEntity
  8
0
100
AcDbBlockEnd
  0
BLOCK
  5
23A
330
238
100
AcDbEntity
  8
0
100
AcDbBlockBegin
  2
block 11
 70
     0
 10
0.0
 20
0.0
 30
0.0
  3
block 11
  1

  0
INSERT
  5
23D
330
238
100
AcDbEntity
  8
0
100
AcDbBlockReference
  2
block 12
 10
0.0
 20
0.0
 30
0.0
  0
INSERT
  5
251
330
238
100
AcDbEntity
  8
0
100
AcDbBlockReference
  2
block 13
 10
0.0
 20
0.0
 30
0.0
  0
ENDBLK
  5
23B
330
238
100
AcDbEntity
  8
0
100
AcDbBlockEnd
  0
BLOCK
  5
23E
330
23C
100
AcDbEntity
  8
0
100
AcDbBlockBegin
  2
block 12
 70
     0
 10
0.0
 20
0.0
 30
0.0
  3
block 12
  1

  0
POLYLINE
  5
240
330
23C
100
AcDbEntity
  8
0
370
     0
100
AcDb2dPolyline
 66
     1
 10
0.0
 20
0.0
 30
0.0
  0
VERTEX
  5
241
330
240
100
AcDbEntity
  8
0
370
     0
100
AcDbVertex
100
AcDb2dVertex
 10
405.2022575466681
 20
284.9470928459068
 30
0.0
  0
VERTEX
  5
242
330
240
100
AcDbEntity
  8
0
370
     0
100
AcDbVertex
100
AcDb2dVertex
 10
408.1132056778088
 20
285.3529810233722
 30
0.0
  0
VERTEX
  5
243
330
240
100
AcDbEntity
  8
0
370
     0
100
AcDbVertex
100
AcDb2dVertex
 10
408.1132056778106
 20
284.844391389257
 30
0.0
  0
VERTEX
  5
244
330
240
100
AcDbEntity
  8
0
370
     0
100
AcDbVertex
100
AcDb2dVertex
 10
405.2022575466699
 20
284.4383057478699
 30
0.0
  0
VERTEX
  5
245
330
240
100
AcDbEntity
  8
0
370
     0
100
AcDbVertex
100
AcDb2dVertex
 10
405.2022575466681
 20
284.9470928459068
 30
0.0
  0
SEQEND
  5
247
330
240
100
AcDbEntity
  8
0
370
     0
  0
HATCH
  5
246
330
23C
100
AcDbEntity
  8
0
 62
     7
420
 16776959
100
AcDbHatch
 10
0.0
 20
0.0
 30
0.0
210
0.0
220
0.0
230
1.0
  2
SOLID
 70
     1
 71
     0
 91
        1
 92
        1
 93
        4
 72
     1
 10
405.2022575466681
 20
284.9470928459068
 11
408.1132056778088
 21
285.3529810233722
 72
     1
 10
408.1132056778088
 20
285.3529810233722
 11
408.1132056778106
 21
284.844391389257
 72
     1
 10
408.1132056778106
 20
284.844391389257
 11
405.2022575466699
 21
284.4383057478699
 72
     1
 10
405.2022575466699
 20
284.4383057478699
 11
405.2022575466681
 21
284.9470928459068
 97
        0
 75
     2
 76
     1
 98
        0
  0
POLYLINE
  5
248
330
23C
100
AcDbEntity
  8
0
370
     0
100
AcDb2dPolyline
 66
     1
 10
0.0
 20
0.0
 30
0.0
  0
VERTEX
  5
249
330
248
100
AcDbEntity
  8
0
370
     0
100
AcDbVertex
100
AcDb2dVertex
 10
405.2022575466635
 20
285.7934232190237
 30
0.0
  0
VERTEX
  5
24A
330
248
100
AcDbEntity
  8
0
370
     0
100
AcDbVertex
100
AcDb2dVertex
 10
408.1132056778033
 20
286.1993113964927
 30
0.0
  0
VERTEX
  5
24B
330
248
100
AcDbEntity
  8
0
370
     0
100
AcDbVertex
100
AcDb2dVertex
 10
408.1132056778069
 20
285.6897087654088
 30
0.0
  0
VERTEX
  5
24C
330
248
100
AcDbEntity
  8
0
370
     0
100
AcDbVertex
100
AcDb2dVertex
 10
405.2022575466654
 20
285.2838205879434
 30
0.0
  0
VERTEX
  5
24D
330
248
100
AcDbEntity
  8
0
370
     0
100
AcDbVertex
100
AcDb2dVertex
 10
405.2022575466635
 20
285.7934232190237
 30
0.0
  0
SEQEND
  5
24F
330
248
100
AcDbEntity
  8
0
370
     0
  0
HATCH
  5
24E
330
23C
100
AcDbEntity
  8
0
 62
     7
420
 16776959
100
AcDbHatch
 10
0.0
 20
0.0
 30
0.0
210
0.0
220
0.0
230
1.0
  2
SOLID
 70
     1
 71
     0
 91
        1
 92
        1
 93
        4
 72
     1
 10
405.2022575466635
 20
285.7934232190237
 11
408.1132056778033
 21
286.1993113964927
 72
     1
 10
408.1132056778033
 20
286.1993113964927
 11
408.1132056778069
 21
285.6897087654088
 72
     1
 10
408.1132056778069
 20
285.6897087654088
 11
405.2022575466654
 21
285.2838205879434
 72
     1
 10
405.2022575466654
 20
285.2838205879434
 11
405.2022575466635
 21
285.7934232190237
 97
        0
 75
     2
 76
     1
 98
        0
  0
ENDBLK
  5
23F
330
23C
100
AcDbEntity
  8
0
100
AcDbBlockEnd
  0
BLOCK
  5
252
330
250
100
AcDbEntity
  8
0
100
AcDbBlockBegin
  2
block 13
 70
     0
 10
0.0
 20
0.0
 30
0.0
  3
block 13
  1

  0
POLYLINE
  5
254
330
250
100
AcDbEntity
  8
0
370
     0
100
AcDb2dPolyline
 66
     1
 10
0.0
 20
0.0
 30
0.0
  0
VERTEX
  5
255
330
254
100
AcDbEntity
  8
0
370
     0
100
AcDbVertex
100
AcDb2dVertex
 10
407.5308831533184
 20
287.0654705102661
 30
0.0
  0
VERTEX
  5
256
330
254
100
AcDbEntity
  8
0
370
     0
100
AcDbVertex
100
AcDb2dVertex
 10
407.7297415617968
 20
286.9677886746213
 30
0.0
  0
VERTEX
  5
257
330
254
100
AcDbEntity
  8
0
370
     0
100
AcDbVertex
100
AcDb2dVertex
 10
405.7261053164293
 20
283.6430623477972
 30
0.0
  0
VERTEX
  5
258
330
254
100
AcDbEntity
  8
0
370
     0
100
AcDbVertex
100
AcDb2dVertex
 10
405.5272469079518
 20
283.7408543479723
 30
0.0
  0
VERTEX
  5
259
330
254
100
AcDbEntity
  8
0
370
     0
100
AcDbVertex
100
AcDb2dVertex
 10
407.5308831533184
 20
287.0654705102661
 30
0.0
  0
SEQEND
  5
25B
330
254
100
AcDbEntity
  8
0
370
     0
  0
HATCH
  5
25A
330
250
100
AcDbEntity
  8
0
 62
     7
420
 16776959
100
AcDbHatch
 10
0.0
 20
0.0
 30
0.0
210
0.0
220
0.0
230
1.0
  2
SOLID
 70
     1
 71
     0
 91
        1
 92
        1
 93
        4
 72
     1
 10
407.5308831533184
 20
287.0654705102661
 11
407.7297415617968
 21
286.9677886746213
 72
     1
 10
407.7297415617968
 20
286.9677886746213
 11
405.7261053164293
 21
283.6430623477972
 72
     1
 10
405.7261053164293
 20
283.6430623477972
 11
405.5272469079518
 21
283.7408543479723
 72
     1
 10
405.5272469079518
 20
283.7408543479723
 11
407.5308831533184
 21
287.0654705102661
 97
        0
 75
     2
 76
     1
 98
        0
  0
ENDBLK
  5
253
330
250
100
AcDbEntity
  8
0
100
AcDbBlockEnd
  0
BLOCK
  5
25F
330
25D
100
AcDbEntity
  8
0
100
AcDbBlockBegin
  2
block 14
 70
     0
 10
0.0
 20
0.0
 30
0.0
  3
block 14
  1

  0
SPLINE
  5
261
330
25D
100
AcDbEntity
  8
0
 62
     7
420
 16776959
370
    18
100
AcDbSpline
210
0.0
220
0.0
230
1.0
 70
    11
 71
     3
 72
    23
 73
    19
 74
     0
 42
0.0000000001
 43
0.0000000001
 12
1.0
 22
0.0
 32
0.0
 13
1.0
 23
0.0
 33
0.0
 40
0.0
 40
0.0
 40
0.0
 40
0.0
 40
1.0
 40
1.0
 40
1.0
 40
2.0
 40
2.0
 40
2.0
 40
3.0
 40
3.0
 40
3.0
 40
4.0
 40
4.0
 40
4.0
 40
5.0
 40
5.0
 40
5.0
 40
6.0
 40
6.0
 40
6.0
 40
6.0
 10
498.7113963535485
 20
316.1933756182361
 30
0.0
 10
490.593049667812
 20
320.1146800590004
 30
0.0
 10
480.2391491499784
 20
316.1424219067294
 30
0.0
 10
475.2658004644418
 20
307.0515760053713
 30
0.0
 10
470.1521173194287
 20
297.7042110006023
 30
0.0
 10
472.6633671266118
 20
286.4849742859551
 30
0.0
 10
480.8748338982205
 20
281.9927094386549
 30
0.0
 10
480.8748338982205
 20
281.9927094386549
 30
0.0
 10
482.6724204970578
 20
281.1835378160122
 30
0.0
 10
482.6724204970578
 20
281.1835378160122
 30
0.0
 10
490.8464542491856
 20
276.9392837103351
 30
0.0
 10
501.4557171360357
 20
280.8917061624034
 30
0.0
 10
506.5093377566245
 20
290.1292821319494
 30
0.0
 10
511.6230209016376
 20
299.4766471367184
 30
0.0
 10
509.1117710944545
 20
310.6958838513638
 30
0.0
 10
500.9003043228458
 20
315.1881486986676
 30
0.0
 10
500.9003043228458
 20
315.1881486986676
 30
0.0
 10
498.7113963535485
 20
316.1933756182361
 30
0.0
 10
498.7113963535485
 20
316.1933756182361
 30
0.0
  0
HATCH
  5
262
330
25D
100
AcDbEntity
  8
0
 62
   250
420
  2301728
100
AcDbHatch
 10
0.0
 20
0.0
 30
0.0
210
0.0
220
0.0
230
1.0
  2
SOLID
 70
     1
 71
     0
 91
        1
 92
        1
 93
        1
 72
     4
 94
        3
 73
     0
 74
     1
 95
       23
 96
       19
 40
0.0
 40
0.0
 40
0.0
 40
0.0
 40
1.0
 40
1.0
 40
1.0
 40
2.0
 40
2.0
 40
2.0
 40
3.0
 40
3.0
 40
3.0
 40
4.0
 40
4.0
 40
4.0
 40
5.0
 40
5.0
 40
5.0
 40
6.0
 40
6.0
 40
6.0
 40
6.0
 10
498.7113963535485
 20
316.1933756182361
 10
490.593049667812
 20
320.1146800590004
 10
480.2391491499784
 20
316.1424219067294
 10
475.2658004644418
 20
307.0515760053713
 10
470.1521173194287
 20
297.7042110006023
 10
472.6633671266118
 20
286.4849742859551
 10
480.8748338982205
 20
281.9927094386549
 10
480.8748338982205
 20
281.9927094386549
 10
482.6724204970578
 20
281.1835378160122
 10
482.6724204970578
 20
281.1835378160122
 10
490.8464542491856
 20
276.9392837103351
 10
501.4557171360357
 20
280.8917061624034
 10
506.5093377566245
 20
290.1292821319494
 10
511.6230209016376
 20
299.4766471367184
 10
509.1117710944545
 20
310.6958838513638
 10
500.9003043228458
 20
315.1881486986676
 10
500.9003043228458
 20
315.1881486986676
 10
498.7113963535485
 20
316.1933756182361
 10
498.7113963535485
 20
316.1933756182361
 97
        0
 97
        0
 75
     2
 76
     1
 98
        0
  0
SPLINE
  5
263
330
25D
100
AcDbEntity
  8
0
 62
     7
420
 16776959
370
    13
100
AcDbSpline
210
0.0
220
0.0
230
1.0
 70
    11
 71
     3
 72
    59
 73
    55
 74
     0
 42
0.0000000001
 43
0.0000000001
 12
1.0
 22
0.0
 32
0.0
 13
1.0
 23
0.0
 33
0.0
 40
0.0
 40
0.0
 40
0.0
 40
0.0
 40
1.0
 40
1.0
 40
1.0
 40
2.0
 40
2.0
 40
2.0
 40
3.0
 40
3.0
 40
3.0
 40
4.0
 40
4.0
 40
4.0
 40
5.0
 40
5.0
 40
5.0
 40
6.0
 40
6.0
 40
6.0
 40
7.0
 40
7.0
 40
7.0
 40
8.0
 40
8.0
 40
8.0
 40
9.0
 40
9.0
 40
9.0
 40
10.0
 40
10.0
 40
10.0
 40
11.0
 40
11.0
 40
11.0
 40
12.0
 40
12.0
 40
12.0
 40
13.0
 40
13.0
 40
13.0
 40
14.0
 40
14.0
 40
14.0
 40
15.0
 40
15.0
 40
15.0
 40
16.0
 40
16.0
 40
16.0
 40
17.0
 40
17.0
 40
17.0
 40
18.0
 40
18.0
 40
18.0
 40
18.0
 10
486.4288793604501
 20
282.6171802298377
 30
0.0
 10
486.4288793604501
 20
282.6171802298377
 30
0.0
 10
485.2589525860167
 20
282.4716954815667
 30
0.0
 10
485.2589525860167
 20
282.4716954815667
 30
0.0
 10
484.1760119832888
 20
282.3702964059958
 30
0.0
 10
483.252718421998
 20
282.8154388042349
 30
0.0
 10
482.6613558434201
 20
283.7263958019394
 30
0.0
 10
482.6613558434201
 20
283.7263958019394
 30
0.0
 10
476.1457330191497
 20
294.7809693767031
 30
0.0
 10
476.1457330191497
 20
294.7809693767031
 30
0.0
 10
475.6233041319574
 20
295.7989171778427
 30
0.0
 10
475.6255530672515
 20
296.9181650738301
 30
0.0
 10
476.1457330191497
 20
297.9439191797701
 30
0.0
 10
476.1457330191497
 20
297.9439191797701
 30
0.0
 10
482.6613558434201
 20
310.5476552200234
 30
0.0
 10
482.6613558434201
 20
310.5476552200234
 30
0.0
 10
483.205033446724
 20
311.5686449358418
 30
0.0
 10
484.1221711513044
 20
312.2317120690286
 30
0.0
 10
485.2589525860167
 20
312.4199633244252
 30
0.0
 10
485.2589525860167
 20
312.4199633244252
 30
0.0
 10
498.1733681018231
 20
313.8845549496546
 30
0.0
 10
498.1733681018231
 20
313.8845549496546
 30
0.0
 10
499.249421079996
 20
313.9710733746724
 30
0.0
 10
500.1620425290184
 20
313.5181262860788
 30
0.0
 10
500.7416347071976
 20
312.6085108630059
 30
0.0
 10
500.7416347071976
 20
312.6085108630059
 30
0.0
 10
507.1411559786702
 20
301.6108170670195
 30
0.0
 10
507.1411559786702
 20
301.6108170670195
 30
0.0
 10
507.1411559786702
 20
301.6108170670195
 30
0.0
 10
507.1460492706883
 20
301.6023732119302
 30
0.0
 10
507.1460492706883
 20
301.6023732119302
 30
0.0
 10
507.3011517826326
 20
301.330965183246
 30
0.0
 10
507.4102586662211
 20
301.036679544859
 30
0.0
 10
507.4729905168715
 20
300.7305274518576
 30
0.0
 10
507.4729905168715
 20
300.7305274518576
 30
0.0
 10
508.6957012457751
 20
298.6294164937171
 30
0.0
 10
508.6957012457751
 20
298.6294164937171
 30
0.0
 10
508.9691721150302
 20
298.1188553745869
 30
0.0
 10
508.9814318139615
 20
297.5535303381603
 30
0.0
 10
508.7309811529758
 20
297.0306570956382
 30
0.0
 10
508.7309811529758
 20
297.0306570956382
 30
0.0
 10
502.2894837470703
 20
284.4184520100807
 30
0.0
 10
502.2894837470703
 20
284.4184520100807
 30
0.0
 10
502.0288828869452
 20
283.9318147393205
 30
0.0
 10
501.589734896037
 20
283.6177636948632
 30
0.0
 10
501.0456333486127
 20
283.5300898546193
 30
0.0
 10
501.0456333486127
 20
283.5300898546193
 30
0.0
 10
488.0609031701879
 20
281.9110715514362
 30
0.0
 10
488.0609031701879
 20
281.9110715514362
 30
0.0
 10
487.6503399310386
 20
281.8649536314824
 30
0.0
 10
487.2545382845983
 20
281.9753133914655
 30
0.0
 10
486.9251337542573
 20
282.2263550647076
 30
0.0
 10
486.9251337542573
 20
282.2263550647076
 30
0.0
 10
486.4288793604501
 20
282.6171802298377
 30
0.0
 10
486.4288793604501
 20
282.6171802298377
 30
0.0
  0
HATCH
  5
264
330
25D
100
AcDbEntity
  8
0
 62
   250
420
  2301728
100
AcDbHatch
 10
0.0
 20
0.0
 30
0.0
210
0.0
220
0.0
230
1.0
  2
SOLID
 70
     1
 71
     0
 91
        1
 92
        1
 93
        1
 72
     4
 94
        3
 73
     0
 74
     1
 95
       59
 96
       55
 40
0.0
 40
0.0
 40
0.0
 40
0.0
 40
1.0
 40
1.0
 40
1.0
 40
2.0
 40
2.0
 40
2.0
 40
3.0
 40
3.0
 40
3.0
 40
4.0
 40
4.0
 40
4.0
 40
5.0
 40
5.0
 40
5.0
 40
6.0
 40
6.0
 40
6.0
 40
7.0
 40
7.0
 40
7.0
 40
8.0
 40
8.0
 40
8.0
 40
9.0
 40
9.0
 40
9.0
 40
10.0
 40
10.0
 40
10.0
 40
11.0
 40
11.0
 40
11.0
 40
12.0
 40
12.0
 40
12.0
 40
13.0
 40
13.0
 40
13.0
 40
14.0
 40
14.0
 40
14.0
 40
15.0
 40
15.0
 40
15.0
 40
16.0
 40
16.0
 40
16.0
 40
17.0
 40
17.0
 40
17.0
 40
18.0
 40
18.0
 40
18.0
 40
18.0
 10
486.4288793604501
 20
282.6171802298377
 10
486.4288793604501
 20
282.6171802298377
 10
485.2589525860167
 20
282.4716954815667
 10
485.2589525860167
 20
282.4716954815667
 10
484.1760119832888
 20
282.3702964059958
 10
483.252718421998
 20
282.8154388042349
 10
482.6613558434201
 20
283.7263958019394
 10
482.6613558434201
 20
283.7263958019394
 10
476.1457330191497
 20
294.7809693767031
 10
476.1457330191497
 20
294.7809693767031
 10
475.6233041319574
 20
295.7989171778427
 10
475.6255530672515
 20
296.9181650738301
 10
476.1457330191497
 20
297.9439191797701
 10
476.1457330191497
 20
297.9439191797701
 10
482.6613558434201
 20
310.5476552200234
 10
482.6613558434201
 20
310.5476552200234
 10
483.205033446724
 20
311.5686449358418
 10
484.1221711513044
 20
312.2317120690286
 10
485.2589525860167
 20
312.4199633244252
 10
485.2589525860167
 20
312.4199633244252
 10
498.1733681018231
 20
313.8845549496546
 10
498.1733681018231
 20
313.8845549496546
 10
499.249421079996
 20
313.9710733746724
 10
500.1620425290184
 20
313.5181262860788
 10
500.7416347071976
 20
312.6085108630059
 10
500.7416347071976
 20
312.6085108630059
 10
507.1411559786702
 20
301.6108170670195
 10
507.1411559786702
 20
301.6108170670195
 10
507.1411559786702
 20
301.6108170670195
 10
507.1460492706883
 20
301.6023732119302
 10
507.1460492706883
 20
301.6023732119302
 10
507.3011517826326
 20
301.330965183246
 10
507.4102586662211
 20
301.036679544859
 10
507.4729905168715
 20
300.7305274518576
 10
507.4729905168715
 20
300.7305274518576
 10
508.6957012457751
 20
298.6294164937171
 10
508.6957012457751
 20
298.6294164937171
 10
508.9691721150302
 20
298.1188553745869
 10
508.9814318139615
 20
297.5535303381603
 10
508.7309811529758
 20
297.0306570956382
 10
508.7309811529758
 20
297.0306570956382
 10
502.2894837470703
 20
284.4184520100807
 10
502.2894837470703
 20
284.4184520100807
 10
502.0288828869452
 20
283.9318147393205
 10
501.589734896037
 20
283.6177636948632
 10
501.0456333486127
 20
283.5300898546193
 10
501.0456333486127
 20
283.5300898546193
 10
488.0609031701879
 20
281.9110715514362
 10
488.0609031701879
 20
281.9110715514362
 10
487.6503399310386
 20
281.8649536314824
 10
487.2545382845983
 20
281.9753133914655
 10
486.9251337542573
 20
282.2263550647076
 10
486.9251337542573
 20
282.2263550647076
 10
486.4288793604501
 20
282.6171802298377
 10
486.4288793604501
 20
282.6171802298377
 97
        0
 97
        0
 75
     2
 76
     1
 98
        0
  0
SPLINE
  5
265
330
25D
100
AcDbEntity
  8
0
 62
     7
420
 16776959
370
     9
100
AcDbSpline
210
0.0
220
0.0
230
1.0
 70
     8
 71
     3
 72
     8
 73
     4
 74
     0
 42
0.0000000001
 43
0.0000000001
 12
1.0
 22
0.0
 32
0.0
 13
1.0
 23
0.0
 33
0.0
 40
0.0
 40
0.0
 40
0.0
 40
0.0
 40
1.0
 40
1.0
 40
1.0
 40
1.0
 10
500.7416347071976
 20
312.6085108630059
 30
0.0
 10
500.3329396535064
 20
312.3541220417228
 30
0.0
 10
500.0297983858691
 20
311.9768095634627
 30
0.0
 10
499.8825021535522
 20
311.5314572761035
 30
0.0
  0
SPLINE
  5
266
330
25D
100
AcDbEntity
  8
0
 62
     7
420
 16776959
370
     9
100
AcDbSpline
210
0.0
220
0.0
230
1.0
 70
     8
 71
     3
 72
     8
 73
     4
 74
     0
 42
0.0000000001
 43
0.0000000001
 12
1.0
 22
0.0
 32
0.0
 13
1.0
 23
0.0
 33
0.0
 40
0.0
 40
0.0
 40
0.0
 40
0.0
 40
1.0
 40
1.0
 40
1.0
 40
1.0
 10
507.0161270893677
 20
301.5156033747298
 30
0.0
 10
507.0563498499014
 20
301.5474140591068
 30
0.0
 10
507.0970781681808
 20
301.5785642303354
 30
0.0
 10
507.1384640444485
 20
301.6088486804501
 30
0.0
  0
SPLINE
  5
267
330
25D
100
AcDbEntity
  8
0
 62
     7
420
 16776959
370
     9
100
AcDbSpline
210
0.0
220
0.0
230
1.0
 70
     8
 71
     3
 72
     8
 73
     4
 74
     0
 42
0.0000000001
 43
0.0000000001
 12
1.0
 22
0.0
 32
0.0
 13
1.0
 23
0.0
 33
0.0
 40
0.0
 40
0.0
 40
0.0
 40
0.0
 40
1.0
 40
1.0
 40
1.0
 40
1.0
 10
498.7010569087142
 20
311.9465238716821
 30
0.0
 10
498.2254917311184
 20
312.2909862258648
 30
0.0
 10
498.1411993214442
 20
313.3620240359087
 30
0.0
 10
498.1733681018231
 20
313.8845549496546
 30
0.0
  0
SPLINE
  5
268
330
25D
100
AcDbEntity
  8
0
 62
     7
420
 16776959
370
     9
100
AcDbSpline
210
0.0
220
0.0
230
1.0
 70
     8
 71
     3
 72
     8
 73
     4
 74
     0
 42
0.0000000001
 43
0.0000000001
 12
1.0
 22
0.0
 32
0.0
 13
1.0
 23
0.0
 33
0.0
 40
0.0
 40
0.0
 40
0.0
 40
0.0
 40
1.0
 40
1.0
 40
1.0
 40
1.0
 10
499.6062866202719
 20
311.7244818702011
 30
0.0
 10
499.3449772753738
 20
311.9055769163488
 30
0.0
 10
499.0265637056091
 20
311.9804616435085
 30
0.0
 10
498.7113070151172
 20
311.9476564499064
 30
0.0
  0
SPLINE
  5
269
330
25D
100
AcDbEntity
  8
0
 62
     7
420
 16776959
370
     9
100
AcDbSpline
210
0.0
220
0.0
230
1.0
 70
     8
 71
     3
 72
     8
 73
     4
 74
     0
 42
0.0000000001
 43
0.0000000001
 12
1.0
 22
0.0
 32
0.0
 13
1.0
 23
0.0
 33
0.0
 40
0.0
 40
0.0
 40
0.0
 40
0.0
 40
1.0
 40
1.0
 40
1.0
 40
1.0
 10
485.2589525860167
 20
312.4199633244252
 30
0.0
 10
485.2180475766745
 20
311.7297969797692
 30
0.0
 10
485.3942823324978
 20
311.0411177789674
 30
0.0
 10
485.7651893890088
 20
310.4773653496413
 30
0.0
  0
POLYLINE
  5
26A
330
25D
100
AcDbEntity
  8
0
 62
     7
420
 16776959
370
     9
100
AcDb2dPolyline
 66
     1
 10
0.0
 20
0.0
 30
0.0
  0
VERTEX
  5
26B
330
26A
100
AcDbEntity
  8
0
 62
     7
420
 16776959
370
     9
100
AcDbVertex
100
AcDb2dVertex
 10
485.7737103705967
 20
310.4709792044578
 30
0.0
  0
VERTEX
  5
26C
330
26A
100
AcDbEntity
  8
0
 62
     7
420
 16776959
370
     9
100
AcDbVertex
100
AcDb2dVertex
 10
498.7010569087142
 20
311.9465238716821
 30
0.0
  0
SEQEND
  5
26D
330
26A
100
AcDbEntity
  8
0
 62
     7
420
 16776959
370
     9
  0
SPLINE
  5
26E
330
25D
100
AcDbEntity
  8
0
 62
     7
420
 16776959
370
     9
100
AcDbSpline
210
0.0
220
0.0
230
1.0
 70
     8
 71
     3
 72
     8
 73
     4
 74
     0
 42
0.0000000001
 43
0.0000000001
 12
1.0
 22
0.0
 32
0.0
 13
1.0
 23
0.0
 33
0.0
 40
0.0
 40
0.0
 40
0.0
 40
0.0
 40
1.0
 40
1.0
 40
1.0
 40
1.0
 10
484.474220347096
 20
309.5332244778092
 30
0.0
 10
483.9199343478085
 20
309.934354490546
 30
0.0
 10
483.2761629486995
 20
310.2520581623085
 30
0.0
 10
482.6613558434201
 20
310.5476552200234
 30
0.0
  0
SPLINE
  5
26F
330
25D
100
AcDbEntity
  8
0
 62
     7
420
 16776959
370
     9
100
AcDbSpline
210
0.0
220
0.0
230
1.0
 70
     8
 71
     3
 72
     8
 73
     4
 74
     0
 42
0.0000000001
 43
0.0000000001
 12
1.0
 22
0.0
 32
0.0
 13
1.0
 23
0.0
 33
0.0
 40
0.0
 40
0.0
 40
0.0
 40
0.0
 40
1.0
 40
1.0
 40
1.0
 40
1.0
 10
485.7737103705967
 20
310.4709792044578
 30
0.0
 10
485.2048976004207
 20
310.3763613059691
 30
0.0
 10
484.7460923216313
 20
310.0442673774751
 30
0.0
 10
484.474220347096
 20
309.5332244778092
 30
0.0
  0
SPLINE
  5
270
330
25D
100
AcDbEntity
  8
0
 62
     7
420
 16776959
370
     9
100
AcDbSpline
210
0.0
220
0.0
230
1.0
 70
     8
 71
     3
 72
     8
 73
     4
 74
     0
 42
0.0000000001
 43
0.0000000001
 12
1.0
 22
0.0
 32
0.0
 13
1.0
 23
0.0
 33
0.0
 40
0.0
 40
0.0
 40
0.0
 40
0.0
 40
1.0
 40
1.0
 40
1.0
 40
1.0
 10
476.1457330191497
 20
297.9439191797701
 30
0.0
 10
476.7737590557608
 20
297.6468539677116
 30
0.0
 10
477.3809108751648
 20
297.3032151168027
 30
0.0
 10
477.9582061230249
 20
296.9179665490174
 30
0.0
  0
POLYLINE
  5
271
330
25D
100
AcDbEntity
  8
0
 62
     7
420
 16776959
370
     9
100
AcDb2dPolyline
 66
     1
 10
0.0
 20
0.0
 30
0.0
  0
VERTEX
  5
272
330
271
100
AcDbEntity
  8
0
 62
     7
420
 16776959
370
     9
100
AcDbVertex
100
AcDb2dVertex
 10
477.9582061230249
 20
296.9179665490174
 30
0.0
  0
VERTEX
  5
273
330
271
100
AcDbEntity
  8
0
 62
     7
420
 16776959
370
     9
100
AcDbVertex
100
AcDb2dVertex
 10
484.474220347096
 20
309.5332244778092
 30
0.0
  0
SEQEND
  5
274
330
271
100
AcDbEntity
  8
0
 62
     7
420
 16776959
370
     9
  0
SPLINE
  5
275
330
25D
100
AcDbEntity
  8
0
 62
     7
420
 16776959
370
     9
100
AcDbSpline
210
0.0
220
0.0
230
1.0
 70
     8
 71
     3
 72
     8
 73
     4
 74
     0
 42
0.0000000001
 43
0.0000000001
 12
1.0
 22
0.0
 32
0.0
 13
1.0
 23
0.0
 33
0.0
 40
0.0
 40
0.0
 40
0.0
 40
0.0
 40
1.0
 40
1.0
 40
1.0
 40
1.0
 10
477.9582061230249
 20
295.3353489838464
 30
0.0
 10
477.5024824366974
 20
295.6735155750193
 30
0.0
 10
476.4832973473076
 20
295.07399506199
 30
0.0
 10
476.1457330191497
 20
294.7809693767031
 30
0.0
  0
SPLINE
  5
276
330
25D
100
AcDbEntity
  8
0
 62
     7
420
 16776959
370
     9
100
AcDbSpline
210
0.0
220
0.0
230
1.0
 70
     8
 71
     3
 72
     8
 73
     4
 74
     0
 42
0.0000000001
 43
0.0000000001
 12
1.0
 22
0.0
 32
0.0
 13
1.0
 23
0.0
 33
0.0
 40
0.0
 40
0.0
 40
0.0
 40
0.0
 40
1.0
 40
1.0
 40
1.0
 40
1.0
 10
477.9582061230249
 20
296.9179665490174
 30
0.0
 10
477.6981131519369
 20
296.404712632786
 30
0.0
 10
477.6969892369416
 20
295.8446999635416
 30
0.0
 10
477.9582061230249
 20
295.3353489838464
 30
0.0
  0
SPLINE
  5
277
330
25D
100
AcDbEntity
  8
0
 62
     7
420
 16776959
370
     9
100
AcDbSpline
210
0.0
220
0.0
230
1.0
 70
     8
 71
     3
 72
     8
 73
     4
 74
     0
 42
0.0000000001
 43
0.0000000001
 12
1.0
 22
0.0
 32
0.0
 13
1.0
 23
0.0
 33
0.0
 40
0.0
 40
0.0
 40
0.0
 40
0.0
 40
1.0
 40
1.0
 40
1.0
 40
1.0
 10
485.3946648534802
 20
283.4316759008288
 30
0.0
 10
485.2794219122225
 20
283.1352799815068
 30
0.0
 10
485.2500300082393
 20
282.7880214750348
 30
0.0
 10
485.258952586013
 20
282.4716954815667
 30
0.0
  0
SPLINE
  5
278
330
25D
100
AcDbEntity
  8
0
 62
     7
420
 16776959
370
     9
100
AcDbSpline
210
0.0
220
0.0
230
1.0
 70
     8
 71
     3
 72
     8
 73
     4
 74
     0
 42
0.0000000001
 43
0.0000000001
 12
1.0
 22
0.0
 32
0.0
 13
1.0
 23
0.0
 33
0.0
 40
0.0
 40
0.0
 40
0.0
 40
0.0
 40
1.0
 40
1.0
 40
1.0
 40
1.0
 10
484.474220347096
 20
284.2714903025117
 30
0.0
 10
484.5572492826832
 20
284.1317292180247
 30
0.0
 10
484.6637905550324
 20
284.0080784517268
 30
0.0
 10
484.7912261586298
 20
283.9069140659831
 30
0.0
  0
SPLINE
  5
279
330
25D
100
AcDbEntity
  8
0
 62
     7
420
 16776959
370
     9
100
AcDbSpline
210
0.0
220
0.0
230
1.0
 70
     8
 71
     3
 72
     8
 73
     4
 74
     0
 42
0.0000000001
 43
0.0000000001
 12
1.0
 22
0.0
 32
0.0
 13
1.0
 23
0.0
 33
0.0
 40
0.0
 40
0.0
 40
0.0
 40
0.0
 40
1.0
 40
1.0
 40
1.0
 40
1.0
 10
482.6613558434201
 20
283.7263958019394
 30
0.0
 10
483.1739525648172
 20
284.1725206554966
 30
0.0
 10
483.8277495505445
 20
284.3815013449548
 30
0.0
 10
484.4655432960353
 20
284.278051797819
 30
0.0
  0
POLYLINE
  5
27A
330
25D
100
AcDbEntity
  8
0
 62
     7
420
 16776959
370
     9
100
AcDb2dPolyline
 66
     1
 10
0.0
 20
0.0
 30
0.0
  0
VERTEX
  5
27B
330
27A
100
AcDbEntity
  8
0
 62
     7
420
 16776959
370
     9
100
AcDbVertex
100
AcDb2dVertex
 10
484.474220347096
 20
284.2714903025117
 30
0.0
  0
VERTEX
  5
27C
330
27A
100
AcDbEntity
  8
0
 62
     7
420
 16776959
370
     9
100
AcDbVertex
100
AcDb2dVertex
 10
477.9582061230249
 20
295.3353489838464
 30
0.0
  0
SEQEND
  5
27D
330
27A
100
AcDbEntity
  8
0
 62
     7
420
 16776959
370
     9
  0
SPLINE
  5
27E
330
25D
100
AcDbEntity
  8
0
 62
     7
420
 16776959
370
     9
100
AcDbSpline
210
0.0
220
0.0
230
1.0
 70
     8
 71
     3
 72
     8
 73
     4
 74
     0
 42
0.0000000001
 43
0.0000000001
 12
1.0
 22
0.0
 32
0.0
 13
1.0
 23
0.0
 33
0.0
 40
0.0
 40
0.0
 40
0.0
 40
0.0
 40
1.0
 40
1.0
 40
1.0
 40
1.0
 10
480.0634886501266
 20
295.2978931711223
 30
0.0
 10
480.6103557547394
 20
294.8802677495187
 30
0.0
 10
481.2696460575917
 20
294.5571191485233
 30
0.0
 10
481.889145470308
 20
294.2641666019317
 30
0.0
  0
SPLINE
  5
27F
330
25D
100
AcDbEntity
  8
0
 62
     7
420
 16776959
370
     9
100
AcDbSpline
210
0.0
220
0.0
230
1.0
 70
     8
 71
     3
 72
     8
 73
     4
 74
     0
 42
0.0000000001
 43
0.0000000001
 12
1.0
 22
0.0
 32
0.0
 13
1.0
 23
0.0
 33
0.0
 40
0.0
 40
0.0
 40
0.0
 40
0.0
 40
1.0
 40
1.0
 40
1.0
 40
1.0
 10
480.0634886501266
 20
293.7074053701053
 30
0.0
 10
479.8011702743061
 20
294.2192961164837
 30
0.0
 10
479.8022976383818
 20
294.7820800818208
 30
0.0
 10
480.0634886501266
 20
295.2978931711223
 30
0.0
  0
SPLINE
  5
280
330
25D
100
AcDbEntity
  8
0
 62
     7
420
 16776959
370
     9
100
AcDbSpline
210
0.0
220
0.0
230
1.0
 70
     8
 71
     3
 72
     8
 73
     4
 74
     0
 42
0.0000000001
 43
0.0000000001
 12
1.0
 22
0.0
 32
0.0
 13
1.0
 23
0.0
 33
0.0
 40
0.0
 40
0.0
 40
0.0
 40
0.0
 40
1.0
 40
1.0
 40
1.0
 40
1.0
 10
481.889145470308
 20
294.2641666019317
 30
0.0
 10
481.3728403653204
 20
293.817413781213
 30
0.0
 10
480.7146506264635
 20
293.6046412054275
 30
0.0
 10
480.0721423929135
 20
293.7009826154663
 30
0.0
  0
POLYLINE
  5
281
330
25D
100
AcDbEntity
  8
0
 62
     7
420
 16776959
370
     9
100
AcDb2dPolyline
 66
     1
 10
0.0
 20
0.0
 30
0.0
  0
VERTEX
  5
282
330
281
100
AcDbEntity
  8
0
 62
     7
420
 16776959
370
     9
100
AcDbVertex
100
AcDb2dVertex
 10
480.0634886501266
 20
295.2978931711223
 30
0.0
  0
VERTEX
  5
283
330
281
100
AcDbEntity
  8
0
 62
     7
420
 16776959
370
     9
100
AcDbVertex
100
AcDb2dVertex
 10
477.9582061230249
 20
296.9179665490174
 30
0.0
  0
SEQEND
  5
284
330
281
100
AcDbEntity
  8
0
 62
     7
420
 16776959
370
     9
  0
POLYLINE
  5
285
330
25D
100
AcDbEntity
  8
0
 62
     7
420
 16776959
370
     9
100
AcDb2dPolyline
 66
     1
 10
0.0
 20
0.0
 30
0.0
  0
VERTEX
  5
286
330
285
100
AcDbEntity
  8
0
 62
     7
420
 16776959
370
     9
100
AcDbVertex
100
AcDb2dVertex
 10
477.9582061230249
 20
295.3353489838464
 30
0.0
  0
VERTEX
  5
287
330
285
100
AcDbEntity
  8
0
 62
     7
420
 16776959
370
     9
100
AcDbVertex
100
AcDb2dVertex
 10
480.0634886501266
 20
293.7074053701053
 30
0.0
  0
SEQEND
  5
288
330
285
100
AcDbEntity
  8
0
 62
     7
420
 16776959
370
     9
  0
SPLINE
  5
289
330
25D
100
AcDbEntity
  8
0
 62
     7
420
 16776959
370
     9
100
AcDbSpline
210
0.0
220
0.0
230
1.0
 70
     8
 71
     3
 72
     8
 73
     4
 74
     0
 42
0.0000000001
 43
0.0000000001
 12
1.0
 22
0.0
 32
0.0
 13
1.0
 23
0.0
 33
0.0
 40
0.0
 40
0.0
 40
0.0
 40
0.0
 40
1.0
 40
1.0
 40
1.0
 40
1.0
 10
488.432842721777
 20
283.1399182337882
 30
0.0
 10
488.486313007752
 20
282.6773908616778
 30
0.0
 10
488.3585918402769
 20
282.229406519129
 30
0.0
 10
488.0676142146222
 20
281.9120586817662
 30
0.0
  0
SPLINE
  5
28A
330
25D
100
AcDbEntity
  8
0
 62
     7
420
 16776959
370
     9
100
AcDbSpline
210
0.0
220
0.0
230
1.0
 70
     8
 71
     3
 72
     8
 73
     4
 74
     0
 42
0.0000000001
 43
0.0000000001
 12
1.0
 22
0.0
 32
0.0
 13
1.0
 23
0.0
 33
0.0
 40
0.0
 40
0.0
 40
0.0
 40
0.0
 40
1.0
 40
1.0
 40
1.0
 40
1.0
 10
486.6068036937413
 20
282.5925443292908
 30
0.0
 10
487.0679007234139
 20
282.2437984694425
 30
0.0
 10
488.0900741162259
 20
282.8400127057539
 30
0.0
 10
488.432842721777
 20
283.1399182337882
 30
0.0
  0
SPLINE
  5
28B
330
25D
100
AcDbEntity
  8
0
 62
     7
420
 16776959
370
     9
100
AcDbSpline
210
0.0
220
0.0
230
1.0
 70
     8
 71
     3
 72
     8
 73
     4
 74
     0
 42
0.0000000001
 43
0.0000000001
 12
1.0
 22
0.0
 32
0.0
 13
1.0
 23
0.0
 33
0.0
 40
0.0
 40
0.0
 40
0.0
 40
0.0
 40
1.0
 40
1.0
 40
1.0
 40
1.0
 10
486.9251337542573
 20
282.2263550647076
 30
0.0
 10
486.7974838820282
 20
282.3277134189229
 30
0.0
 10
486.6893881207998
 20
282.4520078095302
 30
0.0
 10
486.6068036937413
 20
282.5925443292908
 30
0.0
  0
POLYLINE
  5
28C
330
25D
100
AcDbEntity
  8
0
 62
     7
420
 16776959
370
     9
100
AcDb2dPolyline
 66
     1
 10
0.0
 20
0.0
 30
0.0
  0
VERTEX
  5
28D
330
28C
100
AcDbEntity
  8
0
 62
     7
420
 16776959
370
     9
100
AcDbVertex
100
AcDb2dVertex
 10
488.432842721777
 20
283.1399182337882
 30
0.0
  0
VERTEX
  5
28E
330
28C
100
AcDbEntity
  8
0
 62
     7
420
 16776959
370
     9
100
AcDbVertex
100
AcDb2dVertex
 10
481.889145470308
 20
294.2641666019317
 30
0.0
  0
SEQEND
  5
28F
330
28C
100
AcDbEntity
  8
0
 62
     7
420
 16776959
370
     9
  0
POLYLINE
  5
290
330
25D
100
AcDbEntity
  8
0
 62
     7
420
 16776959
370
     9
100
AcDb2dPolyline
 66
     1
 10
0.0
 20
0.0
 30
0.0
  0
VERTEX
  5
291
330
290
100
AcDbEntity
  8
0
 62
     7
420
 16776959
370
     9
100
AcDbVertex
100
AcDb2dVertex
 10
480.0634886501266
 20
293.7074053701053
 30
0.0
  0
VERTEX
  5
292
330
290
100
AcDbEntity
  8
0
 62
     7
420
 16776959
370
     9
100
AcDbVertex
100
AcDb2dVertex
 10
486.6068036937413
 20
282.5925443292908
 30
0.0
  0
SEQEND
  5
293
330
290
100
AcDbEntity
  8
0
 62
     7
420
 16776959
370
     9
  0
POLYLINE
  5
294
330
25D
100
AcDbEntity
  8
0
 62
     7
420
 16776959
370
     9
100
AcDb2dPolyline
 66
     1
 10
0.0
 20
0.0
 30
0.0
  0
VERTEX
  5
295
330
294
100
AcDbEntity
  8
0
 62
     7
420
 16776959
370
     9
100
AcDbVertex
100
AcDb2dVertex
 10
486.6068036937413
 20
282.5925443292908
 30
0.0
  0
VERTEX
  5
296
330
294
100
AcDbEntity
  8
0
 62
     7
420
 16776959
370
     9
100
AcDbVertex
100
AcDb2dVertex
 10
484.474220347096
 20
284.2714903025117
 30
0.0
  0
SEQEND
  5
297
330
294
100
AcDbEntity
  8
0
 62
     7
420
 16776959
370
     9
  0
SPLINE
  5
298
330
25D
100
AcDbEntity
  8
0
 62
     7
420
 16776959
370
     9
100
AcDbSpline
210
0.0
220
0.0
230
1.0
 70
     8
 71
     3
 72
     8
 73
     4
 74
     0
 42
0.0000000001
 43
0.0000000001
 12
1.0
 22
0.0
 32
0.0
 13
1.0
 23
0.0
 33
0.0
 40
0.0
 40
0.0
 40
0.0
 40
0.0
 40
1.0
 40
1.0
 40
1.0
 40
1.0
 10
487.9117198373096
 20
308.9227494223414
 30
0.0
 10
488.3856013786826
 20
308.5676527825008
 30
0.0
 10
488.465050251034
 20
307.486000974216
 30
0.0
 10
488.432842721777
 20
306.9575392655779
 30
0.0
  0
SPLINE
  5
299
330
25D
100
AcDbEntity
  8
0
 62
     7
420
 16776959
370
     9
100
AcDbSpline
210
0.0
220
0.0
230
1.0
 70
     8
 71
     3
 72
     8
 73
     4
 74
     0
 42
0.0000000001
 43
0.0000000001
 12
1.0
 22
0.0
 32
0.0
 13
1.0
 23
0.0
 33
0.0
 40
0.0
 40
0.0
 40
0.0
 40
0.0
 40
1.0
 40
1.0
 40
1.0
 40
1.0
 10
486.6068036937413
 20
307.9796032966742
 30
0.0
 10
486.8796366530769
 20
308.4932090300181
 30
0.0
 10
487.3403486093757
 20
308.8272206769489
 30
0.0
 10
487.9117198373096
 20
308.9227494223414
 30
0.0
  0
SPLINE
  5
29A
330
25D
100
AcDbEntity
  8
0
 62
     7
420
 16776959
370
     9
100
AcDbSpline
210
0.0
220
0.0
230
1.0
 70
     8
 71
     3
 72
     8
 73
     4
 74
     0
 42
0.0000000001
 43
0.0000000001
 12
1.0
 22
0.0
 32
0.0
 13
1.0
 23
0.0
 33
0.0
 40
0.0
 40
0.0
 40
0.0
 40
0.0
 40
1.0
 40
1.0
 40
1.0
 40
1.0
 10
488.432842721777
 20
306.9575392655779
 30
0.0
 10
487.8072421232991
 20
307.2586658602368
 30
0.0
 10
487.1994111173972
 20
307.5983757450085
 30
0.0
 10
486.6155663740119
 20
307.9732616479714
 30
0.0
  0
POLYLINE
  5
29B
330
25D
100
AcDbEntity
  8
0
 62
     7
420
 16776959
370
     9
100
AcDb2dPolyline
 66
     1
 10
0.0
 20
0.0
 30
0.0
  0
VERTEX
  5
29C
330
29B
100
AcDbEntity
  8
0
 62
     7
420
 16776959
370
     9
100
AcDbVertex
100
AcDb2dVertex
 10
484.474220347096
 20
309.5332244778092
 30
0.0
  0
VERTEX
  5
29D
330
29B
100
AcDbEntity
  8
0
 62
     7
420
 16776959
370
     9
100
AcDbVertex
100
AcDb2dVertex
 10
486.6068036937413
 20
307.9796032966742
 30
0.0
  0
SEQEND
  5
29E
330
29B
100
AcDbEntity
  8
0
 62
     7
420
 16776959
370
     9
  0
POLYLINE
  5
29F
330
25D
100
AcDbEntity
  8
0
 62
     7
420
 16776959
370
     9
100
AcDb2dPolyline
 66
     1
 10
0.0
 20
0.0
 30
0.0
  0
VERTEX
  5
2A0
330
29F
100
AcDbEntity
  8
0
 62
     7
420
 16776959
370
     9
100
AcDbVertex
100
AcDb2dVertex
 10
487.9117198373096
 20
308.9227494223414
 30
0.0
  0
VERTEX
  5
2A1
330
29F
100
AcDbEntity
  8
0
 62
     7
420
 16776959
370
     9
100
AcDbVertex
100
AcDb2dVertex
 10
485.7737103705967
 20
310.4709792044578
 30
0.0
  0
SEQEND
  5
2A2
330
29F
100
AcDbEntity
  8
0
 62
     7
420
 16776959
370
     9
  0
POLYLINE
  5
2A3
330
25D
100
AcDbEntity
  8
0
 62
     7
420
 16776959
370
     9
100
AcDb2dPolyline
 66
     1
 10
0.0
 20
0.0
 30
0.0
  0
VERTEX
  5
2A4
330
2A3
100
AcDbEntity
  8
0
 62
     7
420
 16776959
370
     9
100
AcDbVertex
100
AcDb2dVertex
 10
481.889145470308
 20
294.2641666019317
 30
0.0
  0
VERTEX
  5
2A5
330
2A3
100
AcDbEntity
  8
0
 62
     7
420
 16776959
370
     9
100
AcDbVertex
100
AcDb2dVertex
 10
488.432842721777
 20
306.9575392655779
 30
0.0
  0
SEQEND
  5
2A6
330
2A3
100
AcDbEntity
  8
0
 62
     7
420
 16776959
370
     9
  0
POLYLINE
  5
2A7
330
25D
100
AcDbEntity
  8
0
 62
     7
420
 16776959
370
     9
100
AcDb2dPolyline
 66
     1
 10
0.0
 20
0.0
 30
0.0
  0
VERTEX
  5
2A8
330
2A7
100
AcDbEntity
  8
0
 62
     7
420
 16776959
370
     9
100
AcDbVertex
100
AcDb2dVertex
 10
486.6068036937413
 20
307.9796032966742
 30
0.0
  0
VERTEX
  5
2A9
330
2A7
100
AcDbEntity
  8
0
 62
     7
420
 16776959
370
     9
100
AcDbVertex
100
AcDb2dVertex
 10
480.0634886501266
 20
295.2978931711223
 30
0.0
  0
SEQEND
  5
2AA
330
2A7
100
AcDbEntity
  8
0
 62
     7
420
 16776959
370
     9
  0
SPLINE
  5
2AB
330
25D
100
AcDbEntity
  8
0
 62
     7
420
 16776959
370
     9
100
AcDbSpline
210
0.0
220
0.0
230
1.0
 70
     8
 71
     3
 72
     8
 73
     4
 74
     0
 42
0.0000000001
 43
0.0000000001
 12
1.0
 22
0.0
 32
0.0
 13
1.0
 23
0.0
 33
0.0
 40
0.0
 40
0.0
 40
0.0
 40
0.0
 40
1.0
 40
1.0
 40
1.0
 40
1.0
 10
501.4268934216707
 20
284.7544761521676
 30
0.0
 10
501.6970823580723
 20
284.6080694210086
 30
0.0
 10
501.9891455448851
 20
284.4913109084409
 30
0.0
 10
502.2820208547528
 20
284.412838062337
 30
0.0
  0
SPLINE
  5
2AC
330
25D
100
AcDbEntity
  8
0
 62
     7
420
 16776959
370
     9
100
AcDbSpline
210
0.0
220
0.0
230
1.0
 70
     8
 71
     3
 72
     8
 73
     4
 74
     0
 42
0.0000000001
 43
0.0000000001
 12
1.0
 22
0.0
 32
0.0
 13
1.0
 23
0.0
 33
0.0
 40
0.0
 40
0.0
 40
0.0
 40
0.0
 40
1.0
 40
1.0
 40
1.0
 40
1.0
 10
501.0456333486127
 20
283.5300898546193
 30
0.0
 10
501.4093132282451
 20
283.583346695681
 30
0.0
 10
501.4576319321823
 20
284.4921166664226
 30
0.0
 10
501.4268934216707
 20
284.7544761521676
 30
0.0
  0
POLYLINE
  5
2AD
330
25D
100
AcDbEntity
  8
0
 62
     7
420
 16776959
370
     9
100
AcDb2dPolyline
 66
     1
 10
0.0
 20
0.0
 30
0.0
  0
VERTEX
  5
2AE
330
2AD
100
AcDbEntity
  8
0
 62
     7
420
 16776959
370
     9
100
AcDbVertex
100
AcDb2dVertex
 10
501.4268934216707
 20
284.7544761521676
 30
0.0
  0
VERTEX
  5
2AF
330
2AD
100
AcDbEntity
  8
0
 62
     7
420
 16776959
370
     9
100
AcDbVertex
100
AcDb2dVertex
 10
488.432842721777
 20
283.1399182337882
 30
0.0
  0
SEQEND
  5
2B0
330
2AD
100
AcDbEntity
  8
0
 62
     7
420
 16776959
370
     9
  0
SPLINE
  5
2B1
330
25D
100
AcDbEntity
  8
0
 62
     7
420
 16776959
370
     9
100
AcDbSpline
210
0.0
220
0.0
230
1.0
 70
     8
 71
     3
 72
     8
 73
     4
 74
     0
 42
0.0000000001
 43
0.0000000001
 12
1.0
 22
0.0
 32
0.0
 13
1.0
 23
0.0
 33
0.0
 40
0.0
 40
0.0
 40
0.0
 40
0.0
 40
1.0
 40
1.0
 40
1.0
 40
1.0
 10
501.4268934216707
 20
308.4588468688744
 30
0.0
 10
501.4679650794515
 20
309.1541883469999
 30
0.0
 10
501.2849236505754
 20
309.8456248732846
 30
0.0
 10
500.901532484304
 20
310.4065402405759
 30
0.0
  0
SPLINE
  5
2B2
330
25D
100
AcDbEntity
  8
0
 62
     7
420
 16776959
370
     9
100
AcDbSpline
210
0.0
220
0.0
230
1.0
 70
     8
 71
     3
 72
     8
 73
     4
 74
     0
 42
0.0000000001
 43
0.0000000001
 12
1.0
 22
0.0
 32
0.0
 13
1.0
 23
0.0
 33
0.0
 40
0.0
 40
0.0
 40
0.0
 40
0.0
 40
1.0
 40
1.0
 40
1.0
 40
1.0
 10
502.2562623837202
 20
309.6949737326304
 30
0.0
 10
502.4824687203181
 20
309.2883124485879
 30
0.0
 10
501.7160290936499
 20
308.6221080917958
 30
0.0
 10
501.4268934216707
 20
308.4588468688744
 30
0.0
  0
SPLINE
  5
2B3
330
25D
100
AcDbEntity
  8
0
 62
     7
420
 16776959
370
     9
100
AcDbSpline
210
0.0
220
0.0
230
1.0
 70
     8
 71
     3
 72
     8
 73
     4
 74
     0
 42
0.0000000001
 43
0.0000000001
 12
1.0
 22
0.0
 32
0.0
 13
1.0
 23
0.0
 33
0.0
 40
0.0
 40
0.0
 40
0.0
 40
0.0
 40
1.0
 40
1.0
 40
1.0
 40
1.0
 10
500.892710721746
 20
310.4129289730809
 30
0.0
 10
501.21221674142
 20
310.4484411302037
 30
0.0
 10
501.5257318166568
 20
310.3733866640623
 30
0.0
 10
501.7934982421684
 20
310.1959700041662
 30
0.0
  0
SPLINE
  5
2B4
330
25D
100
AcDbEntity
  8
0
 62
     7
420
 16776959
370
     9
100
AcDbSpline
210
0.0
220
0.0
230
1.0
 70
     8
 71
     3
 72
     8
 73
     4
 74
     0
 42
0.0000000001
 43
0.0000000001
 12
1.0
 22
0.0
 32
0.0
 13
1.0
 23
0.0
 33
0.0
 40
0.0
 40
0.0
 40
0.0
 40
0.0
 40
1.0
 40
1.0
 40
1.0
 40
1.0
 10
507.8776896574873
 20
297.3800852119857
 30
0.0
 10
508.3606950500271
 20
297.6570730088524
 30
0.0
 10
508.6699686535285
 20
298.1049051756418
 30
0.0
 10
508.7001916285262
 20
298.6213533973714
 30
0.0
  0
SPLINE
  5
2B5
330
25D
100
AcDbEntity
  8
0
 62
     7
420
 16776959
370
     9
100
AcDbSpline
210
0.0
220
0.0
230
1.0
 70
     8
 71
     3
 72
     8
 73
     4
 74
     0
 42
0.0000000001
 43
0.0000000001
 12
1.0
 22
0.0
 32
0.0
 13
1.0
 23
0.0
 33
0.0
 40
0.0
 40
0.0
 40
0.0
 40
0.0
 40
1.0
 40
1.0
 40
1.0
 40
1.0
 10
508.7309811529758
 20
297.0306570956382
 30
0.0
 10
508.5772914136105
 20
296.9581177188466
 30
0.0
 10
508.0281873696058
 20
297.2970810795669
 30
0.0
 10
507.8776896574873
 20
297.3800852119857
 30
0.0
  0
POLYLINE
  5
2B6
330
25D
100
AcDbEntity
  8
0
 62
     7
420
 16776959
370
     9
100
AcDb2dPolyline
 66
     1
 10
0.0
 20
0.0
 30
0.0
  0
VERTEX
  5
2B7
330
2B6
100
AcDbEntity
  8
0
 62
     7
420
 16776959
370
     9
100
AcDbVertex
100
AcDb2dVertex
 10
507.8776896574873
 20
297.3800852119857
 30
0.0
  0
VERTEX
  5
2B8
330
2B6
100
AcDbEntity
  8
0
 62
     7
420
 16776959
370
     9
100
AcDbVertex
100
AcDb2dVertex
 10
501.4268934216707
 20
284.7544761521676
 30
0.0
  0
SEQEND
  5
2B9
330
2B6
100
AcDbEntity
  8
0
 62
     7
420
 16776959
370
     9
  0
POLYLINE
  5
2BA
330
25D
100
AcDbEntity
  8
0
 62
     7
420
 16776959
370
     9
100
AcDb2dPolyline
 66
     1
 10
0.0
 20
0.0
 30
0.0
  0
VERTEX
  5
2BB
330
2BA
100
AcDbEntity
  8
0
 62
     7
420
 16776959
370
     9
100
AcDbVertex
100
AcDb2dVertex
 10
501.4268934216707
 20
308.4588468688744
 30
0.0
  0
VERTEX
  5
2BC
330
2BA
100
AcDbEntity
  8
0
 62
     7
420
 16776959
370
     9
100
AcDbVertex
100
AcDb2dVertex
 10
507.8776896574873
 20
297.3800852119857
 30
0.0
  0
SEQEND
  5
2BD
330
2BA
100
AcDbEntity
  8
0
 62
     7
420
 16776959
370
     9
  0
POLYLINE
  5
2BE
330
25D
100
AcDbEntity
  8
0
 62
     7
420
 16776959
370
     9
100
AcDb2dPolyline
 66
     1
 10
0.0
 20
0.0
 30
0.0
  0
VERTEX
  5
2BF
330
2BE
100
AcDbEntity
  8
0
 62
     7
420
 16776959
370
     9
100
AcDbVertex
100
AcDb2dVertex
 10
498.7010569087142
 20
311.9465238716821
 30
0.0
  0
VERTEX
  5
2C0
330
2BE
100
AcDbEntity
  8
0
 62
     7
420
 16776959
370
     9
100
AcDbVertex
100
AcDb2dVertex
 10
500.892710721746
 20
310.4129289730809
 30
0.0
  0
SEQEND
  5
2C1
330
2BE
100
AcDbEntity
  8
0
 62
     7
420
 16776959
370
     9
  0
POLYLINE
  5
2C2
330
25D
100
AcDbEntity
  8
0
 62
     7
420
 16776959
370
     9
100
AcDb2dPolyline
 66
     1
 10
0.0
 20
0.0
 30
0.0
  0
VERTEX
  5
2C3
330
2C2
100
AcDbEntity
  8
0
 62
     7
420
 16776959
370
     9
100
AcDbVertex
100
AcDb2dVertex
 10
488.432842721777
 20
306.9575392655779
 30
0.0
  0
VERTEX
  5
2C4
330
2C2
100
AcDbEntity
  8
0
 62
     7
420
 16776959
370
     9
100
AcDbVertex
100
AcDb2dVertex
 10
501.4268934216707
 20
308.4588468688744
 30
0.0
  0
SEQEND
  5
2C5
330
2C2
100
AcDbEntity
  8
0
 62
     7
420
 16776959
370
     9
  0
POLYLINE
  5
2C6
330
25D
100
AcDbEntity
  8
0
 62
     7
420
 16776959
370
     9
100
AcDb2dPolyline
 66
     1
 10
0.0
 20
0.0
 30
0.0
  0
VERTEX
  5
2C7
330
2C6
100
AcDbEntity
  8
0
 62
     7
420
 16776959
370
     9
100
AcDbVertex
100
AcDb2dVertex
 10
500.892710721746
 20
310.4129289730809
 30
0.0
  0
VERTEX
  5
2C8
330
2C6
100
AcDbEntity
  8
0
 62
     7
420
 16776959
370
     9
100
AcDbVertex
100
AcDb2dVertex
 10
487.9117198373096
 20
308.9227494223414
 30
0.0
  0
SEQEND
  5
2C9
330
2C6
100
AcDbEntity
  8
0
 62
     7
420
 16776959
370
     9
  0
POLYLINE
  5
2CA
330
25D
100
AcDbEntity
  8
0
 62
     7
420
 16776959
370
     9
100
AcDb2dPolyline
 66
     1
 10
0.0
 20
0.0
 30
0.0
  0
VERTEX
  5
2CB
330
2CA
100
AcDbEntity
  8
0
 62
     7
420
 16776959
370
     9
100
AcDbVertex
100
AcDb2dVertex
 10
486.9251337542573
 20
282.2263550647076
 30
0.0
  0
VERTEX
  5
2CC
330
2CA
100
AcDbEntity
  8
0
 62
     7
420
 16776959
370
     9
100
AcDbVertex
100
AcDb2dVertex
 10
484.7912261586298
 20
283.9069140659831
 30
0.0
  0
SEQEND
  5
2CD
330
2CA
100
AcDbEntity
  8
0
 62
     7
420
 16776959
370
     9
  0
SPLINE
  5
2CE
330
25D
100
AcDbEntity
  8
0
 62
     7
420
 16776959
370
     9
100
AcDbSpline
210
0.0
220
0.0
230
1.0
 70
     8
 71
     3
 72
     8
 73
     4
 74
     0
 42
0.0000000001
 43
0.0000000001
 12
1.0
 22
0.0
 32
0.0
 13
1.0
 23
0.0
 33
0.0
 40
0.0
 40
0.0
 40
0.0
 40
0.0
 40
1.0
 40
1.0
 40
1.0
 40
1.0
 10
501.8016740541771
 20
310.1903039646759
 30
0.0
 10
501.9868375744227
 20
310.0596310166011
 30
0.0
 10
502.1420241208853
 20
309.8907277906501
 30
0.0
 10
502.2562623837202
 20
309.6949737326304
 30
0.0
  0
POLYLINE
  5
2CF
330
25D
100
AcDbEntity
  8
0
 62
     7
420
 16776959
370
     9
100
AcDb2dPolyline
 66
     1
 10
0.0
 20
0.0
 30
0.0
  0
VERTEX
  5
2D0
330
2CF
100
AcDbEntity
  8
0
 62
     7
420
 16776959
370
     9
100
AcDbVertex
100
AcDb2dVertex
 10
508.6957012457751
 20
298.6294164937171
 30
0.0
  0
VERTEX
  5
2D1
330
2CF
100
AcDbEntity
  8
0
 62
     7
420
 16776959
370
     9
100
AcDbVertex
100
AcDb2dVertex
 10
502.2562623837202
 20
309.6949737326304
 30
0.0
  0
SEQEND
  5
2D2
330
2CF
100
AcDbEntity
  8
0
 62
     7
420
 16776959
370
     9
  0
POLYLINE
  5
2D3
330
25D
100
AcDbEntity
  8
0
 62
     7
420
 16776959
370
     9
100
AcDb2dPolyline
 66
     1
 10
0.0
 20
0.0
 30
0.0
  0
VERTEX
  5
2D4
330
2D3
100
AcDbEntity
  8
0
 62
     7
420
 16776959
370
     9
100
AcDbVertex
100
AcDb2dVertex
 10
501.8016740541771
 20
310.1903039646759
 30
0.0
  0
VERTEX
  5
2D5
330
2D3
100
AcDbEntity
  8
0
 62
     7
420
 16776959
370
     9
100
AcDbVertex
100
AcDb2dVertex
 10
499.6062866202719
 20
311.7244818702011
 30
0.0
  0
SEQEND
  5
2D6
330
2D3
100
AcDbEntity
  8
0
 62
     7
420
 16776959
370
     9
  0
SPLINE
  5
2D7
330
25D
100
AcDbEntity
  8
0
 62
     7
420
 16776959
370
     9
100
AcDbSpline
210
0.0
220
0.0
230
1.0
 70
     8
 71
     3
 72
     8
 73
     4
 74
     0
 42
0.0000000001
 43
0.0000000001
 12
1.0
 22
0.0
 32
0.0
 13
1.0
 23
0.0
 33
0.0
 40
0.0
 40
0.0
 40
0.0
 40
0.0
 40
1.0
 40
1.0
 40
1.0
 40
1.0
 10
495.3468812346309
 20
299.0618475160491
 30
0.0
 10
495.4625128216921
 20
299.0007271659124
 30
0.0
 10
495.5319862001706
 20
298.904569465094
 30
0.0
 10
495.5553013700683
 20
298.7733744135912
 30
0.0
  0
SPLINE
  5
2D8
330
25D
100
AcDbEntity
  8
0
 62
     7
420
 16776959
370
     9
100
AcDbSpline
210
0.0
220
0.0
230
1.0
 70
     8
 71
     3
 72
     8
 73
     4
 74
     0
 42
0.0000000001
 43
0.0000000001
 12
1.0
 22
0.0
 32
0.0
 13
1.0
 23
0.0
 33
0.0
 40
0.0
 40
0.0
 40
0.0
 40
0.0
 40
1.0
 40
1.0
 40
1.0
 40
1.0
 10
495.5553013700683
 20
298.7733744135912
 30
0.0
 10
495.6744810613418
 20
298.0368166485841
 30
0.0
 10
496.5363549685153
 20
297.8074998354859
 30
0.0
 10
497.1664665108256
 20
297.9825678110319
 30
0.0
  0
SPLINE
  5
2D9
330
25D
100
AcDbEntity
  8
0
 62
     7
420
 16776959
370
     9
100
AcDbSpline
210
0.0
220
0.0
230
1.0
 70
     8
 71
     3
 72
     8
 73
     4
 74
     0
 42
0.0000000001
 43
0.0000000001
 12
1.0
 22
0.0
 32
0.0
 13
1.0
 23
0.0
 33
0.0
 40
0.0
 40
0.0
 40
0.0
 40
0.0
 40
1.0
 40
1.0
 40
1.0
 40
1.0
 10
497.1664665108256
 20
297.9825678110319
 30
0.0
 10
497.3991481839366
 20
298.0472152690218
 30
0.0
 10
497.7007795017107
 20
297.9717115710209
 30
0.0
 10
497.8296172113496
 20
297.7512412372525
 30
0.0
  0
SPLINE
  5
2DA
330
25D
100
AcDbEntity
  8
0
 62
     7
420
 16776959
370
     9
100
AcDbSpline
210
0.0
220
0.0
230
1.0
 70
     8
 71
     3
 72
     8
 73
     4
 74
     0
 42
0.0000000001
 43
0.0000000001
 12
1.0
 22
0.0
 32
0.0
 13
1.0
 23
0.0
 33
0.0
 40
0.0
 40
0.0
 40
0.0
 40
0.0
 40
1.0
 40
1.0
 40
1.0
 40
1.0
 10
497.8296172113496
 20
297.7512412372525
 30
0.0
 10
497.6462556205697
 20
298.0635825756672
 30
0.0
 10
497.4066886280725
 20
298.3385609439101
 30
0.0
 10
497.1203986931887
 20
298.5605613143343
 30
0.0
  0
SPLINE
  5
2DB
330
25D
100
AcDbEntity
  8
0
 62
     7
420
 16776959
370
     9
100
AcDbSpline
210
0.0
220
0.0
230
1.0
 70
     8
 71
     3
 72
     8
 73
     4
 74
     0
 42
0.0000000001
 43
0.0000000001
 12
1.0
 22
0.0
 32
0.0
 13
1.0
 23
0.0
 33
0.0
 40
0.0
 40
0.0
 40
0.0
 40
0.0
 40
1.0
 40
1.0
 40
1.0
 40
1.0
 10
492.6083089658132
 20
297.4094757663825
 30
0.0
 10
492.6906858403854
 20
297.4542262464001
 30
0.0
 10
492.7803394159218
 20
297.4748282168621
 30
0.0
 10
492.8772696924188
 20
297.4712816777665
 30
0.0
  0
SPLINE
  5
2DC
330
25D
100
AcDbEntity
  8
0
 62
     7
420
 16776959
370
     9
100
AcDbSpline
210
0.0
220
0.0
230
1.0
 70
     8
 71
     3
 72
     8
 73
     4
 74
     0
 42
0.0000000001
 43
0.0000000001
 12
1.0
 22
0.0
 32
0.0
 13
1.0
 23
0.0
 33
0.0
 40
0.0
 40
0.0
 40
0.0
 40
0.0
 40
1.0
 40
1.0
 40
1.0
 40
1.0
 10
492.8772696924188
 20
297.4712816777665
 30
0.0
 10
493.5680805062311
 20
297.4146218856549
 30
0.0
 10
494.2560290149067
 20
298.0432998312663
 30
0.0
 10
494.4916014853497
 20
298.6469615145434
 30
0.0
  0
SPLINE
  5
2DD
330
25D
100
AcDbEntity
  8
0
 62
     7
420
 16776959
370
     9
100
AcDbSpline
210
0.0
220
0.0
230
1.0
 70
     8
 71
     3
 72
     8
 73
     4
 74
     0
 42
0.0000000001
 43
0.0000000001
 12
1.0
 22
0.0
 32
0.0
 13
1.0
 23
0.0
 33
0.0
 40
0.0
 40
0.0
 40
0.0
 40
0.0
 40
1.0
 40
1.0
 40
1.0
 40
1.0
 10
494.4916014853497
 20
298.6469615145434
 30
0.0
 10
494.5449247051893
 20
298.7765680623415
 30
0.0
 10
494.6265841491659
 20
298.8832157373063
 30
0.0
 10
494.7365798172796
 20
298.9669045394394
 30
0.0
  0
SPLINE
  5
2DE
330
25D
100
AcDbEntity
  8
0
 62
     7
420
 16776959
370
     9
100
AcDbSpline
210
0.0
220
0.0
230
1.0
 70
     8
 71
     3
 72
     8
 73
     4
 74
     0
 42
0.0000000001
 43
0.0000000001
 12
1.0
 22
0.0
 32
0.0
 13
1.0
 23
0.0
 33
0.0
 40
0.0
 40
0.0
 40
0.0
 40
0.0
 40
1.0
 40
1.0
 40
1.0
 40
1.0
 10
492.2235673599298
 20
293.9779337354848
 30
0.0
 10
492.2103578135884
 20
294.1539465777805
 30
0.0
 10
492.2506613537662
 20
294.3167028868629
 30
0.0
 10
492.3444779804613
 20
294.4662026627357
 30
0.0
  0
SPLINE
  5
2DF
330
25D
100
AcDbEntity
  8
0
 62
     7
420
 16776959
370
     9
100
AcDbSpline
210
0.0
220
0.0
230
1.0
 70
     8
 71
     3
 72
     8
 73
     4
 74
     0
 42
0.0000000001
 43
0.0000000001
 12
1.0
 22
0.0
 32
0.0
 13
1.0
 23
0.0
 33
0.0
 40
0.0
 40
0.0
 40
0.0
 40
0.0
 40
1.0
 40
1.0
 40
1.0
 40
1.0
 10
492.3444779804613
 20
294.4662026627357
 30
0.0
 10
492.689062979638
 20
295.0020534997548
 30
0.0
 10
492.8498640172711
 20
295.9394040817951
 30
0.0
 10
492.3444779804613
 20
296.4342436891784
 30
0.0
  0
SPLINE
  5
2E0
330
25D
100
AcDbEntity
  8
0
 62
     7
420
 16776959
370
     9
100
AcDbSpline
210
0.0
220
0.0
230
1.0
 70
     8
 71
     3
 72
     8
 73
     4
 74
     0
 42
0.0000000001
 43
0.0000000001
 12
1.0
 22
0.0
 32
0.0
 13
1.0
 23
0.0
 33
0.0
 40
0.0
 40
0.0
 40
0.0
 40
0.0
 40
1.0
 40
1.0
 40
1.0
 40
1.0
 10
492.3444779804613
 20
296.4342436891784
 30
0.0
 10
492.2788441060056
 20
296.5053349068821
 30
0.0
 10
492.2396243231415
 20
296.5869549748531
 30
0.0
 10
492.2268186318688
 20
296.6791038930933
 30
0.0
  0
SPLINE
  5
2E1
330
25D
100
AcDbEntity
  8
0
 62
     7
420
 16776959
370
     9
100
AcDbSpline
210
0.0
220
0.0
230
1.0
 70
     8
 71
     3
 72
     8
 73
     4
 74
     0
 42
0.0000000001
 43
0.0000000001
 12
1.0
 22
0.0
 32
0.0
 13
1.0
 23
0.0
 33
0.0
 40
0.0
 40
0.0
 40
0.0
 40
0.0
 40
1.0
 40
1.0
 40
1.0
 40
1.0
 10
495.0692642298418
 20
292.3689405029236
 30
0.0
 10
494.8120388729239
 20
292.3377723212543
 30
0.0
 10
494.5726724063079
 20
292.5373858282728
 30
0.0
 10
494.4916014853497
 20
292.7684534470573
 30
0.0
  0
SPLINE
  5
2E2
330
25D
100
AcDbEntity
  8
0
 62
     7
420
 16776959
370
     9
100
AcDbSpline
210
0.0
220
0.0
230
1.0
 70
     8
 71
     3
 72
     8
 73
     4
 74
     0
 42
0.0000000001
 43
0.0000000001
 12
1.0
 22
0.0
 32
0.0
 13
1.0
 23
0.0
 33
0.0
 40
0.0
 40
0.0
 40
0.0
 40
0.0
 40
1.0
 40
1.0
 40
1.0
 40
1.0
 10
494.4916014853497
 20
292.7684534470573
 30
0.0
 10
494.2625059217717
 20
293.4214195874829
 30
0.0
 10
493.5553411817982
 20
293.933203971932
 30
0.0
 10
492.8772696924188
 20
293.5569500607489
 30
0.0
  0
SPLINE
  5
2E3
330
25D
100
AcDbEntity
  8
0
 62
     7
420
 16776959
370
     9
100
AcDbSpline
210
0.0
220
0.0
230
1.0
 70
     8
 71
     3
 72
     8
 73
     4
 74
     0
 42
0.0000000001
 43
0.0000000001
 12
1.0
 22
0.0
 32
0.0
 13
1.0
 23
0.0
 33
0.0
 40
0.0
 40
0.0
 40
0.0
 40
0.0
 40
1.0
 40
1.0
 40
1.0
 40
1.0
 10
492.8772696924188
 20
293.5569500607489
 30
0.0
 10
492.7514174545959
 20
293.4871161310693
 30
0.0
 10
492.5616119253009
 20
293.4861134457842
 30
0.0
 10
492.4391010505169
 20
293.5706850638016
 30
0.0
  0
SPLINE
  5
2E4
330
25D
100
AcDbEntity
  8
0
 62
     7
420
 16776959
370
     9
100
AcDbSpline
210
0.0
220
0.0
230
1.0
 70
     8
 71
     3
 72
     8
 73
     4
 74
     0
 42
0.0000000001
 43
0.0000000001
 12
1.0
 22
0.0
 32
0.0
 13
1.0
 23
0.0
 33
0.0
 40
0.0
 40
0.0
 40
0.0
 40
0.0
 40
1.0
 40
1.0
 40
1.0
 40
1.0
 10
495.5553013700683
 20
292.8971595709791
 30
0.0
 10
495.5238105044918
 20
292.652166749669
 30
0.0
 10
495.3273616561328
 20
292.4002143538837
 30
0.0
 10
495.0692642298418
 20
292.3689405029236
 30
0.0
  0
SPLINE
  5
2E5
330
25D
100
AcDbEntity
  8
0
 62
     7
420
 16776959
370
     9
100
AcDbSpline
210
0.0
220
0.0
230
1.0
 70
     8
 71
     3
 72
     8
 73
     4
 74
     0
 42
0.0000000001
 43
0.0000000001
 12
1.0
 22
0.0
 32
0.0
 13
1.0
 23
0.0
 33
0.0
 40
0.0
 40
0.0
 40
0.0
 40
0.0
 40
1.0
 40
1.0
 40
1.0
 40
1.0
 10
497.8296172113496
 20
294.3860233863452
 30
0.0
 10
497.7107710996188
 20
294.1541432999638
 30
0.0
 10
497.4204441329293
 20
294.0180824989347
 30
0.0
 10
497.1664665108256
 20
294.0743899030695
 30
0.0
  0
SPLINE
  5
2E6
330
25D
100
AcDbEntity
  8
0
 62
     7
420
 16776959
370
     9
100
AcDbSpline
210
0.0
220
0.0
230
1.0
 70
     8
 71
     3
 72
     8
 73
     4
 74
     0
 42
0.0000000001
 43
0.0000000001
 12
1.0
 22
0.0
 32
0.0
 13
1.0
 23
0.0
 33
0.0
 40
0.0
 40
0.0
 40
0.0
 40
0.0
 40
1.0
 40
1.0
 40
1.0
 40
1.0
 10
497.1664665108256
 20
294.0743899030695
 30
0.0
 10
496.3775870176978
 20
294.2492862426298
 30
0.0
 10
495.6564885466669
 20
293.6843761629334
 30
0.0
 10
495.5553013700683
 20
292.8971595709791
 30
0.0
  0
SPLINE
  5
2E7
330
25D
100
AcDbEntity
  8
0
 62
     7
420
 16776959
370
     9
100
AcDbSpline
210
0.0
220
0.0
230
1.0
 70
     8
 71
     3
 72
     8
 73
     4
 74
     0
 42
0.0000000001
 43
0.0000000001
 12
1.0
 22
0.0
 32
0.0
 13
1.0
 23
0.0
 33
0.0
 40
0.0
 40
0.0
 40
0.0
 40
0.0
 40
1.0
 40
1.0
 40
1.0
 40
1.0
 10
497.6973771481207
 20
295.1100556996498
 30
0.0
 10
497.8895684167801
 20
294.9344243421656
 30
0.0
 10
497.9488186313738
 20
294.6185967130241
 30
0.0
 10
497.8296172113496
 20
294.3860233863452
 30
0.0
  0
SPLINE
  5
2E8
330
25D
100
AcDbEntity
  8
0
 62
     7
420
 16776959
370
     9
100
AcDbSpline
210
0.0
220
0.0
230
1.0
 70
     8
 71
     3
 72
     8
 73
     4
 74
     0
 42
0.0000000001
 43
0.0000000001
 12
1.0
 22
0.0
 32
0.0
 13
1.0
 23
0.0
 33
0.0
 40
0.0
 40
0.0
 40
0.0
 40
0.0
 40
1.0
 40
1.0
 40
1.0
 40
1.0
 10
497.8296172113496
 20
297.7512412372525
 30
0.0
 10
497.9571585582671
 20
297.532989272022
 30
0.0
 10
497.8753354734527
 20
297.2364349162435
 30
0.0
 10
497.6973771481207
 20
297.0742362419132
 30
0.0
  0
SPLINE
  5
2E9
330
25D
100
AcDbEntity
  8
0
 62
     7
420
 16776959
370
     9
100
AcDbSpline
210
0.0
220
0.0
230
1.0
 70
     8
 71
     3
 72
     8
 73
     4
 74
     0
 42
0.0000000001
 43
0.0000000001
 12
1.0
 22
0.0
 32
0.0
 13
1.0
 23
0.0
 33
0.0
 40
0.0
 40
0.0
 40
0.0
 40
0.0
 40
1.0
 40
1.0
 40
1.0
 40
1.0
 10
497.6973771481207
 20
297.0742362419132
 30
0.0
 10
497.1167560023405
 20
296.5450338009359
 30
0.0
 10
497.1140512333568
 20
295.6431200942625
 30
0.0
 10
497.6973771481207
 20
295.1100556996498
 30
0.0
  0
POLYLINE
  5
2EA
330
25D
100
AcDbEntity
  8
0
 62
     7
420
 16776959
370
     9
100
AcDb2dPolyline
 66
     1
 10
0.0
 20
0.0
 30
0.0
  0
VERTEX
  5
2EB
330
2EA
100
AcDbEntity
  8
0
 62
     7
420
 16776959
370
     9
100
AcDbVertex
100
AcDb2dVertex
 10
497.1664665108256
 20
294.0743899030695
 30
0.0
  0
VERTEX
  5
2EC
330
2EA
100
AcDbEntity
  8
0
 62
     7
420
 16776959
370
     9
100
AcDbVertex
100
AcDb2dVertex
 10
496.2158287879065
 20
294.7802891640367
 30
0.0
  0
SEQEND
  5
2ED
330
2EA
100
AcDbEntity
  8
0
 62
     7
420
 16776959
370
     9
  0
SPLINE
  5
2EE
330
25D
100
AcDbEntity
  8
0
 62
     7
420
 16776959
370
     9
100
AcDbSpline
210
0.0
220
0.0
230
1.0
 70
     8
 71
     3
 72
     8
 73
     4
 74
     0
 42
0.0000000001
 43
0.0000000001
 12
1.0
 22
0.0
 32
0.0
 13
1.0
 23
0.0
 33
0.0
 40
0.0
 40
0.0
 40
0.0
 40
0.0
 40
1.0
 40
1.0
 40
1.0
 40
1.0
 10
494.6075655044151
 20
293.6060056955666
 30
0.0
 10
494.7083518301151
 20
294.3881152328213
 30
0.0
 10
495.4244857233516
 20
294.955765345585
 30
0.0
 10
496.2158287879065
 20
294.7802891640367
 30
0.0
  0
POLYLINE
  5
2EF
330
25D
100
AcDbEntity
  8
0
 62
     7
420
 16776959
370
     9
100
AcDb2dPolyline
 66
     1
 10
0.0
 20
0.0
 30
0.0
  0
VERTEX
  5
2F0
330
2EF
100
AcDbEntity
  8
0
 62
     7
420
 16776959
370
     9
100
AcDbVertex
100
AcDb2dVertex
 10
495.5553013700683
 20
292.8971595709791
 30
0.0
  0
VERTEX
  5
2F1
330
2EF
100
AcDbEntity
  8
0
 62
     7
420
 16776959
370
     9
100
AcDbVertex
100
AcDb2dVertex
 10
494.6075655044151
 20
293.6060056955666
 30
0.0
  0
SEQEND
  5
2F2
330
2EF
100
AcDbEntity
  8
0
 62
     7
420
 16776959
370
     9
  0
SPLINE
  5
2F3
330
25D
100
AcDbEntity
  8
0
 62
     7
420
 16776959
370
     9
100
AcDbSpline
210
0.0
220
0.0
230
1.0
 70
     8
 71
     3
 72
     8
 73
     4
 74
     0
 42
0.0000000001
 43
0.0000000001
 12
1.0
 22
0.0
 32
0.0
 13
1.0
 23
0.0
 33
0.0
 40
0.0
 40
0.0
 40
0.0
 40
0.0
 40
1.0
 40
1.0
 40
1.0
 40
1.0
 10
494.3068449648799
 20
293.1394994901657
 30
0.0
 10
494.4661128033604
 20
293.2285471762334
 30
0.0
 10
494.5850505261351
 20
293.4312877552074
 30
0.0
 10
494.6075655044151
 20
293.6060056955666
 30
0.0
  0
POLYLINE
  5
2F4
330
25D
100
AcDbEntity
  8
0
 62
     7
420
 16776959
370
     9
100
AcDb2dPolyline
 66
     1
 10
0.0
 20
0.0
 30
0.0
  0
VERTEX
  5
2F5
330
2F4
100
AcDbEntity
  8
0
 62
     7
420
 16776959
370
     9
100
AcDbVertex
100
AcDb2dVertex
 10
497.6973771481207
 20
295.1100556996498
 30
0.0
  0
VERTEX
  5
2F6
330
2F4
100
AcDbEntity
  8
0
 62
     7
420
 16776959
370
     9
100
AcDbVertex
100
AcDb2dVertex
 10
496.7457841012674
 20
295.8135934425736
 30
0.0
  0
SEQEND
  5
2F7
330
2F4
100
AcDbEntity
  8
0
 62
     7
420
 16776959
370
     9
  0
SPLINE
  5
2F8
330
25D
100
AcDbEntity
  8
0
 62
     7
420
 16776959
370
     9
100
AcDbSpline
210
0.0
220
0.0
230
1.0
 70
     8
 71
     3
 72
     8
 73
     4
 74
     0
 42
0.0000000001
 43
0.0000000001
 12
1.0
 22
0.0
 32
0.0
 13
1.0
 23
0.0
 33
0.0
 40
0.0
 40
0.0
 40
0.0
 40
0.0
 40
1.0
 40
1.0
 40
1.0
 40
1.0
 10
496.8776717782621
 20
295.0911667419714
 30
0.0
 10
496.9966608900213
 20
295.3232139148713
 30
0.0
 10
496.9375554515682
 20
295.6383457049833
 30
0.0
 10
496.7457841012674
 20
295.8135934425736
 30
0.0
  0
SPLINE
  5
2F9
330
25D
100
AcDbEntity
  8
0
 62
     7
420
 16776959
370
     9
100
AcDbSpline
210
0.0
220
0.0
230
1.0
 70
     8
 71
     3
 72
     8
 73
     4
 74
     0
 42
0.0000000001
 43
0.0000000001
 12
1.0
 22
0.0
 32
0.0
 13
1.0
 23
0.0
 33
0.0
 40
0.0
 40
0.0
 40
0.0
 40
0.0
 40
1.0
 40
1.0
 40
1.0
 40
1.0
 10
496.2158287879065
 20
294.7802891640367
 30
0.0
 10
496.4692612211693
 20
294.7240918488133
 30
0.0
 10
496.7590272766174
 20
294.8597916120816
 30
0.0
 10
496.8776717782621
 20
295.0911667419714
 30
0.0
  0
POLYLINE
  5
2FA
330
25D
100
AcDbEntity
  8
0
 62
     7
420
 16776959
370
     9
100
AcDb2dPolyline
 66
     1
 10
0.0
 20
0.0
 30
0.0
  0
VERTEX
  5
2FB
330
2FA
100
AcDbEntity
  8
0
 62
     7
420
 16776959
370
     9
100
AcDbVertex
100
AcDb2dVertex
 10
497.6973771481207
 20
297.0742362419132
 30
0.0
  0
VERTEX
  5
2FC
330
2FA
100
AcDbEntity
  8
0
 62
     7
420
 16776959
370
     9
100
AcDbVertex
100
AcDb2dVertex
 10
496.7457841012674
 20
297.7735556365933
 30
0.0
  0
SEQEND
  5
2FD
330
2FA
100
AcDbEntity
  8
0
 62
     7
420
 16776959
370
     9
  0
SPLINE
  5
2FE
330
25D
100
AcDbEntity
  8
0
 62
     7
420
 16776959
370
     9
100
AcDbSpline
210
0.0
220
0.0
230
1.0
 70
     8
 71
     3
 72
     8
 73
     4
 74
     0
 42
0.0000000001
 43
0.0000000001
 12
1.0
 22
0.0
 32
0.0
 13
1.0
 23
0.0
 33
0.0
 40
0.0
 40
0.0
 40
0.0
 40
0.0
 40
1.0
 40
1.0
 40
1.0
 40
1.0
 10
496.7457841012674
 20
295.8135934425736
 30
0.0
 10
496.1665656404657
 20
296.3429046491965
 30
0.0
 10
496.1636071747471
 20
297.2429318486465
 30
0.0
 10
496.7457841012674
 20
297.7735556365933
 30
0.0
  0
SPLINE
  5
2FF
330
25D
100
AcDbEntity
  8
0
 62
     7
420
 16776959
370
     9
100
AcDbSpline
210
0.0
220
0.0
230
1.0
 70
     8
 71
     3
 72
     8
 73
     4
 74
     0
 42
0.0000000001
 43
0.0000000001
 12
1.0
 22
0.0
 32
0.0
 13
1.0
 23
0.0
 33
0.0
 40
0.0
 40
0.0
 40
0.0
 40
0.0
 40
1.0
 40
1.0
 40
1.0
 40
1.0
 10
496.7457841012674
 20
297.7735556365933
 30
0.0
 10
496.7956315592728
 20
297.8189889847381
 30
0.0
 10
496.8376767274349
 20
297.8719321585868
 30
0.0
 10
496.8695332339066
 20
297.9275530163486
 30
0.0
  0
SPLINE
  5
300
330
25D
100
AcDbEntity
  8
0
 62
     7
420
 16776959
370
     9
100
AcDbSpline
210
0.0
220
0.0
230
1.0
 70
     8
 71
     3
 72
     8
 73
     4
 74
     0
 42
0.0000000001
 43
0.0000000001
 12
1.0
 22
0.0
 32
0.0
 13
1.0
 23
0.0
 33
0.0
 40
0.0
 40
0.0
 40
0.0
 40
0.0
 40
1.0
 40
1.0
 40
1.0
 40
1.0
 10
492.3013767663251
 20
294.3897346670256
 30
0.0
 10
492.5533673082373
 20
294.4234399096076
 30
0.0
 10
492.8439867513007
 20
294.3347378230155
 30
0.0
 10
493.0463690946781
 20
294.1842883252612
 30
0.0
  0
POLYLINE
  5
301
330
25D
100
AcDbEntity
  8
0
 62
     7
420
 16776959
370
     9
100
AcDb2dPolyline
 66
     1
 10
0.0
 20
0.0
 30
0.0
  0
VERTEX
  5
302
330
301
100
AcDbEntity
  8
0
 62
     7
420
 16776959
370
     9
100
AcDbVertex
100
AcDb2dVertex
 10
492.8772696924188
 20
293.5569500607489
 30
0.0
  0
VERTEX
  5
303
330
301
100
AcDbEntity
  8
0
 62
     7
420
 16776959
370
     9
100
AcDbVertex
100
AcDb2dVertex
 10
492.2206069896711
 20
294.0501045237452
 30
0.0
  0
SEQEND
  5
304
330
301
100
AcDbEntity
  8
0
 62
     7
420
 16776959
370
     9
  0
POLYLINE
  5
305
330
25D
100
AcDbEntity
  8
0
 62
     7
420
 16776959
370
     9
100
AcDb2dPolyline
 66
     1
 10
0.0
 20
0.0
 30
0.0
  0
VERTEX
  5
306
330
305
100
AcDbEntity
  8
0
 62
     7
420
 16776959
370
     9
100
AcDbVertex
100
AcDb2dVertex
 10
495.5553013700683
 20
298.7733744135912
 30
0.0
  0
VERTEX
  5
307
330
305
100
AcDbEntity
  8
0
 62
     7
420
 16776959
370
     9
100
AcDbVertex
100
AcDb2dVertex
 10
495.1810777869578
 20
299.0482827980622
 30
0.0
  0
SEQEND
  5
308
330
305
100
AcDbEntity
  8
0
 62
     7
420
 16776959
370
     9
  0
SPLINE
  5
309
330
25D
100
AcDbEntity
  8
0
 62
     7
420
 16776959
370
     9
100
AcDbSpline
210
0.0
220
0.0
230
1.0
 70
     8
 71
     3
 72
     8
 73
     4
 74
     0
 42
0.0000000001
 43
0.0000000001
 12
1.0
 22
0.0
 32
0.0
 13
1.0
 23
0.0
 33
0.0
 40
0.0
 40
0.0
 40
0.0
 40
0.0
 40
1.0
 40
1.0
 40
1.0
 40
1.0
 10
494.9845144800765
 20
298.853209033171
 30
0.0
 10
494.9291634727324
 20
298.8937497357801
 30
0.0
 10
494.878790290546
 20
298.9394300767626
 30
0.0
 10
494.8333949335138
 20
298.9902500561202
 30
0.0
  0
POLYLINE
  5
30A
330
25D
100
AcDbEntity
  8
0
 62
     7
420
 16776959
370
     9
100
AcDb2dPolyline
 66
     1
 10
0.0
 20
0.0
 30
0.0
  0
VERTEX
  5
30B
330
30A
100
AcDbEntity
  8
0
 62
     7
420
 16776959
370
     9
100
AcDbVertex
100
AcDb2dVertex
 10
493.9911202835629
 20
293.4764045161664
 30
0.0
  0
VERTEX
  5
30C
330
30A
100
AcDbEntity
  8
0
 62
     7
420
 16776959
370
     9
100
AcDbVertex
100
AcDb2dVertex
 10
493.0463690946781
 20
294.1842883252612
 30
0.0
  0
SEQEND
  5
30D
330
30A
100
AcDbEntity
  8
0
 62
     7
420
 16776959
370
     9
  0
POLYLINE
  5
30E
330
25D
100
AcDbEntity
  8
0
 62
     7
420
 16776959
370
     9
100
AcDb2dPolyline
 66
     1
 10
0.0
 20
0.0
 30
0.0
  0
VERTEX
  5
30F
330
30E
100
AcDbEntity
  8
0
 62
     7
420
 16776959
370
     9
100
AcDbVertex
100
AcDb2dVertex
 10
495.9327654522149
 20
298.1558834153948
 30
0.0
  0
VERTEX
  5
310
330
30E
100
AcDbEntity
  8
0
 62
     7
420
 16776959
370
     9
100
AcDbVertex
100
AcDb2dVertex
 10
494.9845144800765
 20
298.853209033171
 30
0.0
  0
SEQEND
  5
311
330
30E
100
AcDbEntity
  8
0
 62
     7
420
 16776959
370
     9
  0
SPLINE
  5
312
330
25D
100
AcDbEntity
  8
0
 62
     7
420
 16776959
370
     9
100
AcDbSpline
210
0.0
220
0.0
230
1.0
 70
     8
 71
     3
 72
    14
 73
    10
 74
     0
 42
0.0000000001
 43
0.0000000001
 12
1.0
 22
0.0
 32
0.0
 13
1.0
 23
0.0
 33
0.0
 40
0.0
 40
0.0
 40
0.0
 40
0.0
 40
1.0
 40
1.0
 40
1.0
 40
2.0
 40
2.0
 40
2.0
 40
3.0
 40
3.0
 40
3.0
 40
3.0
 10
482.6724204970578
 20
281.1835378160122
 30
0.0
 10
482.5752717123014
 20
281.2339809804362
 30
0.0
 10
482.478466914301
 20
281.2855819612396
 30
0.0
 10
482.3820195182543
 20
281.3383456463325
 30
0.0
 10
474.1705527466456
 20
285.8306104936328
 30
0.0
 10
471.6593029394626
 20
297.04984720828
 30
0.0
 10
476.7729860844756
 20
306.397212213049
 30
0.0
 10
481.8866692294887
 20
315.744577217818
 30
0.0
 10
492.6888375512353
 20
319.6804135459679
 30
0.0
 10
500.9003043228458
 20
315.1881486986676
 30
0.0
  0
SPLINE
  5
313
330
25D
100
AcDbEntity
  8
0
 62
     7
420
 16776959
370
    18
100
AcDbSpline
210
0.0
220
0.0
230
1.0
 70
    11
 71
     3
 72
    17
 73
    13
 74
     0
 42
0.0000000001
 43
0.0000000001
 12
1.0
 22
0.0
 32
0.0
 13
1.0
 23
0.0
 33
0.0
 40
0.0
 40
0.0
 40
0.0
 40
0.0
 40
1.0
 40
1.0
 40
1.0
 40
2.0
 40
2.0
 40
2.0
 40
3.0
 40
3.0
 40
3.0
 40
4.0
 40
4.0
 40
4.0
 40
4.0
 10
503.4720851255443
 20
291.1493227191204
 30
0.0
 10
500.6359788117061
 20
285.8526683200398
 30
0.0
 10
494.5694088751607
 20
283.5761725073207
 30
0.0
 10
489.9220219239069
 20
286.0646270075031
 30
0.0
 10
485.2746349726531
 20
288.5530815076836
 30
0.0
 10
483.8063018998018
 20
294.8641592260701
 30
0.0
 10
486.64240821364
 20
300.1608136251489
 30
0.0
 10
489.4785145274764
 20
305.4574680242304
 30
0.0
 10
495.5450844640218
 20
307.7339638369467
 30
0.0
 10
500.1924714152774
 20
305.2455093367653
 30
0.0
 10
504.8398583665312
 20
302.7570548365829
 30
0.0
 10
506.3081914393806
 20
296.4459771182028
 30
0.0
 10
503.4720851255443
 20
291.1493227191204
 30
0.0
  0
MTEXT
  5
314
330
25D
100
AcDbEntity
  8
0
 62
     7
420
 16776959
100
AcDbMText
 10
491.4135374789475
 20
300.1995981323416
 30
0.0
 40
2.124138564821228
 41
0.0
 46
0.0
 71
     7
 72
     1
  1
\fHelvetica Neue LT Std 77 Condensed|b1|i0|c0|p34;\W0.866268;WS22
 11
0.9881221707332019
 21
0.153670347515404
 31
0.0
 73
     1
 44
1.0
  0
MTEXT
  5
315
330
25D
100
AcDbEntity
  8
0
 62
     7
420
 16776959
100
AcDbMText
 10
493.4418854094693
 20
288.2513699753326
 30
0.0
 40
2.157362201422761
 41
0.0
 46
0.0
 71
     7
 72
     1
  1
\fHelvetica Neue LT Std 77 Condensed|b1|i0|c0|p34;\W0.955598;3.5
 11
0.9881221707332019
 21
0.153670347515404
 31
0.0
 73
     1
 44
1.0
  0
INSERT
  5
317
330
25D
100
AcDbEntity
  8
0
100
AcDbBlockReference
  2
block 15
 10
0.0
 20
0.0
 30
0.0
  0
SPLINE
  5
33A
330
25D
100
AcDbEntity
  8
0
 62
     7
420
 16776959
370
     9
100
AcDbSpline
210
0.0
220
0.0
230
1.0
 70
    11
 71
     3
 72
    17
 73
    13
 74
     0
 42
0.0000000001
 43
0.0000000001
 12
1.0
 22
0.0
 32
0.0
 13
1.0
 23
0.0
 33
0.0
 40
0.0
 40
0.0
 40
0.0
 40
0.0
 40
1.0
 40
1.0
 40
1.0
 40
2.0
 40
2.0
 40
2.0
 40
3.0
 40
3.0
 40
3.0
 40
4.0
 40
4.0
 40
4.0
 40
4.0
 10
497.8074649110295
 20
294.1824572122187
 30
0.0
 10
496.8805414341496
 20
292.451353802071
 30
0.0
 10
494.8978068409924
 20
291.7073275984221
 30
0.0
 10
493.3789032476234
 20
292.520628173972
 30
0.0
 10
491.8599996542544
 20
293.3339287495219
 30
0.0
 10
491.3801049512731
 20
295.396575721903
 30
0.0
 10
492.307028428153
 20
297.1276791320506
 30
0.0
 10
493.2339519050329
 20
298.8587825421992
 30
0.0
 10
495.21668649819
 20
299.6028087458471
 30
0.0
 10
496.7355900915591
 20
298.7895081702973
 30
0.0
 10
498.2544936849281
 20
297.9762075947456
 30
0.0
 10
498.7343883879093
 20
295.9135606223681
 30
0.0
 10
497.8074649110295
 20
294.1824572122187
 30
0.0
  0
ENDBLK
  5
260
330
25D
100
AcDbEntity
  8
0
100
AcDbBlockEnd
  0
BLOCK
  5
318
330
316
100
AcDbEntity
  8
0
100
AcDbBlockBegin
  2
block 15
 70
     0
 10
0.0
 20
0.0
 30
0.0
  3
block 15
  1

  0
INSERT
  5
31B
330
316
100
AcDbEntity
  8
0
100
AcDbBlockReference
  2
block 16
 10
0.0
 20
0.0
 30
0.0
  0
INSERT
  5
32F
330
316
100
AcDbEntity
  8
0
100
AcDbBlockReference
  2
block 17
 10
0.0
 20
0.0
 30
0.0
  0
ENDBLK
  5
319
330
316
100
AcDbEntity
  8
0
100
AcDbBlockEnd
  0
BLOCK
  5
31C
330
31A
100
AcDbEntity
  8
0
100
AcDbBlockBegin
  2
block 16
 70
     0
 10
0.0
 20
0.0
 30
0.0
  3
block 16
  1

  0
POLYLINE
  5
31E
330
31A
100
AcDbEntity
  8
0
370
     0
100
AcDb2dPolyline
 66
     1
 10
0.0
 20
0.0
 30
0.0
  0
VERTEX
  5
31F
330
31E
100
AcDbEntity
  8
0
370
     0
100
AcDbVertex
100
AcDb2dVertex
 10
499.7858351186624
 20
296.2927060241691
 30
0.0
  0
VERTEX
  5
320
330
31E
100
AcDbEntity
  8
0
370
     0
100
AcDbVertex
100
AcDb2dVertex
 10
502.5482543939797
 20
296.6778840742536
 30
0.0
  0
VERTEX
  5
321
330
31E
100
AcDbEntity
  8
0
370
     0
100
AcDbVertex
100
AcDb2dVertex
 10
502.5482543939797
 20
296.1952448291668
 30
0.0
  0
VERTEX
  5
322
330
31E
100
AcDbEntity
  8
0
370
     0
100
AcDbVertex
100
AcDb2dVertex
 10
499.7858351186624
 20
295.8098793906011
 30
0.0
  0
VERTEX
  5
323
330
31E
100
AcDbEntity
  8
0
370
     0
100
AcDbVertex
100
AcDb2dVertex
 10
499.7858351186624
 20
296.2927060241691
 30
0.0
  0
SEQEND
  5
325
330
31E
100
AcDbEntity
  8
0
370
     0
  0
HATCH
  5
324
330
31A
100
AcDbEntity
  8
0
 62
     7
420
 16776959
100
AcDbHatch
 10
0.0
 20
0.0
 30
0.0
210
0.0
220
0.0
230
1.0
  2
SOLID
 70
     1
 71
     0
 91
        1
 92
        1
 93
        4
 72
     1
 10
499.7858351186624
 20
296.2927060241691
 11
502.5482543939797
 21
296.6778840742536
 72
     1
 10
502.5482543939797
 20
296.6778840742536
 11
502.5482543939797
 21
296.1952448291668
 72
     1
 10
502.5482543939797
 20
296.1952448291668
 11
499.7858351186624
 21
295.8098793906011
 72
     1
 10
499.7858351186624
 20
295.8098793906011
 11
499.7858351186624
 21
296.2927060241691
 97
        0
 75
     2
 76
     1
 98
        0
  0
POLYLINE
  5
326
330
31A
100
AcDbEntity
  8
0
370
     0
100
AcDb2dPolyline
 66
     1
 10
0.0
 20
0.0
 30
0.0
  0
VERTEX
  5
327
330
326
100
AcDbEntity
  8
0
370
     0
100
AcDbVertex
100
AcDb2dVertex
 10
499.7858351186569
 20
297.0958530507251
 30
0.0
  0
VERTEX
  5
328
330
326
100
AcDbEntity
  8
0
370
     0
100
AcDbVertex
100
AcDb2dVertex
 10
502.5482543939743
 20
297.4810311008132
 30
0.0
  0
VERTEX
  5
329
330
326
100
AcDbEntity
  8
0
370
     0
100
AcDbVertex
100
AcDb2dVertex
 10
502.5482543939761
 20
296.9974305461365
 30
0.0
  0
VERTEX
  5
32A
330
326
100
AcDbEntity
  8
0
370
     0
100
AcDbVertex
100
AcDb2dVertex
 10
499.7858351186587
 20
296.6122524960501
 30
0.0
  0
VERTEX
  5
32B
330
326
100
AcDbEntity
  8
0
370
     0
100
AcDbVertex
100
AcDb2dVertex
 10
499.7858351186569
 20
297.0958530507251
 30
0.0
  0
SEQEND
  5
32D
330
326
100
AcDbEntity
  8
0
370
     0
  0
HATCH
  5
32C
330
31A
100
AcDbEntity
  8
0
 62
     7
420
 16776959
100
AcDbHatch
 10
0.0
 20
0.0
 30
0.0
210
0.0
220
0.0
230
1.0
  2
SOLID
 70
     1
 71
     0
 91
        1
 92
        1
 93
        4
 72
     1
 10
499.7858351186569
 20
297.0958530507251
 11
502.5482543939743
 21
297.4810311008132
 72
     1
 10
502.5482543939743
 20
297.4810311008132
 11
502.5482543939761
 21
296.9974305461365
 72
     1
 10
502.5482543939761
 20
296.9974305461365
 11
499.7858351186587
 21
296.6122524960501
 72
     1
 10
499.7858351186587
 20
296.6122524960501
 11
499.7858351186569
 21
297.0958530507251
 97
        0
 75
     2
 76
     1
 98
        0
  0
ENDBLK
  5
31D
330
31A
100
AcDbEntity
  8
0
100
AcDbBlockEnd
  0
BLOCK
  5
330
330
32E
100
AcDbEntity
  8
0
100
AcDbBlockBegin
  2
block 17
 70
     0
 10
0.0
 20
0.0
 30
0.0
  3
block 17
  1

  0
POLYLINE
  5
332
330
32E
100
AcDbEntity
  8
0
370
     0
100
AcDb2dPolyline
 66
     1
 10
0.0
 20
0.0
 30
0.0
  0
VERTEX
  5
333
330
332
100
AcDbEntity
  8
0
370
     0
100
AcDbVertex
100
AcDb2dVertex
 10
501.9956444216841
 20
298.3029951220142
 30
0.0
  0
VERTEX
  5
334
330
332
100
AcDbEntity
  8
0
370
     0
100
AcDbVertex
100
AcDb2dVertex
 10
502.1843562351169
 20
298.2102974257741
 30
0.0
  0
VERTEX
  5
335
330
332
100
AcDbEntity
  8
0
370
     0
100
AcDbVertex
100
AcDb2dVertex
 10
500.2829539649356
 20
295.0552126641724
 30
0.0
  0
VERTEX
  5
336
330
332
100
AcDbEntity
  8
0
370
     0
100
AcDbVertex
100
AcDb2dVertex
 10
500.0942421515028
 20
295.1480149038853
 30
0.0
  0
VERTEX
  5
337
330
332
100
AcDbEntity
  8
0
370
     0
100
AcDbVertex
100
AcDb2dVertex
 10
501.9956444216841
 20
298.3029951220142
 30
0.0
  0
SEQEND
  5
339
330
332
100
AcDbEntity
  8
0
370
     0
  0
HATCH
  5
338
330
32E
100
AcDbEntity
  8
0
 62
     7
420
 16776959
100
AcDbHatch
 10
0.0
 20
0.0
 30
0.0
210
0.0
220
0.0
230
1.0
  2
SOLID
 70
     1
 71
     0
 91
        1
 92
        1
 93
        4
 72
     1
 10
501.9956444216841
 20
298.3029951220142
 11
502.1843562351169
 21
298.2102974257741
 72
     1
 10
502.1843562351169
 20
298.2102974257741
 11
500.2829539649356
 21
295.0552126641724
 72
     1
 10
500.2829539649356
 20
295.0552126641724
 11
500.0942421515028
 21
295.1480149038853
 72
     1
 10
500.0942421515028
 20
295.1480149038853
 11
501.9956444216841
 21
298.3029951220142
 97
        0
 75
     2
 76
     1
 98
        0
  0
ENDBLK
  5
331
330
32E
100
AcDbEntity
  8
0
100
AcDbBlockEnd
  0
BLOCK
  5
33D
330
33B
100
AcDbEntity
  8
0
100
AcDbBlockBegin
  2
block 18
 70
     0
 10
0.0
 20
0.0
 30
0.0
  3
block 18
  1

  0
SPLINE
  5
33F
330
33B
100
AcDbEntity
  8
0
 62
     7
420
 16776959
370
    18
100
AcDbSpline
210
0.0
220
0.0
230
1.0
 70
    11
 71
     3
 72
    23
 73
    19
 74
     0
 42
0.0000000001
 43
0.0000000001
 12
1.0
 22
0.0
 32
0.0
 13
1.0
 23
0.0
 33
0.0
 40
0.0
 40
0.0
 40
0.0
 40
0.0
 40
1.0
 40
1.0
 40
1.0
 40
2.0
 40
2.0
 40
2.0
 40
3.0
 40
3.0
 40
3.0
 40
4.0
 40
4.0
 40
4.0
 40
5.0
 40
5.0
 40
5.0
 40
6.0
 40
6.0
 40
6.0
 40
6.0
 10
544.0164815941353
 20
321.5419299447676
 30
0.0
 10
536.0010784755905
 20
325.413510829394
 30
0.0
 10
525.7784691547095
 20
321.4916223447208
 30
0.0
 10
520.8681843261875
 20
312.5160516517399
 30
0.0
 10
515.819344529802
 20
303.287214610199
 30
0.0
 10
518.2987507827183
 20
292.2102418679187
 30
0.0
 10
526.4060931908243
 20
287.7749405608647
 30
0.0
 10
526.4060931908243
 20
287.7749405608647
 30
0.0
 10
528.1808857425494
 20
286.9760295265569
 30
0.0
 10
528.1808857425494
 20
286.9760295265569
 30
0.0
 10
536.2512697953771
 20
282.7855940953723
 30
0.0
 10
546.7260033982348
 20
286.687898403683
 30
0.0
 10
551.7155422846881
 20
295.8083385746122
 30
0.0
 10
556.7643820810736
 20
305.0371756161512
 30
0.0
 10
554.2849758281573
 20
316.1141483584279
 30
0.0
 10
546.1776334200531
 20
320.5494496654874
 30
0.0
 10
546.1776334200531
 20
320.5494496654874
 30
0.0
 10
544.0164815941353
 20
321.5419299447676
 30
0.0
 10
544.0164815941353
 20
321.5419299447676
 30
0.0
  0
HATCH
  5
340
330
33B
100
AcDbEntity
  8
0
 62
   250
420
  2301728
100
AcDbHatch
 10
0.0
 20
0.0
 30
0.0
210
0.0
220
0.0
230
1.0
  2
SOLID
 70
     1
 71
     0
 91
        1
 92
        1
 93
        1
 72
     4
 94
        3
 73
     0
 74
     1
 95
       23
 96
       19
 40
0.0
 40
0.0
 40
0.0
 40
0.0
 40
1.0
 40
1.0
 40
1.0
 40
2.0
 40
2.0
 40
2.0
 40
3.0
 40
3.0
 40
3.0
 40
4.0
 40
4.0
 40
4.0
 40
5.0
 40
5.0
 40
5.0
 40
6.0
 40
6.0
 40
6.0
 40
6.0
 10
544.0164815941353
 20
321.5419299447676
 10
536.0010784755905
 20
325.413510829394
 10
525.7784691547095
 20
321.4916223447208
 10
520.8681843261875
 20
312.5160516517399
 10
515.819344529802
 20
303.287214610199
 10
518.2987507827183
 20
292.2102418679187
 10
526.4060931908243
 20
287.7749405608647
 10
526.4060931908243
 20
287.7749405608647
 10
528.1808857425494
 20
286.9760295265569
 10
528.1808857425494
 20
286.9760295265569
 10
536.2512697953771
 20
282.7855940953723
 10
546.7260033982348
 20
286.687898403683
 10
551.7155422846881
 20
295.8083385746122
 10
556.7643820810736
 20
305.0371756161512
 10
554.2849758281573
 20
316.1141483584279
 10
546.1776334200531
 20
320.5494496654874
 10
546.1776334200531
 20
320.5494496654874
 10
544.0164815941353
 20
321.5419299447676
 10
544.0164815941353
 20
321.5419299447676
 97
        0
 97
        0
 75
     2
 76
     1
 98
        0
  0
SPLINE
  5
341
330
33B
100
AcDbEntity
  8
0
 62
     7
420
 16776959
370
    13
100
AcDbSpline
210
0.0
220
0.0
230
1.0
 70
    11
 71
     3
 72
    59
 73
    55
 74
     0
 42
0.0000000001
 43
0.0000000001
 12
1.0
 22
0.0
 32
0.0
 13
1.0
 23
0.0
 33
0.0
 40
0.0
 40
0.0
 40
0.0
 40
0.0
 40
1.0
 40
1.0
 40
1.0
 40
2.0
 40
2.0
 40
2.0
 40
3.0
 40
3.0
 40
3.0
 40
4.0
 40
4.0
 40
4.0
 40
5.0
 40
5.0
 40
5.0
 40
6.0
 40
6.0
 40
6.0
 40
7.0
 40
7.0
 40
7.0
 40
8.0
 40
8.0
 40
8.0
 40
9.0
 40
9.0
 40
9.0
 40
10.0
 40
10.0
 40
10.0
 40
11.0
 40
11.0
 40
11.0
 40
12.0
 40
12.0
 40
12.0
 40
13.0
 40
13.0
 40
13.0
 40
14.0
 40
14.0
 40
14.0
 40
15.0
 40
15.0
 40
15.0
 40
16.0
 40
16.0
 40
16.0
 40
17.0
 40
17.0
 40
17.0
 40
18.0
 40
18.0
 40
18.0
 40
18.0
 10
531.889711351243
 20
288.3914928369395
 30
0.0
 10
531.889711351243
 20
288.3914928369395
 30
0.0
 10
530.7346196707258
 20
288.2478528878073
 30
0.0
 10
530.7346196707258
 20
288.2478528878073
 30
0.0
 10
529.6654111458483
 20
288.1477395891252
 30
0.0
 10
528.7538252802788
 20
288.5872374210321
 30
0.0
 10
528.1699613927158
 20
289.4866431550963
 30
0.0
 10
528.1699613927158
 20
289.4866431550963
 30
0.0
 10
521.7369590183935
 20
300.4010407455589
 30
0.0
 10
521.7369590183935
 20
300.4010407455589
 30
0.0
 10
521.2211547181214
 20
301.4060806010384
 30
0.0
 10
521.2233751361
 20
302.5111360295878
 30
0.0
 10
521.7369590183935
 20
303.5238832031037
 30
0.0
 10
521.7369590183935
 20
303.5238832031037
 30
0.0
 10
528.1699613927158
 20
315.9677993196528
 30
0.0
 10
528.1699613927158
 20
315.9677993196528
 30
0.0
 10
528.7067449677106
 20
316.975842517234
 30
0.0
 10
529.6122530350531
 20
317.6305017197674
 30
0.0
 10
530.7346196707258
 20
317.8163658812737
 30
0.0
 10
530.7346196707258
 20
317.8163658812737
 30
0.0
 10
543.4852757349017
 20
319.262385955888
 30
0.0
 10
543.4852757349017
 20
319.262385955888
 30
0.0
 10
544.5476839727926
 20
319.3478072960379
 30
0.0
 10
545.448733052328
 20
318.9006037400704
 30
0.0
 10
546.0209757924222
 20
318.0025225689878
 30
0.0
 10
546.0209757924222
 20
318.0025225689878
 30
0.0
 10
552.3393488235561
 20
307.1442835011703
 30
0.0
 10
552.3393488235561
 20
307.1442835011703
 30
0.0
 10
552.3393488235561
 20
307.1442835011703
 30
0.0
 10
552.3441800668643
 20
307.1359467172124
 30
0.0
 10
552.3441800668643
 20
307.1359467172124
 30
0.0
 10
552.497315822955
 20
306.8679802403267
 30
0.0
 10
552.6050391918634
 20
306.57742625009
 30
0.0
 10
552.6669755799976
 20
306.2751562761659
 30
0.0
 10
552.6669755799976
 20
306.2751562761659
 30
0.0
 10
553.8741818953858
 20
304.2006881636044
 30
0.0
 10
553.8741818953858
 20
304.2006881636044
 30
0.0
 10
554.1441850552819
 20
303.6966011438089
 30
0.0
 10
554.156289296805
 20
303.1384446329612
 30
0.0
 10
553.9090144406273
 20
302.6222016119409
 30
0.0
 10
553.9090144406273
 20
302.6222016119409
 30
0.0
 10
547.5491975475998
 20
290.1699238406418
 30
0.0
 10
547.5491975475998
 20
290.1699238406418
 30
0.0
 10
547.291901200475
 20
289.6894573061818
 30
0.0
 10
546.8583217646519
 20
289.3793885423602
 30
0.0
 10
546.3211196213015
 20
289.2928264380662
 30
0.0
 10
546.3211196213015
 20
289.2928264380662
 30
0.0
 10
533.5010405098146
 20
287.6943378715314
 30
0.0
 10
533.5010405098146
 20
287.6943378715314
 30
0.0
 10
533.0956833607779
 20
287.6488047434559
 30
0.0
 10
532.7049006221223
 20
287.7577651018346
 30
0.0
 10
532.3796730601607
 20
288.0056234760177
 30
0.0
 10
532.3796730601607
 20
288.0056234760177
 30
0.0
 10
531.889711351243
 20
288.3914928369395
 30
0.0
 10
531.889711351243
 20
288.3914928369395
 30
0.0
  0
HATCH
  5
342
330
33B
100
AcDbEntity
  8
0
 62
   250
420
  2301728
100
AcDbHatch
 10
0.0
 20
0.0
 30
0.0
210
0.0
220
0.0
230
1.0
  2
SOLID
 70
     1
 71
     0
 91
        1
 92
        1
 93
        1
 72
     4
 94
        3
 73
     0
 74
     1
 95
       59
 96
       55
 40
0.0
 40
0.0
 40
0.0
 40
0.0
 40
1.0
 40
1.0
 40
1.0
 40
2.0
 40
2.0
 40
2.0
 40
3.0
 40
3.0
 40
3.0
 40
4.0
 40
4.0
 40
4.0
 40
5.0
 40
5.0
 40
5.0
 40
6.0
 40
6.0
 40
6.0
 40
7.0
 40
7.0
 40
7.0
 40
8.0
 40
8.0
 40
8.0
 40
9.0
 40
9.0
 40
9.0
 40
10.0
 40
10.0
 40
10.0
 40
11.0
 40
11.0
 40
11.0
 40
12.0
 40
12.0
 40
12.0
 40
13.0
 40
13.0
 40
13.0
 40
14.0
 40
14.0
 40
14.0
 40
15.0
 40
15.0
 40
15.0
 40
16.0
 40
16.0
 40
16.0
 40
17.0
 40
17.0
 40
17.0
 40
18.0
 40
18.0
 40
18.0
 40
18.0
 10
531.889711351243
 20
288.3914928369395
 10
531.889711351243
 20
288.3914928369395
 10
530.7346196707258
 20
288.2478528878073
 10
530.7346196707258
 20
288.2478528878073
 10
529.6654111458483
 20
288.1477395891252
 10
528.7538252802788
 20
288.5872374210321
 10
528.1699613927158
 20
289.4866431550963
 10
528.1699613927158
 20
289.4866431550963
 10
521.7369590183935
 20
300.4010407455589
 10
521.7369590183935
 20
300.4010407455589
 10
521.2211547181214
 20
301.4060806010384
 10
521.2233751361
 20
302.5111360295878
 10
521.7369590183935
 20
303.5238832031037
 10
521.7369590183935
 20
303.5238832031037
 10
528.1699613927158
 20
315.9677993196528
 10
528.1699613927158
 20
315.9677993196528
 10
528.7067449677106
 20
316.975842517234
 10
529.6122530350531
 20
317.6305017197674
 10
530.7346196707258
 20
317.8163658812737
 10
530.7346196707258
 20
317.8163658812737
 10
543.4852757349017
 20
319.262385955888
 10
543.4852757349017
 20
319.262385955888
 10
544.5476839727926
 20
319.3478072960379
 10
545.448733052328
 20
318.9006037400704
 10
546.0209757924222
 20
318.0025225689878
 10
546.0209757924222
 20
318.0025225689878
 10
552.3393488235561
 20
307.1442835011703
 10
552.3393488235561
 20
307.1442835011703
 10
552.3393488235561
 20
307.1442835011703
 10
552.3441800668643
 20
307.1359467172124
 10
552.3441800668643
 20
307.1359467172124
 10
552.497315822955
 20
306.8679802403267
 10
552.6050391918634
 20
306.57742625009
 10
552.6669755799976
 20
306.2751562761659
 10
552.6669755799976
 20
306.2751562761659
 10
553.8741818953858
 20
304.2006881636044
 10
553.8741818953858
 20
304.2006881636044
 10
554.1441850552819
 20
303.6966011438089
 10
554.156289296805
 20
303.1384446329612
 10
553.9090144406273
 20
302.6222016119409
 10
553.9090144406273
 20
302.6222016119409
 10
547.5491975475998
 20
290.1699238406418
 10
547.5491975475998
 20
290.1699238406418
 10
547.291901200475
 20
289.6894573061818
 10
546.8583217646519
 20
289.3793885423602
 10
546.3211196213015
 20
289.2928264380662
 10
546.3211196213015
 20
289.2928264380662
 10
533.5010405098146
 20
287.6943378715314
 10
533.5010405098146
 20
287.6943378715314
 10
533.0956833607779
 20
287.6488047434559
 10
532.7049006221223
 20
287.7577651018346
 10
532.3796730601607
 20
288.0056234760177
 10
532.3796730601607
 20
288.0056234760177
 10
531.889711351243
 20
288.3914928369395
 10
531.889711351243
 20
288.3914928369395
 97
        0
 97
        0
 75
     2
 76
     1
 98
        0
  0
SPLINE
  5
343
330
33B
100
AcDbEntity
  8
0
 62
     7
420
 16776959
370
     9
100
AcDbSpline
210
0.0
220
0.0
230
1.0
 70
     8
 71
     3
 72
     8
 73
     4
 74
     0
 42
0.0000000001
 43
0.0000000001
 12
1.0
 22
0.0
 32
0.0
 13
1.0
 23
0.0
 33
0.0
 40
0.0
 40
0.0
 40
0.0
 40
0.0
 40
1.0
 40
1.0
 40
1.0
 40
1.0
 10
546.0209757924222
 20
318.0025225689878
 30
0.0
 10
545.617463139577
 20
317.7513594898082
 30
0.0
 10
545.318165812665
 20
317.378831470005
 30
0.0
 10
545.1727373497542
 20
316.9391264104497
 30
0.0
  0
SPLINE
  5
344
330
33B
100
AcDbEntity
  8
0
 62
     7
420
 16776959
370
     9
100
AcDbSpline
210
0.0
220
0.0
230
1.0
 70
     8
 71
     3
 72
     8
 73
     4
 74
     0
 42
0.0000000001
 43
0.0000000001
 12
1.0
 22
0.0
 32
0.0
 13
1.0
 23
0.0
 33
0.0
 40
0.0
 40
0.0
 40
0.0
 40
0.0
 40
1.0
 40
1.0
 40
1.0
 40
1.0
 10
552.2159053457126
 20
307.0502771528782
 30
0.0
 10
552.2556180671199
 20
307.0816844662913
 30
0.0
 10
552.2958299356178
 20
307.112439642101
 30
0.0
 10
552.3366910240311
 20
307.1423400744543
 30
0.0
  0
SPLINE
  5
345
330
33B
100
AcDbEntity
  8
0
 62
     7
420
 16776959
370
     9
100
AcDbSpline
210
0.0
220
0.0
230
1.0
 70
     8
 71
     3
 72
     8
 73
     4
 74
     0
 42
0.0000000001
 43
0.0000000001
 12
1.0
 22
0.0
 32
0.0
 13
1.0
 23
0.0
 33
0.0
 40
0.0
 40
0.0
 40
0.0
 40
0.0
 40
1.0
 40
1.0
 40
1.0
 40
1.0
 10
544.0062732571932
 20
317.3489298117311
 30
0.0
 10
543.5367384177589
 20
317.6890242588925
 30
0.0
 10
543.4535148662726
 20
318.746480922794
 30
0.0
 10
543.4852757349017
 20
319.262385955888
 30
0.0
  0
SPLINE
  5
346
330
33B
100
AcDbEntity
  8
0
 62
     7
420
 16776959
370
     9
100
AcDbSpline
210
0.0
220
0.0
230
1.0
 70
     8
 71
     3
 72
     8
 73
     4
 74
     0
 42
0.0000000001
 43
0.0000000001
 12
1.0
 22
0.0
 32
0.0
 13
1.0
 23
0.0
 33
0.0
 40
0.0
 40
0.0
 40
0.0
 40
0.0
 40
1.0
 40
1.0
 40
1.0
 40
1.0
 10
544.9000243291684
 20
317.1297033829997
 30
0.0
 10
544.6420284811102
 20
317.3085020785757
 30
0.0
 10
544.3276525103793
 20
317.3824372403578
 30
0.0
 10
544.0163933885487
 20
317.3500480284529
 30
0.0
  0
SPLINE
  5
347
330
33B
100
AcDbEntity
  8
0
 62
     7
420
 16776959
370
     9
100
AcDbSpline
210
0.0
220
0.0
230
1.0
 70
     8
 71
     3
 72
     8
 73
     4
 74
     0
 42
0.0000000001
 43
0.0000000001
 12
1.0
 22
0.0
 32
0.0
 13
1.0
 23
0.0
 33
0.0
 40
0.0
 40
0.0
 40
0.0
 40
0.0
 40
1.0
 40
1.0
 40
1.0
 40
1.0
 10
530.7346196707258
 20
317.8163658812737
 30
0.0
 10
530.6942333516708
 20
317.1349510950604
 30
0.0
 10
530.8682333871584
 20
316.4550045951783
 30
0.0
 10
531.2344372082716
 20
315.8984007502058
 30
0.0
  0
POLYLINE
  5
348
330
33B
100
AcDbEntity
  8
0
 62
     7
420
 16776959
370
     9
100
AcDb2dPolyline
 66
     1
 10
0.0
 20
0.0
 30
0.0
  0
VERTEX
  5
349
330
348
100
AcDbEntity
  8
0
 62
     7
420
 16776959
370
     9
100
AcDbVertex
100
AcDb2dVertex
 10
531.2428501407394
 20
315.8920955836493
 30
0.0
  0
VERTEX
  5
34A
330
348
100
AcDbEntity
  8
0
 62
     7
420
 16776959
370
     9
100
AcDbVertex
100
AcDb2dVertex
 10
544.0062732571932
 20
317.3489298117311
 30
0.0
  0
SEQEND
  5
34B
330
348
100
AcDbEntity
  8
0
 62
     7
420
 16776959
370
     9
  0
SPLINE
  5
34C
330
33B
100
AcDbEntity
  8
0
 62
     7
420
 16776959
370
     9
100
AcDbSpline
210
0.0
220
0.0
230
1.0
 70
     8
 71
     3
 72
     8
 73
     4
 74
     0
 42
0.0000000001
 43
0.0000000001
 12
1.0
 22
0.0
 32
0.0
 13
1.0
 23
0.0
 33
0.0
 40
0.0
 40
0.0
 40
0.0
 40
0.0
 40
1.0
 40
1.0
 40
1.0
 40
1.0
 10
529.9598381199303
 20
314.9662319255212
 30
0.0
 10
529.4125806672473
 20
315.3622754648641
 30
0.0
 10
528.7769725219168
 20
315.6759505393584
 30
0.0
 10
528.1699613927158
 20
315.9677993196528
 30
0.0
  0
SPLINE
  5
34D
330
33B
100
AcDbEntity
  8
0
 62
     7
420
 16776959
370
     9
100
AcDbSpline
210
0.0
220
0.0
230
1.0
 70
     8
 71
     3
 72
     8
 73
     4
 74
     0
 42
0.0000000001
 43
0.0000000001
 12
1.0
 22
0.0
 32
0.0
 13
1.0
 23
0.0
 33
0.0
 40
0.0
 40
0.0
 40
0.0
 40
0.0
 40
1.0
 40
1.0
 40
1.0
 40
1.0
 10
531.2428501407394
 20
315.8920955836493
 30
0.0
 10
530.6812501218647
 20
315.7986774742758
 30
0.0
 10
530.2282626596661
 20
315.4707946167009
 30
0.0
 10
529.9598381199303
 20
314.9662319255212
 30
0.0
  0
SPLINE
  5
34E
330
33B
100
AcDbEntity
  8
0
 62
     7
420
 16776959
370
     9
100
AcDbSpline
210
0.0
220
0.0
230
1.0
 70
     8
 71
     3
 72
     8
 73
     4
 74
     0
 42
0.0000000001
 43
0.0000000001
 12
1.0
 22
0.0
 32
0.0
 13
1.0
 23
0.0
 33
0.0
 40
0.0
 40
0.0
 40
0.0
 40
0.0
 40
1.0
 40
1.0
 40
1.0
 40
1.0
 10
521.7369590183935
 20
303.5238832031037
 30
0.0
 10
522.3570214581032
 20
303.2305848851938
 30
0.0
 10
522.9564743732208
 20
302.8913034989882
 30
0.0
 10
523.526449308898
 20
302.5109400221418
 30
0.0
  0
POLYLINE
  5
34F
330
33B
100
AcDbEntity
  8
0
 62
     7
420
 16776959
370
     9
100
AcDb2dPolyline
 66
     1
 10
0.0
 20
0.0
 30
0.0
  0
VERTEX
  5
350
330
34F
100
AcDbEntity
  8
0
 62
     7
420
 16776959
370
     9
100
AcDbVertex
100
AcDb2dVertex
 10
523.526449308898
 20
302.5109400221418
 30
0.0
  0
VERTEX
  5
351
330
34F
100
AcDbEntity
  8
0
 62
     7
420
 16776959
370
     9
100
AcDbVertex
100
AcDb2dVertex
 10
529.9598381199303
 20
314.9662319255212
 30
0.0
  0
SEQEND
  5
352
330
34F
100
AcDbEntity
  8
0
 62
     7
420
 16776959
370
     9
  0
SPLINE
  5
353
330
33B
100
AcDbEntity
  8
0
 62
     7
420
 16776959
370
     9
100
AcDbSpline
210
0.0
220
0.0
230
1.0
 70
     8
 71
     3
 72
     8
 73
     4
 74
     0
 42
0.0000000001
 43
0.0000000001
 12
1.0
 22
0.0
 32
0.0
 13
1.0
 23
0.0
 33
0.0
 40
0.0
 40
0.0
 40
0.0
 40
0.0
 40
1.0
 40
1.0
 40
1.0
 40
1.0
 10
523.526449308898
 20
300.948390619119
 30
0.0
 10
523.0765043634583
 20
301.2822691358142
 30
0.0
 10
522.070242908987
 20
300.6903507593552
 30
0.0
 10
521.7369590183935
 20
300.4010407455589
 30
0.0
  0
SPLINE
  5
354
330
33B
100
AcDbEntity
  8
0
 62
     7
420
 16776959
370
     9
100
AcDbSpline
210
0.0
220
0.0
230
1.0
 70
     8
 71
     3
 72
     8
 73
     4
 74
     0
 42
0.0000000001
 43
0.0000000001
 12
1.0
 22
0.0
 32
0.0
 13
1.0
 23
0.0
 33
0.0
 40
0.0
 40
0.0
 40
0.0
 40
0.0
 40
1.0
 40
1.0
 40
1.0
 40
1.0
 10
523.526449308898
 20
302.5109400221418
 30
0.0
 10
523.2696544105929
 20
302.0041943508841
 30
0.0
 10
523.2685447472431
 20
301.4512828444831
 30
0.0
 10
523.526449308898
 20
300.948390619119
 30
0.0
  0
SPLINE
  5
355
330
33B
100
AcDbEntity
  8
0
 62
     7
420
 16776959
370
     9
100
AcDbSpline
210
0.0
220
0.0
230
1.0
 70
     8
 71
     3
 72
     8
 73
     4
 74
     0
 42
0.0000000001
 43
0.0000000001
 12
1.0
 22
0.0
 32
0.0
 13
1.0
 23
0.0
 33
0.0
 40
0.0
 40
0.0
 40
0.0
 40
0.0
 40
1.0
 40
1.0
 40
1.0
 40
1.0
 10
530.8686110576364
 20
289.1956604087445
 30
0.0
 10
530.7548294384851
 20
288.9030228966931
 30
0.0
 10
530.7258102344567
 20
288.5601677534669
 30
0.0
 10
530.7346196707222
 20
288.2478528878073
 30
0.0
  0
SPLINE
  5
356
330
33B
100
AcDbEntity
  8
0
 62
     7
420
 16776959
370
     9
100
AcDbSpline
210
0.0
220
0.0
230
1.0
 70
     8
 71
     3
 72
     8
 73
     4
 74
     0
 42
0.0000000001
 43
0.0000000001
 12
1.0
 22
0.0
 32
0.0
 13
1.0
 23
0.0
 33
0.0
 40
0.0
 40
0.0
 40
0.0
 40
0.0
 40
1.0
 40
1.0
 40
1.0
 40
1.0
 10
529.9598381199303
 20
290.0248256605864
 30
0.0
 10
530.0418142186372
 20
289.8868367971136
 30
0.0
 10
530.1470045091828
 20
289.7647539671798
 30
0.0
 10
530.2728241833174
 20
289.6648723823728
 30
0.0
  0
SPLINE
  5
357
330
33B
100
AcDbEntity
  8
0
 62
     7
420
 16776959
370
     9
100
AcDbSpline
210
0.0
220
0.0
230
1.0
 70
     8
 71
     3
 72
     8
 73
     4
 74
     0
 42
0.0000000001
 43
0.0000000001
 12
1.0
 22
0.0
 32
0.0
 13
1.0
 23
0.0
 33
0.0
 40
0.0
 40
0.0
 40
0.0
 40
0.0
 40
1.0
 40
1.0
 40
1.0
 40
1.0
 10
528.1699613927158
 20
289.4866431550963
 30
0.0
 10
528.6760582026072
 20
289.9271109844321
 30
0.0
 10
529.3215648064943
 20
290.133441723292
 30
0.0
 10
529.9512710970084
 20
290.0313039537668
 30
0.0
  0
POLYLINE
  5
358
330
33B
100
AcDbEntity
  8
0
 62
     7
420
 16776959
370
     9
100
AcDb2dPolyline
 66
     1
 10
0.0
 20
0.0
 30
0.0
  0
VERTEX
  5
359
330
358
100
AcDbEntity
  8
0
 62
     7
420
 16776959
370
     9
100
AcDbVertex
100
AcDb2dVertex
 10
529.9598381199303
 20
290.0248256605864
 30
0.0
  0
VERTEX
  5
35A
330
358
100
AcDbEntity
  8
0
 62
     7
420
 16776959
370
     9
100
AcDbVertex
100
AcDb2dVertex
 10
523.526449308898
 20
300.948390619119
 30
0.0
  0
SEQEND
  5
35B
330
358
100
AcDbEntity
  8
0
 62
     7
420
 16776959
370
     9
  0
SPLINE
  5
35C
330
33B
100
AcDbEntity
  8
0
 62
     7
420
 16776959
370
     9
100
AcDbSpline
210
0.0
220
0.0
230
1.0
 70
     8
 71
     3
 72
     8
 73
     4
 74
     0
 42
0.0000000001
 43
0.0000000001
 12
1.0
 22
0.0
 32
0.0
 13
1.0
 23
0.0
 33
0.0
 40
0.0
 40
0.0
 40
0.0
 40
0.0
 40
1.0
 40
1.0
 40
1.0
 40
1.0
 10
525.6050360934205
 20
300.9114097596221
 30
0.0
 10
526.1449687256936
 20
300.499079979154
 30
0.0
 10
526.7958989894632
 20
300.1800290190949
 30
0.0
 10
527.4075429259501
 20
299.8907912165687
 30
0.0
  0
SPLINE
  5
35D
330
33B
100
AcDbEntity
  8
0
 62
     7
420
 16776959
370
     9
100
AcDbSpline
210
0.0
220
0.0
230
1.0
 70
     8
 71
     3
 72
     8
 73
     4
 74
     0
 42
0.0000000001
 43
0.0000000001
 12
1.0
 22
0.0
 32
0.0
 13
1.0
 23
0.0
 33
0.0
 40
0.0
 40
0.0
 40
0.0
 40
0.0
 40
1.0
 40
1.0
 40
1.0
 40
1.0
 10
525.6050360934205
 20
299.3410899181872
 30
0.0
 10
525.3460440093204
 20
299.8464897050781
 30
0.0
 10
525.347157078013
 20
300.4021373665328
 30
0.0
 10
525.6050360934205
 20
300.9114097596221
 30
0.0
  0
SPLINE
  5
35E
330
33B
100
AcDbEntity
  8
0
 62
     7
420
 16776959
370
     9
100
AcDbSpline
210
0.0
220
0.0
230
1.0
 70
     8
 71
     3
 72
     8
 73
     4
 74
     0
 42
0.0000000001
 43
0.0000000001
 12
1.0
 22
0.0
 32
0.0
 13
1.0
 23
0.0
 33
0.0
 40
0.0
 40
0.0
 40
0.0
 40
0.0
 40
1.0
 40
1.0
 40
1.0
 40
1.0
 10
527.4075429259501
 20
299.8907912165687
 30
0.0
 10
526.8977847561127
 20
299.4497033829193
 30
0.0
 10
526.247941100788
 20
299.2396288402224
 30
0.0
 10
525.6135801036271
 20
299.334748606394
 30
0.0
  0
POLYLINE
  5
35F
330
33B
100
AcDbEntity
  8
0
 62
     7
420
 16776959
370
     9
100
AcDb2dPolyline
 66
     1
 10
0.0
 20
0.0
 30
0.0
  0
VERTEX
  5
360
330
35F
100
AcDbEntity
  8
0
 62
     7
420
 16776959
370
     9
100
AcDbVertex
100
AcDb2dVertex
 10
525.6050360934205
 20
300.9114097596221
 30
0.0
  0
VERTEX
  5
361
330
35F
100
AcDbEntity
  8
0
 62
     7
420
 16776959
370
     9
100
AcDbVertex
100
AcDb2dVertex
 10
523.526449308898
 20
302.5109400221418
 30
0.0
  0
SEQEND
  5
362
330
35F
100
AcDbEntity
  8
0
 62
     7
420
 16776959
370
     9
  0
POLYLINE
  5
363
330
33B
100
AcDbEntity
  8
0
 62
     7
420
 16776959
370
     9
100
AcDb2dPolyline
 66
     1
 10
0.0
 20
0.0
 30
0.0
  0
VERTEX
  5
364
330
363
100
AcDbEntity
  8
0
 62
     7
420
 16776959
370
     9
100
AcDbVertex
100
AcDb2dVertex
 10
523.526449308898
 20
300.948390619119
 30
0.0
  0
VERTEX
  5
365
330
363
100
AcDbEntity
  8
0
 62
     7
420
 16776959
370
     9
100
AcDbVertex
100
AcDb2dVertex
 10
525.6050360934205
 20
299.3410899181872
 30
0.0
  0
SEQEND
  5
366
330
363
100
AcDbEntity
  8
0
 62
     7
420
 16776959
370
     9
  0
SPLINE
  5
367
330
33B
100
AcDbEntity
  8
0
 62
     7
420
 16776959
370
     9
100
AcDbSpline
210
0.0
220
0.0
230
1.0
 70
     8
 71
     3
 72
     8
 73
     4
 74
     0
 42
0.0000000001
 43
0.0000000001
 12
1.0
 22
0.0
 32
0.0
 13
1.0
 23
0.0
 33
0.0
 40
0.0
 40
0.0
 40
0.0
 40
0.0
 40
1.0
 40
1.0
 40
1.0
 40
1.0
 10
533.8682637335969
 20
288.9076023342623
 30
0.0
 10
533.9210559970415
 20
288.4509399762301
 30
0.0
 10
533.7949543800842
 20
288.0086362368947
 30
0.0
 10
533.5076664557819
 20
287.6953124846932
 30
0.0
  0
SPLINE
  5
368
330
33B
100
AcDbEntity
  8
0
 62
     7
420
 16776959
370
     9
100
AcDbSpline
210
0.0
220
0.0
230
1.0
 70
     8
 71
     3
 72
     8
 73
     4
 74
     0
 42
0.0000000001
 43
0.0000000001
 12
1.0
 22
0.0
 32
0.0
 13
1.0
 23
0.0
 33
0.0
 40
0.0
 40
0.0
 40
0.0
 40
0.0
 40
1.0
 40
1.0
 40
1.0
 40
1.0
 10
532.0653795397484
 20
288.3671693285087
 30
0.0
 10
532.520629692599
 20
288.0228456920795
 30
0.0
 10
533.5298415577254
 20
288.611499716606
 30
0.0
 10
533.8682637335969
 20
288.9076023342623
 30
0.0
  0
SPLINE
  5
369
330
33B
100
AcDbEntity
  8
0
 62
     7
420
 16776959
370
     9
100
AcDbSpline
210
0.0
220
0.0
230
1.0
 70
     8
 71
     3
 72
     8
 73
     4
 74
     0
 42
0.0000000001
 43
0.0000000001
 12
1.0
 22
0.0
 32
0.0
 13
1.0
 23
0.0
 33
0.0
 40
0.0
 40
0.0
 40
0.0
 40
0.0
 40
1.0
 40
1.0
 40
1.0
 40
1.0
 10
532.3796730601607
 20
288.0056234760177
 30
0.0
 10
532.2536418344007
 20
288.1056965697044
 30
0.0
 10
532.1469167664545
 20
288.228414862564
 30
0.0
 10
532.0653795397484
 20
288.3671693285087
 30
0.0
  0
POLYLINE
  5
36A
330
33B
100
AcDbEntity
  8
0
 62
     7
420
 16776959
370
     9
100
AcDb2dPolyline
 66
     1
 10
0.0
 20
0.0
 30
0.0
  0
VERTEX
  5
36B
330
36A
100
AcDbEntity
  8
0
 62
     7
420
 16776959
370
     9
100
AcDbVertex
100
AcDb2dVertex
 10
533.8682637335969
 20
288.9076023342623
 30
0.0
  0
VERTEX
  5
36C
330
36A
100
AcDbEntity
  8
0
 62
     7
420
 16776959
370
     9
100
AcDbVertex
100
AcDb2dVertex
 10
527.4075429259501
 20
299.8907912165687
 30
0.0
  0
SEQEND
  5
36D
330
36A
100
AcDbEntity
  8
0
 62
     7
420
 16776959
370
     9
  0
POLYLINE
  5
36E
330
33B
100
AcDbEntity
  8
0
 62
     7
420
 16776959
370
     9
100
AcDb2dPolyline
 66
     1
 10
0.0
 20
0.0
 30
0.0
  0
VERTEX
  5
36F
330
36E
100
AcDbEntity
  8
0
 62
     7
420
 16776959
370
     9
100
AcDbVertex
100
AcDb2dVertex
 10
525.6050360934205
 20
299.3410899181872
 30
0.0
  0
VERTEX
  5
370
330
36E
100
AcDbEntity
  8
0
 62
     7
420
 16776959
370
     9
100
AcDbVertex
100
AcDb2dVertex
 10
532.0653795397484
 20
288.3671693285087
 30
0.0
  0
SEQEND
  5
371
330
36E
100
AcDbEntity
  8
0
 62
     7
420
 16776959
370
     9
  0
POLYLINE
  5
372
330
33B
100
AcDbEntity
  8
0
 62
     7
420
 16776959
370
     9
100
AcDb2dPolyline
 66
     1
 10
0.0
 20
0.0
 30
0.0
  0
VERTEX
  5
373
330
372
100
AcDbEntity
  8
0
 62
     7
420
 16776959
370
     9
100
AcDbVertex
100
AcDb2dVertex
 10
532.0653795397484
 20
288.3671693285087
 30
0.0
  0
VERTEX
  5
374
330
372
100
AcDbEntity
  8
0
 62
     7
420
 16776959
370
     9
100
AcDbVertex
100
AcDb2dVertex
 10
529.9598381199303
 20
290.0248256605864
 30
0.0
  0
SEQEND
  5
375
330
372
100
AcDbEntity
  8
0
 62
     7
420
 16776959
370
     9
  0
SPLINE
  5
376
330
33B
100
AcDbEntity
  8
0
 62
     7
420
 16776959
370
     9
100
AcDbSpline
210
0.0
220
0.0
230
1.0
 70
     8
 71
     3
 72
     8
 73
     4
 74
     0
 42
0.0000000001
 43
0.0000000001
 12
1.0
 22
0.0
 32
0.0
 13
1.0
 23
0.0
 33
0.0
 40
0.0
 40
0.0
 40
0.0
 40
0.0
 40
1.0
 40
1.0
 40
1.0
 40
1.0
 10
533.3537488754628
 20
314.3634979141743
 30
0.0
 10
533.8216214277927
 20
314.0129040279398
 30
0.0
 10
533.900062859755
 20
312.9449679551253
 30
0.0
 10
533.8682637335969
 20
312.4232073317598
 30
0.0
  0
SPLINE
  5
377
330
33B
100
AcDbEntity
  8
0
 62
     7
420
 16776959
370
     9
100
AcDbSpline
210
0.0
220
0.0
230
1.0
 70
     8
 71
     3
 72
     8
 73
     4
 74
     0
 42
0.0000000001
 43
0.0000000001
 12
1.0
 22
0.0
 32
0.0
 13
1.0
 23
0.0
 33
0.0
 40
0.0
 40
0.0
 40
0.0
 40
0.0
 40
1.0
 40
1.0
 40
1.0
 40
1.0
 10
532.0653795397484
 20
313.4323112219154
 30
0.0
 10
532.3347528786489
 20
313.9394042491167
 30
0.0
 10
532.7896228409991
 20
314.2691805077657
 30
0.0
 10
533.3537488754628
 20
314.3634979141743
 30
0.0
  0
SPLINE
  5
378
330
33B
100
AcDbEntity
  8
0
 62
     7
420
 16776959
370
     9
100
AcDbSpline
210
0.0
220
0.0
230
1.0
 70
     8
 71
     3
 72
     8
 73
     4
 74
     0
 42
0.0000000001
 43
0.0000000001
 12
1.0
 22
0.0
 32
0.0
 13
1.0
 23
0.0
 33
0.0
 40
0.0
 40
0.0
 40
0.0
 40
0.0
 40
1.0
 40
1.0
 40
1.0
 40
1.0
 10
533.8682637335969
 20
312.4232073317598
 30
0.0
 10
533.2505959765876
 20
312.7205155324727
 30
0.0
 10
532.6504724873066
 20
313.0559177732503
 30
0.0
 10
532.074031106069
 20
313.4260499876063
 30
0.0
  0
POLYLINE
  5
379
330
33B
100
AcDbEntity
  8
0
 62
     7
420
 16776959
370
     9
100
AcDb2dPolyline
 66
     1
 10
0.0
 20
0.0
 30
0.0
  0
VERTEX
  5
37A
330
379
100
AcDbEntity
  8
0
 62
     7
420
 16776959
370
     9
100
AcDbVertex
100
AcDb2dVertex
 10
529.9598381199303
 20
314.9662319255212
 30
0.0
  0
VERTEX
  5
37B
330
379
100
AcDbEntity
  8
0
 62
     7
420
 16776959
370
     9
100
AcDbVertex
100
AcDb2dVertex
 10
532.0653795397484
 20
313.4323112219154
 30
0.0
  0
SEQEND
  5
37C
330
379
100
AcDbEntity
  8
0
 62
     7
420
 16776959
370
     9
  0
POLYLINE
  5
37D
330
33B
100
AcDbEntity
  8
0
 62
     7
420
 16776959
370
     9
100
AcDb2dPolyline
 66
     1
 10
0.0
 20
0.0
 30
0.0
  0
VERTEX
  5
37E
330
37D
100
AcDbEntity
  8
0
 62
     7
420
 16776959
370
     9
100
AcDbVertex
100
AcDb2dVertex
 10
533.3537488754628
 20
314.3634979141743
 30
0.0
  0
VERTEX
  5
37F
330
37D
100
AcDbEntity
  8
0
 62
     7
420
 16776959
370
     9
100
AcDbVertex
100
AcDb2dVertex
 10
531.2428501407394
 20
315.8920955836493
 30
0.0
  0
SEQEND
  5
380
330
37D
100
AcDbEntity
  8
0
 62
     7
420
 16776959
370
     9
  0
POLYLINE
  5
381
330
33B
100
AcDbEntity
  8
0
 62
     7
420
 16776959
370
     9
100
AcDb2dPolyline
 66
     1
 10
0.0
 20
0.0
 30
0.0
  0
VERTEX
  5
382
330
381
100
AcDbEntity
  8
0
 62
     7
420
 16776959
370
     9
100
AcDbVertex
100
AcDb2dVertex
 10
527.4075429259501
 20
299.8907912165687
 30
0.0
  0
VERTEX
  5
383
330
381
100
AcDbEntity
  8
0
 62
     7
420
 16776959
370
     9
100
AcDbVertex
100
AcDb2dVertex
 10
533.8682637335969
 20
312.4232073317598
 30
0.0
  0
SEQEND
  5
384
330
381
100
AcDbEntity
  8
0
 62
     7
420
 16776959
370
     9
  0
POLYLINE
  5
385
330
33B
100
AcDbEntity
  8
0
 62
     7
420
 16776959
370
     9
100
AcDb2dPolyline
 66
     1
 10
0.0
 20
0.0
 30
0.0
  0
VERTEX
  5
386
330
385
100
AcDbEntity
  8
0
 62
     7
420
 16776959
370
     9
100
AcDbVertex
100
AcDb2dVertex
 10
532.0653795397484
 20
313.4323112219154
 30
0.0
  0
VERTEX
  5
387
330
385
100
AcDbEntity
  8
0
 62
     7
420
 16776959
370
     9
100
AcDbVertex
100
AcDb2dVertex
 10
525.6050360934205
 20
300.9114097596221
 30
0.0
  0
SEQEND
  5
388
330
385
100
AcDbEntity
  8
0
 62
     7
420
 16776959
370
     9
  0
SPLINE
  5
389
330
33B
100
AcDbEntity
  8
0
 62
     7
420
 16776959
370
     9
100
AcDbSpline
210
0.0
220
0.0
230
1.0
 70
     8
 71
     3
 72
     8
 73
     4
 74
     0
 42
0.0000000001
 43
0.0000000001
 12
1.0
 22
0.0
 32
0.0
 13
1.0
 23
0.0
 33
0.0
 40
0.0
 40
0.0
 40
0.0
 40
0.0
 40
1.0
 40
1.0
 40
1.0
 40
1.0
 10
546.6975451789749
 20
290.5016870752825
 30
0.0
 10
546.9643080221067
 20
290.3571368343382
 30
0.0
 10
547.2526677422593
 20
290.2418588618657
 30
0.0
 10
547.5418292874529
 20
290.164381079785
 30
0.0
  0
SPLINE
  5
38A
330
33B
100
AcDbEntity
  8
0
 62
     7
420
 16776959
370
     9
100
AcDbSpline
210
0.0
220
0.0
230
1.0
 70
     8
 71
     3
 72
     8
 73
     4
 74
     0
 42
0.0000000001
 43
0.0000000001
 12
1.0
 22
0.0
 32
0.0
 13
1.0
 23
0.0
 33
0.0
 40
0.0
 40
0.0
 40
0.0
 40
0.0
 40
1.0
 40
1.0
 40
1.0
 40
1.0
 10
546.3211196213015
 20
289.2928264380662
 30
0.0
 10
546.6801879087488
 20
289.3454079631538
 30
0.0
 10
546.727893914076
 20
290.2426544025457
 30
0.0
 10
546.6975451789749
 20
290.5016870752825
 30
0.0
  0
POLYLINE
  5
38B
330
33B
100
AcDbEntity
  8
0
 62
     7
420
 16776959
370
     9
100
AcDb2dPolyline
 66
     1
 10
0.0
 20
0.0
 30
0.0
  0
VERTEX
  5
38C
330
38B
100
AcDbEntity
  8
0
 62
     7
420
 16776959
370
     9
100
AcDbVertex
100
AcDb2dVertex
 10
546.6975451789749
 20
290.5016870752825
 30
0.0
  0
VERTEX
  5
38D
330
38B
100
AcDbEntity
  8
0
 62
     7
420
 16776959
370
     9
100
AcDbVertex
100
AcDb2dVertex
 10
533.8682637335969
 20
288.9076023342623
 30
0.0
  0
SEQEND
  5
38E
330
38B
100
AcDbEntity
  8
0
 62
     7
420
 16776959
370
     9
  0
SPLINE
  5
38F
330
33B
100
AcDbEntity
  8
0
 62
     7
420
 16776959
370
     9
100
AcDbSpline
210
0.0
220
0.0
230
1.0
 70
     8
 71
     3
 72
     8
 73
     4
 74
     0
 42
0.0000000001
 43
0.0000000001
 12
1.0
 22
0.0
 32
0.0
 13
1.0
 23
0.0
 33
0.0
 40
0.0
 40
0.0
 40
0.0
 40
0.0
 40
1.0
 40
1.0
 40
1.0
 40
1.0
 10
546.6975451789749
 20
313.9054778125819
 30
0.0
 10
546.7380960333048
 20
314.5920021097063
 30
0.0
 10
546.5573756358372
 20
315.2746709711864
 30
0.0
 10
546.1788460079806
 20
315.828473729096
 30
0.0
  0
SPLINE
  5
390
330
33B
100
AcDbEntity
  8
0
 62
     7
420
 16776959
370
     9
100
AcDbSpline
210
0.0
220
0.0
230
1.0
 70
     8
 71
     3
 72
     8
 73
     4
 74
     0
 42
0.0000000001
 43
0.0000000001
 12
1.0
 22
0.0
 32
0.0
 13
1.0
 23
0.0
 33
0.0
 40
0.0
 40
0.0
 40
0.0
 40
0.0
 40
1.0
 40
1.0
 40
1.0
 40
1.0
 10
547.5163974431325
 20
315.1259301413902
 30
0.0
 10
547.7397354017066
 20
314.7244254692587
 30
0.0
 10
546.9830145062369
 20
314.0666688242509
 30
0.0
 10
546.6975451789749
 20
313.9054778125819
 30
0.0
  0
SPLINE
  5
391
330
33B
100
AcDbEntity
  8
0
 62
     7
420
 16776959
370
     9
100
AcDbSpline
210
0.0
220
0.0
230
1.0
 70
     8
 71
     3
 72
     8
 73
     4
 74
     0
 42
0.0000000001
 43
0.0000000001
 12
1.0
 22
0.0
 32
0.0
 13
1.0
 23
0.0
 33
0.0
 40
0.0
 40
0.0
 40
0.0
 40
0.0
 40
1.0
 40
1.0
 40
1.0
 40
1.0
 10
546.1701361085543
 20
315.8347814501649
 30
0.0
 10
546.4855906765406
 20
315.8698433003146
 30
0.0
 10
546.7951302674246
 20
315.7957405519028
 30
0.0
 10
547.0595013179809
 20
315.6205735993126
 30
0.0
  0
SPLINE
  5
392
330
33B
100
AcDbEntity
  8
0
 62
     7
420
 16776959
370
     9
100
AcDbSpline
210
0.0
220
0.0
230
1.0
 70
     8
 71
     3
 72
     8
 73
     4
 74
     0
 42
0.0000000001
 43
0.0000000001
 12
1.0
 22
0.0
 32
0.0
 13
1.0
 23
0.0
 33
0.0
 40
0.0
 40
0.0
 40
0.0
 40
0.0
 40
1.0
 40
1.0
 40
1.0
 40
1.0
 10
553.0665429893907
 20
302.9671988536102
 30
0.0
 10
553.5434236991605
 20
303.240674345202
 30
0.0
 10
553.8487756017021
 20
303.6828278384246
 30
0.0
 10
553.8786153384644
 20
304.192727310231
 30
0.0
  0
SPLINE
  5
393
330
33B
100
AcDbEntity
  8
0
 62
     7
420
 16776959
370
     9
100
AcDbSpline
210
0.0
220
0.0
230
1.0
 70
     8
 71
     3
 72
     8
 73
     4
 74
     0
 42
0.0000000001
 43
0.0000000001
 12
1.0
 22
0.0
 32
0.0
 13
1.0
 23
0.0
 33
0.0
 40
0.0
 40
0.0
 40
0.0
 40
0.0
 40
1.0
 40
1.0
 40
1.0
 40
1.0
 10
553.9090144406273
 20
302.6222016119409
 30
0.0
 10
553.7572735426493
 20
302.5505820606404
 30
0.0
 10
553.2151323361795
 20
302.8852472435601
 30
0.0
 10
553.0665429893907
 20
302.9671988536102
 30
0.0
  0
POLYLINE
  5
394
330
33B
100
AcDbEntity
  8
0
 62
     7
420
 16776959
370
     9
100
AcDb2dPolyline
 66
     1
 10
0.0
 20
0.0
 30
0.0
  0
VERTEX
  5
395
330
394
100
AcDbEntity
  8
0
 62
     7
420
 16776959
370
     9
100
AcDbVertex
100
AcDb2dVertex
 10
553.0665429893907
 20
302.9671988536102
 30
0.0
  0
VERTEX
  5
396
330
394
100
AcDbEntity
  8
0
 62
     7
420
 16776959
370
     9
100
AcDbVertex
100
AcDb2dVertex
 10
546.6975451789749
 20
290.5016870752825
 30
0.0
  0
SEQEND
  5
397
330
394
100
AcDbEntity
  8
0
 62
     7
420
 16776959
370
     9
  0
POLYLINE
  5
398
330
33B
100
AcDbEntity
  8
0
 62
     7
420
 16776959
370
     9
100
AcDb2dPolyline
 66
     1
 10
0.0
 20
0.0
 30
0.0
  0
VERTEX
  5
399
330
398
100
AcDbEntity
  8
0
 62
     7
420
 16776959
370
     9
100
AcDbVertex
100
AcDb2dVertex
 10
546.6975451789749
 20
313.9054778125819
 30
0.0
  0
VERTEX
  5
39A
330
398
100
AcDbEntity
  8
0
 62
     7
420
 16776959
370
     9
100
AcDbVertex
100
AcDb2dVertex
 10
553.0665429893907
 20
302.9671988536102
 30
0.0
  0
SEQEND
  5
39B
330
398
100
AcDbEntity
  8
0
 62
     7
420
 16776959
370
     9
  0
POLYLINE
  5
39C
330
33B
100
AcDbEntity
  8
0
 62
     7
420
 16776959
370
     9
100
AcDb2dPolyline
 66
     1
 10
0.0
 20
0.0
 30
0.0
  0
VERTEX
  5
39D
330
39C
100
AcDbEntity
  8
0
 62
     7
420
 16776959
370
     9
100
AcDbVertex
100
AcDb2dVertex
 10
544.0062732571932
 20
317.3489298117311
 30
0.0
  0
VERTEX
  5
39E
330
39C
100
AcDbEntity
  8
0
 62
     7
420
 16776959
370
     9
100
AcDbVertex
100
AcDb2dVertex
 10
546.1701361085543
 20
315.8347814501649
 30
0.0
  0
SEQEND
  5
39F
330
39C
100
AcDbEntity
  8
0
 62
     7
420
 16776959
370
     9
  0
POLYLINE
  5
3A0
330
33B
100
AcDbEntity
  8
0
 62
     7
420
 16776959
370
     9
100
AcDb2dPolyline
 66
     1
 10
0.0
 20
0.0
 30
0.0
  0
VERTEX
  5
3A1
330
3A0
100
AcDbEntity
  8
0
 62
     7
420
 16776959
370
     9
100
AcDbVertex
100
AcDb2dVertex
 10
533.8682637335969
 20
312.4232073317598
 30
0.0
  0
VERTEX
  5
3A2
330
3A0
100
AcDbEntity
  8
0
 62
     7
420
 16776959
370
     9
100
AcDbVertex
100
AcDb2dVertex
 10
546.6975451789749
 20
313.9054778125819
 30
0.0
  0
SEQEND
  5
3A3
330
3A0
100
AcDbEntity
  8
0
 62
     7
420
 16776959
370
     9
  0
POLYLINE
  5
3A4
330
33B
100
AcDbEntity
  8
0
 62
     7
420
 16776959
370
     9
100
AcDb2dPolyline
 66
     1
 10
0.0
 20
0.0
 30
0.0
  0
VERTEX
  5
3A5
330
3A4
100
AcDbEntity
  8
0
 62
     7
420
 16776959
370
     9
100
AcDbVertex
100
AcDb2dVertex
 10
546.1701361085543
 20
315.8347814501649
 30
0.0
  0
VERTEX
  5
3A6
330
3A4
100
AcDbEntity
  8
0
 62
     7
420
 16776959
370
     9
100
AcDbVertex
100
AcDb2dVertex
 10
533.3537488754628
 20
314.3634979141743
 30
0.0
  0
SEQEND
  5
3A7
330
3A4
100
AcDbEntity
  8
0
 62
     7
420
 16776959
370
     9
  0
POLYLINE
  5
3A8
330
33B
100
AcDbEntity
  8
0
 62
     7
420
 16776959
370
     9
100
AcDb2dPolyline
 66
     1
 10
0.0
 20
0.0
 30
0.0
  0
VERTEX
  5
3A9
330
3A8
100
AcDbEntity
  8
0
 62
     7
420
 16776959
370
     9
100
AcDbVertex
100
AcDb2dVertex
 10
532.3796730601607
 20
288.0056234760177
 30
0.0
  0
VERTEX
  5
3AA
330
3A8
100
AcDbEntity
  8
0
 62
     7
420
 16776959
370
     9
100
AcDbVertex
100
AcDb2dVertex
 10
530.2728241833174
 20
289.6648723823728
 30
0.0
  0
SEQEND
  5
3AB
330
3A8
100
AcDbEntity
  8
0
 62
     7
420
 16776959
370
     9
  0
SPLINE
  5
3AC
330
33B
100
AcDbEntity
  8
0
 62
     7
420
 16776959
370
     9
100
AcDbSpline
210
0.0
220
0.0
230
1.0
 70
     8
 71
     3
 72
     8
 73
     4
 74
     0
 42
0.0000000001
 43
0.0000000001
 12
1.0
 22
0.0
 32
0.0
 13
1.0
 23
0.0
 33
0.0
 40
0.0
 40
0.0
 40
0.0
 40
0.0
 40
1.0
 40
1.0
 40
1.0
 40
1.0
 10
547.0675734577417
 20
315.6149794072489
 30
0.0
 10
547.2503890376956
 20
315.485963439336
 30
0.0
 10
547.4036077627188
 20
315.3192019672742
 30
0.0
 10
547.5163974431325
 20
315.1259301413902
 30
0.0
  0
POLYLINE
  5
3AD
330
33B
100
AcDbEntity
  8
0
 62
     7
420
 16776959
370
     9
100
AcDb2dPolyline
 66
     1
 10
0.0
 20
0.0
 30
0.0
  0
VERTEX
  5
3AE
330
3AD
100
AcDbEntity
  8
0
 62
     7
420
 16776959
370
     9
100
AcDbVertex
100
AcDb2dVertex
 10
553.8741818953858
 20
304.2006881636044
 30
0.0
  0
VERTEX
  5
3AF
330
3AD
100
AcDbEntity
  8
0
 62
     7
420
 16776959
370
     9
100
AcDbVertex
100
AcDb2dVertex
 10
547.5163974431325
 20
315.1259301413902
 30
0.0
  0
SEQEND
  5
3B0
330
3AD
100
AcDbEntity
  8
0
 62
     7
420
 16776959
370
     9
  0
POLYLINE
  5
3B1
330
33B
100
AcDbEntity
  8
0
 62
     7
420
 16776959
370
     9
100
AcDb2dPolyline
 66
     1
 10
0.0
 20
0.0
 30
0.0
  0
VERTEX
  5
3B2
330
3B1
100
AcDbEntity
  8
0
 62
     7
420
 16776959
370
     9
100
AcDbVertex
100
AcDb2dVertex
 10
547.0675734577417
 20
315.6149794072489
 30
0.0
  0
VERTEX
  5
3B3
330
3B1
100
AcDbEntity
  8
0
 62
     7
420
 16776959
370
     9
100
AcDbVertex
100
AcDb2dVertex
 10
544.9000243291684
 20
317.1297033829997
 30
0.0
  0
SEQEND
  5
3B4
330
3B1
100
AcDbEntity
  8
0
 62
     7
420
 16776959
370
     9
  0
SPLINE
  5
3B5
330
33B
100
AcDbEntity
  8
0
 62
     7
420
 16776959
370
     9
100
AcDbSpline
210
0.0
220
0.0
230
1.0
 70
     8
 71
     3
 72
     8
 73
     4
 74
     0
 42
0.0000000001
 43
0.0000000001
 12
1.0
 22
0.0
 32
0.0
 13
1.0
 23
0.0
 33
0.0
 40
0.0
 40
0.0
 40
0.0
 40
0.0
 40
1.0
 40
1.0
 40
1.0
 40
1.0
 10
540.6946297417198
 20
304.6276358044397
 30
0.0
 10
540.8087950785084
 20
304.5672904824114
 30
0.0
 10
540.877387509463
 20
304.4723520959569
 30
0.0
 10
540.9004070345854
 20
304.3428206450772
 30
0.0
  0
SPLINE
  5
3B6
330
33B
100
AcDbEntity
  8
0
 62
     7
420
 16776959
370
     9
100
AcDbSpline
210
0.0
220
0.0
230
1.0
 70
     8
 71
     3
 72
     8
 73
     4
 74
     0
 42
0.0000000001
 43
0.0000000001
 12
1.0
 22
0.0
 32
0.0
 13
1.0
 23
0.0
 33
0.0
 40
0.0
 40
0.0
 40
0.0
 40
0.0
 40
1.0
 40
1.0
 40
1.0
 40
1.0
 10
540.9004070345854
 20
304.3428206450772
 30
0.0
 10
541.0180754843441
 20
303.6156026984736
 30
0.0
 10
541.8690205191851
 20
303.3891937053613
 30
0.0
 10
542.4911420196331
 20
303.5620417557684
 30
0.0
  0
SPLINE
  5
3B7
330
33B
100
AcDbEntity
  8
0
 62
     7
420
 16776959
370
     9
100
AcDbSpline
210
0.0
220
0.0
230
1.0
 70
     8
 71
     3
 72
     8
 73
     4
 74
     0
 42
0.0000000001
 43
0.0000000001
 12
1.0
 22
0.0
 32
0.0
 13
1.0
 23
0.0
 33
0.0
 40
0.0
 40
0.0
 40
0.0
 40
0.0
 40
1.0
 40
1.0
 40
1.0
 40
1.0
 10
542.4911420196331
 20
303.5620417557684
 30
0.0
 10
542.7208732051149
 20
303.6258694606504
 30
0.0
 10
543.0186797288734
 20
303.5513231768009
 30
0.0
 10
543.145883729836
 20
303.3336484864685
 30
0.0
  0
SPLINE
  5
3B8
330
33B
100
AcDbEntity
  8
0
 62
     7
420
 16776959
370
     9
100
AcDbSpline
210
0.0
220
0.0
230
1.0
 70
     8
 71
     3
 72
     8
 73
     4
 74
     0
 42
0.0000000001
 43
0.0000000001
 12
1.0
 22
0.0
 32
0.0
 13
1.0
 23
0.0
 33
0.0
 40
0.0
 40
0.0
 40
0.0
 40
0.0
 40
1.0
 40
1.0
 40
1.0
 40
1.0
 10
543.145883729836
 20
303.3336484864685
 30
0.0
 10
542.9648472302306
 20
303.6420292239382
 30
0.0
 10
542.7283180336981
 20
303.913520767187
 30
0.0
 10
542.4456583585561
 20
304.1327060927579
 30
0.0
  0
SPLINE
  5
3B9
330
33B
100
AcDbEntity
  8
0
 62
     7
420
 16776959
370
     9
100
AcDbSpline
210
0.0
220
0.0
230
1.0
 70
     8
 71
     3
 72
     8
 73
     4
 74
     0
 42
0.0000000001
 43
0.0000000001
 12
1.0
 22
0.0
 32
0.0
 13
1.0
 23
0.0
 33
0.0
 40
0.0
 40
0.0
 40
0.0
 40
0.0
 40
1.0
 40
1.0
 40
1.0
 40
1.0
 10
537.9907835580616
 20
302.9962167251651
 30
0.0
 10
538.0721158641245
 20
303.0403997529393
 30
0.0
 10
538.1606325999492
 20
303.0607404829771
 30
0.0
 10
538.2563337655429
 20
303.0572389152758
 30
0.0
  0
SPLINE
  5
3BA
330
33B
100
AcDbEntity
  8
0
 62
     7
420
 16776959
370
     9
100
AcDbSpline
210
0.0
220
0.0
230
1.0
 70
     8
 71
     3
 72
     8
 73
     4
 74
     0
 42
0.0000000001
 43
0.0000000001
 12
1.0
 22
0.0
 32
0.0
 13
1.0
 23
0.0
 33
0.0
 40
0.0
 40
0.0
 40
0.0
 40
0.0
 40
1.0
 40
1.0
 40
1.0
 40
1.0
 10
538.2563337655429
 20
303.0572389152758
 30
0.0
 10
538.9383848488123
 20
303.001297589788
 30
0.0
 10
539.6176099220065
 20
303.6220036720579
 30
0.0
 10
539.8501952484658
 20
304.2180107072327
 30
0.0
  0
SPLINE
  5
3BB
330
33B
100
AcDbEntity
  8
0
 62
     7
420
 16776959
370
     9
100
AcDbSpline
210
0.0
220
0.0
230
1.0
 70
     8
 71
     3
 72
     8
 73
     4
 74
     0
 42
0.0000000001
 43
0.0000000001
 12
1.0
 22
0.0
 32
0.0
 13
1.0
 23
0.0
 33
0.0
 40
0.0
 40
0.0
 40
0.0
 40
0.0
 40
1.0
 40
1.0
 40
1.0
 40
1.0
 10
539.8501952484658
 20
304.2180107072327
 30
0.0
 10
539.9028423106265
 20
304.3459737972089
 30
0.0
 10
539.9834662833691
 20
304.4512691411473
 30
0.0
 10
540.0920671666972
 20
304.5338967390508
 30
0.0
  0
SPLINE
  5
3BC
330
33B
100
AcDbEntity
  8
0
 62
     7
420
 16776959
370
     9
100
AcDbSpline
210
0.0
220
0.0
230
1.0
 70
     8
 71
     3
 72
     8
 73
     4
 74
     0
 42
0.0000000001
 43
0.0000000001
 12
1.0
 22
0.0
 32
0.0
 13
1.0
 23
0.0
 33
0.0
 40
0.0
 40
0.0
 40
0.0
 40
0.0
 40
1.0
 40
1.0
 40
1.0
 40
1.0
 10
537.6109206146557
 20
299.6081878862151
 30
0.0
 10
537.5978785701318
 20
299.7819688221189
 30
0.0
 10
537.6376710468685
 20
299.9426613224368
 30
0.0
 10
537.730298044864
 20
300.0902653871726
 30
0.0
  0
SPLINE
  5
3BD
330
33B
100
AcDbEntity
  8
0
 62
     7
420
 16776959
370
     9
100
AcDbSpline
210
0.0
220
0.0
230
1.0
 70
     8
 71
     3
 72
     8
 73
     4
 74
     0
 42
0.0000000001
 43
0.0000000001
 12
1.0
 22
0.0
 32
0.0
 13
1.0
 23
0.0
 33
0.0
 40
0.0
 40
0.0
 40
0.0
 40
0.0
 40
1.0
 40
1.0
 40
1.0
 40
1.0
 10
537.730298044864
 20
300.0902653871726
 30
0.0
 10
538.0705135818353
 20
300.6193214421064
 30
0.0
 10
538.2292756042516
 20
301.5447860803233
 30
0.0
 10
537.730298044864
 20
302.0333509428183
 30
0.0
  0
SPLINE
  5
3BE
330
33B
100
AcDbEntity
  8
0
 62
     7
420
 16776959
370
     9
100
AcDbSpline
210
0.0
220
0.0
230
1.0
 70
     8
 71
     3
 72
     8
 73
     4
 74
     0
 42
0.0000000001
 43
0.0000000001
 12
1.0
 22
0.0
 32
0.0
 13
1.0
 23
0.0
 33
0.0
 40
0.0
 40
0.0
 40
0.0
 40
0.0
 40
1.0
 40
1.0
 40
1.0
 40
1.0
 10
537.730298044864
 20
302.0333509428183
 30
0.0
 10
537.6654964316331
 20
302.1035406982137
 30
0.0
 10
537.6267739697778
 20
302.1841257942524
 30
0.0
 10
537.6141306592926
 20
302.275106230938
 30
0.0
  0
SPLINE
  5
3BF
330
33B
100
AcDbEntity
  8
0
 62
     7
420
 16776959
370
     9
100
AcDbSpline
210
0.0
220
0.0
230
1.0
 70
     8
 71
     3
 72
     8
 73
     4
 74
     0
 42
0.0000000001
 43
0.0000000001
 12
1.0
 22
0.0
 32
0.0
 13
1.0
 23
0.0
 33
0.0
 40
0.0
 40
0.0
 40
0.0
 40
0.0
 40
1.0
 40
1.0
 40
1.0
 40
1.0
 10
540.4205330207897
 20
298.0195972687889
 30
0.0
 10
540.1665693742689
 20
297.9888243109144
 30
0.0
 10
539.9302381608759
 20
298.1859066465904
 30
0.0
 10
539.8501952484658
 20
298.4140442445414
 30
0.0
  0
SPLINE
  5
3C0
330
33B
100
AcDbEntity
  8
0
 62
     7
420
 16776959
370
     9
100
AcDbSpline
210
0.0
220
0.0
230
1.0
 70
     8
 71
     3
 72
     8
 73
     4
 74
     0
 42
0.0000000001
 43
0.0000000001
 12
1.0
 22
0.0
 32
0.0
 13
1.0
 23
0.0
 33
0.0
 40
0.0
 40
0.0
 40
0.0
 40
0.0
 40
1.0
 40
1.0
 40
1.0
 40
1.0
 10
539.8501952484658
 20
298.4140442445414
 30
0.0
 10
539.6240046993535
 20
299.0587305385434
 30
0.0
 10
538.9258070636133
 20
299.5640253122128
 30
0.0
 10
538.2563337655429
 20
299.1925424364763
 30
0.0
  0
SPLINE
  5
3C1
330
33B
100
AcDbEntity
  8
0
 62
     7
420
 16776959
370
     9
100
AcDbSpline
210
0.0
220
0.0
230
1.0
 70
     8
 71
     3
 72
     8
 73
     4
 74
     0
 42
0.0000000001
 43
0.0000000001
 12
1.0
 22
0.0
 32
0.0
 13
1.0
 23
0.0
 33
0.0
 40
0.0
 40
0.0
 40
0.0
 40
0.0
 40
1.0
 40
1.0
 40
1.0
 40
1.0
 10
538.2563337655429
 20
299.1925424364763
 30
0.0
 10
538.1320773795378
 20
299.1235940262359
 30
0.0
 10
537.9446786528842
 20
299.1226040553647
 30
0.0
 10
537.8237212602253
 20
299.2061032747324
 30
0.0
  0
SPLINE
  5
3C2
330
33B
100
AcDbEntity
  8
0
 62
     7
420
 16776959
370
     9
100
AcDbSpline
210
0.0
220
0.0
230
1.0
 70
     8
 71
     3
 72
     8
 73
     4
 74
     0
 42
0.0000000001
 43
0.0000000001
 12
1.0
 22
0.0
 32
0.0
 13
1.0
 23
0.0
 33
0.0
 40
0.0
 40
0.0
 40
0.0
 40
0.0
 40
1.0
 40
1.0
 40
1.0
 40
1.0
 10
540.9004070345854
 20
298.5411183283413
 30
0.0
 10
540.8693154845587
 20
298.299232104464
 30
0.0
 10
540.675357678525
 20
298.0504745560265
 30
0.0
 10
540.4205330207897
 20
298.0195972687889
 30
0.0
  0
SPLINE
  5
3C3
330
33B
100
AcDbEntity
  8
0
 62
     7
420
 16776959
370
     9
100
AcDbSpline
210
0.0
220
0.0
230
1.0
 70
     8
 71
     3
 72
     8
 73
     4
 74
     0
 42
0.0000000001
 43
0.0000000001
 12
1.0
 22
0.0
 32
0.0
 13
1.0
 23
0.0
 33
0.0
 40
0.0
 40
0.0
 40
0.0
 40
0.0
 40
1.0
 40
1.0
 40
1.0
 40
1.0
 10
543.145883729836
 20
300.0111028129577
 30
0.0
 10
543.0285446297112
 20
299.7821630497947
 30
0.0
 10
542.7418991137856
 20
299.647827548848
 30
0.0
 10
542.4911420196331
 20
299.7034209547692
 30
0.0
  0
SPLINE
  5
3C4
330
33B
100
AcDbEntity
  8
0
 62
     7
420
 16776959
370
     9
100
AcDbSpline
210
0.0
220
0.0
230
1.0
 70
     8
 71
     3
 72
     8
 73
     4
 74
     0
 42
0.0000000001
 43
0.0000000001
 12
1.0
 22
0.0
 32
0.0
 13
1.0
 23
0.0
 33
0.0
 40
0.0
 40
0.0
 40
0.0
 40
0.0
 40
1.0
 40
1.0
 40
1.0
 40
1.0
 10
542.4911420196331
 20
299.7034209547692
 30
0.0
 10
541.7122658033095
 20
299.8760995455941
 30
0.0
 10
541.0003111212536
 20
299.3183527296769
 30
0.0
 10
540.9004070345854
 20
298.5411183283413
 30
0.0
  0
SPLINE
  5
3C5
330
33B
100
AcDbEntity
  8
0
 62
     7
420
 16776959
370
     9
100
AcDbSpline
210
0.0
220
0.0
230
1.0
 70
     8
 71
     3
 72
     8
 73
     4
 74
     0
 42
0.0000000001
 43
0.0000000001
 12
1.0
 22
0.0
 32
0.0
 13
1.0
 23
0.0
 33
0.0
 40
0.0
 40
0.0
 40
0.0
 40
0.0
 40
1.0
 40
1.0
 40
1.0
 40
1.0
 10
543.015320518356
 20
300.7259541351104
 30
0.0
 10
543.2050747323356
 20
300.5525498466504
 30
0.0
 10
543.263573632812
 20
300.2407270258827
 30
0.0
 10
543.145883729836
 20
300.0111028129577
 30
0.0
  0
SPLINE
  5
3C6
330
33B
100
AcDbEntity
  8
0
 62
     7
420
 16776959
370
     9
100
AcDbSpline
210
0.0
220
0.0
230
1.0
 70
     8
 71
     3
 72
     8
 73
     4
 74
     0
 42
0.0000000001
 43
0.0000000001
 12
1.0
 22
0.0
 32
0.0
 13
1.0
 23
0.0
 33
0.0
 40
0.0
 40
0.0
 40
0.0
 40
0.0
 40
1.0
 40
1.0
 40
1.0
 40
1.0
 10
543.145883729836
 20
303.3336484864685
 30
0.0
 10
543.2718078064227
 20
303.1181640349578
 30
0.0
 10
543.1910222678653
 20
302.8253700954856
 30
0.0
 10
543.015320518356
 20
302.6652281589104
 30
0.0
  0
SPLINE
  5
3C7
330
33B
100
AcDbEntity
  8
0
 62
     7
420
 16776959
370
     9
100
AcDbSpline
210
0.0
220
0.0
230
1.0
 70
     8
 71
     3
 72
     8
 73
     4
 74
     0
 42
0.0000000001
 43
0.0000000001
 12
1.0
 22
0.0
 32
0.0
 13
1.0
 23
0.0
 33
0.0
 40
0.0
 40
0.0
 40
0.0
 40
0.0
 40
1.0
 40
1.0
 40
1.0
 40
1.0
 10
543.015320518356
 20
302.6652281589104
 30
0.0
 10
542.4420618583426
 20
302.1427361959577
 30
0.0
 10
542.4393913868062
 20
301.2522590807293
 30
0.0
 10
543.015320518356
 20
300.7259541351104
 30
0.0
  0
POLYLINE
  5
3C8
330
33B
100
AcDbEntity
  8
0
 62
     7
420
 16776959
370
     9
100
AcDb2dPolyline
 66
     1
 10
0.0
 20
0.0
 30
0.0
  0
VERTEX
  5
3C9
330
3C8
100
AcDbEntity
  8
0
 62
     7
420
 16776959
370
     9
100
AcDbVertex
100
AcDb2dVertex
 10
542.4911420196331
 20
299.7034209547692
 30
0.0
  0
VERTEX
  5
3CA
330
3C8
100
AcDbEntity
  8
0
 62
     7
420
 16776959
370
     9
100
AcDbVertex
100
AcDb2dVertex
 10
541.5525587262764
 20
300.4003691582348
 30
0.0
  0
SEQEND
  5
3CB
330
3C8
100
AcDbEntity
  8
0
 62
     7
420
 16776959
370
     9
  0
SPLINE
  5
3CC
330
33B
100
AcDbEntity
  8
0
 62
     7
420
 16776959
370
     9
100
AcDbSpline
210
0.0
220
0.0
230
1.0
 70
     8
 71
     3
 72
     8
 73
     4
 74
     0
 42
0.0000000001
 43
0.0000000001
 12
1.0
 22
0.0
 32
0.0
 13
1.0
 23
0.0
 33
0.0
 40
0.0
 40
0.0
 40
0.0
 40
0.0
 40
1.0
 40
1.0
 40
1.0
 40
1.0
 10
539.9646888019015
 20
299.2409760281316
 30
0.0
 10
540.0641971206041
 20
300.0131681340663
 30
0.0
 10
540.771250177504
 20
300.5736202384414
 30
0.0
 10
541.5525587262764
 20
300.4003691582348
 30
0.0
  0
POLYLINE
  5
3CD
330
33B
100
AcDbEntity
  8
0
 62
     7
420
 16776959
370
     9
100
AcDb2dPolyline
 66
     1
 10
0.0
 20
0.0
 30
0.0
  0
VERTEX
  5
3CE
330
3CD
100
AcDbEntity
  8
0
 62
     7
420
 16776959
370
     9
100
AcDbVertex
100
AcDb2dVertex
 10
540.9004070345854
 20
298.5411183283413
 30
0.0
  0
VERTEX
  5
3CF
330
3CD
100
AcDbEntity
  8
0
 62
     7
420
 16776959
370
     9
100
AcDbVertex
100
AcDb2dVertex
 10
539.9646888019015
 20
299.2409760281316
 30
0.0
  0
SEQEND
  5
3D0
330
3CD
100
AcDbEntity
  8
0
 62
     7
420
 16776959
370
     9
  0
SPLINE
  5
3D1
330
33B
100
AcDbEntity
  8
0
 62
     7
420
 16776959
370
     9
100
AcDbSpline
210
0.0
220
0.0
230
1.0
 70
     8
 71
     3
 72
     8
 73
     4
 74
     0
 42
0.0000000001
 43
0.0000000001
 12
1.0
 22
0.0
 32
0.0
 13
1.0
 23
0.0
 33
0.0
 40
0.0
 40
0.0
 40
0.0
 40
0.0
 40
1.0
 40
1.0
 40
1.0
 40
1.0
 10
539.6677815073854
 20
298.7803852898523
 30
0.0
 10
539.8250297721697
 20
298.8683038191084
 30
0.0
 10
539.9424593216754
 20
299.0684735743398
 30
0.0
 10
539.9646888019015
 20
299.2409760281316
 30
0.0
  0
POLYLINE
  5
3D2
330
33B
100
AcDbEntity
  8
0
 62
     7
420
 16776959
370
     9
100
AcDb2dPolyline
 66
     1
 10
0.0
 20
0.0
 30
0.0
  0
VERTEX
  5
3D3
330
3D2
100
AcDbEntity
  8
0
 62
     7
420
 16776959
370
     9
100
AcDbVertex
100
AcDb2dVertex
 10
543.015320518356
 20
300.7259541351104
 30
0.0
  0
VERTEX
  5
3D4
330
3D2
100
AcDbEntity
  8
0
 62
     7
420
 16776959
370
     9
100
AcDbVertex
100
AcDb2dVertex
 10
542.0757940149178
 20
301.4205707654319
 30
0.0
  0
SEQEND
  5
3D5
330
3D2
100
AcDbEntity
  8
0
 62
     7
420
 16776959
370
     9
  0
SPLINE
  5
3D6
330
33B
100
AcDbEntity
  8
0
 62
     7
420
 16776959
370
     9
100
AcDbSpline
210
0.0
220
0.0
230
1.0
 70
     8
 71
     3
 72
     8
 73
     4
 74
     0
 42
0.0000000001
 43
0.0000000001
 12
1.0
 22
0.0
 32
0.0
 13
1.0
 23
0.0
 33
0.0
 40
0.0
 40
0.0
 40
0.0
 40
0.0
 40
1.0
 40
1.0
 40
1.0
 40
1.0
 10
542.2060093085493
 20
300.707304696235
 30
0.0
 10
542.3234895954101
 20
300.9364094271978
 30
0.0
 10
542.2651336352574
 20
301.2475452324297
 30
0.0
 10
542.0757940149178
 20
301.4205707654319
 30
0.0
  0
SPLINE
  5
3D7
330
33B
100
AcDbEntity
  8
0
 62
     7
420
 16776959
370
     9
100
AcDbSpline
210
0.0
220
0.0
230
1.0
 70
     8
 71
     3
 72
     8
 73
     4
 74
     0
 42
0.0000000001
 43
0.0000000001
 12
1.0
 22
0.0
 32
0.0
 13
1.0
 23
0.0
 33
0.0
 40
0.0
 40
0.0
 40
0.0
 40
0.0
 40
1.0
 40
1.0
 40
1.0
 40
1.0
 10
541.5525587262764
 20
300.4003691582348
 30
0.0
 10
541.8027775447808
 20
300.3448844452578
 30
0.0
 10
542.0888692620247
 20
300.4788634865326
 30
0.0
 10
542.2060093085493
 20
300.707304696235
 30
0.0
  0
POLYLINE
  5
3D8
330
33B
100
AcDbEntity
  8
0
 62
     7
420
 16776959
370
     9
100
AcDb2dPolyline
 66
     1
 10
0.0
 20
0.0
 30
0.0
  0
VERTEX
  5
3D9
330
3D8
100
AcDbEntity
  8
0
 62
     7
420
 16776959
370
     9
100
AcDbVertex
100
AcDb2dVertex
 10
543.015320518356
 20
302.6652281589104
 30
0.0
  0
VERTEX
  5
3DA
330
3D8
100
AcDbEntity
  8
0
 62
     7
420
 16776959
370
     9
100
AcDbVertex
100
AcDb2dVertex
 10
542.0757940149178
 20
303.3556799311673
 30
0.0
  0
SEQEND
  5
3DB
330
3D8
100
AcDbEntity
  8
0
 62
     7
420
 16776959
370
     9
  0
SPLINE
  5
3DC
330
33B
100
AcDbEntity
  8
0
 62
     7
420
 16776959
370
     9
100
AcDbSpline
210
0.0
220
0.0
230
1.0
 70
     8
 71
     3
 72
     8
 73
     4
 74
     0
 42
0.0000000001
 43
0.0000000001
 12
1.0
 22
0.0
 32
0.0
 13
1.0
 23
0.0
 33
0.0
 40
0.0
 40
0.0
 40
0.0
 40
0.0
 40
1.0
 40
1.0
 40
1.0
 40
1.0
 10
542.0757940149178
 20
301.4205707654319
 30
0.0
 10
541.5039202533317
 20
301.9431701148433
 30
0.0
 10
541.5009993020303
 20
302.8317846444397
 30
0.0
 10
542.0757940149178
 20
303.3556799311673
 30
0.0
  0
SPLINE
  5
3DD
330
33B
100
AcDbEntity
  8
0
 62
     7
420
 16776959
370
     9
100
AcDbSpline
210
0.0
220
0.0
230
1.0
 70
     8
 71
     3
 72
     8
 73
     4
 74
     0
 42
0.0000000001
 43
0.0000000001
 12
1.0
 22
0.0
 32
0.0
 13
1.0
 23
0.0
 33
0.0
 40
0.0
 40
0.0
 40
0.0
 40
0.0
 40
1.0
 40
1.0
 40
1.0
 40
1.0
 10
542.0757940149178
 20
303.3556799311673
 30
0.0
 10
542.1250093891576
 20
303.4005371680523
 30
0.0
 10
542.1665214094064
 20
303.4528090033427
 30
0.0
 10
542.1979739638737
 20
303.5077245685452
 30
0.0
  0
SPLINE
  5
3DE
330
33B
100
AcDbEntity
  8
0
 62
     7
420
 16776959
370
     9
100
AcDbSpline
210
0.0
220
0.0
230
1.0
 70
     8
 71
     3
 72
     8
 73
     4
 74
     0
 42
0.0000000001
 43
0.0000000001
 12
1.0
 22
0.0
 32
0.0
 13
1.0
 23
0.0
 33
0.0
 40
0.0
 40
0.0
 40
0.0
 40
0.0
 40
1.0
 40
1.0
 40
1.0
 40
1.0
 10
537.6877433696864
 20
300.0147670332572
 30
0.0
 10
537.9365385805413
 20
300.0480448811959
 30
0.0
 10
538.2234728641342
 20
299.960467569088
 30
0.0
 10
538.4232889263258
 20
299.8119258252864
 30
0.0
  0
POLYLINE
  5
3DF
330
33B
100
AcDbEntity
  8
0
 62
     7
420
 16776959
370
     9
100
AcDb2dPolyline
 66
     1
 10
0.0
 20
0.0
 30
0.0
  0
VERTEX
  5
3E0
330
3DF
100
AcDbEntity
  8
0
 62
     7
420
 16776959
370
     9
100
AcDbVertex
100
AcDb2dVertex
 10
538.2563337655429
 20
299.1925424364763
 30
0.0
  0
VERTEX
  5
3E1
330
3DF
100
AcDbEntity
  8
0
 62
     7
420
 16776959
370
     9
100
AcDbVertex
100
AcDb2dVertex
 10
537.6079977829613
 20
299.6794435228239
 30
0.0
  0
SEQEND
  5
3E2
330
3DF
100
AcDbEntity
  8
0
 62
     7
420
 16776959
370
     9
  0
POLYLINE
  5
3E3
330
33B
100
AcDbEntity
  8
0
 62
     7
420
 16776959
370
     9
100
AcDb2dPolyline
 66
     1
 10
0.0
 20
0.0
 30
0.0
  0
VERTEX
  5
3E4
330
3E3
100
AcDbEntity
  8
0
 62
     7
420
 16776959
370
     9
100
AcDbVertex
100
AcDb2dVertex
 10
540.9004070345854
 20
304.3428206450772
 30
0.0
  0
VERTEX
  5
3E5
330
3E3
100
AcDbEntity
  8
0
 62
     7
420
 16776959
370
     9
100
AcDbVertex
100
AcDb2dVertex
 10
540.5309287416276
 20
304.6142430919754
 30
0.0
  0
SEQEND
  5
3E6
330
3E3
100
AcDbEntity
  8
0
 62
     7
420
 16776959
370
     9
  0
SPLINE
  5
3E7
330
33B
100
AcDbEntity
  8
0
 62
     7
420
 16776959
370
     9
100
AcDbSpline
210
0.0
220
0.0
230
1.0
 70
     8
 71
     3
 72
     8
 73
     4
 74
     0
 42
0.0000000001
 43
0.0000000001
 12
1.0
 22
0.0
 32
0.0
 13
1.0
 23
0.0
 33
0.0
 40
0.0
 40
0.0
 40
0.0
 40
0.0
 40
1.0
 40
1.0
 40
1.0
 40
1.0
 10
540.3368579284506
 20
304.4216429328553
 30
0.0
 10
540.2822087918648
 20
304.4616695647192
 30
0.0
 10
540.2324743598147
 20
304.5067706624832
 30
0.0
 10
540.1876546323001
 20
304.5569462261537
 30
0.0
  0
POLYLINE
  5
3E8
330
33B
100
AcDbEntity
  8
0
 62
     7
420
 16776959
370
     9
100
AcDb2dPolyline
 66
     1
 10
0.0
 20
0.0
 30
0.0
  0
VERTEX
  5
3E9
330
3E8
100
AcDbEntity
  8
0
 62
     7
420
 16776959
370
     9
100
AcDbVertex
100
AcDb2dVertex
 10
539.3560603290225
 20
299.1130182384804
 30
0.0
  0
VERTEX
  5
3EA
330
3E8
100
AcDbEntity
  8
0
 62
     7
420
 16776959
370
     9
100
AcDbVertex
100
AcDb2dVertex
 10
538.4232889263258
 20
299.8119258252864
 30
0.0
  0
SEQEND
  5
3EB
330
3E8
100
AcDbEntity
  8
0
 62
     7
420
 16776959
370
     9
  0
POLYLINE
  5
3EC
330
33B
100
AcDbEntity
  8
0
 62
     7
420
 16776959
370
     9
100
AcDb2dPolyline
 66
     1
 10
0.0
 20
0.0
 30
0.0
  0
VERTEX
  5
3ED
330
3EC
100
AcDbEntity
  8
0
 62
     7
420
 16776959
370
     9
100
AcDbVertex
100
AcDb2dVertex
 10
541.2730847358853
 20
303.7331596556896
 30
0.0
  0
VERTEX
  5
3EE
330
3EC
100
AcDbEntity
  8
0
 62
     7
420
 16776959
370
     9
100
AcDbVertex
100
AcDb2dVertex
 10
540.3368579284506
 20
304.4216429328553
 30
0.0
  0
SEQEND
  5
3EF
330
3EC
100
AcDbEntity
  8
0
 62
     7
420
 16776959
370
     9
  0
SPLINE
  5
3F0
330
33B
100
AcDbEntity
  8
0
 62
     7
420
 16776959
370
     9
100
AcDbSpline
210
0.0
220
0.0
230
1.0
 70
     8
 71
     3
 72
    14
 73
    10
 74
     0
 42
0.0000000001
 43
0.0000000001
 12
1.0
 22
0.0
 32
0.0
 13
1.0
 23
0.0
 33
0.0
 40
0.0
 40
0.0
 40
0.0
 40
0.0
 40
1.0
 40
1.0
 40
1.0
 40
2.0
 40
2.0
 40
2.0
 40
3.0
 40
3.0
 40
3.0
 40
3.0
 10
528.1808857425494
 20
286.9760295265569
 30
0.0
 10
528.084968839461
 20
287.0258330534434
 30
0.0
 10
527.9893915612538
 20
287.0767797151766
 30
0.0
 10
527.8941671530083
 20
287.1288743376917
 30
0.0
 10
519.7868247449042
 20
291.5641756447494
 30
0.0
 10
517.3074184919897
 20
302.6411483870279
 30
0.0
 10
522.3562582883751
 20
311.8699854285687
 30
0.0
 10
527.4050980847587
 20
321.0988224701105
 30
0.0
 10
538.0702910119471
 20
324.9847509725432
 30
0.0
 10
546.1776334200531
 20
320.5494496654874
 30
0.0
  0
SPLINE
  5
3F1
330
33B
100
AcDbEntity
  8
0
 62
     7
420
 16776959
370
    18
100
AcDbSpline
210
0.0
220
0.0
230
1.0
 70
    11
 71
     3
 72
    17
 73
    13
 74
     0
 42
0.0000000001
 43
0.0000000001
 12
1.0
 22
0.0
 32
0.0
 13
1.0
 23
0.0
 33
0.0
 40
0.0
 40
0.0
 40
0.0
 40
0.0
 40
1.0
 40
1.0
 40
1.0
 40
2.0
 40
2.0
 40
2.0
 40
3.0
 40
3.0
 40
3.0
 40
4.0
 40
4.0
 40
4.0
 40
4.0
 10
548.7168031136043
 20
296.8154446788412
 30
0.0
 10
545.9166596518335
 20
291.5859537699525
 30
0.0
 10
539.9270160124834
 20
289.3383247460933
 30
0.0
 10
535.3385596057597
 20
291.7952247447301
 30
0.0
 10
530.7501031990396
 20
294.2521247433633
 30
0.0
 10
529.3003891197077
 20
300.483175717598
 30
0.0
 10
532.1005325814785
 20
305.7126666264821
 30
0.0
 10
534.9006760432494
 20
310.9421575353699
 30
0.0
 10
540.8903196825995
 20
313.1897865592273
 30
0.0
 10
545.4787760893232
 20
310.7328865605914
 30
0.0
 10
550.0672324960469
 20
308.2759865619564
 30
0.0
 10
551.516946575377
 20
302.0449355877254
 30
0.0
 10
548.7168031136043
 20
296.8154446788412
 30
0.0
  0
MTEXT
  5
3F2
330
33B
100
AcDbEntity
  8
0
 62
     7
420
 16776959
100
AcDbMText
 10
536.8119951316039
 20
305.7521234903834
 30
0.0
 40
2.097204448115324
 41
0.0
 46
0.0
 71
     7
 72
     1
  1
\fHelvetica Neue LT Std 77 Condensed|b1|i0|c0|p34;\W0.866268;WS22
 11
0.9881221707332019
 21
0.153670347515404
 31
0.0
 73
     1
 44
1.0
  0
MTEXT
  5
3F3
330
33B
100
AcDbEntity
  8
0
 62
     7
420
 16776959
100
AcDbMText
 10
538.8133241553442
 20
293.9549668564578
 30
0.0
 40
2.130008260764982
 41
0.0
 46
0.0
 71
     7
 72
     1
  1
\fHelvetica Neue LT Std 77 Condensed|b1|i0|c0|p34;\W0.955598;3.5
 11
0.9881221707332019
 21
0.153670347515404
 31
0.0
 73
     1
 44
1.0
  0
INSERT
  5
3F5
330
33B
100
AcDbEntity
  8
0
100
AcDbBlockReference
  2
block 19
 10
0.0
 20
0.0
 30
0.0
  0
SPLINE
  5
418
330
33B
100
AcDbEntity
  8
0
 62
     7
420
 16776959
370
     9
100
AcDbSpline
210
0.0
220
0.0
230
1.0
 70
    11
 71
     3
 72
    17
 73
    13
 74
     0
 42
0.0000000001
 43
0.0000000001
 12
1.0
 22
0.0
 32
0.0
 13
1.0
 23
0.0
 33
0.0
 40
0.0
 40
0.0
 40
0.0
 40
0.0
 40
1.0
 40
1.0
 40
1.0
 40
2.0
 40
2.0
 40
2.0
 40
3.0
 40
3.0
 40
3.0
 40
4.0
 40
4.0
 40
4.0
 40
4.0
 10
543.1240123286807
 20
299.8101179314181
 30
0.0
 10
542.2088425761631
 20
298.1009655375437
 30
0.0
 10
540.2512497735352
 20
297.3663738547966
 30
0.0
 10
538.7516064261472
 20
298.1693614853993
 30
0.0
 10
537.251963078761
 20
298.9723491159984
 30
0.0
 10
536.7781536138828
 20
301.0088409800292
 30
0.0
 10
537.6933233664004
 20
302.7179933739026
 30
0.0
 10
538.608493118918
 20
304.4271457677769
 30
0.0
 10
540.5660859215459
 20
305.1617374505249
 30
0.0
 10
542.0657292689339
 20
304.358749819924
 30
0.0
 10
543.5653726163218
 20
303.5557621893213
 30
0.0
 10
544.0391820812001
 20
301.5192703252924
 30
0.0
 10
543.1240123286807
 20
299.8101179314181
 30
0.0
  0
ENDBLK
  5
33E
330
33B
100
AcDbEntity
  8
0
100
AcDbBlockEnd
  0
BLOCK
  5
3F6
330
3F4
100
AcDbEntity
  8
0
100
AcDbBlockBegin
  2
block 19
 70
     0
 10
0.0
 20
0.0
 30
0.0
  3
block 19
  1

  0
INSERT
  5
3F9
330
3F4
100
AcDbEntity
  8
0
100
AcDbBlockReference
  2
block 20
 10
0.0
 20
0.0
 30
0.0
  0
INSERT
  5
40D
330
3F4
100
AcDbEntity
  8
0
100
AcDbBlockReference
  2
block 21
 10
0.0
 20
0.0
 30
0.0
  0
ENDBLK
  5
3F7
330
3F4
100
AcDbEntity
  8
0
100
AcDbBlockEnd
  0
BLOCK
  5
3FA
330
3F8
100
AcDbEntity
  8
0
100
AcDbBlockBegin
  2
block 20
 70
     0
 10
0.0
 20
0.0
 30
0.0
  3
block 20
  1

  0
POLYLINE
  5
3FC
330
3F8
100
AcDbEntity
  8
0
370
     0
100
AcDb2dPolyline
 66
     1
 10
0.0
 20
0.0
 30
0.0
  0
VERTEX
  5
3FD
330
3FC
100
AcDbEntity
  8
0
370
     0
100
AcDbVertex
100
AcDb2dVertex
 10
545.0772960877694
 20
301.8936080265048
 30
0.0
  0
VERTEX
  5
3FE
330
3FC
100
AcDbEntity
  8
0
370
     0
100
AcDbVertex
100
AcDb2dVertex
 10
547.8046868892725
 20
302.2739018798429
 30
0.0
  0
VERTEX
  5
3FF
330
3FC
100
AcDbEntity
  8
0
370
     0
100
AcDbVertex
100
AcDb2dVertex
 10
547.8046868892761
 20
301.7973826746438
 30
0.0
  0
VERTEX
  5
400
330
3FC
100
AcDbEntity
  8
0
370
     0
100
AcDbVertex
100
AcDb2dVertex
 10
545.0772960877694
 20
301.4169038089804
 30
0.0
  0
VERTEX
  5
401
330
3FC
100
AcDbEntity
  8
0
370
     0
100
AcDbVertex
100
AcDb2dVertex
 10
545.0772960877694
 20
301.8936080265048
 30
0.0
  0
SEQEND
  5
403
330
3FC
100
AcDbEntity
  8
0
370
     0
  0
HATCH
  5
402
330
3F8
100
AcDbEntity
  8
0
 62
     7
420
 16776959
100
AcDbHatch
 10
0.0
 20
0.0
 30
0.0
210
0.0
220
0.0
230
1.0
  2
SOLID
 70
     1
 71
     0
 91
        1
 92
        1
 93
        4
 72
     1
 10
545.0772960877694
 20
301.8936080265048
 11
547.8046868892725
 21
302.2739018798429
 72
     1
 10
547.8046868892725
 20
302.2739018798429
 11
547.8046868892761
 21
301.7973826746438
 72
     1
 10
547.8046868892761
 20
301.7973826746438
 11
545.0772960877694
 21
301.4169038089804
 72
     1
 10
545.0772960877694
 20
301.4169038089804
 11
545.0772960877694
 21
301.8936080265048
 97
        0
 75
     2
 76
     1
 98
        0
  0
POLYLINE
  5
404
330
3F8
100
AcDbEntity
  8
0
370
     0
100
AcDb2dPolyline
 66
     1
 10
0.0
 20
0.0
 30
0.0
  0
VERTEX
  5
405
330
404
100
AcDbEntity
  8
0
370
     0
100
AcDbVertex
100
AcDb2dVertex
 10
545.0772960877639
 20
302.6865708587793
 30
0.0
  0
VERTEX
  5
406
330
404
100
AcDbEntity
  8
0
370
     0
100
AcDbVertex
100
AcDb2dVertex
 10
547.8046868892689
 20
303.0668647121211
 30
0.0
  0
VERTEX
  5
407
330
404
100
AcDbEntity
  8
0
370
     0
100
AcDbVertex
100
AcDb2dVertex
 10
547.8046868892725
 20
302.5893963870849
 30
0.0
  0
VERTEX
  5
408
330
404
100
AcDbEntity
  8
0
370
     0
100
AcDbVertex
100
AcDb2dVertex
 10
545.0772960877657
 20
302.2091025337468
 30
0.0
  0
VERTEX
  5
409
330
404
100
AcDbEntity
  8
0
370
     0
100
AcDbVertex
100
AcDb2dVertex
 10
545.0772960877639
 20
302.6865708587793
 30
0.0
  0
SEQEND
  5
40B
330
404
100
AcDbEntity
  8
0
370
     0
  0
HATCH
  5
40A
330
3F8
100
AcDbEntity
  8
0
 62
     7
420
 16776959
100
AcDbHatch
 10
0.0
 20
0.0
 30
0.0
210
0.0
220
0.0
230
1.0
  2
SOLID
 70
     1
 71
     0
 91
        1
 92
        1
 93
        4
 72
     1
 10
545.0772960877639
 20
302.6865708587793
 11
547.8046868892689
 21
303.0668647121211
 72
     1
 10
547.8046868892689
 20
303.0668647121211
 11
547.8046868892725
 21
302.5893963870849
 72
     1
 10
547.8046868892725
 20
302.5893963870849
 11
545.0772960877657
 21
302.2091025337468
 72
     1
 10
545.0772960877657
 20
302.2091025337468
 11
545.0772960877639
 21
302.6865708587793
 97
        0
 75
     2
 76
     1
 98
        0
  0
ENDBLK
  5
3FB
330
3F8
100
AcDbEntity
  8
0
100
AcDbBlockEnd
  0
BLOCK
  5
40E
330
40C
100
AcDbEntity
  8
0
100
AcDbBlockBegin
  2
block 21
 70
     0
 10
0.0
 20
0.0
 30
0.0
  3
block 21
  1

  0
POLYLINE
  5
410
330
40C
100
AcDbEntity
  8
0
370
     0
100
AcDb2dPolyline
 66
     1
 10
0.0
 20
0.0
 30
0.0
  0
VERTEX
  5
411
330
410
100
AcDbEntity
  8
0
370
     0
100
AcDbVertex
100
AcDb2dVertex
 10
547.259084210953
 20
303.8784059327536
 30
0.0
  0
VERTEX
  5
412
330
410
100
AcDbEntity
  8
0
370
     0
100
AcDbVertex
100
AcDb2dVertex
 10
547.4454030904562
 20
303.7868836767702
 30
0.0
  0
VERTEX
  5
413
330
410
100
AcDbEntity
  8
0
370
     0
100
AcDbVertex
100
AcDb2dVertex
 10
545.5681112875827
 20
300.6718065291243
 30
0.0
  0
VERTEX
  5
414
330
410
100
AcDbEntity
  8
0
370
     0
100
AcDbVertex
100
AcDb2dVertex
 10
545.3817924080813
 20
300.7634320029292
 30
0.0
  0
VERTEX
  5
415
330
410
100
AcDbEntity
  8
0
370
     0
100
AcDbVertex
100
AcDb2dVertex
 10
547.259084210953
 20
303.8784059327536
 30
0.0
  0
SEQEND
  5
417
330
410
100
AcDbEntity
  8
0
370
     0
  0
HATCH
  5
416
330
40C
100
AcDbEntity
  8
0
 62
     7
420
 16776959
100
AcDbHatch
 10
0.0
 20
0.0
 30
0.0
210
0.0
220
0.0
230
1.0
  2
SOLID
 70
     1
 71
     0
 91
        1
 92
        1
 93
        4
 72
     1
 10
547.259084210953
 20
303.8784059327536
 11
547.4454030904562
 21
303.7868836767702
 72
     1
 10
547.4454030904562
 20
303.7868836767702
 11
545.5681112875827
 21
300.6718065291243
 72
     1
 10
545.5681112875827
 20
300.6718065291243
 11
545.3817924080813
 21
300.7634320029292
 72
     1
 10
545.3817924080813
 20
300.7634320029292
 11
547.259084210953
 21
303.8784059327536
 97
        0
 75
     2
 76
     1
 98
        0
  0
ENDBLK
  5
40F
330
40C
100
AcDbEntity
  8
0
100
AcDbBlockEnd
  0
ENDSEC
  0
SECTION
  2
ENTITIES
  0
INSERT
  5
42
330
1F
100
AcDbEntity
  8
Wood
100
AcDbBlockReference
  2
block 2
 10
0.0
 20
0.0
 30
0.0
  0
INSERT
  5
90
330
1F
100
AcDbEntity
  8
0
100
AcDbBlockReference
  2
block 3
 10
0.0
 20
0.0
 30
0.0
  0
INSERT
  5
9E
330
1F
100
AcDbEntity
  8
0
100
AcDbBlockReference
  2
block 5
 10
0.0
 20
0.0
 30
0.0
  0
MTEXT
  5
41A
330
1F
100
AcDbEntity
  8
Layer 3
 62
   250
420
  2236191
100
AcDbMText
 10
370.6121215820312
 20
171.8993148803711
 30
0.0
 40
8.495999999999999
 41
0.0
 46
0.0
 71
     7
 72
     1
  1
\fHelvetica Neue LT Std 55 Roman|b0|i0|c0|p34;\W1;SIMPSON Strong-Tie\H4.248;®\H8.496; ^C
 73
     1
 44
1.0
  0
MTEXT
  5
41B
330
1F
100
AcDbEntity
  8
Layer 3
 62
   250
420
  2236191
100
AcDbMText
 10
351.4607543945312
 20
157.4999008178711
 30
0.0
 40
8.495999999999999
 41
0.0
 46
0.0
 71
     7
 72
     1
  1
\fHelvetica Neue LT Std 55 Roman|b0|i0|c0|p34;\W1; APVST Flat Strap Installation
 73
     1
 44
1.0
  0
MTEXT
  5
41C
330
1F
100
AcDbEntity
  8
Layer 3
 62
   250
420
  2236191
100
AcDbMText
 10
484.4988403320312
 20
234.5306015014648
 30
0.0
 40
8.495999999999999
 41
0.0
 46
0.0
 71
     7
 72
     1
  1
\fHelvetica Neue LT Std 57 Condensed|b0|i0|c0|p34;\W1;APVST90300
 73
     1
 44
1.0
  0
POLYLINE
  5
41D
330
1F
100
AcDbEntity
  8
Layer 3
 62
   250
420
  2236191
370
    18
100
AcDb2dPolyline
 66
     1
 10
0.0
 20
0.0
 30
0.0
  0
VERTEX
  5
41E
330
41D
100
AcDbEntity
  8
Layer 3
 62
   250
420
  2236191
370
    18
100
AcDbVertex
100
AcDb2dVertex
 10
478.6284593616965
 20
238.6800515198011
 30
0.0
  0
VERTEX
  5
41F
330
41D
100
AcDbEntity
  8
Layer 3
 62
   250
420
  2236191
370
    18
100
AcDbVertex
100
AcDb2dVertex
 10
449.736114763964
 20
257.3157894736833
 30
0.0
  0
SEQEND
  5
420
330
41D
100
AcDbEntity
  8
Layer 3
 62
   250
420
  2236191
370
    18
  0
ENDSEC
  0
SECTION
  2
OBJECTS
  0
DICTIONARY
  5
C
330
0
100
AcDbDictionary
281
     1
  3
ACAD_GROUP
350
D
  3
ACAD_LAYOUT
350
1A
  3
ACAD_MATERIAL
350
3B
  3
ACAD_MLEADERSTYLE
350
422
  3
ACAD_MLINESTYLE
350
17
  3
ACAD_PLOTSETTINGS
350
19
  3
ACAD_PLOTSTYLENAME
350
E
  3
ACAD_TABLESTYLE
350
421
  3
ACAD_VISUALSTYLE
350
2A
  0
SUN
  5
3F
330
29
100
AcDbSun
 90
        1
290
     0
 63
     7
421
 16777215
 40
1.0
291
     1
 91
  2455826
 92
 54000000
292
     0
 70
     2
 71
   256
280
     1
  0
DICTIONARY
  5
D
102
{ACAD_REACTORS
330
C
102
}
330
C
100
AcDbDictionary
281
     1
  0
DICTIONARY
  5
1A
102
{ACAD_REACTORS
330
C
102
}
330
C
100
AcDbDictionary
281
     1
  3
Layout1
350
1E
  3
Layout2
350
26
  3
Model
350
22
  0
DICTIONARY
  5
3B
102
{ACAD_REACTORS
330
C
102
}
330
C
100
AcDbDictionary
281
     1
  3
ByBlock
350
3D
  3
ByLayer
350
3C
  3
Global
350
3E
  0
DICTIONARY
  5
422
102
{ACAD_REACTORS
330
C
102
}
330
C
100
AcDbDictionary
281
     1
  0
DICTIONARY
  5
17
102
{ACAD_REACTORS
330
C
102
}
330
C
100
AcDbDictionary
281
     1
  3
Standard
350
18
  0
DICTIONARY
  5
19
102
{ACAD_REACTORS
330
C
102
}
330
C
100
AcDbDictionary
281
     1
  0
ACDBDICTIONARYWDFLT
  5
E
102
{ACAD_REACTORS
330
C
102
}
330
C
100
AcDbDictionary
281
     1
  3
Normal
350
F
100
AcDbDictionaryWithDefault
340
F
  0
DICTIONARY
  5
421
102
{ACAD_REACTORS
330
C
102
}
330
C
100
AcDbDictionary
281
     1
  0
DICTIONARY
  5
2A
102
{ACAD_REACTORS
330
C
102
}
330
C
100
AcDbDictionary
281
     1
  3
2dWireframe
350
2F
  3
3D Hidden
350
31
  3
3dWireframe
350
30
  3
Basic
350
32
  3
Brighten
350
36
  3
ColorChange
350
3A
  3
Conceptual
350
34
  3
Dim
350
35
  3
Facepattern
350
39
  3
Flat
350
2B
  3
FlatWithEdges
350
2C
  3
Gouraud
350
2D
  3
GouraudWithEdges
350
2E
  3
Linepattern
350
38
  3
Realistic
350
33
  3
Thicken
350
37
  0
LAYOUT
  5
1E
102
{ACAD_REACTORS
330
1A
102
}
330
1A
100
AcDbPlotSettings
  1

  2
none_device
  4

  6

 40
0.0
 41
0.0
 42
0.0
 43
0.0
 44
0.0
 45
0.0
 46
0.0
 47
0.0
 48
0.0
 49
0.0
140
0.0
141
0.0
142
1.0
143
1.0
 70
   688
 72
     0
 73
     0
 74
     5
  7

 75
    16
 76
     0
 77
     2
 78
   300
147
1.0
148
0.0
149
0.0
100
AcDbLayout
  1
Layout1
 70
     1
 71
     1
 10
0.0
 20
0.0
 11
12.0
 21
9.0
 12
0.0
 22
0.0
 32
0.0
 14
1.000000000000000E+20
 24
1.000000000000000E+20
 34
1.000000000000000E+20
 15
-1.000000000000000E+20
 25
-1.000000000000000E+20
 35
-1.000000000000000E+20
146
0.0
 13
0.0
 23
0.0
 33
0.0
 16
1.0
 26
0.0
 36
0.0
 17
0.0
 27
1.0
 37
0.0
 76
     0
330
1B
  0
LAYOUT
  5
26
102
{ACAD_REACTORS
330
1A
102
}
330
1A
100
AcDbPlotSettings
  1

  2
none_device
  4

  6

 40
0.0
 41
0.0
 42
0.0
 43
0.0
 44
0.0
 45
0.0
 46
0.0
 47
0.0
 48
0.0
 49
0.0
140
0.0
141
0.0
142
1.0
143
1.0
 70
   688
 72
     0
 73
     0
 74
     5
  7

 75
    16
 76
     0
 77
     2
 78
   300
147
1.0
148
0.0
149
0.0
100
AcDbLayout
  1
Layout2
 70
     1
 71
     2
 10
0.0
 20
0.0
 11
0.0
 21
0.0
 12
0.0
 22
0.0
 32
0.0
 14
0.0
 24
0.0
 34
0.0
 15
0.0
 25
0.0
 35
0.0
146
0.0
 13
0.0
 23
0.0
 33
0.0
 16
1.0
 26
0.0
 36
0.0
 17
0.0
 27
1.0
 37
0.0
 76
     0
330
23
  0
LAYOUT
  5
22
102
{ACAD_REACTORS
330
1A
102
}
330
1A
100
AcDbPlotSettings
  1

  2
none_device
  4

  6

 40
0.0
 41
0.0
 42
0.0
 43
0.0
 44
0.0
 45
0.0
 46
0.0
 47
0.0
 48
0.0
 49
0.0
140
0.0
141
0.0
142
1.0
143
1.0
 70
  1712
 72
     0
 73
     0
 74
     0
  7

 75
     0
 76
     0
 77
     2
 78
   300
147
1.0
148
0.0
149
0.0
100
AcDbLayout
  1
Model
 70
     1
 71
     0
 10
0.0
 20
0.0
 11
12.0
 21
9.0
 12
0.0
 22
0.0
 32
0.0
 14
1.000000000000000E+20
 24
1.000000000000000E+20
 34
1.000000000000000E+20
 15
-1.000000000000000E+20
 25
-1.000000000000000E+20
 35
-1.000000000000000E+20
146
0.0
 13
0.0
 23
0.0
 33
0.0
 16
1.0
 26
0.0
 36
0.0
 17
0.0
 27
1.0
 37
0.0
 76
     0
330
1F
331
29
  0
MATERIAL
  5
3D
102
{ACAD_REACTORS
330
3B
102
}
330
3B
100
AcDbMaterial
  1
ByBlock
 72
     1
 94
      127
  0
MATERIAL
  5
3C
102
{ACAD_REACTORS
330
3B
102
}
330
3B
100
AcDbMaterial
  1
ByLayer
 72
     1
 94
      127
  0
MATERIAL
  5
3E
102
{ACAD_REACTORS
330
3B
102
}
330
3B
100
AcDbMaterial
  1
Global
 72
     1
 94
      127
  0
MLINESTYLE
  5
18
102
{ACAD_REACTORS
330
17
102
}
330
17
100
AcDbMlineStyle
  2
Standard
 70
     0
  3

 62
   256
 51
90.0
 52
90.0
 71
     2
 49
0.5
 62
   256
  6
BYLAYER
 49
-0.5
 62
   256
  6
BYLAYER
  0
ACDBPLACEHOLDER
  5
F
102
{ACAD_REACTORS
330
E
102
}
330
E
  0
VISUALSTYLE
  5
2F
102
{ACAD_REACTORS
330
2A
102
}
330
2A
100
AcDbVisualStyle
  2
2dWireframe
 70
     4
177
     2
291
     0
 71
     0
176
     1
 72
     2
176
     1
 73
     0
176
     1
 90
        0
176
     1
 40
-0.6
176
     1
 41
-30.0
176
     1
 62
     5
 63
     7
421
 16777215
176
     1
 74
     1
176
     1
 91
        4
176
     1
 64
     7
176
     1
 65
   257
176
     1
 75
     1
176
     1
175
     1
176
     1
 42
1.0
176
     1
 92
        0
176
     1
 66
   257
176
     1
 43
1.0
176
     1
 76
     1
176
     1
 77
     6
176
     1
 78
     2
176
     1
 67
     7
176
     1
 79
     5
176
     1
170
     0
176
     1
171
     0
176
     1
290
     0
176
     1
 93
        1
176
     1
 44
0.0
176
     1
173
     0
176
     1
  0
VISUALSTYLE
  5
31
102
{ACAD_REACTORS
330
2A
102
}
330
2A
100
AcDbVisualStyle
  2
3D Hidden
 70
     6
177
     2
291
     0
 71
     1
176
     1
 72
     2
176
     1
 73
     2
176
     1
 90
        0
176
     1
 40
-0.6
176
     1
 41
-30.0
176
     1
 62
     5
 63
     7
421
 16777215
176
     1
 74
     2
176
     1
 91
        2
176
     1
 64
     7
176
     1
 65
   257
176
     1
 75
     2
176
     1
175
     1
176
     1
 42
40.0
176
     1
 92
        0
176
     1
 66
   257
176
     1
 43
1.0
176
     1
 76
     1
176
     1
 77
     6
176
     1
 78
     2
176
     1
 67
     7
176
     1
 79
     3
176
     1
170
     0
176
     1
171
     0
176
     1
290
     0
176
     1
 93
        1
176
     1
 44
0.0
176
     1
173
     0
176
     1
  0
VISUALSTYLE
  5
30
102
{ACAD_REACTORS
330
2A
102
}
330
2A
100
AcDbVisualStyle
  2
3dWireframe
 70
     5
177
     2
291
     0
 71
     0
176
     1
 72
     2
176
     1
 73
     0
176
     1
 90
        0
176
     1
 40
-0.6
176
     1
 41
-30.0
176
     1
 62
     5
 63
     7
421
 16777215
176
     1
 74
     1
176
     1
 91
        4
176
     1
 64
     7
176
     1
 65
   257
176
     1
 75
     1
176
     1
175
     1
176
     1
 42
1.0
176
     1
 92
        0
176
     1
 66
   257
176
     1
 43
1.0
176
     1
 76
     1
176
     1
 77
     6
176
     1
 78
     2
176
     1
 67
     7
176
     1
 79
     5
176
     1
170
     0
176
     1
171
     0
176
     1
290
     0
176
     1
 93
        1
176
     1
 44
0.0
176
     1
173
     0
176
     1
  0
VISUALSTYLE
  5
32
102
{ACAD_REACTORS
330
2A
102
}
330
2A
100
AcDbVisualStyle
  2
Basic
 70
     7
177
     2
291
     1
 71
     1
176
     1
 72
     0
176
     1
 73
     1
176
     1
 90
        0
176
     1
 40
-0.6
176
     1
 41
-30.0
176
     1
 62
     5
 63
     7
421
 16777215
176
     1
 74
     0
176
     1
 91
        4
176
     1
 64
     7
176
     1
 65
   257
176
     1
 75
     1
176
     1
175
     1
176
     1
 42
1.0
176
     1
 92
        8
176
     1
 66
     7
176
     1
 43
1.0
176
     1
 76
     1
176
     1
 77
     6
176
     1
 78
     2
176
     1
 67
     7
176
     1
 79
     5
176
     1
170
     0
176
     1
171
     0
176
     1
290
     0
176
     1
 93
        1
176
     1
 44
0.0
176
     1
173
     0
176
     1
  0
VISUALSTYLE
  5
36
102
{ACAD_REACTORS
330
2A
102
}
330
2A
100
AcDbVisualStyle
  2
Brighten
 70
    12
177
     2
291
     1
 71
     2
176
     1
 72
     2
176
     1
 73
     0
176
     1
 90
        0
176
     1
 40
-0.6
176
     1
 41
-30.0
176
     1
 62
     5
 63
     7
421
 16777215
176
     1
 74
     1
176
     1
 91
        4
176
     1
 64
     7
176
     1
 65
   257
176
     1
 75
     1
176
     1
175
     1
176
     1
 42
1.0
176
     1
 92
        8
176
     1
 66
     7
176
     1
 43
1.0
176
     1
 76
     1
176
     1
 77
     6
176
     1
 78
     2
176
     1
 67
     7
176
     1
 79
     5
176
     1
170
     0
176
     1
171
     0
176
     1
290
     0
176
     1
 93
        1
176
     1
 44
50.0
176
     1
173
     0
176
     1
  0
VISUALSTYLE
  5
3A
102
{ACAD_REACTORS
330
2A
102
}
330
2A
100
AcDbVisualStyle
  2
ColorChange
 70
    16
177
     2
291
     1
 71
     2
176
     1
 72
     2
176
     1
 73
     3
176
     1
 90
        0
176
     1
 40
-0.6
176
     1
 41
-30.0
176
     1
 62
     5
 63
     8
421
  8421504
176
     1
 74
     1
176
     1
 91
        4
176
     1
 64
     7
176
     1
 65
   257
176
     1
 75
     1
176
     1
175
     1
176
     1
 42
1.0
176
     1
 92
        8
176
     1
 66
     8
424
  8421504
176
     1
 43
1.0
176
     1
 76
     1
176
     1
 77
     6
176
     1
 78
     2
176
     1
 67
     7
176
     1
 79
     5
176
     1
170
     0
176
     1
171
     0
176
     1
290
     0
176
     1
 93
        1
176
     1
 44
0.0
176
     1
173
     0
176
     1
  0
VISUALSTYLE
  5
34
102
{ACAD_REACTORS
330
2A
102
}
330
2A
100
AcDbVisualStyle
  2
Conceptual
 70
     9
177
     2
291
     0
 71
     3
176
     1
 72
     2
176
     1
 73
     0
176
     1
 90
        0
176
     1
 40
-0.6
176
     1
 41
-30.0
176
     1
 62
     5
 63
     7
421
 16777215
176
     1
 74
     2
176
     1
 91
        2
176
     1
 64
     7
176
     1
 65
   257
176
     1
 75
     1
176
     1
175
     1
176
     1
 42
40.0
176
     1
 92
        8
176
     1
 66
     7
176
     1
 43
1.0
176
     1
 76
     1
176
     1
 77
     6
176
     1
 78
     2
176
     1
 67
     7
176
     1
 79
     3
176
     1
170
     0
176
     1
171
     0
176
     1
290
     0
176
     1
 93
        1
176
     1
 44
0.0
176
     1
173
     0
176
     1
  0
VISUALSTYLE
  5
35
102
{ACAD_REACTORS
330
2A
102
}
330
2A
100
AcDbVisualStyle
  2
Dim
 70
    11
177
     2
291
     1
 71
     2
176
     1
 72
     2
176
     1
 73
     0
176
     1
 90
        0
176
     1
 40
-0.6
176
     1
 41
-30.0
176
     1
 62
     5
 63
     7
421
 16777215
176
     1
 74
     1
176
     1
 91
        4
176
     1
 64
     7
176
     1
 65
   257
176
     1
 75
     1
176
     1
175
     1
176
     1
 42
1.0
176
     1
 92
        8
176
     1
 66
     7
176
     1
 43
1.0
176
     1
 76
     1
176
     1
 77
     6
176
     1
 78
     2
176
     1
 67
     7
176
     1
 79
     5
176
     1
170
     0
176
     1
171
     0
176
     1
290
     0
176
     1
 93
        1
176
     1
 44
-50.0
176
     1
173
     0
176
     1
  0
VISUALSTYLE
  5
39
102
{ACAD_REACTORS
330
2A
102
}
330
2A
100
AcDbVisualStyle
  2
Facepattern
 70
    15
177
     2
291
     1
 71
     2
176
     1
 72
     2
176
     1
 73
     0
176
     1
 90
        0
176
     1
 40
-0.6
176
     1
 41
-30.0
176
     1
 62
     5
 63
     7
421
 16777215
176
     1
 74
     1
176
     1
 91
        4
176
     1
 64
     7
176
     1
 65
   257
176
     1
 75
     1
176
     1
175
     1
176
     1
 42
1.0
176
     1
 92
        8
176
     1
 66
     7
176
     1
 43
1.0
176
     1
 76
     1
176
     1
 77
     6
176
     1
 78
     2
176
     1
 67
     7
176
     1
 79
     5
176
     1
170
     0
176
     1
171
     0
176
     1
290
     0
176
     1
 93
        1
176
     1
 44
0.0
176
     1
173
     0
176
     1
  0
VISUALSTYLE
  5
2B
102
{ACAD_REACTORS
330
2A
102
}
330
2A
100
AcDbVisualStyle
  2
Flat
 70
     0
177
     2
291
     1
 71
     2
176
     1
 72
     1
176
     1
 73
     1
176
     1
 90
        2
176
     1
 40
-0.6
176
     1
 41
30.0
176
     1
 62
     5
 63
     7
421
 16777215
176
     1
 74
     0
176
     1
 91
        4
176
     1
 64
     7
176
     1
 65
   257
176
     1
 75
     1
176
     1
175
     1
176
     1
 42
1.0
176
     1
 92
        8
176
     1
 66
     7
176
     1
 43
1.0
176
     1
 76
     1
176
     1
 77
     6
176
     1
 78
     2
176
     1
 67
     7
176
     1
 79
     5
176
     1
170
     0
176
     1
171
     0
176
     1
290
     0
176
     1
 93
       13
176
     1
 44
0.0
176
     1
173
     0
176
     1
  0
VISUALSTYLE
  5
2C
102
{ACAD_REACTORS
330
2A
102
}
330
2A
100
AcDbVisualStyle
  2
FlatWithEdges
 70
     1
177
     2
291
     1
 71
     2
176
     1
 72
     1
176
     1
 73
     1
176
     1
 90
        2
176
     1
 40
-0.6
176
     1
 41
30.0
176
     1
 62
     5
 63
     7
421
 16777215
176
     1
 74
     1
176
     1
 91
        4
176
     1
 64
     7
176
     1
 65
   257
176
     1
 75
     1
176
     1
175
     1
176
     1
 42
1.0
176
     1
 92
        0
176
     1
 66
   257
176
     1
 43
1.0
176
     1
 76
     1
176
     1
 77
     6
176
     1
 78
     2
176
     1
 67
     7
176
     1
 79
     5
176
     1
170
     0
176
     1
171
     0
176
     1
290
     0
176
     1
 93
       13
176
     1
 44
0.0
176
     1
173
     0
176
     1
  0
VISUALSTYLE
  5
2D
102
{ACAD_REACTORS
330
2A
102
}
330
2A
100
AcDbVisualStyle
  2
Gouraud
 70
     2
177
     2
291
     1
 71
     2
176
     1
 72
     2
176
     1
 73
     1
176
     1
 90
        2
176
     1
 40
-0.6
176
     1
 41
30.0
176
     1
 62
     5
 63
     7
421
 16777215
176
     1
 74
     0
176
     1
 91
        4
176
     1
 64
     7
176
     1
 65
   257
176
     1
 75
     1
176
     1
175
     1
176
     1
 42
1.0
176
     1
 92
        0
176
     1
 66
     7
176
     1
 43
1.0
176
     1
 76
     1
176
     1
 77
     6
176
     1
 78
     2
176
     1
 67
     7
176
     1
 79
     5
176
     1
170
     0
176
     1
171
     0
176
     1
290
     0
176
     1
 93
       13
176
     1
 44
0.0
176
     1
173
     0
176
     1
  0
VISUALSTYLE
  5
2E
102
{ACAD_REACTORS
330
2A
102
}
330
2A
100
AcDbVisualStyle
  2
GouraudWithEdges
 70
     3
177
     2
291
     1
 71
     2
176
     1
 72
     2
176
     1
 73
     1
176
     1
 90
        2
176
     1
 40
-0.6
176
     1
 41
30.0
176
     1
 62
     5
 63
     7
421
 16777215
176
     1
 74
     1
176
     1
 91
        4
176
     1
 64
     7
176
     1
 65
   257
176
     1
 75
     1
176
     1
175
     1
176
     1
 42
1.0
176
     1
 92
        0
176
     1
 66
   257
176
     1
 43
1.0
176
     1
 76
     1
176
     1
 77
     6
176
     1
 78
     2
176
     1
 67
     7
176
     1
 79
     5
176
     1
170
     0
176
     1
171
     0
176
     1
290
     0
176
     1
 93
       13
176
     1
 44
0.0
176
     1
173
     0
176
     1
  0
VISUALSTYLE
  5
38
102
{ACAD_REACTORS
330
2A
102
}
330
2A
100
AcDbVisualStyle
  2
Linepattern
 70
    14
177
     2
291
     1
 71
     2
176
     1
 72
     2
176
     1
 73
     0
176
     1
 90
        0
176
     1
 40
-0.6
176
     1
 41
-30.0
176
     1
 62
     5
 63
     7
421
 16777215
176
     1
 74
     1
176
     1
 91
        4
176
     1
 64
     7
176
     1
 65
   257
176
     1
 75
     7
176
     1
175
     7
176
     1
 42
1.0
176
     1
 92
        8
176
     1
 66
     7
176
     1
 43
1.0
176
     1
 76
     1
176
     1
 77
     6
176
     1
 78
     2
176
     1
 67
     7
176
     1
 79
     5
176
     1
170
     0
176
     1
171
     0
176
     1
290
     0
176
     1
 93
        1
176
     1
 44
0.0
176
     1
173
     0
176
     1
  0
VISUALSTYLE
  5
33
102
{ACAD_REACTORS
330
2A
102
}
330
2A
100
AcDbVisualStyle
  2
Realistic
 70
     8
177
     2
291
     0
 71
     2
176
     1
 72
     2
176
     1
 73
     0
176
     1
 90
        0
176
     1
 40
-0.6
176
     1
 41
-30.0
176
     1
 62
     5
 63
     7
421
 16777215
176
     1
 74
     1
176
     1
 91
        0
176
     1
 64
     7
176
     1
 65
   257
176
     1
 75
     1
176
     1
175
     1
176
     1
 42
1.0
176
     1
 92
        8
176
     1
 66
     8
424
  7895160
176
     1
 43
1.0
176
     1
 76
     1
176
     1
 77
     6
176
     1
 78
     2
176
     1
 67
     7
176
     1
 79
     5
176
     1
170
     0
176
     1
171
     0
176
     1
290
     0
176
     1
 93
       13
176
     1
 44
0.0
176
     1
173
     0
176
     1
  0
VISUALSTYLE
  5
37
102
{ACAD_REACTORS
330
2A
102
}
330
2A
100
AcDbVisualStyle
  2
Thicken
 70
    13
177
     2
291
     1
 71
     2
176
     1
 72
     2
176
     1
 73
     0
176
     1
 90
        0
176
     1
 40
-0.6
176
     1
 41
-30.0
176
     1
 62
     5
 63
     7
421
 16777215
176
     1
 74
     1
176
     1
 91
        4
176
     1
 64
     7
176
     1
 65
   257
176
     1
 75
     1
176
     1
175
     1
176
     1
 42
1.0
176
     1
 92
       12
176
     1
 66
     7
176
     1
 43
1.0
176
     1
 76
     1
176
     1
 77
     6
176
     1
 78
     2
176
     1
 67
     7
176
     1
 79
     5
176
     1
170
     0
176
     1
171
     0
176
     1
290
     0
176
     1
 93
        1
176
     1
 44
0.0
176
     1
173
     0
176
     1
  0
ENDSEC
  0
EOF
