  0
SECTION
  2
HEADER
  9
$ACADVER
  1
AC1024
  9
$ACADMAINTVER
 70
     6
  9
$DWGCODEPAGE
  3
ANSI_1252
  9
$INSBASE
 10
0.0
 20
0.0
 30
0.0
  9
$EXTMIN
 10
1.000000000000000E+20
 20
1.000000000000000E+20
 30
1.000000000000000E+20
  9
$EXTMAX
 10
-1.000000000000000E+20
 20
-1.000000000000000E+20
 30
-1.000000000000000E+20
  9
$LIMMIN
 10
0.0
 20
0.0
  9
$LIMMAX
 10
12.0
 20
9.0
  9
$ORTHOMODE
 70
     0
  9
$REGENMODE
 70
     1
  9
$FILLMODE
 70
     1
  9
$QTEXTMODE
 70
     0
  9
$MIRRTEXT
 70
     1
  9
$LTSCALE
 40
1.0
  9
$ATTMODE
 70
     1
  9
$TEXTSIZE
 40
0.2
  9
$TRACEWID
 40
0.05
  9
$TEXTSTYLE
  7
Standard
  9
$CLAYER
  8
0
  9
$CELTYPE
  6
ByLayer
  9
$CECOLOR
 62
   256
  9
$CELTSCALE
 40
1.0
  9
$DISPSILH
 70
     0
  9
$DIMSCALE
 40
1.0
  9
$DIMASZ
 40
0.18
  9
$DIMEXO
 40
0.0625
  9
$DIMDLI
 40
0.38
  9
$DIMRND
 40
0.0
  9
$DIMDLE
 40
0.0
  9
$DIMEXE
 40
0.18
  9
$DIMTP
 40
0.0
  9
$DIMTM
 40
0.0
  9
$DIMTXT
 40
0.18
  9
$DIMCEN
 40
0.09
  9
$DIMTSZ
 40
0.0
  9
$DIMTOL
 70
     0
  9
$DIMLIM
 70
     0
  9
$DIMTIH
 70
     1
  9
$DIMTOH
 70
     1
  9
$DIMSE1
 70
     0
  9
$DIMSE2
 70
     0
  9
$DIMTAD
 70
     0
  9
$DIMZIN
 70
     0
  9
$DIMBLK
  1

  9
$DIMASO
 70
     1
  9
$DIMSHO
 70
     1
  9
$DIMPOST
  1

  9
$DIMAPOST
  1

  9
$DIMALT
 70
     0
  9
$DIMALTD
 70
     2
  9
$DIMALTF
 40
25.4
  9
$DIMLFAC
 40
1.0
  9
$DIMTOFL
 70
     0
  9
$DIMTVP
 40
0.0
  9
$DIMTIX
 70
     0
  9
$DIMSOXD
 70
     0
  9
$DIMSAH
 70
     0
  9
$DIMBLK1
  1

  9
$DIMBLK2
  1

  9
$DIMSTYLE
  2
Standard
  9
$DIMCLRD
 70
     0
  9
$DIMCLRE
 70
     0
  9
$DIMCLRT
 70
     0
  9
$DIMTFAC
 40
1.0
  9
$DIMGAP
 40
0.09
  9
$DIMJUST
 70
     0
  9
$DIMSD1
 70
     0
  9
$DIMSD2
 70
     0
  9
$DIMTOLJ
 70
     1
  9
$DIMTZIN
 70
     0
  9
$DIMALTZ
 70
     0
  9
$DIMALTTZ
 70
     0
  9
$DIMUPT
 70
     0
  9
$DIMDEC
 70
     4
  9
$DIMTDEC
 70
     4
  9
$DIMALTU
 70
     2
  9
$DIMALTTD
 70
     2
  9
$DIMTXSTY
  7
Standard
  9
$DIMAUNIT
 70
     0
  9
$DIMADEC
 70
     0
  9
$DIMALTRND
 40
0.0
  9
$DIMAZIN
 70
     0
  9
$DIMDSEP
 70
    46
  9
$DIMATFIT
 70
     3
  9
$DIMFRAC
 70
     0
  9
$DIMLDRBLK
  1

  9
$DIMLUNIT
 70
     2
  9
$DIMLWD
 70
    -2
  9
$DIMLWE
 70
    -2
  9
$DIMTMOVE
 70
     0
  9
$DIMFXL
 40
1.0
  9
$DIMFXLON
 70
     0
  9
$DIMJOGANG
 40
0.7853981633974483
  9
$DIMTFILL
 70
     0
  9
$DIMTFILLCLR
 70
     0
  9
$DIMARCSYM
 70
     0
  9
$DIMLTYPE
  6

  9
$DIMLTEX1
  6

  9
$DIMLTEX2
  6

  9
$DIMTXTDIRECTION
 70
     0
  9
$LUNITS
 70
     2
  9
$LUPREC
 70
     4
  9
$SKETCHINC
 40
0.1
  9
$FILLETRAD
 40
0.5
  9
$AUNITS
 70
     0
  9
$AUPREC
 70
     0
  9
$MENU
  1
.
  9
$ELEVATION
 40
0.0
  9
$PELEVATION
 40
0.0
  9
$THICKNESS
 40
0.0
  9
$LIMCHECK
 70
     0
  9
$CHAMFERA
 40
0.5
  9
$CHAMFERB
 40
0.5
  9
$CHAMFERC
 40
1.0
  9
$CHAMFERD
 40
0.0
  9
$SKPOLY
 70
     0
  9
$TDCREATE
 40
2459073.668447894
  9
$TDUCREATE
 40
2459073.168447894
  9
$TDUPDATE
 40
2459073.668448715
  9
$TDUUPDATE
 40
2459073.168448715
  9
$TDINDWG
 40
0.0000000116
  9
$TDUSRTIMER
 40
0.0000000116
  9
$USRTIMER
 70
     1
  9
$ANGBASE
 50
0.0
  9
$ANGDIR
 70
     0
  9
$PDMODE
 70
     0
  9
$PDSIZE
 40
0.0
  9
$PLINEWID
 40
0.0
  9
$SPLFRAME
 70
     0
  9
$SPLINETYPE
 70
     6
  9
$SPLINESEGS
 70
     8
  9
$HANDSEED
  5
36E
  9
$SURFTAB1
 70
     6
  9
$SURFTAB2
 70
     6
  9
$SURFTYPE
 70
     6
  9
$SURFU
 70
     6
  9
$SURFV
 70
     6
  9
$UCSBASE
  2

  9
$UCSNAME
  2

  9
$UCSORG
 10
0.0
 20
0.0
 30
0.0
  9
$UCSXDIR
 10
1.0
 20
0.0
 30
0.0
  9
$UCSYDIR
 10
0.0
 20
1.0
 30
0.0
  9
$UCSORTHOREF
  2

  9
$UCSORTHOVIEW
 70
     0
  9
$UCSORGTOP
 10
0.0
 20
0.0
 30
0.0
  9
$UCSORGBOTTOM
 10
0.0
 20
0.0
 30
0.0
  9
$UCSORGLEFT
 10
0.0
 20
0.0
 30
0.0
  9
$UCSORGRIGHT
 10
0.0
 20
0.0
 30
0.0
  9
$UCSORGFRONT
 10
0.0
 20
0.0
 30
0.0
  9
$UCSORGBACK
 10
0.0
 20
0.0
 30
0.0
  9
$PUCSBASE
  2

  9
$PUCSNAME
  2

  9
$PUCSORG
 10
0.0
 20
0.0
 30
0.0
  9
$PUCSXDIR
 10
1.0
 20
0.0
 30
0.0
  9
$PUCSYDIR
 10
0.0
 20
1.0
 30
0.0
  9
$PUCSORTHOREF
  2

  9
$PUCSORTHOVIEW
 70
     0
  9
$PUCSORGTOP
 10
0.0
 20
0.0
 30
0.0
  9
$PUCSORGBOTTOM
 10
0.0
 20
0.0
 30
0.0
  9
$PUCSORGLEFT
 10
0.0
 20
0.0
 30
0.0
  9
$PUCSORGRIGHT
 10
0.0
 20
0.0
 30
0.0
  9
$PUCSORGFRONT
 10
0.0
 20
0.0
 30
0.0
  9
$PUCSORGBACK
 10
0.0
 20
0.0
 30
0.0
  9
$USERI1
 70
     0
  9
$USERI2
 70
     0
  9
$USERI3
 70
     0
  9
$USERI4
 70
     0
  9
$USERI5
 70
     0
  9
$USERR1
 40
0.0
  9
$USERR2
 40
0.0
  9
$USERR3
 40
0.0
  9
$USERR4
 40
0.0
  9
$USERR5
 40
0.0
  9
$WORLDVIEW
 70
     1
  9
$SHADEDGE
 70
     3
  9
$SHADEDIF
 70
    70
  9
$TILEMODE
 70
     1
  9
$MAXACTVP
 70
    64
  9
$PINSBASE
 10
0.0
 20
0.0
 30
0.0
  9
$PLIMCHECK
 70
     0
  9
$PEXTMIN
 10
1.000000000000000E+20
 20
1.000000000000000E+20
 30
1.000000000000000E+20
  9
$PEXTMAX
 10
-1.000000000000000E+20
 20
-1.000000000000000E+20
 30
-1.000000000000000E+20
  9
$PLIMMIN
 10
0.0
 20
0.0
  9
$PLIMMAX
 10
12.0
 20
9.0
  9
$UNITMODE
 70
     0
  9
$VISRETAIN
 70
     1
  9
$PLINEGEN
 70
     0
  9
$PSLTSCALE
 70
     1
  9
$TREEDEPTH
 70
  3020
  9
$CMLSTYLE
  2
Standard
  9
$CMLJUST
 70
     0
  9
$CMLSCALE
 40
1.0
  9
$PROXYGRAPHICS
 70
     1
  9
$MEASUREMENT
 70
     0
  9
$CELWEIGHT
370
    -1
  9
$ENDCAPS
280
     0
  9
$JOINSTYLE
280
     0
  9
$LWDISPLAY
290
     1
  9
$INSUNITS
 70
     0
  9
$HYPERLINKBASE
  1

  9
$STYLESHEET
  1

  9
$XEDIT
290
     1
  9
$CEPSNTYPE
380
     0
  9
$PSTYLEMODE
290
     1
  9
$FINGERPRINTGUID
  2
{242044D4-64EC-40BB-826B-D7B6357282AC}
  9
$VERSIONGUID
  2
{FAEB1C32-E019-11D5-929B-00C0DF256EC4}
  9
$EXTNAMES
290
     1
  9
$PSVPSCALE
 40
0.0
  9
$OLESTARTUP
290
     0
  9
$SORTENTS
280
   127
  9
$INDEXCTL
280
     0
  9
$HIDETEXT
280
     1
  9
$XCLIPFRAME
280
     2
  9
$HALOGAP
280
     0
  9
$OBSCOLOR
 70
   257
  9
$OBSLTYPE
280
     0
  9
$INTERSECTIONDISPLAY
280
     0
  9
$INTERSECTIONCOLOR
 70
   257
  9
$DIMASSOC
280
     2
  9
$PROJECTNAME
  1

  9
$CAMERADISPLAY
290
     0
  9
$LENSLENGTH
 40
50.0
  9
$CAMERAHEIGHT
 40
0.0
  9
$STEPSPERSEC
 40
2.0
  9
$STEPSIZE
 40
6.0
  9
$3DDWFPREC
 40
2.0
  9
$PSOLWIDTH
 40
0.25
  9
$PSOLHEIGHT
 40
4.0
  9
$LOFTANG1
 40
1.570796326794897
  9
$LOFTANG2
 40
1.570796326794897
  9
$LOFTMAG1
 40
0.0
  9
$LOFTMAG2
 40
0.0
  9
$LOFTPARAM
 70
     7
  9
$LOFTNORMALS
280
     1
  9
$LATITUDE
 40
37.795
  9
$LONGITUDE
 40
-122.394
  9
$NORTHDIRECTION
 40
0.0
  9
$TIMEZONE
 70
 -8000
  9
$LIGHTGLYPHDISPLAY
280
     1
  9
$TILEMODELIGHTSYNCH
280
     1
  9
$CMATERIAL
347
3C
  9
$SOLIDHIST
280
     1
  9
$SHOWHIST
280
     1
  9
$DWFFRAME
280
     2
  9
$DGNFRAME
280
     2
  9
$REALWORLDSCALE
290
     1
  9
$INTERFERECOLOR
 62
   256
  9
$CSHADOW
280
     0
  9
$SHADOWPLANELOCATION
 40
0.0
  0
ENDSEC
  0
SECTION
  2
CLASSES
  0
CLASS
  1
ACDBDICTIONARYWDFLT
  2
AcDbDictionaryWithDefault
  3
ObjectDBX Classes
 90
        0
 91
        4
280
     0
281
     0
  0
CLASS
  1
VISUALSTYLE
  2
AcDbVisualStyle
  3
ObjectDBX Classes
 90
     4095
 91
        4
280
     0
281
     0
  0
CLASS
  1
MATERIAL
  2
AcDbMaterial
  3
ObjectDBX Classes
 90
     1153
 91
        4
280
     0
281
     0
  0
CLASS
  1
SUN
  2
AcDbSun
  3
SCENEOE
 90
     1024
 91
        4
280
     0
281
     0
  0
ENDSEC
  0
SECTION
  2
TABLES
  0
TABLE
  2
VPORT
  5
8
330
0
100
AcDbSymbolTable
 70
     1
  0
VPORT
  5
29
330
8
100
AcDbSymbolTableRecord
100
AcDbViewportTableRecord
  2
*Active
 70
     0
 10
0.0
 20
0.0
 11
1.0
 21
1.0
 12
0.0
 22
0.0
 13
0.0
 23
0.0
 14
0.5
 24
0.5
 15
0.5
 25
0.5
 16
0.0
 26
0.0
 36
1.0
 17
420.9999999999995
 27
299.5431039025407
 37
0.0
 40
841.8897637795271
 41
0.7070707070707076
 42
50.0
 43
0.0
 44
0.0
 50
0.0
 51
0.0
 71
     0
 72
   100
 73
     1
 74
     3
 75
     0
 76
     0
 77
     0
 78
     0
281
     0
 65
     1
110
0.0
120
0.0
130
0.0
111
1.0
121
0.0
131
0.0
112
0.0
122
1.0
132
0.0
 79
     0
146
0.0
 60
     3
 61
     5
292
     1
282
     1
141
0.0
142
0.0
 63
   250
361
3F
  0
ENDTAB
  0
TABLE
  2
LTYPE
  5
5
330
0
100
AcDbSymbolTable
 70
     1
  0
LTYPE
  5
14
330
5
100
AcDbSymbolTableRecord
100
AcDbLinetypeTableRecord
  2
ByBlock
 70
     0
  3

 72
    65
 73
     0
 40
0.0
  0
LTYPE
  5
15
330
5
100
AcDbSymbolTableRecord
100
AcDbLinetypeTableRecord
  2
ByLayer
 70
     0
  3

 72
    65
 73
     0
 40
0.0
  0
LTYPE
  5
16
330
5
100
AcDbSymbolTableRecord
100
AcDbLinetypeTableRecord
  2
Continuous
 70
     0
  3
Solid line
 72
    65
 73
     0
 40
0.0
  0
ENDTAB
  0
TABLE
  2
LAYER
  5
2
330
0
100
AcDbSymbolTable
 70
     4
  0
LAYER
  5
10
330
2
100
AcDbSymbolTableRecord
100
AcDbLayerTableRecord
  2
0
 70
     0
 62
     7
  6
Continuous
370
    -3
390
F
347
3E
  0
LAYER
  5
40
330
2
100
AcDbSymbolTableRecord
100
AcDbLayerTableRecord
  2
Wood
 70
     0
 62
     7
  6
Continuous
370
    -3
390
F
347
3E
  0
LAYER
  5
196
330
2
100
AcDbSymbolTableRecord
100
AcDbLayerTableRecord
  2
Connectors
 70
     0
 62
     7
  6
Continuous
370
    -3
390
F
347
3E
  0
LAYER
  5
355
330
2
100
AcDbSymbolTableRecord
100
AcDbLayerTableRecord
  2
Layer 3
 70
     0
 62
     7
  6
Continuous
370
    -3
390
F
347
3E
  0
ENDTAB
  0
TABLE
  2
STYLE
  5
3
330
0
100
AcDbSymbolTable
 70
     1
  0
STYLE
  5
11
330
3
100
AcDbSymbolTableRecord
100
AcDbTextStyleTableRecord
  2
Standard
 70
     0
 40
0.0
 41
1.0
 50
0.0
 71
     0
 42
0.2
  3
txt
  4

  0
ENDTAB
  0
TABLE
  2
VIEW
  5
6
330
0
100
AcDbSymbolTable
 70
     0
  0
ENDTAB
  0
TABLE
  2
UCS
  5
7
330
0
100
AcDbSymbolTable
 70
     0
  0
ENDTAB
  0
TABLE
  2
APPID
  5
9
330
0
100
AcDbSymbolTable
 70
     1
  0
APPID
  5
12
330
9
100
AcDbSymbolTableRecord
100
AcDbRegAppTableRecord
  2
ACAD
 70
     0
  0
ENDTAB
  0
TABLE
  2
DIMSTYLE
  5
A
330
0
100
AcDbSymbolTable
 70
     1
100
AcDbDimStyleTable
  0
DIMSTYLE
105
27
330
A
100
AcDbSymbolTableRecord
100
AcDbDimStyleTableRecord
  2
Standard
 70
     0
178
     0
340
11
  0
ENDTAB
  0
TABLE
  2
BLOCK_RECORD
  5
1
330
0
100
AcDbSymbolTable
 70
    49
  0
BLOCK_RECORD
  5
1F
330
1
100
AcDbSymbolTableRecord
100
AcDbBlockTableRecord
  2
*Model_Space
340
22
 70
     0
280
     1
281
     0
  0
BLOCK_RECORD
  5
1B
330
1
100
AcDbSymbolTableRecord
100
AcDbBlockTableRecord
  2
*Paper_Space
340
1E
 70
     0
280
     1
281
     0
  0
BLOCK_RECORD
  5
23
330
1
100
AcDbSymbolTableRecord
100
AcDbBlockTableRecord
  2
*Paper_Space0
340
26
 70
     0
280
     1
281
     0
  0
BLOCK_RECORD
  5
41
330
1
100
AcDbSymbolTableRecord
100
AcDbBlockTableRecord
  2
block 2
340
0
102
{BLKREFS
331
42
102
}
 70
     0
280
     1
281
     0
  0
BLOCK_RECORD
  5
45
330
1
100
AcDbSymbolTableRecord
100
AcDbBlockTableRecord
  2
block 3
340
0
102
{BLKREFS
331
46
102
}
 70
     0
280
     1
281
     0
  0
BLOCK_RECORD
  5
59
330
1
100
AcDbSymbolTableRecord
100
AcDbBlockTableRecord
  2
block 4
340
0
102
{BLKREFS
331
5A
102
}
 70
     0
280
     1
281
     0
  0
BLOCK_RECORD
  5
61
330
1
100
AcDbSymbolTableRecord
100
AcDbBlockTableRecord
  2
block 5
340
0
102
{BLKREFS
331
62
102
}
 70
     0
280
     1
281
     0
  0
BLOCK_RECORD
  5
69
330
1
100
AcDbSymbolTableRecord
100
AcDbBlockTableRecord
  2
block 6
340
0
102
{BLKREFS
331
6A
102
}
 70
     0
280
     1
281
     0
  0
BLOCK_RECORD
  5
71
330
1
100
AcDbSymbolTableRecord
100
AcDbBlockTableRecord
  2
block 7
340
0
102
{BLKREFS
331
72
102
}
 70
     0
280
     1
281
     0
  0
BLOCK_RECORD
  5
7E
330
1
100
AcDbSymbolTableRecord
100
AcDbBlockTableRecord
  2
block 8
340
0
102
{BLKREFS
331
7F
102
}
 70
     0
280
     1
281
     0
  0
BLOCK_RECORD
  5
82
330
1
100
AcDbSymbolTableRecord
100
AcDbBlockTableRecord
  2
block 9
340
0
102
{BLKREFS
331
83
102
}
 70
     0
280
     1
281
     0
  0
BLOCK_RECORD
  5
91
330
1
100
AcDbSymbolTableRecord
100
AcDbBlockTableRecord
  2
block 10
340
0
102
{BLKREFS
331
92
102
}
 70
     0
280
     1
281
     0
  0
BLOCK_RECORD
  5
A0
330
1
100
AcDbSymbolTableRecord
100
AcDbBlockTableRecord
  2
block 11
340
0
102
{BLKREFS
331
A1
102
}
 70
     0
280
     1
281
     0
  0
BLOCK_RECORD
  5
AF
330
1
100
AcDbSymbolTableRecord
100
AcDbBlockTableRecord
  2
block 12
340
0
102
{BLKREFS
331
B0
102
}
 70
     0
280
     1
281
     0
  0
BLOCK_RECORD
  5
BE
330
1
100
AcDbSymbolTableRecord
100
AcDbBlockTableRecord
  2
block 13
340
0
102
{BLKREFS
331
BF
102
}
 70
     0
280
     1
281
     0
  0
BLOCK_RECORD
  5
CD
330
1
100
AcDbSymbolTableRecord
100
AcDbBlockTableRecord
  2
block 14
340
0
102
{BLKREFS
331
CE
102
}
 70
     0
280
     1
281
     0
  0
BLOCK_RECORD
  5
D1
330
1
100
AcDbSymbolTableRecord
100
AcDbBlockTableRecord
  2
block 15
340
0
102
{BLKREFS
331
D2
102
}
 70
     0
280
     1
281
     0
  0
BLOCK_RECORD
  5
E8
330
1
100
AcDbSymbolTableRecord
100
AcDbBlockTableRecord
  2
block 16
340
0
102
{BLKREFS
331
E9
102
}
 70
     0
280
     1
281
     0
  0
BLOCK_RECORD
  5
F0
330
1
100
AcDbSymbolTableRecord
100
AcDbBlockTableRecord
  2
block 17
340
0
102
{BLKREFS
331
F1
102
}
 70
     0
280
     1
281
     0
  0
BLOCK_RECORD
  5
F8
330
1
100
AcDbSymbolTableRecord
100
AcDbBlockTableRecord
  2
block 18
340
0
102
{BLKREFS
331
F9
102
}
 70
     0
280
     1
281
     0
  0
BLOCK_RECORD
  5
100
330
1
100
AcDbSymbolTableRecord
100
AcDbBlockTableRecord
  2
block 19
340
0
102
{BLKREFS
331
101
102
}
 70
     0
280
     1
281
     0
  0
BLOCK_RECORD
  5
10C
330
1
100
AcDbSymbolTableRecord
100
AcDbBlockTableRecord
  2
block 20
340
0
102
{BLKREFS
331
10D
102
}
 70
     0
280
     1
281
     0
  0
BLOCK_RECORD
  5
14B
330
1
100
AcDbSymbolTableRecord
100
AcDbBlockTableRecord
  2
block 21
340
0
102
{BLKREFS
331
14C
102
}
 70
     0
280
     1
281
     0
  0
BLOCK_RECORD
  5
197
330
1
100
AcDbSymbolTableRecord
100
AcDbBlockTableRecord
  2
block 22
340
0
102
{BLKREFS
331
198
102
}
 70
     0
280
     1
281
     0
  0
BLOCK_RECORD
  5
1AA
330
1
100
AcDbSymbolTableRecord
100
AcDbBlockTableRecord
  2
block 23
340
0
102
{BLKREFS
331
1AB
102
}
 70
     0
280
     1
281
     0
  0
BLOCK_RECORD
  5
1BA
330
1
100
AcDbSymbolTableRecord
100
AcDbBlockTableRecord
  2
block 24
340
0
102
{BLKREFS
331
1BB
102
}
 70
     0
280
     1
281
     0
  0
BLOCK_RECORD
  5
1BE
330
1
100
AcDbSymbolTableRecord
100
AcDbBlockTableRecord
  2
block 25
340
0
102
{BLKREFS
331
1BF
102
}
 70
     0
280
     1
281
     0
  0
BLOCK_RECORD
  5
1C2
330
1
100
AcDbSymbolTableRecord
100
AcDbBlockTableRecord
  2
block 26
340
0
102
{BLKREFS
331
1C3
102
}
 70
     0
280
     1
281
     0
  0
BLOCK_RECORD
  5
1C9
330
1
100
AcDbSymbolTableRecord
100
AcDbBlockTableRecord
  2
block 27
340
0
102
{BLKREFS
331
1CA
102
}
 70
     0
280
     1
281
     0
  0
BLOCK_RECORD
  5
1FE
330
1
100
AcDbSymbolTableRecord
100
AcDbBlockTableRecord
  2
block 28
340
0
102
{BLKREFS
331
1FF
102
}
 70
     0
280
     1
281
     0
  0
BLOCK_RECORD
  5
202
330
1
100
AcDbSymbolTableRecord
100
AcDbBlockTableRecord
  2
block 29
340
0
102
{BLKREFS
331
203
102
}
 70
     0
280
     1
281
     0
  0
BLOCK_RECORD
  5
216
330
1
100
AcDbSymbolTableRecord
100
AcDbBlockTableRecord
  2
block 30
340
0
102
{BLKREFS
331
217
102
}
 70
     0
280
     1
281
     0
  0
BLOCK_RECORD
  5
222
330
1
100
AcDbSymbolTableRecord
100
AcDbBlockTableRecord
  2
block 31
340
0
102
{BLKREFS
331
223
102
}
 70
     0
280
     1
281
     0
  0
BLOCK_RECORD
  5
226
330
1
100
AcDbSymbolTableRecord
100
AcDbBlockTableRecord
  2
block 32
340
0
102
{BLKREFS
331
227
102
}
 70
     0
280
     1
281
     0
  0
BLOCK_RECORD
  5
22D
330
1
100
AcDbSymbolTableRecord
100
AcDbBlockTableRecord
  2
block 33
340
0
102
{BLKREFS
331
22E
102
}
 70
     0
280
     1
281
     0
  0
BLOCK_RECORD
  5
262
330
1
100
AcDbSymbolTableRecord
100
AcDbBlockTableRecord
  2
block 34
340
0
102
{BLKREFS
331
263
102
}
 70
     0
280
     1
281
     0
  0
BLOCK_RECORD
  5
266
330
1
100
AcDbSymbolTableRecord
100
AcDbBlockTableRecord
  2
block 35
340
0
102
{BLKREFS
331
267
102
}
 70
     0
280
     1
281
     0
  0
BLOCK_RECORD
  5
27A
330
1
100
AcDbSymbolTableRecord
100
AcDbBlockTableRecord
  2
block 36
340
0
102
{BLKREFS
331
27B
102
}
 70
     0
280
     1
281
     0
  0
BLOCK_RECORD
  5
286
330
1
100
AcDbSymbolTableRecord
100
AcDbBlockTableRecord
  2
block 37
340
0
102
{BLKREFS
331
287
102
}
 70
     0
280
     1
281
     0
  0
BLOCK_RECORD
  5
28A
330
1
100
AcDbSymbolTableRecord
100
AcDbBlockTableRecord
  2
block 38
340
0
102
{BLKREFS
331
28B
102
}
 70
     0
280
     1
281
     0
  0
BLOCK_RECORD
  5
28E
330
1
100
AcDbSymbolTableRecord
100
AcDbBlockTableRecord
  2
block 39
340
0
102
{BLKREFS
331
28F
102
}
 70
     0
280
     1
281
     0
  0
BLOCK_RECORD
  5
295
330
1
100
AcDbSymbolTableRecord
100
AcDbBlockTableRecord
  2
block 40
340
0
102
{BLKREFS
331
296
102
}
 70
     0
280
     1
281
     0
  0
BLOCK_RECORD
  5
2CA
330
1
100
AcDbSymbolTableRecord
100
AcDbBlockTableRecord
  2
block 41
340
0
102
{BLKREFS
331
2CB
102
}
 70
     0
280
     1
281
     0
  0
BLOCK_RECORD
  5
2CE
330
1
100
AcDbSymbolTableRecord
100
AcDbBlockTableRecord
  2
block 42
340
0
102
{BLKREFS
331
2CF
102
}
 70
     0
280
     1
281
     0
  0
BLOCK_RECORD
  5
2E2
330
1
100
AcDbSymbolTableRecord
100
AcDbBlockTableRecord
  2
block 43
340
0
102
{BLKREFS
331
2E3
102
}
 70
     0
280
     1
281
     0
  0
BLOCK_RECORD
  5
2EE
330
1
100
AcDbSymbolTableRecord
100
AcDbBlockTableRecord
  2
block 44
340
0
102
{BLKREFS
331
2EF
102
}
 70
     0
280
     1
281
     0
  0
BLOCK_RECORD
  5
2F2
330
1
100
AcDbSymbolTableRecord
100
AcDbBlockTableRecord
  2
block 45
340
0
102
{BLKREFS
331
2F3
102
}
 70
     0
280
     1
281
     0
  0
BLOCK_RECORD
  5
2F9
330
1
100
AcDbSymbolTableRecord
100
AcDbBlockTableRecord
  2
block 46
340
0
102
{BLKREFS
331
2FA
102
}
 70
     0
280
     1
281
     0
  0
BLOCK_RECORD
  5
32E
330
1
100
AcDbSymbolTableRecord
100
AcDbBlockTableRecord
  2
block 47
340
0
102
{BLKREFS
331
32F
102
}
 70
     0
280
     1
281
     0
  0
BLOCK_RECORD
  5
332
330
1
100
AcDbSymbolTableRecord
100
AcDbBlockTableRecord
  2
block 48
340
0
102
{BLKREFS
331
333
102
}
 70
     0
280
     1
281
     0
  0
BLOCK_RECORD
  5
346
330
1
100
AcDbSymbolTableRecord
100
AcDbBlockTableRecord
  2
block 49
340
0
102
{BLKREFS
331
347
102
}
 70
     0
280
     1
281
     0
  0
ENDTAB
  0
ENDSEC
  0
SECTION
  2
BLOCKS
  0
BLOCK
  5
20
330
1F
100
AcDbEntity
  8
0
100
AcDbBlockBegin
  2
*Model_Space
 70
     0
 10
0.0
 20
0.0
 30
0.0
  3
*Model_Space
  1

  0
ENDBLK
  5
21
330
1F
100
AcDbEntity
  8
0
100
AcDbBlockEnd
  0
BLOCK
  5
1C
330
1B
100
AcDbEntity
 67
     1
  8
0
100
AcDbBlockBegin
  2
*Paper_Space
 70
     0
 10
0.0
 20
0.0
 30
0.0
  3
*Paper_Space
  1

  0
ENDBLK
  5
1D
330
1B
100
AcDbEntity
 67
     1
  8
0
100
AcDbBlockEnd
  0
BLOCK
  5
24
330
23
100
AcDbEntity
  8
0
100
AcDbBlockBegin
  2
*Paper_Space0
 70
     0
 10
0.0
 20
0.0
 30
0.0
  3
*Paper_Space0
  1

  0
ENDBLK
  5
25
330
23
100
AcDbEntity
  8
0
100
AcDbBlockEnd
  0
BLOCK
  5
43
330
41
100
AcDbEntity
  8
0
100
AcDbBlockBegin
  2
block 2
 70
     0
 10
0.0
 20
0.0
 30
0.0
  3
block 2
  1

  0
INSERT
  5
46
330
41
100
AcDbEntity
  8
Wood
100
AcDbBlockReference
  2
block 3
 10
0.0
 20
0.0
 30
0.0
  0
INSERT
  5
5A
330
41
100
AcDbEntity
  8
Wood
100
AcDbBlockReference
  2
block 4
 10
0.0
 20
0.0
 30
0.0
  0
INSERT
  5
62
330
41
100
AcDbEntity
  8
Wood
100
AcDbBlockReference
  2
block 5
 10
0.0
 20
0.0
 30
0.0
  0
INSERT
  5
6A
330
41
100
AcDbEntity
  8
Wood
100
AcDbBlockReference
  2
block 6
 10
0.0
 20
0.0
 30
0.0
  0
INSERT
  5
72
330
41
100
AcDbEntity
  8
Wood
100
AcDbBlockReference
  2
block 7
 10
0.0
 20
0.0
 30
0.0
  0
INSERT
  5
7F
330
41
100
AcDbEntity
  8
Wood
100
AcDbBlockReference
  2
block 8
 10
0.0
 20
0.0
 30
0.0
  0
ENDBLK
  5
44
330
41
100
AcDbEntity
  8
0
100
AcDbBlockEnd
  0
BLOCK
  5
47
330
45
100
AcDbEntity
  8
0
100
AcDbBlockBegin
  2
block 3
 70
     0
 10
0.0
 20
0.0
 30
0.0
  3
block 3
  1

  0
POLYLINE
  5
49
330
45
100
AcDbEntity
  8
Wood
 62
   250
420
  2301728
370
    25
100
AcDb2dPolyline
 66
     1
 10
0.0
 20
0.0
 30
0.0
  0
VERTEX
  5
4A
330
49
100
AcDbEntity
  8
Wood
 62
   250
420
  2301728
370
    25
100
AcDbVertex
100
AcDb2dVertex
 10
496.1885804359008
 20
320.7031833036508
 30
0.0
  0
VERTEX
  5
4B
330
49
100
AcDbEntity
  8
Wood
 62
   250
420
  2301728
370
    25
100
AcDbVertex
100
AcDb2dVertex
 10
478.5520673498686
 20
314.1462870022124
 30
0.0
  0
VERTEX
  5
4C
330
49
100
AcDbEntity
  8
Wood
 62
   250
420
  2301728
370
    25
100
AcDbVertex
100
AcDb2dVertex
 10
357.342025510191
 20
338.9175882326035
 30
0.0
  0
VERTEX
  5
4D
330
49
100
AcDbEntity
  8
Wood
 62
   250
420
  2301728
370
    25
100
AcDbVertex
100
AcDb2dVertex
 10
267.9432044476644
 20
357.1877339447119
 30
0.0
  0
VERTEX
  5
4E
330
49
100
AcDbEntity
  8
Wood
 62
   250
420
  2301728
370
    25
100
AcDbVertex
100
AcDb2dVertex
 10
267.9432044476644
 20
414.7243218046115
 30
0.0
  0
VERTEX
  5
4F
330
49
100
AcDbEntity
  8
Wood
 62
   250
420
  2301728
370
    25
100
AcDbVertex
100
AcDb2dVertex
 10
256.2307970550173
 20
425.4176379362079
 30
0.0
  0
VERTEX
  5
50
330
49
100
AcDbEntity
  8
Wood
 62
   250
420
  2301728
370
    25
100
AcDbVertex
100
AcDb2dVertex
 10
271.8699172751176
 20
434.7321241281552
 30
0.0
  0
VERTEX
  5
51
330
49
100
AcDbEntity
  8
Wood
 62
   250
420
  2301728
370
    25
100
AcDbVertex
100
AcDb2dVertex
 10
277.8140412410257
 20
437.3677971436964
 30
0.0
  0
VERTEX
  5
52
330
49
100
AcDbEntity
  8
Wood
 62
   250
420
  2301728
370
    25
100
AcDbVertex
100
AcDb2dVertex
 10
267.9432044476644
 20
446.5230139790256
 30
0.0
  0
VERTEX
  5
53
330
49
100
AcDbEntity
  8
Wood
 62
   250
420
  2301728
370
    25
100
AcDbVertex
100
AcDb2dVertex
 10
267.9432044476644
 20
504.0596018389278
 30
0.0
  0
VERTEX
  5
54
330
49
100
AcDbEntity
  8
Wood
 62
   250
420
  2301728
370
    25
100
AcDbVertex
100
AcDb2dVertex
 10
283.7079410862107
 20
514.7354107643532
 30
0.0
  0
VERTEX
  5
55
330
49
100
AcDbEntity
  8
Wood
 62
   250
420
  2301728
370
    25
100
AcDbVertex
100
AcDb2dVertex
 10
496.1885804359008
 20
455.6095839639365
 30
0.0
  0
VERTEX
  5
56
330
49
100
AcDbEntity
  8
Wood
 62
   250
420
  2301728
370
    25
100
AcDbVertex
100
AcDb2dVertex
 10
496.1885804359008
 20
320.7031833036508
 30
0.0
  0
SEQEND
  5
58
330
49
100
AcDbEntity
  8
Wood
 62
   250
420
  2301728
370
    25
  0
HATCH
  5
57
330
45
100
AcDbEntity
  8
Wood
 62
    43
420
 15510364
100
AcDbHatch
 10
0.0
 20
0.0
 30
0.0
210
0.0
220
0.0
230
1.0
  2
SOLID
 70
     1
 71
     0
 91
        1
 92
        1
 93
       12
 72
     1
 10
496.1885804359008
 20
320.7031833036508
 11
478.5520673498686
 21
314.1462870022124
 72
     1
 10
478.5520673498686
 20
314.1462870022124
 11
357.342025510191
 21
338.9175882326035
 72
     1
 10
357.342025510191
 20
338.9175882326035
 11
267.9432044476644
 21
357.1877339447119
 72
     1
 10
267.9432044476644
 20
357.1877339447119
 11
267.9432044476644
 21
414.7243218046115
 72
     1
 10
267.9432044476644
 20
414.7243218046115
 11
256.2307970550173
 21
425.4176379362079
 72
     1
 10
256.2307970550173
 20
425.4176379362079
 11
271.8699172751176
 21
434.7321241281552
 72
     1
 10
271.8699172751176
 20
434.7321241281552
 11
277.8140412410257
 21
437.3677971436964
 72
     1
 10
277.8140412410257
 20
437.3677971436964
 11
267.9432044476644
 21
446.5230139790256
 72
     1
 10
267.9432044476644
 20
446.5230139790256
 11
267.9432044476644
 21
504.0596018389278
 72
     1
 10
267.9432044476644
 20
504.0596018389278
 11
283.7079410862107
 21
514.7354107643532
 72
     1
 10
283.7079410862107
 20
514.7354107643532
 11
496.1885804359008
 21
455.6095839639365
 72
     1
 10
496.1885804359008
 20
455.6095839639365
 11
496.1885804359008
 21
320.7031833036508
 97
        0
 75
     2
 76
     1
 98
        0
  0
ENDBLK
  5
48
330
45
100
AcDbEntity
  8
0
100
AcDbBlockEnd
  0
BLOCK
  5
5B
330
59
100
AcDbEntity
  8
0
100
AcDbBlockBegin
  2
block 4
 70
     0
 10
0.0
 20
0.0
 30
0.0
  3
block 4
  1

  0
POLYLINE
  5
5D
330
59
100
AcDbEntity
  8
Wood
 62
   250
420
  2301728
370
    18
100
AcDb2dPolyline
 66
     1
 10
0.0
 20
0.0
 30
0.0
  0
VERTEX
  5
5E
330
5D
100
AcDbEntity
  8
Wood
 62
   250
420
  2301728
370
    18
100
AcDbVertex
100
AcDb2dVertex
 10
283.7079410862107
 20
456.1659616840579
 30
0.0
  0
VERTEX
  5
5F
330
5D
100
AcDbEntity
  8
Wood
 62
   250
420
  2301728
370
    18
100
AcDbVertex
100
AcDb2dVertex
 10
267.9432044476644
 20
446.5230139790256
 30
0.0
  0
SEQEND
  5
60
330
5D
100
AcDbEntity
  8
Wood
 62
   250
420
  2301728
370
    18
  0
ENDBLK
  5
5C
330
59
100
AcDbEntity
  8
0
100
AcDbBlockEnd
  0
BLOCK
  5
63
330
61
100
AcDbEntity
  8
0
100
AcDbBlockBegin
  2
block 5
 70
     0
 10
0.0
 20
0.0
 30
0.0
  3
block 5
  1

  0
POLYLINE
  5
65
330
61
100
AcDbEntity
  8
Wood
 62
   250
420
  2301728
370
    18
100
AcDb2dPolyline
 66
     1
 10
0.0
 20
0.0
 30
0.0
  0
VERTEX
  5
66
330
65
100
AcDbEntity
  8
Wood
 62
   250
420
  2301728
370
    18
100
AcDbVertex
100
AcDb2dVertex
 10
283.7079410862107
 20
365.2269899851317
 30
0.0
  0
VERTEX
  5
67
330
65
100
AcDbEntity
  8
Wood
 62
   250
420
  2301728
370
    18
100
AcDbVertex
100
AcDb2dVertex
 10
267.9432044476644
 20
357.1877339447119
 30
0.0
  0
SEQEND
  5
68
330
65
100
AcDbEntity
  8
Wood
 62
   250
420
  2301728
370
    18
  0
ENDBLK
  5
64
330
61
100
AcDbEntity
  8
0
100
AcDbBlockEnd
  0
BLOCK
  5
6B
330
69
100
AcDbEntity
  8
0
100
AcDbBlockBegin
  2
block 6
 70
     0
 10
0.0
 20
0.0
 30
0.0
  3
block 6
  1

  0
POLYLINE
  5
6D
330
69
100
AcDbEntity
  8
Wood
 62
   250
420
  2301728
370
    18
100
AcDb2dPolyline
 66
     1
 10
0.0
 20
0.0
 30
0.0
  0
VERTEX
  5
6E
330
6D
100
AcDbEntity
  8
Wood
 62
   250
420
  2301728
370
    18
100
AcDbVertex
100
AcDb2dVertex
 10
283.7079410862107
 20
423.7964390654306
 30
0.0
  0
VERTEX
  5
6F
330
6D
100
AcDbEntity
  8
Wood
 62
   250
420
  2301728
370
    18
100
AcDbVertex
100
AcDb2dVertex
 10
267.9432044476644
 20
414.7243218046115
 30
0.0
  0
SEQEND
  5
70
330
6D
100
AcDbEntity
  8
Wood
 62
   250
420
  2301728
370
    18
  0
ENDBLK
  5
6C
330
69
100
AcDbEntity
  8
0
100
AcDbBlockEnd
  0
BLOCK
  5
73
330
71
100
AcDbEntity
  8
0
100
AcDbBlockBegin
  2
block 7
 70
     0
 10
0.0
 20
0.0
 30
0.0
  3
block 7
  1

  0
POLYLINE
  5
75
330
71
100
AcDbEntity
  8
Wood
 62
   250
420
  2301728
370
    18
100
AcDb2dPolyline
 66
     1
 10
0.0
 20
0.0
 30
0.0
  0
VERTEX
  5
76
330
75
100
AcDbEntity
  8
Wood
 62
   250
420
  2301728
370
    18
100
AcDbVertex
100
AcDb2dVertex
 10
496.1885804359008
 20
320.7031833036508
 30
0.0
  0
VERTEX
  5
77
330
75
100
AcDbEntity
  8
Wood
 62
   250
420
  2301728
370
    18
100
AcDbVertex
100
AcDb2dVertex
 10
283.7079410862107
 20
365.2269899851317
 30
0.0
  0
VERTEX
  5
78
330
75
100
AcDbEntity
  8
Wood
 62
   250
420
  2301728
370
    18
100
AcDbVertex
100
AcDb2dVertex
 10
283.7079410862107
 20
423.7964390654306
 30
0.0
  0
VERTEX
  5
79
330
75
100
AcDbEntity
  8
Wood
 62
   250
420
  2301728
370
    18
100
AcDbVertex
100
AcDb2dVertex
 10
271.8699172751176
 20
434.7321241281552
 30
0.0
  0
VERTEX
  5
7A
330
75
100
AcDbEntity
  8
Wood
 62
   250
420
  2301728
370
    18
100
AcDbVertex
100
AcDb2dVertex
 10
295.4185220278787
 20
445.1737674142751
 30
0.0
  0
VERTEX
  5
7B
330
75
100
AcDbEntity
  8
Wood
 62
   250
420
  2301728
370
    18
100
AcDbVertex
100
AcDb2dVertex
 10
283.7079410862107
 20
456.1659616840579
 30
0.0
  0
VERTEX
  5
7C
330
75
100
AcDbEntity
  8
Wood
 62
   250
420
  2301728
370
    18
100
AcDbVertex
100
AcDb2dVertex
 10
283.7079410862107
 20
514.7354107643532
 30
0.0
  0
SEQEND
  5
7D
330
75
100
AcDbEntity
  8
Wood
 62
   250
420
  2301728
370
    18
  0
ENDBLK
  5
74
330
71
100
AcDbEntity
  8
0
100
AcDbBlockEnd
  0
BLOCK
  5
80
330
7E
100
AcDbEntity
  8
0
100
AcDbBlockBegin
  2
block 8
 70
     0
 10
0.0
 20
0.0
 30
0.0
  3
block 8
  1

  0
INSERT
  5
83
330
7E
100
AcDbEntity
  8
Wood
100
AcDbBlockReference
  2
block 9
 10
0.0
 20
0.0
 30
0.0
  0
INSERT
  5
92
330
7E
100
AcDbEntity
  8
Wood
100
AcDbBlockReference
  2
block 10
 10
0.0
 20
0.0
 30
0.0
  0
INSERT
  5
A1
330
7E
100
AcDbEntity
  8
Wood
100
AcDbBlockReference
  2
block 11
 10
0.0
 20
0.0
 30
0.0
  0
INSERT
  5
B0
330
7E
100
AcDbEntity
  8
Wood
100
AcDbBlockReference
  2
block 12
 10
0.0
 20
0.0
 30
0.0
  0
INSERT
  5
BF
330
7E
100
AcDbEntity
  8
Wood
100
AcDbBlockReference
  2
block 13
 10
0.0
 20
0.0
 30
0.0
  0
ENDBLK
  5
81
330
7E
100
AcDbEntity
  8
0
100
AcDbBlockEnd
  0
BLOCK
  5
84
330
82
100
AcDbEntity
  8
0
100
AcDbBlockBegin
  2
block 9
 70
     0
 10
0.0
 20
0.0
 30
0.0
  3
block 9
  1

  0
POLYLINE
  5
86
330
82
100
AcDbEntity
  8
Wood
 62
   250
420
  2301728
370
     9
100
AcDb2dPolyline
 66
     1
 10
0.0
 20
0.0
 30
0.0
  0
VERTEX
  5
87
330
86
100
AcDbEntity
  8
Wood
 62
   250
420
  2301728
370
     9
100
AcDbVertex
100
AcDb2dVertex
 10
293.0549214005523
 20
443.9648028679931
 30
0.0
  0
VERTEX
  5
88
330
86
100
AcDbEntity
  8
Wood
 62
   250
420
  2301728
370
     9
100
AcDbVertex
100
AcDb2dVertex
 10
280.9242292383196
 20
454.4950966116676
 30
0.0
  0
VERTEX
  5
89
330
86
100
AcDbEntity
  8
Wood
 62
   250
420
  2301728
370
     9
100
AcDbVertex
100
AcDb2dVertex
 10
280.9242292383196
 20
512.6635026907597
 30
0.0
  0
SEQEND
  5
8A
330
86
100
AcDbEntity
  8
Wood
 62
   250
420
  2301728
370
     9
  0
POLYLINE
  5
8B
330
82
100
AcDbEntity
  8
Wood
 62
   250
420
  2301728
370
     9
100
AcDb2dPolyline
 66
     1
 10
0.0
 20
0.0
 30
0.0
  0
VERTEX
  5
8C
330
8B
100
AcDbEntity
  8
Wood
 62
   250
420
  2301728
370
     9
100
AcDbVertex
100
AcDb2dVertex
 10
493.2599712696574
 20
319.614386072768
 30
0.0
  0
VERTEX
  5
8D
330
8B
100
AcDbEntity
  8
Wood
 62
   250
420
  2301728
370
     9
100
AcDbVertex
100
AcDb2dVertex
 10
280.9242292383196
 20
363.7972932091288
 30
0.0
  0
VERTEX
  5
8E
330
8B
100
AcDbEntity
  8
Wood
 62
   250
420
  2301728
370
     9
100
AcDbVertex
100
AcDb2dVertex
 10
280.9242292383196
 20
422.1558956500112
 30
0.0
  0
VERTEX
  5
8F
330
8B
100
AcDbEntity
  8
Wood
 62
   250
420
  2301728
370
     9
100
AcDbVertex
100
AcDb2dVertex
 10
269.6832554110106
 20
433.1736346231091
 30
0.0
  0
SEQEND
  5
90
330
8B
100
AcDbEntity
  8
Wood
 62
   250
420
  2301728
370
     9
  0
ENDBLK
  5
85
330
82
100
AcDbEntity
  8
0
100
AcDbBlockEnd
  0
BLOCK
  5
93
330
91
100
AcDbEntity
  8
0
100
AcDbBlockBegin
  2
block 10
 70
     0
 10
0.0
 20
0.0
 30
0.0
  3
block 10
  1

  0
POLYLINE
  5
95
330
91
100
AcDbEntity
  8
Wood
 62
   250
420
  2301728
370
     9
100
AcDb2dPolyline
 66
     1
 10
0.0
 20
0.0
 30
0.0
  0
VERTEX
  5
96
330
95
100
AcDbEntity
  8
Wood
 62
   250
420
  2301728
370
     9
100
AcDbVertex
100
AcDb2dVertex
 10
290.3449505420176
 20
442.9124258050524
 30
0.0
  0
VERTEX
  5
97
330
95
100
AcDbEntity
  8
Wood
 62
   250
420
  2301728
370
     9
100
AcDbVertex
100
AcDb2dVertex
 10
278.5701915279578
 20
453.2771396001517
 30
0.0
  0
VERTEX
  5
98
330
95
100
AcDbEntity
  8
Wood
 62
   250
420
  2301728
370
     9
100
AcDbVertex
100
AcDb2dVertex
 10
278.5701915279578
 20
511.2606342178824
 30
0.0
  0
SEQEND
  5
99
330
95
100
AcDbEntity
  8
Wood
 62
   250
420
  2301728
370
     9
  0
POLYLINE
  5
9A
330
91
100
AcDbEntity
  8
Wood
 62
   250
420
  2301728
370
     9
100
AcDb2dPolyline
 66
     1
 10
0.0
 20
0.0
 30
0.0
  0
VERTEX
  5
9B
330
9A
100
AcDbEntity
  8
Wood
 62
   250
420
  2301728
370
     9
100
AcDbVertex
100
AcDb2dVertex
 10
490.7989755461786
 20
318.6994379944017
 30
0.0
  0
VERTEX
  5
9C
330
9A
100
AcDbEntity
  8
Wood
 62
   250
420
  2301728
370
     9
100
AcDbVertex
100
AcDb2dVertex
 10
278.5701915279578
 20
362.8255416075499
 30
0.0
  0
VERTEX
  5
9D
330
9A
100
AcDbEntity
  8
Wood
 62
   250
420
  2301728
370
     9
100
AcDbVertex
100
AcDb2dVertex
 10
278.5701915279578
 20
420.9898643250744
 30
0.0
  0
VERTEX
  5
9E
330
9A
100
AcDbEntity
  8
Wood
 62
   250
420
  2301728
370
     9
100
AcDbVertex
100
AcDb2dVertex
 10
267.1844899936086
 20
431.9001607356504
 30
0.0
  0
SEQEND
  5
9F
330
9A
100
AcDbEntity
  8
Wood
 62
   250
420
  2301728
370
     9
  0
ENDBLK
  5
94
330
91
100
AcDbEntity
  8
0
100
AcDbBlockEnd
  0
BLOCK
  5
A2
330
A0
100
AcDbEntity
  8
0
100
AcDbBlockBegin
  2
block 11
 70
     0
 10
0.0
 20
0.0
 30
0.0
  3
block 11
  1

  0
POLYLINE
  5
A4
330
A0
100
AcDbEntity
  8
Wood
 62
   250
420
  2301728
370
     9
100
AcDb2dPolyline
 66
     1
 10
0.0
 20
0.0
 30
0.0
  0
VERTEX
  5
A5
330
A4
100
AcDbEntity
  8
Wood
 62
   250
420
  2301728
370
     9
100
AcDbVertex
100
AcDb2dVertex
 10
287.6252429127235
 20
441.5255189184918
 30
0.0
  0
VERTEX
  5
A6
330
A4
100
AcDbEntity
  8
Wood
 62
   250
420
  2301728
370
     9
100
AcDbVertex
100
AcDb2dVertex
 10
276.187234123483
 20
451.7325029170888
 30
0.0
  0
VERTEX
  5
A7
330
A4
100
AcDbEntity
  8
Wood
 62
   250
420
  2301728
370
     9
100
AcDbVertex
100
AcDb2dVertex
 10
276.187234123483
 20
509.5421255636884
 30
0.0
  0
SEQEND
  5
A8
330
A4
100
AcDbEntity
  8
Wood
 62
   250
420
  2301728
370
     9
  0
POLYLINE
  5
A9
330
A0
100
AcDbEntity
  8
Wood
 62
   250
420
  2301728
370
     9
100
AcDb2dPolyline
 66
     1
 10
0.0
 20
0.0
 30
0.0
  0
VERTEX
  5
AA
330
A9
100
AcDbEntity
  8
Wood
 62
   250
420
  2301728
370
     9
100
AcDbVertex
100
AcDb2dVertex
 10
487.6539625956575
 20
317.652025565445
 30
0.0
  0
VERTEX
  5
AB
330
A9
100
AcDbEntity
  8
Wood
 62
   250
420
  2301728
370
     9
100
AcDbVertex
100
AcDb2dVertex
 10
276.187234123483
 20
361.5180506837296
 30
0.0
  0
VERTEX
  5
AC
330
A9
100
AcDbEntity
  8
Wood
 62
   250
420
  2301728
370
     9
100
AcDbVertex
100
AcDb2dVertex
 10
276.187234123483
 20
419.4940532876044
 30
0.0
  0
VERTEX
  5
AD
330
A9
100
AcDbEntity
  8
Wood
 62
   250
420
  2301728
370
     9
100
AcDbVertex
100
AcDb2dVertex
 10
264.664556464053
 20
430.3041163233102
 30
0.0
  0
SEQEND
  5
AE
330
A9
100
AcDbEntity
  8
Wood
 62
   250
420
  2301728
370
     9
  0
ENDBLK
  5
A3
330
A0
100
AcDbEntity
  8
0
100
AcDbBlockEnd
  0
BLOCK
  5
B1
330
AF
100
AcDbEntity
  8
0
100
AcDbBlockBegin
  2
block 12
 70
     0
 10
0.0
 20
0.0
 30
0.0
  3
block 12
  1

  0
POLYLINE
  5
B3
330
AF
100
AcDbEntity
  8
Wood
 62
   250
420
  2301728
370
     9
100
AcDb2dPolyline
 66
     1
 10
0.0
 20
0.0
 30
0.0
  0
VERTEX
  5
B4
330
B3
100
AcDbEntity
  8
Wood
 62
   250
420
  2301728
370
     9
100
AcDbVertex
100
AcDb2dVertex
 10
284.4575710349882
 20
440.3135924040771
 30
0.0
  0
VERTEX
  5
B5
330
B3
100
AcDbEntity
  8
Wood
 62
   250
420
  2301728
370
     9
100
AcDbVertex
100
AcDb2dVertex
 10
273.5487142136499
 20
449.8047062518117
 30
0.0
  0
VERTEX
  5
B6
330
B3
100
AcDbEntity
  8
Wood
 62
   250
420
  2301728
370
     9
100
AcDbVertex
100
AcDb2dVertex
 10
273.5487142136499
 20
507.4321773096062
 30
0.0
  0
SEQEND
  5
B7
330
B3
100
AcDbEntity
  8
Wood
 62
   250
420
  2301728
370
     9
  0
POLYLINE
  5
B8
330
AF
100
AcDbEntity
  8
Wood
 62
   250
420
  2301728
370
     9
100
AcDb2dPolyline
 66
     1
 10
0.0
 20
0.0
 30
0.0
  0
VERTEX
  5
B9
330
B8
100
AcDbEntity
  8
Wood
 62
   250
420
  2301728
370
     9
100
AcDbVertex
100
AcDb2dVertex
 10
484.695257121024
 20
316.4301998195042
 30
0.0
  0
VERTEX
  5
BA
330
B8
100
AcDbEntity
  8
Wood
 62
   250
420
  2301728
370
     9
100
AcDbVertex
100
AcDb2dVertex
 10
273.5487142136499
 20
359.8434207771115
 30
0.0
  0
VERTEX
  5
BB
330
B8
100
AcDbEntity
  8
Wood
 62
   250
420
  2301728
370
     9
100
AcDbVertex
100
AcDb2dVertex
 10
273.5487142136499
 20
417.6174072986587
 30
0.0
  0
VERTEX
  5
BC
330
B8
100
AcDbEntity
  8
Wood
 62
   250
420
  2301728
370
     9
100
AcDbVertex
100
AcDb2dVertex
 10
261.8853737011332
 20
428.3199284500943
 30
0.0
  0
SEQEND
  5
BD
330
B8
100
AcDbEntity
  8
Wood
 62
   250
420
  2301728
370
     9
  0
ENDBLK
  5
B2
330
AF
100
AcDbEntity
  8
0
100
AcDbBlockEnd
  0
BLOCK
  5
C0
330
BE
100
AcDbEntity
  8
0
100
AcDbBlockBegin
  2
block 13
 70
     0
 10
0.0
 20
0.0
 30
0.0
  3
block 13
  1

  0
POLYLINE
  5
C2
330
BE
100
AcDbEntity
  8
Wood
 62
   250
420
  2301728
370
     9
100
AcDb2dPolyline
 66
     1
 10
0.0
 20
0.0
 30
0.0
  0
VERTEX
  5
C3
330
C2
100
AcDbEntity
  8
Wood
 62
   250
420
  2301728
370
     9
100
AcDbVertex
100
AcDb2dVertex
 10
281.1821554378903
 20
438.8612464312364
 30
0.0
  0
VERTEX
  5
C4
330
C2
100
AcDbEntity
  8
Wood
 62
   250
420
  2301728
370
     9
100
AcDbVertex
100
AcDb2dVertex
 10
270.8068134823834
 20
448.42070173703
 30
0.0
  0
VERTEX
  5
C5
330
C2
100
AcDbEntity
  8
Wood
 62
   250
420
  2301728
370
     9
100
AcDbVertex
100
AcDb2dVertex
 10
270.8068134823834
 20
505.8522218432327
 30
0.0
  0
SEQEND
  5
C6
330
C2
100
AcDbEntity
  8
Wood
 62
   250
420
  2301728
370
     9
  0
POLYLINE
  5
C7
330
BE
100
AcDbEntity
  8
Wood
 62
   250
420
  2301728
370
     9
100
AcDb2dPolyline
 66
     1
 10
0.0
 20
0.0
 30
0.0
  0
VERTEX
  5
C8
330
C7
100
AcDbEntity
  8
Wood
 62
   250
420
  2301728
370
     9
100
AcDbVertex
100
AcDb2dVertex
 10
481.0454832815121
 20
315.2580099314073
 30
0.0
  0
VERTEX
  5
C9
330
C7
100
AcDbEntity
  8
Wood
 62
   250
420
  2301728
370
     9
100
AcDbVertex
100
AcDb2dVertex
 10
270.8068134823834
 20
358.7285508079412
 30
0.0
  0
VERTEX
  5
CA
330
C7
100
AcDbEntity
  8
Wood
 62
   250
420
  2301728
370
     9
100
AcDbVertex
100
AcDb2dVertex
 10
270.8068134823834
 20
416.2884285114487
 30
0.0
  0
VERTEX
  5
CB
330
C7
100
AcDbEntity
  8
Wood
 62
   250
420
  2301728
370
     9
100
AcDbVertex
100
AcDb2dVertex
 10
258.9853217916334
 20
426.8813688958089
 30
0.0
  0
SEQEND
  5
CC
330
C7
100
AcDbEntity
  8
Wood
 62
   250
420
  2301728
370
     9
  0
ENDBLK
  5
C1
330
BE
100
AcDbEntity
  8
0
100
AcDbBlockEnd
  0
BLOCK
  5
CF
330
CD
100
AcDbEntity
  8
0
100
AcDbBlockBegin
  2
block 14
 70
     0
 10
0.0
 20
0.0
 30
0.0
  3
block 14
  1

  0
INSERT
  5
D2
330
CD
100
AcDbEntity
  8
Wood
100
AcDbBlockReference
  2
block 15
 10
0.0
 20
0.0
 30
0.0
  0
INSERT
  5
E9
330
CD
100
AcDbEntity
  8
Wood
100
AcDbBlockReference
  2
block 16
 10
0.0
 20
0.0
 30
0.0
  0
INSERT
  5
F1
330
CD
100
AcDbEntity
  8
Wood
100
AcDbBlockReference
  2
block 17
 10
0.0
 20
0.0
 30
0.0
  0
INSERT
  5
F9
330
CD
100
AcDbEntity
  8
Wood
100
AcDbBlockReference
  2
block 18
 10
0.0
 20
0.0
 30
0.0
  0
INSERT
  5
101
330
CD
100
AcDbEntity
  8
Wood
100
AcDbBlockReference
  2
block 19
 10
0.0
 20
0.0
 30
0.0
  0
INSERT
  5
10D
330
CD
100
AcDbEntity
  8
Wood
100
AcDbBlockReference
  2
block 20
 10
0.0
 20
0.0
 30
0.0
  0
POLYLINE
  5
114
330
CD
100
AcDbEntity
  8
Wood
 62
   250
420
  2301728
370
     9
100
AcDb2dPolyline
 66
     1
 10
0.0
 20
0.0
 30
0.0
  0
VERTEX
  5
115
330
114
100
AcDbEntity
  8
Wood
 62
   250
420
  2301728
370
     9
100
AcDbVertex
100
AcDb2dVertex
 10
344.2707223635407
 20
474.4001018365252
 30
0.0
  0
VERTEX
  5
116
330
114
100
AcDbEntity
  8
Wood
 62
   250
420
  2301728
370
     9
100
AcDbVertex
100
AcDb2dVertex
 10
331.2024658216524
 20
485.3455275452898
 30
0.0
  0
VERTEX
  5
117
330
114
100
AcDbEntity
  8
Wood
 62
   250
420
  2301728
370
     9
100
AcDbVertex
100
AcDb2dVertex
 10
331.2024658216524
 20
546.9915437853433
 30
0.0
  0
SEQEND
  5
118
330
114
100
AcDbEntity
  8
Wood
 62
   250
420
  2301728
370
     9
  0
POLYLINE
  5
119
330
CD
100
AcDbEntity
  8
Wood
 62
   250
420
  2301728
370
     9
100
AcDb2dPolyline
 66
     1
 10
0.0
 20
0.0
 30
0.0
  0
VERTEX
  5
11A
330
119
100
AcDbEntity
  8
Wood
 62
   250
420
  2301728
370
     9
100
AcDbVertex
100
AcDb2dVertex
 10
549.2628888467698
 20
340.6714000056072
 30
0.0
  0
VERTEX
  5
11B
330
119
100
AcDbEntity
  8
Wood
 62
   250
420
  2301728
370
     9
100
AcDbVertex
100
AcDb2dVertex
 10
331.4932381309445
 20
389.6658246106354
 30
0.0
  0
VERTEX
  5
11C
330
119
100
AcDbEntity
  8
Wood
 62
   250
420
  2301728
370
     9
100
AcDbVertex
100
AcDb2dVertex
 10
331.4932381309445
 20
451.6795046960297
 30
0.0
  0
VERTEX
  5
11D
330
119
100
AcDbEntity
  8
Wood
 62
   250
420
  2301728
370
     9
100
AcDbVertex
100
AcDb2dVertex
 10
319.345394821954
 20
463.1938910890894
 30
0.0
  0
SEQEND
  5
11E
330
119
100
AcDbEntity
  8
Wood
 62
   250
420
  2301728
370
     9
  0
POLYLINE
  5
11F
330
CD
100
AcDbEntity
  8
Wood
 62
   250
420
  2301728
370
     9
100
AcDb2dPolyline
 66
     1
 10
0.0
 20
0.0
 30
0.0
  0
VERTEX
  5
120
330
11F
100
AcDbEntity
  8
Wood
 62
   250
420
  2301728
370
     9
100
AcDbVertex
100
AcDb2dVertex
 10
341.1103350230451
 20
472.9603166675124
 30
0.0
  0
VERTEX
  5
121
330
11F
100
AcDbEntity
  8
Wood
 62
   250
420
  2301728
370
     9
100
AcDbVertex
100
AcDb2dVertex
 10
328.532394992465
 20
483.71950366275
 30
0.0
  0
VERTEX
  5
122
330
11F
100
AcDbEntity
  8
Wood
 62
   250
420
  2301728
370
     9
100
AcDbVertex
100
AcDb2dVertex
 10
328.532394992465
 20
545.1806084414411
 30
0.0
  0
SEQEND
  5
123
330
11F
100
AcDbEntity
  8
Wood
 62
   250
420
  2301728
370
     9
  0
POLYLINE
  5
124
330
CD
100
AcDbEntity
  8
Wood
 62
   250
420
  2301728
370
     9
100
AcDb2dPolyline
 66
     1
 10
0.0
 20
0.0
 30
0.0
  0
VERTEX
  5
125
330
124
100
AcDbEntity
  8
Wood
 62
   250
420
  2301728
370
     9
100
AcDbVertex
100
AcDb2dVertex
 10
546.4858600044645
 20
339.3483850562188
 30
0.0
  0
VERTEX
  5
126
330
124
100
AcDbEntity
  8
Wood
 62
   250
420
  2301728
370
     9
100
AcDbVertex
100
AcDb2dVertex
 10
328.8231673017572
 20
388.2860061380334
 30
0.0
  0
VERTEX
  5
127
330
124
100
AcDbEntity
  8
Wood
 62
   250
420
  2301728
370
     9
100
AcDbVertex
100
AcDb2dVertex
 10
328.8231673017572
 20
450.1054065000708
 30
0.0
  0
VERTEX
  5
128
330
124
100
AcDbEntity
  8
Wood
 62
   250
420
  2301728
370
     9
100
AcDbVertex
100
AcDb2dVertex
 10
316.5305962857256
 20
461.5123503306068
 30
0.0
  0
SEQEND
  5
129
330
124
100
AcDbEntity
  8
Wood
 62
   250
420
  2301728
370
     9
  0
POLYLINE
  5
12A
330
CD
100
AcDbEntity
  8
Wood
 62
   250
420
  2301728
370
     9
100
AcDb2dPolyline
 66
     1
 10
0.0
 20
0.0
 30
0.0
  0
VERTEX
  5
12B
330
12A
100
AcDbEntity
  8
Wood
 62
   250
420
  2301728
370
     9
100
AcDbVertex
100
AcDb2dVertex
 10
337.7309447461685
 20
471.3250782873747
 30
0.0
  0
VERTEX
  5
12C
330
12A
100
AcDbEntity
  8
Wood
 62
   250
420
  2301728
370
     9
100
AcDbVertex
100
AcDb2dVertex
 10
325.6388924468238
 20
481.9028223990063
 30
0.0
  0
VERTEX
  5
12D
330
12A
100
AcDbEntity
  8
Wood
 62
   250
420
  2301728
370
     9
100
AcDbVertex
100
AcDb2dVertex
 10
325.6388924468238
 20
543.1900552065672
 30
0.0
  0
SEQEND
  5
12E
330
12A
100
AcDbEntity
  8
Wood
 62
   250
420
  2301728
370
     9
  0
POLYLINE
  5
12F
330
CD
100
AcDbEntity
  8
Wood
 62
   250
420
  2301728
370
     9
100
AcDb2dPolyline
 66
     1
 10
0.0
 20
0.0
 30
0.0
  0
VERTEX
  5
130
330
12F
100
AcDbEntity
  8
Wood
 62
   250
420
  2301728
370
     9
100
AcDbVertex
100
AcDb2dVertex
 10
542.8303019127779
 20
338.0289280465804
 30
0.0
  0
VERTEX
  5
131
330
12F
100
AcDbEntity
  8
Wood
 62
   250
420
  2301728
370
     9
100
AcDbVertex
100
AcDb2dVertex
 10
325.9296647561159
 20
386.7064706335295
 30
0.0
  0
VERTEX
  5
132
330
12F
100
AcDbEntity
  8
Wood
 62
   250
420
  2301728
370
     9
100
AcDbVertex
100
AcDb2dVertex
 10
325.9296647561159
 20
448.3375508819181
 30
0.0
  0
VERTEX
  5
133
330
12F
100
AcDbEntity
  8
Wood
 62
   250
420
  2301728
370
     9
100
AcDbVertex
100
AcDb2dVertex
 10
313.5001176150054
 20
459.6442613375857
 30
0.0
  0
SEQEND
  5
134
330
12F
100
AcDbEntity
  8
Wood
 62
   250
420
  2301728
370
     9
  0
POLYLINE
  5
135
330
CD
100
AcDbEntity
  8
Wood
 62
   250
420
  2301728
370
     9
100
AcDb2dPolyline
 66
     1
 10
0.0
 20
0.0
 30
0.0
  0
VERTEX
  5
136
330
135
100
AcDbEntity
  8
Wood
 62
   250
420
  2301728
370
     9
100
AcDbVertex
100
AcDb2dVertex
 10
334.4406212515596
 20
470.1295139985814
 30
0.0
  0
VERTEX
  5
137
330
135
100
AcDbEntity
  8
Wood
 62
   250
420
  2301728
370
     9
100
AcDbVertex
100
AcDb2dVertex
 10
323.0003725369907
 20
479.9750257337282
 30
0.0
  0
VERTEX
  5
138
330
135
100
AcDbEntity
  8
Wood
 62
   250
420
  2301728
370
     9
100
AcDbVertex
100
AcDb2dVertex
 10
323.0003725369907
 20
541.080106952485
 30
0.0
  0
SEQEND
  5
139
330
135
100
AcDbEntity
  8
Wood
 62
   250
420
  2301728
370
     9
  0
POLYLINE
  5
13A
330
CD
100
AcDbEntity
  8
Wood
 62
   250
420
  2301728
370
     9
100
AcDb2dPolyline
 66
     1
 10
0.0
 20
0.0
 30
0.0
  0
VERTEX
  5
13B
330
13A
100
AcDbEntity
  8
Wood
 62
   250
420
  2301728
370
     9
100
AcDbVertex
100
AcDb2dVertex
 10
539.8715964381445
 20
336.8071023006387
 30
0.0
  0
VERTEX
  5
13C
330
13A
100
AcDbEntity
  8
Wood
 62
   250
420
  2301728
370
     9
100
AcDbVertex
100
AcDb2dVertex
 10
323.2911448462828
 20
385.0318407269142
 30
0.0
  0
VERTEX
  5
13D
330
13A
100
AcDbEntity
  8
Wood
 62
   250
420
  2301728
370
     9
100
AcDbVertex
100
AcDb2dVertex
 10
323.2911448462828
 20
446.4609048929733
 30
0.0
  0
VERTEX
  5
13E
330
13A
100
AcDbEntity
  8
Wood
 62
   250
420
  2301728
370
     9
100
AcDbVertex
100
AcDb2dVertex
 10
310.7209348520864
 20
457.6600734643689
 30
0.0
  0
SEQEND
  5
13F
330
13A
100
AcDbEntity
  8
Wood
 62
   250
420
  2301728
370
     9
  0
POLYLINE
  5
140
330
CD
100
AcDbEntity
  8
Wood
 62
   250
420
  2301728
370
     9
100
AcDb2dPolyline
 66
     1
 10
0.0
 20
0.0
 30
0.0
  0
VERTEX
  5
141
330
140
100
AcDbEntity
  8
Wood
 62
   250
420
  2301728
370
     9
100
AcDbVertex
100
AcDb2dVertex
 10
330.8143110758556
 20
468.496515928191
 30
0.0
  0
VERTEX
  5
142
330
140
100
AcDbEntity
  8
Wood
 62
   250
420
  2301728
370
     9
100
AcDbVertex
100
AcDb2dVertex
 10
320.0606887813401
 20
478.3869877834359
 30
0.0
  0
VERTEX
  5
143
330
140
100
AcDbEntity
  8
Wood
 62
   250
420
  2301728
370
     9
100
AcDbVertex
100
AcDb2dVertex
 10
320.0606887813401
 20
539.2961180506
 30
0.0
  0
SEQEND
  5
144
330
140
100
AcDbEntity
  8
Wood
 62
   250
420
  2301728
370
     9
  0
POLYLINE
  5
145
330
CD
100
AcDbEntity
  8
Wood
 62
   250
420
  2301728
370
     9
100
AcDb2dPolyline
 66
     1
 10
0.0
 20
0.0
 30
0.0
  0
VERTEX
  5
146
330
145
100
AcDbEntity
  8
Wood
 62
   250
420
  2301728
370
     9
100
AcDbVertex
100
AcDb2dVertex
 10
536.0240395742476
 20
335.4308789770321
 30
0.0
  0
VERTEX
  5
147
330
145
100
AcDbEntity
  8
Wood
 62
   250
420
  2301728
370
     9
100
AcDbVertex
100
AcDb2dVertex
 10
320.3514610906332
 20
383.7129373222306
 30
0.0
  0
VERTEX
  5
148
330
145
100
AcDbEntity
  8
Wood
 62
   250
420
  2301728
370
     9
100
AcDbVertex
100
AcDb2dVertex
 10
320.3514610906332
 20
444.9278926702518
 30
0.0
  0
VERTEX
  5
149
330
145
100
AcDbEntity
  8
Wood
 62
   250
420
  2301728
370
     9
100
AcDbVertex
100
AcDb2dVertex
 10
307.6230999182008
 20
456.017480474572
 30
0.0
  0
SEQEND
  5
14A
330
145
100
AcDbEntity
  8
Wood
 62
   250
420
  2301728
370
     9
  0
ENDBLK
  5
D0
330
CD
100
AcDbEntity
  8
0
100
AcDbBlockEnd
  0
BLOCK
  5
D3
330
D1
100
AcDbEntity
  8
0
100
AcDbBlockBegin
  2
block 15
 70
     0
 10
0.0
 20
0.0
 30
0.0
  3
block 15
  1

  0
POLYLINE
  5
D5
330
D1
100
AcDbEntity
  8
Wood
 62
   250
420
  2301728
370
    25
100
AcDb2dPolyline
 66
     1
 10
0.0
 20
0.0
 30
0.0
  0
VERTEX
  5
D6
330
D5
100
AcDbEntity
  8
Wood
 62
   250
420
  2301728
370
    25
100
AcDbVertex
100
AcDb2dVertex
 10
327.0391308503531
 20
466.8627091423959
 30
0.0
  0
VERTEX
  5
D7
330
D5
100
AcDbEntity
  8
Wood
 62
   250
420
  2301728
370
    25
100
AcDbVertex
100
AcDb2dVertex
 10
316.9986400085927
 20
476.5291606472074
 30
0.0
  0
VERTEX
  5
D8
330
D5
100
AcDbEntity
  8
Wood
 62
   250
420
  2301728
370
    25
100
AcDbVertex
100
AcDb2dVertex
 10
316.9986400085927
 20
537.2797227207184
 30
0.0
  0
VERTEX
  5
D9
330
D5
100
AcDbEntity
  8
Wood
 62
   250
420
  2301728
370
    25
100
AcDbVertex
100
AcDb2dVertex
 10
334.591434340964
 20
549.1934841150905
 30
0.0
  0
VERTEX
  5
DA
330
D5
100
AcDbEntity
  8
Wood
 62
   250
420
  2301728
370
    25
100
AcDbVertex
100
AcDb2dVertex
 10
552.7013583711741
 20
483.5104184233223
 30
0.0
  0
VERTEX
  5
DB
330
D5
100
AcDbEntity
  8
Wood
 62
   250
420
  2301728
370
    25
100
AcDbVertex
100
AcDb2dVertex
 10
552.7013583711741
 20
427.9619192234131
 30
0.0
  0
VERTEX
  5
DC
330
D5
100
AcDbEntity
  8
Wood
 62
   250
420
  2301728
370
    25
100
AcDbVertex
100
AcDb2dVertex
 10
542.8648812485844
 20
422.9229711148328
 30
0.0
  0
VERTEX
  5
DD
330
D5
100
AcDbEntity
  8
Wood
 62
   250
420
  2301728
370
    25
100
AcDbVertex
100
AcDb2dVertex
 10
562.4373744462246
 20
402.4062378687104
 30
0.0
  0
VERTEX
  5
DE
330
D5
100
AcDbEntity
  8
Wood
 62
   250
420
  2301728
370
    25
100
AcDbVertex
100
AcDb2dVertex
 10
552.7013583711741
 20
397.2619821484177
 30
0.0
  0
VERTEX
  5
DF
330
D5
100
AcDbEntity
  8
Wood
 62
   250
420
  2301728
370
    25
100
AcDbVertex
100
AcDb2dVertex
 10
552.7013583711741
 20
341.7134829485058
 30
0.0
  0
VERTEX
  5
E0
330
D5
100
AcDbEntity
  8
Wood
 62
   250
420
  2301728
370
    25
100
AcDbVertex
100
AcDb2dVertex
 10
533.2330660209409
 20
334.4755684308293
 30
0.0
  0
VERTEX
  5
E1
330
D5
100
AcDbEntity
  8
Wood
 62
   250
420
  2301728
370
    25
100
AcDbVertex
100
AcDb2dVertex
 10
316.9986400085927
 20
382.2036422780184
 30
0.0
  0
VERTEX
  5
E2
330
D5
100
AcDbEntity
  8
Wood
 62
   250
420
  2301728
370
    25
100
AcDbVertex
100
AcDb2dVertex
 10
316.9986400085927
 20
442.9542043515312
 30
0.0
  0
VERTEX
  5
E3
330
D5
100
AcDbEntity
  8
Wood
 62
   250
420
  2301728
370
    25
100
AcDbVertex
100
AcDb2dVertex
 10
304.9052127125869
 20
454.4075789407416
 30
0.0
  0
VERTEX
  5
E4
330
D5
100
AcDbEntity
  8
Wood
 62
   250
420
  2301728
370
    25
100
AcDbVertex
100
AcDb2dVertex
 10
322.3684452824455
 20
464.8084861752595
 30
0.0
  0
VERTEX
  5
E5
330
D5
100
AcDbEntity
  8
Wood
 62
   250
420
  2301728
370
    25
100
AcDbVertex
100
AcDb2dVertex
 10
327.0391308503531
 20
466.8627091423959
 30
0.0
  0
SEQEND
  5
E7
330
D5
100
AcDbEntity
  8
Wood
 62
   250
420
  2301728
370
    25
  0
HATCH
  5
E6
330
D1
100
AcDbEntity
  8
Wood
 62
    43
420
 15510364
100
AcDbHatch
 10
0.0
 20
0.0
 30
0.0
210
0.0
220
0.0
230
1.0
  2
SOLID
 70
     1
 71
     0
 91
        1
 92
        1
 93
       15
 72
     1
 10
327.0391308503531
 20
466.8627091423959
 11
316.9986400085927
 21
476.5291606472074
 72
     1
 10
316.9986400085927
 20
476.5291606472074
 11
316.9986400085927
 21
537.2797227207184
 72
     1
 10
316.9986400085927
 20
537.2797227207184
 11
334.591434340964
 21
549.1934841150905
 72
     1
 10
334.591434340964
 20
549.1934841150905
 11
552.7013583711741
 21
483.5104184233223
 72
     1
 10
552.7013583711741
 20
483.5104184233223
 11
552.7013583711741
 21
427.9619192234131
 72
     1
 10
552.7013583711741
 20
427.9619192234131
 11
542.8648812485844
 21
422.9229711148328
 72
     1
 10
542.8648812485844
 20
422.9229711148328
 11
562.4373744462246
 21
402.4062378687104
 72
     1
 10
562.4373744462246
 20
402.4062378687104
 11
552.7013583711741
 21
397.2619821484177
 72
     1
 10
552.7013583711741
 20
397.2619821484177
 11
552.7013583711741
 21
341.7134829485058
 72
     1
 10
552.7013583711741
 20
341.7134829485058
 11
533.2330660209409
 21
334.4755684308293
 72
     1
 10
533.2330660209409
 20
334.4755684308293
 11
316.9986400085927
 21
382.2036422780184
 72
     1
 10
316.9986400085927
 20
382.2036422780184
 11
316.9986400085927
 21
442.9542043515312
 72
     1
 10
316.9986400085927
 20
442.9542043515312
 11
304.9052127125869
 21
454.4075789407416
 72
     1
 10
304.9052127125869
 20
454.4075789407416
 11
322.3684452824455
 21
464.8084861752595
 72
     1
 10
322.3684452824455
 20
464.8084861752595
 11
327.0391308503531
 21
466.8627091423959
 97
        0
 75
     2
 76
     1
 98
        0
  0
ENDBLK
  5
D4
330
D1
100
AcDbEntity
  8
0
100
AcDbBlockEnd
  0
BLOCK
  5
EA
330
E8
100
AcDbEntity
  8
0
100
AcDbBlockBegin
  2
block 16
 70
     0
 10
0.0
 20
0.0
 30
0.0
  3
block 16
  1

  0
POLYLINE
  5
EC
330
E8
100
AcDbEntity
  8
Wood
 62
   250
420
  2301728
370
    18
100
AcDb2dPolyline
 66
     1
 10
0.0
 20
0.0
 30
0.0
  0
VERTEX
  5
ED
330
EC
100
AcDbEntity
  8
Wood
 62
   250
420
  2301728
370
    18
100
AcDbVertex
100
AcDb2dVertex
 10
334.591434340964
 20
487.2902916208477
 30
0.0
  0
VERTEX
  5
EE
330
EC
100
AcDbEntity
  8
Wood
 62
   250
420
  2301728
370
    18
100
AcDbVertex
100
AcDb2dVertex
 10
316.9986400085927
 20
476.5291606472074
 30
0.0
  0
SEQEND
  5
EF
330
EC
100
AcDbEntity
  8
Wood
 62
   250
420
  2301728
370
    18
  0
ENDBLK
  5
EB
330
E8
100
AcDbEntity
  8
0
100
AcDbBlockEnd
  0
BLOCK
  5
F2
330
F0
100
AcDbEntity
  8
0
100
AcDbBlockBegin
  2
block 17
 70
     0
 10
0.0
 20
0.0
 30
0.0
  3
block 17
  1

  0
POLYLINE
  5
F4
330
F0
100
AcDbEntity
  8
Wood
 62
   250
420
  2301728
370
    18
100
AcDb2dPolyline
 66
     1
 10
0.0
 20
0.0
 30
0.0
  0
VERTEX
  5
F5
330
F4
100
AcDbEntity
  8
Wood
 62
   250
420
  2301728
370
    18
100
AcDbVertex
100
AcDb2dVertex
 10
334.591434340964
 20
391.1751196548485
 30
0.0
  0
VERTEX
  5
F6
330
F4
100
AcDbEntity
  8
Wood
 62
   250
420
  2301728
370
    18
100
AcDbVertex
100
AcDb2dVertex
 10
316.9986400085927
 20
382.2036422780184
 30
0.0
  0
SEQEND
  5
F7
330
F4
100
AcDbEntity
  8
Wood
 62
   250
420
  2301728
370
    18
  0
ENDBLK
  5
F3
330
F0
100
AcDbEntity
  8
0
100
AcDbBlockEnd
  0
BLOCK
  5
FA
330
F8
100
AcDbEntity
  8
0
100
AcDbBlockBegin
  2
block 18
 70
     0
 10
0.0
 20
0.0
 30
0.0
  3
block 18
  1

  0
POLYLINE
  5
FC
330
F8
100
AcDbEntity
  8
Wood
 62
   250
420
  2301728
370
    18
100
AcDb2dPolyline
 66
     1
 10
0.0
 20
0.0
 30
0.0
  0
VERTEX
  5
FD
330
FC
100
AcDbEntity
  8
Wood
 62
   250
420
  2301728
370
    18
100
AcDbVertex
100
AcDb2dVertex
 10
334.591434340964
 20
453.0783121490895
 30
0.0
  0
VERTEX
  5
FE
330
FC
100
AcDbEntity
  8
Wood
 62
   250
420
  2301728
370
    18
100
AcDbVertex
100
AcDb2dVertex
 10
316.9986400085927
 20
442.9542043515312
 30
0.0
  0
SEQEND
  5
FF
330
FC
100
AcDbEntity
  8
Wood
 62
   250
420
  2301728
370
    18
  0
ENDBLK
  5
FB
330
F8
100
AcDbEntity
  8
0
100
AcDbBlockEnd
  0
BLOCK
  5
102
330
100
100
AcDbEntity
  8
0
100
AcDbBlockBegin
  2
block 19
 70
     0
 10
0.0
 20
0.0
 30
0.0
  3
block 19
  1

  0
POLYLINE
  5
104
330
100
100
AcDbEntity
  8
Wood
 62
   250
420
  2301728
370
    18
100
AcDb2dPolyline
 66
     1
 10
0.0
 20
0.0
 30
0.0
  0
VERTEX
  5
105
330
104
100
AcDbEntity
  8
Wood
 62
   250
420
  2301728
370
    18
100
AcDbVertex
100
AcDb2dVertex
 10
334.591434340964
 20
549.1934841150905
 30
0.0
  0
VERTEX
  5
106
330
104
100
AcDbEntity
  8
Wood
 62
   250
420
  2301728
370
    18
100
AcDbVertex
100
AcDb2dVertex
 10
334.591434340964
 20
487.2902916208477
 30
0.0
  0
VERTEX
  5
107
330
104
100
AcDbEntity
  8
Wood
 62
   250
420
  2301728
370
    18
100
AcDbVertex
100
AcDb2dVertex
 10
346.6753888857274
 20
475.4989685647924
 30
0.0
  0
VERTEX
  5
108
330
104
100
AcDbEntity
  8
Wood
 62
   250
420
  2301728
370
    18
100
AcDbVertex
100
AcDb2dVertex
 10
322.3684452824455
 20
464.8084861752595
 30
0.0
  0
VERTEX
  5
109
330
104
100
AcDbEntity
  8
Wood
 62
   250
420
  2301728
370
    18
100
AcDbVertex
100
AcDb2dVertex
 10
334.591434340964
 20
453.0783121490895
 30
0.0
  0
VERTEX
  5
10A
330
104
100
AcDbEntity
  8
Wood
 62
   250
420
  2301728
370
    18
100
AcDbVertex
100
AcDb2dVertex
 10
334.591434340964
 20
391.1751196548485
 30
0.0
  0
SEQEND
  5
10B
330
104
100
AcDbEntity
  8
Wood
 62
   250
420
  2301728
370
    18
  0
ENDBLK
  5
103
330
100
100
AcDbEntity
  8
0
100
AcDbBlockEnd
  0
BLOCK
  5
10E
330
10C
100
AcDbEntity
  8
0
100
AcDbBlockBegin
  2
block 20
 70
     0
 10
0.0
 20
0.0
 30
0.0
  3
block 20
  1

  0
POLYLINE
  5
110
330
10C
100
AcDbEntity
  8
Wood
 62
   250
420
  2301728
370
    18
100
AcDb2dPolyline
 66
     1
 10
0.0
 20
0.0
 30
0.0
  0
VERTEX
  5
111
330
110
100
AcDbEntity
  8
Wood
 62
   250
420
  2301728
370
    18
100
AcDbVertex
100
AcDb2dVertex
 10
552.7013583711741
 20
341.7134829485058
 30
0.0
  0
VERTEX
  5
112
330
110
100
AcDbEntity
  8
Wood
 62
   250
420
  2301728
370
    18
100
AcDbVertex
100
AcDb2dVertex
 10
334.591434340964
 20
391.1751196548485
 30
0.0
  0
SEQEND
  5
113
330
110
100
AcDbEntity
  8
Wood
 62
   250
420
  2301728
370
    18
  0
ENDBLK
  5
10F
330
10C
100
AcDbEntity
  8
0
100
AcDbBlockEnd
  0
BLOCK
  5
14D
330
14B
100
AcDbEntity
  8
0
100
AcDbBlockBegin
  2
block 21
 70
     0
 10
0.0
 20
0.0
 30
0.0
  3
block 21
  1

  0
POLYLINE
  5
14F
330
14B
100
AcDbEntity
  8
Wood
 62
   250
420
  2301728
370
    25
100
AcDb2dPolyline
 66
     1
 10
0.0
 20
0.0
 30
0.0
  0
VERTEX
  5
150
330
14F
100
AcDbEntity
  8
Wood
 62
   250
420
  2301728
370
    25
100
AcDbVertex
100
AcDb2dVertex
 10
455.7102975063608
 20
351.58668477218
 30
0.0
  0
VERTEX
  5
151
330
14F
100
AcDbEntity
  8
Wood
 62
   250
420
  2301728
370
    25
100
AcDbVertex
100
AcDb2dVertex
 10
455.7102975063608
 20
224.6811045102495
 30
0.0
  0
VERTEX
  5
152
330
14F
100
AcDbEntity
  8
Wood
 62
   250
420
  2301728
370
    25
100
AcDbVertex
100
AcDb2dVertex
 10
436.1892277626921
 20
218.9064396452195
 30
0.0
  0
VERTEX
  5
153
330
14F
100
AcDbEntity
  8
Wood
 62
   250
420
  2301728
370
    25
100
AcDbVertex
100
AcDb2dVertex
 10
434.9726259485778
 20
216.1071562007528
 30
0.0
  0
VERTEX
  5
154
330
14F
100
AcDbEntity
  8
Wood
 62
   250
420
  2301728
370
    25
100
AcDbVertex
100
AcDb2dVertex
 10
399.4070157404194
 20
205.765373132981
 30
0.0
  0
VERTEX
  5
155
330
14F
100
AcDbEntity
  8
Wood
 62
   250
420
  2301728
370
    25
100
AcDbVertex
100
AcDb2dVertex
 10
394.0913691655205
 20
221.6364898569118
 30
0.0
  0
VERTEX
  5
156
330
14F
100
AcDbEntity
  8
Wood
 62
   250
420
  2301728
370
    25
100
AcDbVertex
100
AcDb2dVertex
 10
385.9297904621244
 20
219.0439345506402
 30
0.0
  0
VERTEX
  5
157
330
14F
100
AcDbEntity
  8
Wood
 62
   250
420
  2301728
370
    25
100
AcDbVertex
100
AcDb2dVertex
 10
370.3788604664851
 20
221.4574942820491
 30
0.0
  0
VERTEX
  5
158
330
14F
100
AcDbEntity
  8
Wood
 62
   250
420
  2301728
370
    25
100
AcDbVertex
100
AcDb2dVertex
 10
370.3788604664851
 20
370.4213597295029
 30
0.0
  0
VERTEX
  5
159
330
14F
100
AcDbEntity
  8
Wood
 62
   250
420
  2301728
370
    25
100
AcDbVertex
100
AcDb2dVertex
 10
455.7102975063608
 20
351.58668477218
 30
0.0
  0
SEQEND
  5
15B
330
14F
100
AcDbEntity
  8
Wood
 62
   250
420
  2301728
370
    25
  0
HATCH
  5
15A
330
14B
100
AcDbEntity
  8
Wood
 62
    43
420
 15510364
100
AcDbHatch
 10
0.0
 20
0.0
 30
0.0
210
0.0
220
0.0
230
1.0
  2
SOLID
 70
     1
 71
     0
 91
        1
 92
        1
 93
        9
 72
     1
 10
455.7102975063608
 20
351.58668477218
 11
455.7102975063608
 21
224.6811045102495
 72
     1
 10
455.7102975063608
 20
224.6811045102495
 11
436.1892277626921
 21
218.9064396452195
 72
     1
 10
436.1892277626921
 20
218.9064396452195
 11
434.9726259485778
 21
216.1071562007528
 72
     1
 10
434.9726259485778
 20
216.1071562007528
 11
399.4070157404194
 21
205.765373132981
 72
     1
 10
399.4070157404194
 20
205.765373132981
 11
394.0913691655205
 21
221.6364898569118
 72
     1
 10
394.0913691655205
 20
221.6364898569118
 11
385.9297904621244
 21
219.0439345506402
 72
     1
 10
385.9297904621244
 20
219.0439345506402
 11
370.3788604664851
 21
221.4574942820491
 72
     1
 10
370.3788604664851
 20
221.4574942820491
 11
370.3788604664851
 21
370.4213597295029
 72
     1
 10
370.3788604664851
 20
370.4213597295029
 11
455.7102975063608
 21
351.58668477218
 97
        0
 75
     2
 76
     1
 98
        0
  0
POLYLINE
  5
15C
330
14B
100
AcDbEntity
  8
Wood
 62
   250
420
  2301728
370
    18
100
AcDb2dPolyline
 66
     1
 10
0.0
 20
0.0
 30
0.0
  0
VERTEX
  5
15D
330
15C
100
AcDbEntity
  8
Wood
 62
   250
420
  2301728
370
    18
100
AcDbVertex
100
AcDb2dVertex
 10
421.1717660248778
 20
230.049440960689
 30
0.0
  0
VERTEX
  5
15E
330
15C
100
AcDbEntity
  8
Wood
 62
   250
420
  2301728
370
    18
100
AcDbVertex
100
AcDb2dVertex
 10
385.9297904621244
 20
219.0439345506402
 30
0.0
  0
SEQEND
  5
15F
330
15C
100
AcDbEntity
  8
Wood
 62
   250
420
  2301728
370
    18
  0
POLYLINE
  5
160
330
14B
100
AcDbEntity
  8
Wood
 62
   250
420
  2301728
370
    18
100
AcDb2dPolyline
 66
     1
 10
0.0
 20
0.0
 30
0.0
  0
VERTEX
  5
161
330
160
100
AcDbEntity
  8
Wood
 62
   250
420
  2301728
370
    18
100
AcDbVertex
100
AcDb2dVertex
 10
370.3788604664851
 20
221.4574942820491
 30
0.0
  0
VERTEX
  5
162
330
160
100
AcDbEntity
  8
Wood
 62
   250
420
  2301728
370
    18
100
AcDbVertex
100
AcDb2dVertex
 10
405.3903938217154
 20
232.6006420295962
 30
0.0
  0
SEQEND
  5
163
330
160
100
AcDbEntity
  8
Wood
 62
   250
420
  2301728
370
    18
  0
POLYLINE
  5
164
330
14B
100
AcDbEntity
  8
Wood
 62
   250
420
  2301728
370
    18
100
AcDb2dPolyline
 66
     1
 10
0.0
 20
0.0
 30
0.0
  0
VERTEX
  5
165
330
164
100
AcDbEntity
  8
Wood
 62
   250
420
  2301728
370
    18
100
AcDbVertex
100
AcDb2dVertex
 10
405.3903938217154
 20
362.6934827198274
 30
0.0
  0
VERTEX
  5
166
330
164
100
AcDbEntity
  8
Wood
 62
   250
420
  2301728
370
    18
100
AcDbVertex
100
AcDb2dVertex
 10
405.3903938217154
 20
232.6006420295962
 30
0.0
  0
VERTEX
  5
167
330
164
100
AcDbEntity
  8
Wood
 62
   250
420
  2301728
370
    18
100
AcDbVertex
100
AcDb2dVertex
 10
421.1717660248778
 20
230.049440960689
 30
0.0
  0
VERTEX
  5
168
330
164
100
AcDbEntity
  8
Wood
 62
   250
420
  2301728
370
    18
100
AcDbVertex
100
AcDb2dVertex
 10
426.8780960164222
 20
241.289993745555
 30
0.0
  0
VERTEX
  5
169
330
164
100
AcDbEntity
  8
Wood
 62
   250
420
  2301728
370
    18
100
AcDbVertex
100
AcDb2dVertex
 10
434.9726259485778
 20
216.1071562007528
 30
0.0
  0
VERTEX
  5
16A
330
164
100
AcDbEntity
  8
Wood
 62
   250
420
  2301728
370
    18
100
AcDbVertex
100
AcDb2dVertex
 10
439.7194185337994
 20
227.0290681558236
 30
0.0
  0
VERTEX
  5
16B
330
164
100
AcDbEntity
  8
Wood
 62
   250
420
  2301728
370
    18
100
AcDbVertex
100
AcDb2dVertex
 10
455.7102975063608
 20
224.6811045102495
 30
0.0
  0
SEQEND
  5
16C
330
164
100
AcDbEntity
  8
Wood
 62
   250
420
  2301728
370
    18
  0
SPLINE
  5
16D
330
14B
100
AcDbEntity
  8
Wood
 62
   250
420
  2301728
370
     9
100
AcDbSpline
210
0.0
220
0.0
230
1.0
 70
     8
 71
     3
 72
    11
 73
     7
 74
     0
 42
0.0000000001
 43
0.0000000001
 12
1.0
 22
0.0
 32
0.0
 13
1.0
 23
0.0
 33
0.0
 40
0.0
 40
0.0
 40
0.0
 40
0.0
 40
1.0
 40
1.0
 40
1.0
 40
2.0
 40
2.0
 40
2.0
 40
2.0
 10
411.9841741689997
 20
231.5346980005488
 30
0.0
 10
411.9841741689997
 20
231.5346980005488
 30
0.0
 10
409.7003506105939
 20
231.2283008103095
 30
0.0
 10
408.4257488978947
 20
231.1829600468627
 30
0.0
 10
407.1511471851964
 20
231.1376192834141
 30
0.0
 10
401.3011968666651
 20
231.299170158125
 30
0.0
 10
401.3011968666651
 20
231.299170158125
 30
0.0
  0
POLYLINE
  5
16E
330
14B
100
AcDbEntity
  8
Wood
 62
   250
420
  2301728
370
     9
100
AcDb2dPolyline
 66
     1
 10
0.0
 20
0.0
 30
0.0
  0
VERTEX
  5
16F
330
16E
100
AcDbEntity
  8
Wood
 62
   250
420
  2301728
370
     9
100
AcDbVertex
100
AcDb2dVertex
 10
392.6062292820634
 20
228.5318161130363
 30
0.0
  0
VERTEX
  5
170
330
16E
100
AcDbEntity
  8
Wood
 62
   250
420
  2301728
370
     9
100
AcDbVertex
100
AcDb2dVertex
 10
397.2180441827886
 20
228.5318161130363
 30
0.0
  0
VERTEX
  5
171
330
16E
100
AcDbEntity
  8
Wood
 62
   250
420
  2301728
370
     9
100
AcDbVertex
100
AcDb2dVertex
 10
402.8878242151359
 20
228.3264919497051
 30
0.0
  0
VERTEX
  5
172
330
16E
100
AcDbEntity
  8
Wood
 62
   250
420
  2301728
370
     9
100
AcDbVertex
100
AcDb2dVertex
 10
416.9091765602061
 20
228.7183023134457
 30
0.0
  0
SEQEND
  5
173
330
16E
100
AcDbEntity
  8
Wood
 62
   250
420
  2301728
370
     9
  0
SPLINE
  5
174
330
14B
100
AcDbEntity
  8
Wood
 62
   250
420
  2301728
370
     9
100
AcDbSpline
210
0.0
220
0.0
230
1.0
 70
     8
 71
     3
 72
    17
 73
    13
 74
     0
 42
0.0000000001
 43
0.0000000001
 12
1.0
 22
0.0
 32
0.0
 13
1.0
 23
0.0
 33
0.0
 40
0.0
 40
0.0
 40
0.0
 40
0.0
 40
1.0
 40
1.0
 40
1.0
 40
2.0
 40
2.0
 40
2.0
 40
3.0
 40
3.0
 40
3.0
 40
4.0
 40
4.0
 40
4.0
 40
4.0
 10
407.3874415484788
 20
225.7448164621837
 30
0.0
 10
407.3874415484788
 20
225.7448164621837
 30
0.0
 10
405.876545472498
 20
225.2433200353116
 30
0.0
 10
403.8987152286554
 20
225.152638508418
 30
0.0
 10
401.9208849848128
 20
225.0619569815226
 30
0.0
 10
398.5365976786834
 20
225.0166162180776
 30
0.0
 10
398.5365976786834
 20
225.0166162180776
 30
0.0
 10
398.5365976786834
 20
225.0166162180776
 30
0.0
 10
396.4708638684479
 20
225.152638508418
 30
0.0
 10
393.7019015270689
 20
225.1072977449712
 30
0.0
 10
390.9329391856891
 20
225.0619569815226
 30
0.0
 10
386.1155251258388
 20
226.4660146908409
 30
0.0
 10
386.1155251258388
 20
226.4660146908409
 30
0.0
  0
SPLINE
  5
175
330
14B
100
AcDbEntity
  8
Wood
 62
   250
420
  2301728
370
     9
100
AcDbSpline
210
0.0
220
0.0
230
1.0
 70
     8
 71
     3
 72
    17
 73
    13
 74
     0
 42
0.0000000001
 43
0.0000000001
 12
1.0
 22
0.0
 32
0.0
 13
1.0
 23
0.0
 33
0.0
 40
0.0
 40
0.0
 40
0.0
 40
0.0
 40
1.0
 40
1.0
 40
1.0
 40
2.0
 40
2.0
 40
2.0
 40
3.0
 40
3.0
 40
3.0
 40
4.0
 40
4.0
 40
4.0
 40
4.0
 10
375.2867313626302
 20
223.0195261407152
 30
0.0
 10
375.2867313626302
 20
223.0195261407152
 30
0.0
 10
380.0328969529583
 20
222.6588965188366
 30
0.0
 10
380.0328969529583
 20
222.6588965188366
 30
0.0
 10
380.0328969529583
 20
222.6588965188366
 30
0.0
 10
383.3292806926947
 20
222.7042372822834
 30
0.0
 10
384.8236413213754
 20
222.7042372822834
 30
0.0
 10
386.3180019500569
 20
222.7042372822834
 30
0.0
 10
387.8123625787375
 20
222.5228742284962
 30
0.0
 10
389.1309160746332
 20
222.6135557553898
 30
0.0
 10
390.449469570528
 20
222.7042372822834
 30
0.0
 10
398.9062228491366
 20
223.0962672457954
 30
0.0
 10
398.9062228491366
 20
223.0962672457954
 30
0.0
  0
SPLINE
  5
176
330
14B
100
AcDbEntity
  8
Wood
 62
   250
420
  2301728
370
     9
100
AcDbSpline
210
0.0
220
0.0
230
1.0
 70
     8
 71
     3
 72
    14
 73
    10
 74
     0
 42
0.0000000001
 43
0.0000000001
 12
1.0
 22
0.0
 32
0.0
 13
1.0
 23
0.0
 33
0.0
 40
0.0
 40
0.0
 40
0.0
 40
0.0
 40
1.0
 40
1.0
 40
1.0
 40
2.0
 40
2.0
 40
2.0
 40
3.0
 40
3.0
 40
3.0
 40
3.0
 10
390.6692284865103
 20
220.5732214002765
 30
0.0
 10
390.6692284865103
 20
220.5732214002765
 30
0.0
 10
387.28494118038
 20
220.5732214002765
 30
0.0
 10
387.28494118038
 20
220.5732214002765
 30
0.0
 10
387.28494118038
 20
220.5732214002765
 30
0.0
 10
385.5268698525197
 20
220.7092436906187
 30
0.0
 10
383.1974253431054
 20
220.5732214002765
 30
0.0
 10
380.8679808336919
 20
220.437199109936
 30
0.0
 10
373.2189234380276
 20
221.0167063918907
 30
0.0
 10
373.2189234380276
 20
221.0167063918907
 30
0.0
  0
POLYLINE
  5
177
330
14B
100
AcDbEntity
  8
Wood
 62
   250
420
  2301728
370
     9
100
AcDb2dPolyline
 66
     1
 10
0.0
 20
0.0
 30
0.0
  0
VERTEX
  5
178
330
177
100
AcDbEntity
  8
Wood
 62
   250
420
  2301728
370
     9
100
AcDbVertex
100
AcDb2dVertex
 10
438.9317452508094
 20
225.2167078953444
 30
0.0
  0
VERTEX
  5
179
330
177
100
AcDbEntity
  8
Wood
 62
   250
420
  2301728
370
     9
100
AcDbVertex
100
AcDb2dVertex
 10
442.5762844415713
 20
225.0166162180776
 30
0.0
  0
VERTEX
  5
17A
330
177
100
AcDbEntity
  8
Wood
 62
   250
420
  2301728
370
     9
100
AcDbVertex
100
AcDb2dVertex
 10
444.949680734182
 20
225.116662056711
 30
0.0
  0
VERTEX
  5
17B
330
177
100
AcDbEntity
  8
Wood
 62
   250
420
  2301728
370
     9
100
AcDbVertex
100
AcDb2dVertex
 10
449.3461714678706
 20
225.6155582447718
 30
0.0
  0
SEQEND
  5
17C
330
177
100
AcDbEntity
  8
Wood
 62
   250
420
  2301728
370
     9
  0
SPLINE
  5
17D
330
14B
100
AcDbEntity
  8
Wood
 62
   250
420
  2301728
370
     9
100
AcDbSpline
210
0.0
220
0.0
230
1.0
 70
     8
 71
     3
 72
    14
 73
    10
 74
     0
 42
0.0000000001
 43
0.0000000001
 12
1.0
 22
0.0
 32
0.0
 13
1.0
 23
0.0
 33
0.0
 40
0.0
 40
0.0
 40
0.0
 40
0.0
 40
1.0
 40
1.0
 40
1.0
 40
2.0
 40
2.0
 40
2.0
 40
3.0
 40
3.0
 40
3.0
 40
3.0
 10
449.8140689660831
 20
222.9368996979701
 30
0.0
 10
449.6110074664102
 20
222.8768306483234
 30
0.0
 10
441.5214416448543
 20
221.4346959057675
 30
0.0
 10
441.5214416448543
 20
221.4346959057675
 30
0.0
 10
441.5214416448543
 20
221.4346959057675
 30
0.0
 10
439.58756318421
 20
221.4346959057675
 30
0.0
 10
439.58756318421
 20
221.4346959057675
 30
0.0
 10
439.58756318421
 20
221.4346959057675
 30
0.0
 10
437.4329689549559
 20
221.768168181472
 30
0.0
 10
437.4329689549559
 20
221.768168181472
 30
0.0
  0
SPLINE
  5
17E
330
14B
100
AcDbEntity
  8
Wood
 62
   250
420
  2301728
370
     9
100
AcDbSpline
210
0.0
220
0.0
230
1.0
 70
     8
 71
     3
 72
    14
 73
    10
 74
     0
 42
0.0000000001
 43
0.0000000001
 12
1.0
 22
0.0
 32
0.0
 13
1.0
 23
0.0
 33
0.0
 40
0.0
 40
0.0
 40
0.0
 40
0.0
 40
1.0
 40
1.0
 40
1.0
 40
2.0
 40
2.0
 40
2.0
 40
3.0
 40
3.0
 40
3.0
 40
3.0
 10
397.4613946344862
 20
211.5744838851188
 30
0.0
 10
397.4613946344862
 20
211.5744838851188
 30
0.0
 10
399.1738985350321
 20
210.4622311516068
 30
0.0
 10
399.1738985350321
 20
210.4622311516068
 30
0.0
 10
399.1738985350321
 20
210.4622311516068
 30
0.0
 10
399.2091240114351
 20
209.9861531354145
 30
0.0
 10
401.3011968666651
 20
209.3740528288799
 30
0.0
 10
403.3932697218943
 20
208.7619525223454
 30
0.0
 10
407.3874415484788
 20
208.0859246998552
 30
0.0
 10
407.3874415484788
 20
208.0859246998552
 30
0.0
  0
SPLINE
  5
17F
330
14B
100
AcDbEntity
  8
Wood
 62
   250
420
  2301728
370
     9
100
AcDbSpline
210
0.0
220
0.0
230
1.0
 70
     8
 71
     3
 72
    17
 73
    13
 74
     0
 42
0.0000000001
 43
0.0000000001
 12
1.0
 22
0.0
 32
0.0
 13
1.0
 23
0.0
 33
0.0
 40
0.0
 40
0.0
 40
0.0
 40
0.0
 40
1.0
 40
1.0
 40
1.0
 40
2.0
 40
2.0
 40
2.0
 40
3.0
 40
3.0
 40
3.0
 40
4.0
 40
4.0
 40
4.0
 40
4.0
 10
395.2414174374671
 20
218.2027494633294
 30
0.0
 10
395.3165275908277
 20
217.9784903832096
 30
0.0
 10
396.7266445941923
 20
216.3792007814336
 30
0.0
 10
398.9062228491366
 20
215.3590336038778
 30
0.0
 10
401.0858011040791
 20
214.3388664263221
 30
0.0
 10
403.9206911202537
 20
213.5907438294471
 30
0.0
 10
403.9206911202537
 20
213.5907438294471
 30
0.0
 10
403.9206911202537
 20
213.5907438294471
 30
0.0
 10
406.2392547410727
 20
212.7065989422299
 30
0.0
 10
407.3874415484788
 20
212.2305209260376
 30
0.0
 10
408.5356283558858
 20
211.7544429098452
 30
0.0
 10
414.6240425283977
 20
210.190186570926
 30
0.0
 10
414.6240425283977
 20
210.190186570926
 30
0.0
  0
SPLINE
  5
180
330
14B
100
AcDbEntity
  8
Wood
 62
   250
420
  2301728
370
     9
100
AcDbSpline
210
0.0
220
0.0
230
1.0
 70
     8
 71
     3
 72
    17
 73
    13
 74
     0
 42
0.0000000001
 43
0.0000000001
 12
1.0
 22
0.0
 32
0.0
 13
1.0
 23
0.0
 33
0.0
 40
0.0
 40
0.0
 40
0.0
 40
0.0
 40
1.0
 40
1.0
 40
1.0
 40
2.0
 40
2.0
 40
2.0
 40
3.0
 40
3.0
 40
3.0
 40
4.0
 40
4.0
 40
4.0
 40
4.0
 10
397.2791710075444
 20
222.5881649278599
 30
0.0
 10
397.2791710075444
 20
222.5881649278599
 30
0.0
 10
400.5583797057225
 20
220.4844677067795
 30
0.0
 10
403.1295590227173
 20
219.0439345506402
 30
0.0
 10
405.7007383397113
 20
217.6034013945009
 30
0.0
 10
407.7444962583486
 20
217.5353902493316
 30
0.0
 10
409.8541818517806
 20
216.5832342169451
 30
0.0
 10
411.9638674452117
 20
215.6310781845586
 30
0.0
 10
412.3594334939808
 20
215.6310781845586
 30
0.0
 10
413.4802039654915
 20
215.2230113135356
 30
0.0
 10
414.6009744370022
 20
214.8149444425144
 30
0.0
 10
422.1849910719648
 20
212.3887623627215
 30
0.0
 10
422.1849910719648
 20
212.3887623627215
 30
0.0
  0
POLYLINE
  5
181
330
14B
100
AcDbEntity
  8
Wood
 62
   250
420
  2301728
370
     9
100
AcDb2dPolyline
 66
     1
 10
0.0
 20
0.0
 30
0.0
  0
VERTEX
  5
182
330
181
100
AcDbEntity
  8
Wood
 62
   250
420
  2301728
370
     9
100
AcDbVertex
100
AcDb2dVertex
 10
403.5507782435006
 20
224.5466877556646
 30
0.0
  0
VERTEX
  5
183
330
181
100
AcDbEntity
  8
Wood
 62
   250
420
  2301728
370
     9
100
AcDbVertex
100
AcDb2dVertex
 10
409.295811072755
 20
221.4574942820491
 30
0.0
  0
VERTEX
  5
184
330
181
100
AcDbEntity
  8
Wood
 62
   250
420
  2301728
370
     9
100
AcDbVertex
100
AcDb2dVertex
 10
414.9965404857703
 20
219.5077134592739
 30
0.0
  0
VERTEX
  5
185
330
181
100
AcDbEntity
  8
Wood
 62
   250
420
  2301728
370
     9
100
AcDbVertex
100
AcDb2dVertex
 10
420.4685374937344
 20
217.4884636452898
 30
0.0
  0
VERTEX
  5
186
330
181
100
AcDbEntity
  8
Wood
 62
   250
420
  2301728
370
     9
100
AcDbVertex
100
AcDb2dVertex
 10
430.5503456640381
 20
214.8212436830163
 30
0.0
  0
SEQEND
  5
187
330
181
100
AcDbEntity
  8
Wood
 62
   250
420
  2301728
370
     9
  0
POLYLINE
  5
188
330
14B
100
AcDbEntity
  8
Wood
 62
   250
420
  2301728
370
     9
100
AcDb2dPolyline
 66
     1
 10
0.0
 20
0.0
 30
0.0
  0
VERTEX
  5
189
330
188
100
AcDbEntity
  8
Wood
 62
   250
420
  2301728
370
     9
100
AcDbVertex
100
AcDb2dVertex
 10
410.2890579555833
 20
226.6509449483983
 30
0.0
  0
VERTEX
  5
18A
330
188
100
AcDbEntity
  8
Wood
 62
   250
420
  2301728
370
     9
100
AcDbVertex
100
AcDb2dVertex
 10
414.6240425283977
 20
224.2684936212027
 30
0.0
  0
VERTEX
  5
18B
330
188
100
AcDbEntity
  8
Wood
 62
   250
420
  2301728
370
     9
100
AcDbVertex
100
AcDb2dVertex
 10
419.8092607457857
 20
223.0962672457954
 30
0.0
  0
VERTEX
  5
18C
330
188
100
AcDbEntity
  8
Wood
 62
   250
420
  2301728
370
     9
100
AcDbVertex
100
AcDb2dVertex
 10
423.5671382090877
 20
222.5881649278599
 30
0.0
  0
VERTEX
  5
18D
330
188
100
AcDbEntity
  8
Wood
 62
   250
420
  2301728
370
     9
100
AcDbVertex
100
AcDb2dVertex
 10
433.6340650828115
 20
220.2715438932973
 30
0.0
  0
SEQEND
  5
18E
330
188
100
AcDbEntity
  8
Wood
 62
   250
420
  2301728
370
     9
  0
SPLINE
  5
18F
330
14B
100
AcDbEntity
  8
Wood
 62
   250
420
  2301728
370
     9
100
AcDbSpline
210
0.0
220
0.0
230
1.0
 70
     8
 71
     3
 72
    14
 73
    10
 74
     0
 42
0.0000000001
 43
0.0000000001
 12
1.0
 22
0.0
 32
0.0
 13
1.0
 23
0.0
 33
0.0
 40
0.0
 40
0.0
 40
0.0
 40
0.0
 40
1.0
 40
1.0
 40
1.0
 40
2.0
 40
2.0
 40
2.0
 40
3.0
 40
3.0
 40
3.0
 40
3.0
 10
417.8193219619598
 20
229.0025261940045
 30
0.0
 10
417.8193219619598
 20
229.0025261940045
 30
0.0
 10
418.8862732986599
 20
228.4851846217698
 30
0.0
 10
420.2048267945547
 20
227.6690508797237
 30
0.0
 10
421.5233802904495
 20
226.8529171376795
 30
0.0
 10
424.358270306624
 20
225.7413154544593
 30
0.0
 10
424.358270306624
 20
225.7413154544593
 30
0.0
 10
424.358270306624
 20
225.7413154544593
 30
0.0
 10
432.3545902133737
 20
224.2521095406901
 30
0.0
 10
432.3545902133737
 20
224.2521095406901
 30
0.0
  0
SPLINE
  5
190
330
14B
100
AcDbEntity
  8
Wood
 62
   250
420
  2301728
370
     9
100
AcDbSpline
210
0.0
220
0.0
230
1.0
 70
     8
 71
     3
 72
    14
 73
    10
 74
     0
 42
0.0000000001
 43
0.0000000001
 12
1.0
 22
0.0
 32
0.0
 13
1.0
 23
0.0
 33
0.0
 40
0.0
 40
0.0
 40
0.0
 40
0.0
 40
1.0
 40
1.0
 40
1.0
 40
2.0
 40
2.0
 40
2.0
 40
3.0
 40
3.0
 40
3.0
 40
3.0
 10
422.8872783332627
 20
233.4287244378229
 30
0.0
 10
422.8872783332627
 20
233.4287244378229
 30
0.0
 10
423.9627042578541
 20
232.4978421868236
 30
0.0
 10
424.8197640301878
 20
232.0897753158006
 30
0.0
 10
425.6768238025179
 20
231.6817084447794
 30
0.0
 10
428.577641493488
 20
229.641374089666
 30
0.0
 10
428.577641493488
 20
229.641374089666
 30
0.0
 10
428.577641493488
 20
229.641374089666
 30
0.0
 10
430.7707761881684
 20
228.7183023134457
 30
0.0
 10
430.7707761881684
 20
228.7183023134457
 30
0.0
  0
POLYLINE
  5
191
330
14B
100
AcDbEntity
  8
Wood
 62
   250
420
  2301728
370
     9
100
AcDb2dPolyline
 66
     1
 10
0.0
 20
0.0
 30
0.0
  0
VERTEX
  5
192
330
191
100
AcDbEntity
  8
Wood
 62
   250
420
  2301728
370
     9
100
AcDbVertex
100
AcDb2dVertex
 10
425.0869560876672
 20
237.7617360135118
 30
0.0
  0
VERTEX
  5
193
330
191
100
AcDbEntity
  8
Wood
 62
   250
420
  2301728
370
     9
100
AcDbVertex
100
AcDb2dVertex
 10
426.8290272607155
 20
236.3064663163677
 30
0.0
  0
VERTEX
  5
194
330
191
100
AcDbEntity
  8
Wood
 62
   250
420
  2301728
370
     9
100
AcDbVertex
100
AcDb2dVertex
 10
429.0342594704816
 20
234.5819681481844
 30
0.0
  0
SEQEND
  5
195
330
191
100
AcDbEntity
  8
Wood
 62
   250
420
  2301728
370
     9
  0
ENDBLK
  5
14E
330
14B
100
AcDbEntity
  8
0
100
AcDbBlockEnd
  0
BLOCK
  5
199
330
197
100
AcDbEntity
  8
0
100
AcDbBlockBegin
  2
block 22
 70
     0
 10
0.0
 20
0.0
 30
0.0
  3
block 22
  1

  0
SPLINE
  5
19B
330
197
100
AcDbEntity
  8
Connectors
 62
     7
420
 16776959
370
    18
100
AcDbSpline
210
0.0
220
0.0
230
1.0
 70
    11
 71
     3
 72
    98
 73
    94
 74
     0
 42
0.0000000001
 43
0.0000000001
 12
1.0
 22
0.0
 32
0.0
 13
1.0
 23
0.0
 33
0.0
 40
0.0
 40
0.0
 40
0.0
 40
0.0
 40
1.0
 40
1.0
 40
1.0
 40
2.0
 40
2.0
 40
2.0
 40
3.0
 40
3.0
 40
3.0
 40
4.0
 40
4.0
 40
4.0
 40
5.0
 40
5.0
 40
5.0
 40
6.0
 40
6.0
 40
6.0
 40
7.0
 40
7.0
 40
7.0
 40
8.0
 40
8.0
 40
8.0
 40
9.0
 40
9.0
 40
9.0
 40
10.0
 40
10.0
 40
10.0
 40
11.0
 40
11.0
 40
11.0
 40
12.0
 40
12.0
 40
12.0
 40
13.0
 40
13.0
 40
13.0
 40
14.0
 40
14.0
 40
14.0
 40
15.0
 40
15.0
 40
15.0
 40
16.0
 40
16.0
 40
16.0
 40
17.0
 40
17.0
 40
17.0
 40
18.0
 40
18.0
 40
18.0
 40
19.0
 40
19.0
 40
19.0
 40
20.0
 40
20.0
 40
20.0
 40
21.0
 40
21.0
 40
21.0
 40
22.0
 40
22.0
 40
22.0
 40
23.0
 40
23.0
 40
23.0
 40
24.0
 40
24.0
 40
24.0
 40
25.0
 40
25.0
 40
25.0
 40
26.0
 40
26.0
 40
26.0
 40
27.0
 40
27.0
 40
27.0
 40
28.0
 40
28.0
 40
28.0
 40
29.0
 40
29.0
 40
29.0
 40
30.0
 40
30.0
 40
30.0
 40
31.0
 40
31.0
 40
31.0
 40
31.0
 10
436.7966411568923
 20
459.3530115653866
 30
0.0
 10
436.7966411568923
 20
459.3530115653866
 30
0.0
 10
464.3062560389262
 20
451.8719384092637
 30
0.0
 10
464.3062560389262
 20
451.8719384092637
 30
0.0
 10
464.8336540190212
 20
451.6945679390083
 30
0.0
 10
465.2741671355398
 20
451.3366779148055
 30
0.0
 10
465.5701652482057
 20
450.8485669564634
 30
0.0
 10
465.5701652482057
 20
450.8485669564634
 30
0.0
 10
471.6503927128306
 20
441.2986347482993
 30
0.0
 10
471.6503927128306
 20
441.2986347482993
 30
0.0
 10
471.9826310825847
 20
440.7679999423081
 30
0.0
 10
472.1621167270532
 20
440.1555133475704
 30
0.0
 10
472.1702670202794
 20
439.5240912040099
 30
0.0
 10
472.1702670202794
 20
439.5240912040099
 30
0.0
 10
472.1702670202794
 20
362.5585940771189
 30
0.0
 10
472.1702670202794
 20
362.5585940771189
 30
0.0
 10
472.2095686089306
 20
360.6510397610627
 30
0.0
 10
471.4290587406267
 20
358.9728630655809
 30
0.0
 10
469.9542553201427
 20
357.9008913408088
 30
0.0
 10
469.9542553201427
 20
357.9008913408088
 30
0.0
 10
454.34161622584
 20
351.4178249963115
 30
0.0
 10
454.34161622584
 20
351.4178249963115
 30
0.0
 10
453.6246003431479
 20
350.8903111432392
 30
0.0
 10
453.2468522665968
 20
350.0680108469387
 30
0.0
 10
453.2686936296013
 20
349.1361746928678
 30
0.0
 10
453.2686936296013
 20
349.1361746928678
 30
0.0
 10
453.2686936296013
 20
273.5146770782194
 30
0.0
 10
453.2686936296013
 20
273.5146770782194
 30
0.0
 10
453.2782706864491
 20
272.9560156642365
 30
0.0
 10
453.0989378771083
 20
272.4270201304153
 30
0.0
 10
452.7530411555217
 20
272.0010216037299
 30
0.0
 10
452.7530411555217
 20
272.0010216037299
 30
0.0
 10
446.722540220966
 20
265.3070581078773
 30
0.0
 10
446.722540220966
 20
265.3070581078773
 30
0.0
 10
446.5490594482144
 20
265.119762576609
 30
0.0
 10
446.3461045933182
 20
264.9871679411699
 30
0.0
 10
446.1241228474446
 20
264.9130995872601
 30
0.0
 10
446.1241228474446
 20
264.9130995872601
 30
0.0
 10
446.1260583387666
 20
264.9069200035756
 30
0.0
 10
446.1260583387666
 20
264.9069200035756
 30
0.0
 10
446.1260583387666
 20
264.9069200035756
 30
0.0
 10
445.0587043533451
 20
264.5476700783656
 30
0.0
 10
445.0587043533451
 20
264.5476700783656
 30
0.0
 10
445.0587043533451
 20
264.5476700783656
 30
0.0
 10
445.0521238837919
 20
264.5454748018146
 30
0.0
 10
445.0521238837919
 20
264.5454748018146
 30
0.0
 10
444.8412895439633
 20
264.4774517341375
 30
0.0
 10
444.6197562022171
 20
264.4634503003508
 30
0.0
 10
444.4020107461365
 20
264.5012717644113
 30
0.0
 10
444.4020107461365
 20
264.5012717644113
 30
0.0
 10
416.6807430155386
 20
269.3172667566923
 30
0.0
 10
416.6807430155386
 20
269.3172667566923
 30
0.0
 10
416.1517640578386
 20
269.4405622352533
 30
0.0
 10
415.7013060355939
 20
269.7577597903255
 30
0.0
 10
415.3921065345394
 20
270.2213573746849
 30
0.0
 10
415.3921065345394
 20
270.2213573746849
 30
0.0
 10
409.2744855659039
 20
279.0288799438822
 30
0.0
 10
409.2744855659039
 20
279.0288799438822
 30
0.0
 10
408.9291871943806
 20
279.5407453141524
 30
0.0
 10
408.7431396831726
 20
280.1419386466514
 30
0.0
 10
408.7369674776028
 20
280.7656072403497
 30
0.0
 10
408.7369674776028
 20
280.7656072403497
 30
0.0
 10
408.7369674776028
 20
357.9343453294205
 30
0.0
 10
408.7369674776028
 20
357.9343453294205
 30
0.0
 10
408.6842666606508
 20
359.8168704626278
 30
0.0
 10
409.295811072755
 20
361.7870291557974
 30
0.0
 10
410.8379163565569
 20
362.6144541203776
 30
0.0
 10
410.8379163565569
 20
362.6144541203776
 30
0.0
 10
426.1448038577291
 20
369.4100010709544
 30
0.0
 10
426.1448038577291
 20
369.4100010709544
 30
0.0
 10
426.732018794537
 20
369.6713738504541
 30
0.0
 10
427.2303649585556
 20
370.2471740109258
 30
0.0
 10
427.2303649585556
 20
371.7996266251575
 30
0.0
 10
427.2303649585556
 20
371.7996266251575
 30
0.0
 10
427.2303649585556
 20
450.3684333085748
 30
0.0
 10
427.2303649585556
 20
450.3684333085748
 30
0.0
 10
427.2168302324135
 20
450.9381170353099
 30
0.0
 10
427.4057143073369
 20
451.4727175230664
 30
0.0
 10
427.7726961066801
 20
451.8929973882059
 30
0.0
 10
427.7726961066801
 20
451.8929973882059
 30
0.0
 10
434.0732788378991
 20
458.2432487808401
 30
0.0
 10
434.0732788378991
 20
458.2432487808401
 30
0.0
 10
434.0732788378991
 20
458.2432487808401
 30
0.0
 10
434.0795436889712
 20
458.2495246123453
 30
0.0
 10
434.0795436889712
 20
458.2495246123453
 30
0.0
 10
434.1747518879274
 20
458.3447135433753
 30
0.0
 10
434.283340237127
 20
458.4250532939086
 30
0.0
 10
434.4012527670238
 20
458.4875423972762
 30
0.0
 10
434.4012527670238
 20
458.4875423972762
 30
0.0
 10
435.8196658943089
 20
459.2505233689008
 30
0.0
 10
435.8196658943089
 20
459.2505233689008
 30
0.0
 10
436.1160618945469
 20
459.4067382454032
 30
0.0
 10
436.4516863447607
 20
459.4432765843267
 30
0.0
 10
436.7966411568923
 20
459.3530115653866
 30
0.0
  0
HATCH
  5
19C
330
197
100
AcDbEntity
  8
Connectors
 62
   250
420
  2301728
100
AcDbHatch
 10
0.0
 20
0.0
 30
0.0
210
0.0
220
0.0
230
1.0
  2
SOLID
 70
     1
 71
     0
 91
        1
 92
        1
 93
        1
 72
     4
 94
        3
 73
     0
 74
     1
 95
       98
 96
       94
 40
0.0
 40
0.0
 40
0.0
 40
0.0
 40
1.0
 40
1.0
 40
1.0
 40
2.0
 40
2.0
 40
2.0
 40
3.0
 40
3.0
 40
3.0
 40
4.0
 40
4.0
 40
4.0
 40
5.0
 40
5.0
 40
5.0
 40
6.0
 40
6.0
 40
6.0
 40
7.0
 40
7.0
 40
7.0
 40
8.0
 40
8.0
 40
8.0
 40
9.0
 40
9.0
 40
9.0
 40
10.0
 40
10.0
 40
10.0
 40
11.0
 40
11.0
 40
11.0
 40
12.0
 40
12.0
 40
12.0
 40
13.0
 40
13.0
 40
13.0
 40
14.0
 40
14.0
 40
14.0
 40
15.0
 40
15.0
 40
15.0
 40
16.0
 40
16.0
 40
16.0
 40
17.0
 40
17.0
 40
17.0
 40
18.0
 40
18.0
 40
18.0
 40
19.0
 40
19.0
 40
19.0
 40
20.0
 40
20.0
 40
20.0
 40
21.0
 40
21.0
 40
21.0
 40
22.0
 40
22.0
 40
22.0
 40
23.0
 40
23.0
 40
23.0
 40
24.0
 40
24.0
 40
24.0
 40
25.0
 40
25.0
 40
25.0
 40
26.0
 40
26.0
 40
26.0
 40
27.0
 40
27.0
 40
27.0
 40
28.0
 40
28.0
 40
28.0
 40
29.0
 40
29.0
 40
29.0
 40
30.0
 40
30.0
 40
30.0
 40
31.0
 40
31.0
 40
31.0
 40
31.0
 10
436.7966411568923
 20
459.3530115653866
 10
436.7966411568923
 20
459.3530115653866
 10
464.3062560389262
 20
451.8719384092637
 10
464.3062560389262
 20
451.8719384092637
 10
464.8336540190212
 20
451.6945679390083
 10
465.2741671355398
 20
451.3366779148055
 10
465.5701652482057
 20
450.8485669564634
 10
465.5701652482057
 20
450.8485669564634
 10
471.6503927128306
 20
441.2986347482993
 10
471.6503927128306
 20
441.2986347482993
 10
471.9826310825847
 20
440.7679999423081
 10
472.1621167270532
 20
440.1555133475704
 10
472.1702670202794
 20
439.5240912040099
 10
472.1702670202794
 20
439.5240912040099
 10
472.1702670202794
 20
362.5585940771189
 10
472.1702670202794
 20
362.5585940771189
 10
472.2095686089306
 20
360.6510397610627
 10
471.4290587406267
 20
358.9728630655809
 10
469.9542553201427
 20
357.9008913408088
 10
469.9542553201427
 20
357.9008913408088
 10
454.34161622584
 20
351.4178249963115
 10
454.34161622584
 20
351.4178249963115
 10
453.6246003431479
 20
350.8903111432392
 10
453.2468522665968
 20
350.0680108469387
 10
453.2686936296013
 20
349.1361746928678
 10
453.2686936296013
 20
349.1361746928678
 10
453.2686936296013
 20
273.5146770782194
 10
453.2686936296013
 20
273.5146770782194
 10
453.2782706864491
 20
272.9560156642365
 10
453.0989378771083
 20
272.4270201304153
 10
452.7530411555217
 20
272.0010216037299
 10
452.7530411555217
 20
272.0010216037299
 10
446.722540220966
 20
265.3070581078773
 10
446.722540220966
 20
265.3070581078773
 10
446.5490594482144
 20
265.119762576609
 10
446.3461045933182
 20
264.9871679411699
 10
446.1241228474446
 20
264.9130995872601
 10
446.1241228474446
 20
264.9130995872601
 10
446.1260583387666
 20
264.9069200035756
 10
446.1260583387666
 20
264.9069200035756
 10
446.1260583387666
 20
264.9069200035756
 10
445.0587043533451
 20
264.5476700783656
 10
445.0587043533451
 20
264.5476700783656
 10
445.0587043533451
 20
264.5476700783656
 10
445.0521238837919
 20
264.5454748018146
 10
445.0521238837919
 20
264.5454748018146
 10
444.8412895439633
 20
264.4774517341375
 10
444.6197562022171
 20
264.4634503003508
 10
444.4020107461365
 20
264.5012717644113
 10
444.4020107461365
 20
264.5012717644113
 10
416.6807430155386
 20
269.3172667566923
 10
416.6807430155386
 20
269.3172667566923
 10
416.1517640578386
 20
269.4405622352533
 10
415.7013060355939
 20
269.7577597903255
 10
415.3921065345394
 20
270.2213573746849
 10
415.3921065345394
 20
270.2213573746849
 10
409.2744855659039
 20
279.0288799438822
 10
409.2744855659039
 20
279.0288799438822
 10
408.9291871943806
 20
279.5407453141524
 10
408.7431396831726
 20
280.1419386466514
 10
408.7369674776028
 20
280.7656072403497
 10
408.7369674776028
 20
280.7656072403497
 10
408.7369674776028
 20
357.9343453294205
 10
408.7369674776028
 20
357.9343453294205
 10
408.6842666606508
 20
359.8168704626278
 10
409.295811072755
 20
361.7870291557974
 10
410.8379163565569
 20
362.6144541203776
 10
410.8379163565569
 20
362.6144541203776
 10
426.1448038577291
 20
369.4100010709544
 10
426.1448038577291
 20
369.4100010709544
 10
426.732018794537
 20
369.6713738504541
 10
427.2303649585556
 20
370.2471740109258
 10
427.2303649585556
 20
371.7996266251575
 10
427.2303649585556
 20
371.7996266251575
 10
427.2303649585556
 20
450.3684333085748
 10
427.2303649585556
 20
450.3684333085748
 10
427.2168302324135
 20
450.9381170353099
 10
427.4057143073369
 20
451.4727175230664
 10
427.7726961066801
 20
451.8929973882059
 10
427.7726961066801
 20
451.8929973882059
 10
434.0732788378991
 20
458.2432487808401
 10
434.0732788378991
 20
458.2432487808401
 10
434.0732788378991
 20
458.2432487808401
 10
434.0795436889712
 20
458.2495246123453
 10
434.0795436889712
 20
458.2495246123453
 10
434.1747518879274
 20
458.3447135433753
 10
434.283340237127
 20
458.4250532939086
 10
434.4012527670238
 20
458.4875423972762
 10
434.4012527670238
 20
458.4875423972762
 10
435.8196658943089
 20
459.2505233689008
 10
435.8196658943089
 20
459.2505233689008
 10
436.1160618945469
 20
459.4067382454032
 10
436.4516863447607
 20
459.4432765843267
 10
436.7966411568923
 20
459.3530115653866
 97
        0
 97
        0
 75
     2
 76
     1
 98
        0
  0
SPLINE
  5
19D
330
197
100
AcDbEntity
  8
Connectors
 62
     7
420
 16776959
370
    13
100
AcDbSpline
210
0.0
220
0.0
230
1.0
 70
     8
 71
     3
 72
    44
 73
    40
 74
     0
 42
0.0000000001
 43
0.0000000001
 12
1.0
 22
0.0
 32
0.0
 13
1.0
 23
0.0
 33
0.0
 40
0.0
 40
0.0
 40
0.0
 40
0.0
 40
1.0
 40
1.0
 40
1.0
 40
2.0
 40
2.0
 40
2.0
 40
3.0
 40
3.0
 40
3.0
 40
4.0
 40
4.0
 40
4.0
 40
5.0
 40
5.0
 40
5.0
 40
6.0
 40
6.0
 40
6.0
 40
7.0
 40
7.0
 40
7.0
 40
8.0
 40
8.0
 40
8.0
 40
9.0
 40
9.0
 40
9.0
 40
10.0
 40
10.0
 40
10.0
 40
11.0
 40
11.0
 40
11.0
 40
12.0
 40
12.0
 40
12.0
 40
13.0
 40
13.0
 40
13.0
 40
13.0
 10
435.8196658943089
 20
459.2505233689008
 30
0.0
 10
435.705363253599
 20
459.1902804071597
 30
0.0
 10
435.5968946474659
 20
459.1122392132993
 30
0.0
 10
435.4959748037218
 20
459.0168085277392
 30
0.0
 10
435.4959748037218
 20
459.0168085277392
 30
0.0
 10
429.1921888387224
 20
452.661689291609
 30
0.0
 10
429.1921888387224
 20
452.661689291609
 30
0.0
 10
428.8249727355869
 20
452.2409726329515
 30
0.0
 10
428.6359968646957
 20
451.7058627809902
 30
0.0
 10
428.6495800523135
 20
451.1356791744693
 30
0.0
 10
428.6495800523135
 20
451.1356791744693
 30
0.0
 10
428.6495800523135
 20
372.4845162741512
 30
0.0
 10
428.6495800523135
 20
372.4845162741512
 30
0.0
 10
428.6984404786326
 20
370.5557524229698
 30
0.0
 10
427.9403406371384
 20
368.3160990921579
 30
0.0
 10
426.4761820694875
 20
367.7042506413127
 30
0.0
 10
426.4761820694875
 20
367.7042506413127
 30
0.0
 10
411.1692945683144
 20
360.936840602626
 30
0.0
 10
411.1692945683144
 20
360.936840602626
 30
0.0
 10
410.5244465455271
 20
360.5968341153148
 30
0.0
 10
410.0912918026806
 20
359.538121849926
 30
0.0
 10
410.1177386579075
 20
358.5963100601793
 30
0.0
 10
410.1177386579075
 20
358.5963100601793
 30
0.0
 10
410.1177386579075
 20
281.3481262045971
 30
0.0
 10
410.1177386579075
 20
281.3481262045971
 30
0.0
 10
410.1239041346216
 20
280.7238341247248
 30
0.0
 10
410.3100454554824
 20
280.1220011150763
 30
0.0
 10
410.6555345690167
 20
279.6095109975558
 30
0.0
 10
410.6555345690167
 20
279.6095109975558
 30
0.0
 10
416.903782486128
 20
270.5810196630227
 30
0.0
 10
416.903782486128
 20
270.5810196630227
 30
0.0
 10
417.2130536989007
 20
270.1169560953931
 30
0.0
 10
417.663741697208
 20
269.7993528721981
 30
0.0
 10
418.1930757461014
 20
269.6757682001899
 30
0.0
 10
418.1930757461014
 20
269.6757682001899
 30
0.0
 10
445.4690486652507
 20
264.8605919909205
 30
0.0
 10
445.4690486652507
 20
264.8605919909205
 30
0.0
 10
445.6981394933391
 20
264.8262300198203
 30
0.0
 10
445.9192357852098
 20
264.8447351937029
 30
0.0
 10
446.1241228474446
 20
264.9130995872601
 30
0.0
  0
POLYLINE
  5
19E
330
197
100
AcDbEntity
  8
Connectors
 62
     7
420
 16776959
370
     9
100
AcDb2dPolyline
 66
     1
 10
0.0
 20
0.0
 30
0.0
  0
VERTEX
  5
19F
330
19E
100
AcDbEntity
  8
Connectors
 62
     7
420
 16776959
370
     9
100
AcDbVertex
100
AcDb2dVertex
 10
465.0415833172719
 20
361.4740491739594
 30
0.0
  0
VERTEX
  5
1A0
330
19E
100
AcDbEntity
  8
Connectors
 62
     7
420
 16776959
370
     9
100
AcDbVertex
100
AcDb2dVertex
 10
469.3209445166394
 20
360.4743406881362
 30
0.0
  0
SEQEND
  5
1A1
330
19E
100
AcDbEntity
  8
Connectors
 62
     7
420
 16776959
370
     9
  0
POLYLINE
  5
1A2
330
197
100
AcDbEntity
  8
Connectors
 62
     7
420
 16776959
370
     9
100
AcDb2dPolyline
 66
     1
 10
0.0
 20
0.0
 30
0.0
  0
VERTEX
  5
1A3
330
1A2
100
AcDbEntity
  8
Connectors
 62
     7
420
 16776959
370
     9
100
AcDbVertex
100
AcDb2dVertex
 10
438.8656432311291
 20
367.5890528414084
 30
0.0
  0
VERTEX
  5
1A4
330
1A2
100
AcDbEntity
  8
Connectors
 62
     7
420
 16776959
370
     9
100
AcDbVertex
100
AcDb2dVertex
 10
462.0733434246176
 20
362.167464492366
 30
0.0
  0
SEQEND
  5
1A5
330
1A2
100
AcDbEntity
  8
Connectors
 62
     7
420
 16776959
370
     9
  0
POLYLINE
  5
1A6
330
197
100
AcDbEntity
  8
Connectors
 62
     7
420
 16776959
370
     9
100
AcDb2dPolyline
 66
     1
 10
0.0
 20
0.0
 30
0.0
  0
VERTEX
  5
1A7
330
1A6
100
AcDbEntity
  8
Connectors
 62
     7
420
 16776959
370
     9
100
AcDbVertex
100
AcDb2dVertex
 10
431.9687638524301
 20
369.2002439793732
 30
0.0
  0
VERTEX
  5
1A8
330
1A6
100
AcDbEntity
  8
Connectors
 62
     7
420
 16776959
370
     9
100
AcDbVertex
100
AcDb2dVertex
 10
435.6923686691171
 20
368.330366640288
 30
0.0
  0
SEQEND
  5
1A9
330
1A6
100
AcDbEntity
  8
Connectors
 62
     7
420
 16776959
370
     9
  0
INSERT
  5
1AB
330
197
100
AcDbEntity
  8
Connectors
100
AcDbBlockReference
  2
block 23
 10
0.0
 20
0.0
 30
0.0
  0
ENDBLK
  5
19A
330
197
100
AcDbEntity
  8
0
100
AcDbBlockEnd
  0
BLOCK
  5
1AC
330
1AA
100
AcDbEntity
  8
0
100
AcDbBlockBegin
  2
block 23
 70
     0
 10
0.0
 20
0.0
 30
0.0
  3
block 23
  1

  0
POLYLINE
  5
1AE
330
1AA
100
AcDbEntity
  8
Connectors
 62
     7
420
 16776959
370
     9
100
AcDb2dPolyline
 66
     1
 10
0.0
 20
0.0
 30
0.0
  0
VERTEX
  5
1AF
330
1AE
100
AcDbEntity
  8
Connectors
 62
     7
420
 16776959
370
     9
100
AcDbVertex
100
AcDb2dVertex
 10
448.8698736124443
 20
353.1774089414648
 30
0.0
  0
VERTEX
  5
1B0
330
1AE
100
AcDbEntity
  8
Connectors
 62
     7
420
 16776959
370
     9
100
AcDbVertex
100
AcDb2dVertex
 10
452.3284674523929
 20
352.4208668114634
 30
0.0
  0
SEQEND
  5
1B1
330
1AE
100
AcDbEntity
  8
Connectors
 62
     7
420
 16776959
370
     9
  0
POLYLINE
  5
1B2
330
1AA
100
AcDbEntity
  8
Connectors
 62
     7
420
 16776959
370
     9
100
AcDb2dPolyline
 66
     1
 10
0.0
 20
0.0
 30
0.0
  0
VERTEX
  5
1B3
330
1B2
100
AcDbEntity
  8
Connectors
 62
     7
420
 16776959
370
     9
100
AcDbVertex
100
AcDb2dVertex
 10
420.1620392739678
 20
359.4570379303614
 30
0.0
  0
VERTEX
  5
1B4
330
1B2
100
AcDbEntity
  8
Connectors
 62
     7
420
 16776959
370
     9
100
AcDbVertex
100
AcDb2dVertex
 10
446.1049357625052
 20
353.7822188923046
 30
0.0
  0
SEQEND
  5
1B5
330
1B2
100
AcDbEntity
  8
Connectors
 62
     7
420
 16776959
370
     9
  0
POLYLINE
  5
1B6
330
1AA
100
AcDbEntity
  8
Connectors
 62
     7
420
 16776959
370
     9
100
AcDb2dPolyline
 66
     1
 10
0.0
 20
0.0
 30
0.0
  0
VERTEX
  5
1B7
330
1B6
100
AcDbEntity
  8
Connectors
 62
     7
420
 16776959
370
     9
100
AcDbVertex
100
AcDb2dVertex
 10
413.4636576806979
 20
360.9222599577652
 30
0.0
  0
VERTEX
  5
1B8
330
1B6
100
AcDbEntity
  8
Connectors
 62
     7
420
 16776959
370
     9
100
AcDbVertex
100
AcDb2dVertex
 10
417.1286044628487
 20
360.1205796295098
 30
0.0
  0
SEQEND
  5
1B9
330
1B6
100
AcDbEntity
  8
Connectors
 62
     7
420
 16776959
370
     9
  0
ENDBLK
  5
1AD
330
1AA
100
AcDbEntity
  8
0
100
AcDbBlockEnd
  0
BLOCK
  5
1BC
330
1BA
100
AcDbEntity
  8
0
100
AcDbBlockBegin
  2
block 24
 70
     0
 10
0.0
 20
0.0
 30
0.0
  3
block 24
  1

  0
INSERT
  5
1BF
330
1BA
100
AcDbEntity
  8
Connectors
100
AcDbBlockReference
  2
block 25
 10
0.0
 20
0.0
 30
0.0
  0
INSERT
  5
223
330
1BA
100
AcDbEntity
  8
Connectors
100
AcDbBlockReference
  2
block 31
 10
0.0
 20
0.0
 30
0.0
  0
ENDBLK
  5
1BD
330
1BA
100
AcDbEntity
  8
0
100
AcDbBlockEnd
  0
BLOCK
  5
1C0
330
1BE
100
AcDbEntity
  8
0
100
AcDbBlockBegin
  2
block 25
 70
     0
 10
0.0
 20
0.0
 30
0.0
  3
block 25
  1

  0
INSERT
  5
1C3
330
1BE
100
AcDbEntity
  8
Connectors
100
AcDbBlockReference
  2
block 26
 10
0.0
 20
0.0
 30
0.0
  0
INSERT
  5
1CA
330
1BE
100
AcDbEntity
  8
Connectors
100
AcDbBlockReference
  2
block 27
 10
0.0
 20
0.0
 30
0.0
  0
ENDBLK
  5
1C1
330
1BE
100
AcDbEntity
  8
0
100
AcDbBlockEnd
  0
BLOCK
  5
1C4
330
1C2
100
AcDbEntity
  8
0
100
AcDbBlockBegin
  2
block 26
 70
     0
 10
0.0
 20
0.0
 30
0.0
  3
block 26
  1

  0
SPLINE
  5
1C6
330
1C2
100
AcDbEntity
  8
Connectors
 62
     7
420
 16776959
370
     9
100
AcDbSpline
210
0.0
220
0.0
230
1.0
 70
    11
 71
     3
 72
    23
 73
    19
 74
     0
 42
0.0000000001
 43
0.0000000001
 12
1.0
 22
0.0
 32
0.0
 13
1.0
 23
0.0
 33
0.0
 40
0.0
 40
0.0
 40
0.0
 40
0.0
 40
1.0
 40
1.0
 40
1.0
 40
2.0
 40
2.0
 40
2.0
 40
3.0
 40
3.0
 40
3.0
 40
4.0
 40
4.0
 40
4.0
 40
5.0
 40
5.0
 40
5.0
 40
6.0
 40
6.0
 40
6.0
 40
6.0
 10
434.1674381721041
 20
322.8492595233629
 30
0.0
 10
429.2849116157686
 20
322.2875063704314
 30
0.0
 10
424.0974402700231
 20
326.6223741830163
 30
0.0
 10
422.1069533651571
 20
333.2328268443725
 30
0.0
 10
420.0232052994952
 20
340.1531231617118
 30
0.0
 10
422.1961630925944
 20
347.0661687354786
 30
0.0
 10
426.9667884117371
 20
349.1461270869022
 30
0.0
 10
426.9667884117371
 20
349.1461270869022
 30
0.0
 10
429.1556823884894
 20
349.9711324841537
 30
0.0
 10
429.1556823884894
 20
349.9711324841537
 30
0.0
 10
434.4104475752574
 20
351.6549561521433
 30
0.0
 10
440.4401705837699
 20
347.1419784900463
 30
0.0
 10
442.6234973347928
 20
339.8910913395775
 30
0.0
 10
444.5990969757295
 20
333.329958092414
 30
0.0
 10
442.7483423718077
 20
326.7752141143383
 30
0.0
 10
438.4851696780388
 20
324.3399693279162
 30
0.0
 10
438.4851696780388
 20
324.3399693279162
 30
0.0
 10
434.1674381721041
 20
322.8492595233629
 30
0.0
 10
434.1674381721041
 20
322.8492595233629
 30
0.0
  0
HATCH
  5
1C7
330
1C2
100
AcDbEntity
  8
Connectors
 62
   250
420
  2301728
100
AcDbHatch
 10
0.0
 20
0.0
 30
0.0
210
0.0
220
0.0
230
1.0
  2
SOLID
 70
     1
 71
     0
 91
        1
 92
        1
 93
        1
 72
     4
 94
        3
 73
     0
 74
     1
 95
       23
 96
       19
 40
0.0
 40
0.0
 40
0.0
 40
0.0
 40
1.0
 40
1.0
 40
1.0
 40
2.0
 40
2.0
 40
2.0
 40
3.0
 40
3.0
 40
3.0
 40
4.0
 40
4.0
 40
4.0
 40
5.0
 40
5.0
 40
5.0
 40
6.0
 40
6.0
 40
6.0
 40
6.0
 10
434.1674381721041
 20
322.8492595233629
 10
429.2849116157686
 20
322.2875063704314
 10
424.0974402700231
 20
326.6223741830163
 10
422.1069533651571
 20
333.2328268443725
 10
420.0232052994952
 20
340.1531231617118
 10
422.1961630925944
 20
347.0661687354786
 10
426.9667884117371
 20
349.1461270869022
 10
426.9667884117371
 20
349.1461270869022
 10
429.1556823884894
 20
349.9711324841537
 10
429.1556823884894
 20
349.9711324841537
 10
434.4104475752574
 20
351.6549561521433
 10
440.4401705837699
 20
347.1419784900463
 10
442.6234973347928
 20
339.8910913395775
 10
444.5990969757295
 20
333.329958092414
 10
442.7483423718077
 20
326.7752141143383
 10
438.4851696780388
 20
324.3399693279162
 10
438.4851696780388
 20
324.3399693279162
 10
434.1674381721041
 20
322.8492595233629
 10
434.1674381721041
 20
322.8492595233629
 97
        0
 97
        0
 75
     2
 76
     1
 98
        0
  0
SPLINE
  5
1C8
330
1C2
100
AcDbEntity
  8
Connectors
 62
     7
420
 16776959
370
     5
100
AcDbSpline
210
0.0
220
0.0
230
1.0
 70
     8
 71
     3
 72
    14
 73
    10
 74
     0
 42
0.0000000001
 43
0.0000000001
 12
1.0
 22
0.0
 32
0.0
 13
1.0
 23
0.0
 33
0.0
 40
0.0
 40
0.0
 40
0.0
 40
0.0
 40
1.0
 40
1.0
 40
1.0
 40
2.0
 40
2.0
 40
2.0
 40
3.0
 40
3.0
 40
3.0
 40
3.0
 10
438.4851696780388
 20
324.3399693279162
 30
0.0
 10
438.0369384163769
 20
324.0838960376277
 30
0.0
 10
437.5620540615309
 20
323.8734091054357
 30
0.0
 10
437.0621867812151
 20
323.713246641003
 30
0.0
 10
431.8074215944471
 20
322.0294229730134
 30
0.0
 10
425.7776985859346
 20
326.5424006351104
 30
0.0
 10
423.5943718349117
 20
333.7933595751201
 30
0.0
 10
421.4110501312134
 20
341.0442467255889
 30
0.0
 10
423.9009172017213
 20
348.2873088161641
 30
0.0
 10
429.1556823884894
 20
349.9711324841537
 30
0.0
  0
ENDBLK
  5
1C5
330
1C2
100
AcDbEntity
  8
0
100
AcDbBlockEnd
  0
BLOCK
  5
1CB
330
1C9
100
AcDbEntity
  8
0
100
AcDbBlockBegin
  2
block 27
 70
     0
 10
0.0
 20
0.0
 30
0.0
  3
block 27
  1

  0
SPLINE
  5
1CD
330
1C9
100
AcDbEntity
  8
Connectors
 62
     7
420
 16776959
370
     9
100
AcDbSpline
210
0.0
220
0.0
230
1.0
 70
    11
 71
     3
 72
    65
 73
    61
 74
     0
 42
0.0000000001
 43
0.0000000001
 12
1.0
 22
0.0
 32
0.0
 13
1.0
 23
0.0
 33
0.0
 40
0.0
 40
0.0
 40
0.0
 40
0.0
 40
1.0
 40
1.0
 40
1.0
 40
2.0
 40
2.0
 40
2.0
 40
3.0
 40
3.0
 40
3.0
 40
4.0
 40
4.0
 40
4.0
 40
5.0
 40
5.0
 40
5.0
 40
6.0
 40
6.0
 40
6.0
 40
7.0
 40
7.0
 40
7.0
 40
8.0
 40
8.0
 40
8.0
 40
9.0
 40
9.0
 40
9.0
 40
10.0
 40
10.0
 40
10.0
 40
11.0
 40
11.0
 40
11.0
 40
12.0
 40
12.0
 40
12.0
 40
13.0
 40
13.0
 40
13.0
 40
14.0
 40
14.0
 40
14.0
 40
15.0
 40
15.0
 40
15.0
 40
16.0
 40
16.0
 40
16.0
 40
17.0
 40
17.0
 40
17.0
 40
18.0
 40
18.0
 40
18.0
 40
19.0
 40
19.0
 40
19.0
 40
20.0
 40
20.0
 40
20.0
 40
20.0
 10
424.0394019417781
 20
337.7476710345181
 30
0.0
 10
424.0394019417781
 20
337.7476710345181
 30
0.0
 10
427.8629029834483
 20
328.4377880783959
 30
0.0
 10
427.8629029834483
 20
328.4377880783959
 30
0.0
 10
428.1425221131576
 20
327.72046699161
 30
0.0
 10
428.6805196723562
 20
327.2027208268892
 30
0.0
 10
429.3897842304759
 20
326.9793117774416
 30
0.0
 10
429.3897842304759
 20
326.9793117774416
 30
0.0
 10
437.0024086949306
 20
325.3430845746789
 30
0.0
 10
437.0024086949306
 20
325.3430845746789
 30
0.0
 10
437.6631742567515
 20
325.2463122743393
 30
0.0
 10
438.2028417431575
 20
325.5333268565018
 30
0.0
 10
438.5205911517514
 20
326.1432507909822
 30
0.0
 10
438.5205911517514
 20
326.1432507909822
 30
0.0
 10
439.0281829577671
 20
327.1643134228234
 30
0.0
 10
439.0281829577671
 20
327.1643134228234
 30
0.0
 10
439.0281829577671
 20
327.1643134228234
 30
0.0
 10
440.7323107539996
 20
327.8525597457819
 30
0.0
 10
440.7323107539996
 20
327.8525597457819
 30
0.0
 10
440.7323107539996
 20
327.8525597457819
 30
0.0
 10
440.7401048700231
 20
327.8557902750963
 30
0.0
 10
440.7401048700231
 20
327.8557902750963
 30
0.0
 10
440.9898645343765
 20
327.9638335332638
 30
0.0
 10
441.1921635993749
 20
328.1547937104906
 30
0.0
 10
441.3167998654244
 20
328.4034008885874
 30
0.0
 10
441.3167998654244
 20
328.4034008885874
 30
0.0
 10
445.1117688752256
 20
336.0416643985727
 30
0.0
 10
445.1117688752256
 20
336.0416643985727
 30
0.0
 10
445.2659810279729
 20
336.3685939651477
 30
0.0
 10
445.2793423697258
 20
336.7291289119757
 30
0.0
 10
445.1496260101958
 20
337.0671779819122
 30
0.0
 10
445.1496260101958
 20
337.0671779819122
 30
0.0
 10
441.3543090487874
 20
346.368589772278
 30
0.0
 10
441.3543090487874
 20
346.368589772278
 30
0.0
 10
441.2062904346658
 20
346.7129005352081
 30
0.0
 10
440.931135843357
 20
346.9531719990291
 30
0.0
 10
440.5780290109324
 20
347.0439139779819
 30
0.0
 10
440.5780290109324
 20
347.0439139779819
 30
0.0
 10
432.9579583820632
 20
348.7352119368497
 30
0.0
 10
432.9579583820632
 20
348.7352119368497
 30
0.0
 10
432.9579583820632
 20
348.7352119368497
 30
0.0
 10
432.9514864821504
 20
348.7366477276919
 30
0.0
 10
432.9514864821504
 20
348.7366477276919
 30
0.0
 10
432.7455687204274
 20
348.7794261149947
 30
0.0
 10
432.5331094684716
 20
348.7598993600295
 30
0.0
 10
432.3381227106111
 20
348.6791361271808
 30
0.0
 10
432.3381227106111
 20
348.6791361271808
 30
0.0
 10
430.9483290738444
 20
348.098071587905
 30
0.0
 10
430.9483290738444
 20
348.098071587905
 30
0.0
 10
430.9483290738444
 20
348.098071587905
 30
0.0
 10
429.3897842304759
 20
348.4434510663395
 30
0.0
 10
429.3897842304759
 20
348.4434510663395
 30
0.0
 10
428.727284368495
 20
348.5460383194441
 30
0.0
 10
428.1844102694085
 20
348.2621188542507
 30
0.0
 10
427.8629029834483
 20
347.6516124367126
 30
0.0
 10
427.8629029834483
 20
347.6516124367126
 30
0.0
 10
424.0394019417781
 20
340.0108362928158
 30
0.0
 10
424.0394019417781
 20
340.0108362928158
 30
0.0
 10
423.731116816929
 20
339.2805930887744
 30
0.0
 10
423.732647804005
 20
338.4840881390264
 30
0.0
 10
424.0394019417781
 20
337.7476710345181
 30
0.0
  0
HATCH
  5
1CE
330
1C9
100
AcDbEntity
  8
Connectors
 62
   250
420
  2301728
100
AcDbHatch
 10
0.0
 20
0.0
 30
0.0
210
0.0
220
0.0
230
1.0
  2
SOLID
 70
     1
 71
     0
 91
        1
 92
        1
 93
        1
 72
     4
 94
        3
 73
     0
 74
     1
 95
       65
 96
       61
 40
0.0
 40
0.0
 40
0.0
 40
0.0
 40
1.0
 40
1.0
 40
1.0
 40
2.0
 40
2.0
 40
2.0
 40
3.0
 40
3.0
 40
3.0
 40
4.0
 40
4.0
 40
4.0
 40
5.0
 40
5.0
 40
5.0
 40
6.0
 40
6.0
 40
6.0
 40
7.0
 40
7.0
 40
7.0
 40
8.0
 40
8.0
 40
8.0
 40
9.0
 40
9.0
 40
9.0
 40
10.0
 40
10.0
 40
10.0
 40
11.0
 40
11.0
 40
11.0
 40
12.0
 40
12.0
 40
12.0
 40
13.0
 40
13.0
 40
13.0
 40
14.0
 40
14.0
 40
14.0
 40
15.0
 40
15.0
 40
15.0
 40
16.0
 40
16.0
 40
16.0
 40
17.0
 40
17.0
 40
17.0
 40
18.0
 40
18.0
 40
18.0
 40
19.0
 40
19.0
 40
19.0
 40
20.0
 40
20.0
 40
20.0
 40
20.0
 10
424.0394019417781
 20
337.7476710345181
 10
424.0394019417781
 20
337.7476710345181
 10
427.8629029834483
 20
328.4377880783959
 10
427.8629029834483
 20
328.4377880783959
 10
428.1425221131576
 20
327.72046699161
 10
428.6805196723562
 20
327.2027208268892
 10
429.3897842304759
 20
326.9793117774416
 10
429.3897842304759
 20
326.9793117774416
 10
437.0024086949306
 20
325.3430845746789
 10
437.0024086949306
 20
325.3430845746789
 10
437.6631742567515
 20
325.2463122743393
 10
438.2028417431575
 20
325.5333268565018
 10
438.5205911517514
 20
326.1432507909822
 10
438.5205911517514
 20
326.1432507909822
 10
439.0281829577671
 20
327.1643134228234
 10
439.0281829577671
 20
327.1643134228234
 10
439.0281829577671
 20
327.1643134228234
 10
440.7323107539996
 20
327.8525597457819
 10
440.7323107539996
 20
327.8525597457819
 10
440.7323107539996
 20
327.8525597457819
 10
440.7401048700231
 20
327.8557902750963
 10
440.7401048700231
 20
327.8557902750963
 10
440.9898645343765
 20
327.9638335332638
 10
441.1921635993749
 20
328.1547937104906
 10
441.3167998654244
 20
328.4034008885874
 10
441.3167998654244
 20
328.4034008885874
 10
445.1117688752256
 20
336.0416643985727
 10
445.1117688752256
 20
336.0416643985727
 10
445.2659810279729
 20
336.3685939651477
 10
445.2793423697258
 20
336.7291289119757
 10
445.1496260101958
 20
337.0671779819122
 10
445.1496260101958
 20
337.0671779819122
 10
441.3543090487874
 20
346.368589772278
 10
441.3543090487874
 20
346.368589772278
 10
441.2062904346658
 20
346.7129005352081
 10
440.931135843357
 20
346.9531719990291
 10
440.5780290109324
 20
347.0439139779819
 10
440.5780290109324
 20
347.0439139779819
 10
432.9579583820632
 20
348.7352119368497
 10
432.9579583820632
 20
348.7352119368497
 10
432.9579583820632
 20
348.7352119368497
 10
432.9514864821504
 20
348.7366477276919
 10
432.9514864821504
 20
348.7366477276919
 10
432.7455687204274
 20
348.7794261149947
 10
432.5331094684716
 20
348.7598993600295
 10
432.3381227106111
 20
348.6791361271808
 10
432.3381227106111
 20
348.6791361271808
 10
430.9483290738444
 20
348.098071587905
 10
430.9483290738444
 20
348.098071587905
 10
430.9483290738444
 20
348.098071587905
 10
429.3897842304759
 20
348.4434510663395
 10
429.3897842304759
 20
348.4434510663395
 10
428.727284368495
 20
348.5460383194441
 10
428.1844102694085
 20
348.2621188542507
 10
427.8629029834483
 20
347.6516124367126
 10
427.8629029834483
 20
347.6516124367126
 10
424.0394019417781
 20
340.0108362928158
 10
424.0394019417781
 20
340.0108362928158
 10
423.731116816929
 20
339.2805930887744
 10
423.732647804005
 20
338.4840881390264
 10
424.0394019417781
 20
337.7476710345181
 97
        0
 97
        0
 75
     2
 76
     1
 98
        0
  0
SPLINE
  5
1CF
330
1C9
100
AcDbEntity
  8
Connectors
 62
     7
420
 16776959
370
     5
100
AcDbSpline
210
0.0
220
0.0
230
1.0
 70
     8
 71
     3
 72
     8
 73
     4
 74
     0
 42
0.0000000001
 43
0.0000000001
 12
1.0
 22
0.0
 32
0.0
 13
1.0
 23
0.0
 33
0.0
 40
0.0
 40
0.0
 40
0.0
 40
0.0
 40
1.0
 40
1.0
 40
1.0
 40
1.0
 10
435.726539738047
 20
338.2048268272174
 30
0.0
 10
435.9805444120211
 20
338.5657846358999
 30
0.0
 10
435.8758109779574
 20
339.2326376758474
 30
0.0
 10
435.726539738047
 20
339.6091020252361
 30
0.0
  0
SPLINE
  5
1D0
330
1C9
100
AcDbEntity
  8
Connectors
 62
     7
420
 16776959
370
     5
100
AcDbSpline
210
0.0
220
0.0
230
1.0
 70
     8
 71
     3
 72
    11
 73
     7
 74
     0
 42
0.0000000001
 43
0.0000000001
 12
1.0
 22
0.0
 32
0.0
 13
1.0
 23
0.0
 33
0.0
 40
0.0
 40
0.0
 40
0.0
 40
0.0
 40
1.0
 40
1.0
 40
1.0
 40
2.0
 40
2.0
 40
2.0
 40
2.0
 10
436.0387219209078
 20
337.4419193823342
 30
0.0
 10
436.4593258248788
 20
337.4523288656801
 30
0.0
 10
436.8390106197276
 20
336.8794483339998
 30
0.0
 10
436.9849415241988
 20
336.5331434619766
 30
0.0
 10
437.0148653625038
 20
336.4630690001968
 30
0.0
 10
437.0543926651917
 20
336.4000377838038
 30
0.0
 10
437.1034538419444
 20
336.3439701528214
 30
0.0
  0
SPLINE
  5
1D1
330
1C9
100
AcDbEntity
  8
Connectors
 62
     7
420
 16776959
370
     5
100
AcDbSpline
210
0.0
220
0.0
230
1.0
 70
     8
 71
     3
 72
    41
 73
    37
 74
     0
 42
0.0000000001
 43
0.0000000001
 12
1.0
 22
0.0
 32
0.0
 13
1.0
 23
0.0
 33
0.0
 40
0.0
 40
0.0
 40
0.0
 40
0.0
 40
1.0
 40
1.0
 40
1.0
 40
2.0
 40
2.0
 40
2.0
 40
3.0
 40
3.0
 40
3.0
 40
4.0
 40
4.0
 40
4.0
 40
5.0
 40
5.0
 40
5.0
 40
6.0
 40
6.0
 40
6.0
 40
7.0
 40
7.0
 40
7.0
 40
8.0
 40
8.0
 40
8.0
 40
9.0
 40
9.0
 40
9.0
 40
10.0
 40
10.0
 40
10.0
 40
11.0
 40
11.0
 40
11.0
 40
12.0
 40
12.0
 40
12.0
 40
12.0
 10
437.5250320104205
 20
336.2103698183028
 30
0.0
 10
437.5818873031967
 20
336.2564587031829
 30
0.0
 10
437.6097930221731
 20
336.3186284450921
 30
0.0
 10
437.6086795770261
 20
336.3969508335704
 30
0.0
 10
437.6175175478747
 20
336.9202965824361
 30
0.0
 10
438.1558737463856
 20
337.0370263749819
 30
0.0
 10
438.5539945061355
 20
336.8919397140126
 30
0.0
 10
438.7003429525375
 20
336.8386718751026
 30
0.0
 10
438.8956188840675
 20
336.8744948557178
 30
0.0
 10
438.9728641430374
 20
337.0296320523294
 30
0.0
 10
439.0517740768009
 20
337.1881433573362
 30
0.0
 10
438.9802352261595
 20
337.4010790262591
 30
0.0
 10
438.8656199664238
 20
337.5178009264428
 30
0.0
 10
438.4844737748208
 20
337.9061105499841
 30
0.0
 10
438.4496786140026
 20
338.544893879669
 30
0.0
 10
438.8656199664238
 20
338.9207121231966
 30
0.0
 10
438.9996509258963
 20
339.0418210777007
 30
0.0
 10
439.0411963479128
 20
339.2660198120911
 30
0.0
 10
438.9728641430374
 20
339.4331458619345
 30
0.0
 10
438.9062607142587
 20
339.5961081184396
 30
0.0
 10
438.7272744070106
 20
339.7142019122512
 30
0.0
 10
438.5539945061355
 20
339.683117041297
 30
0.0
 10
438.0036046523128
 20
339.5843346338288
 30
0.0
 10
437.6156386091898
 20
340.0602992860904
 30
0.0
 10
437.6086795770261
 20
340.5923315693326
 30
0.0
 10
437.6066614576994
 20
340.747971292727
 30
0.0
 10
437.5198181905616
 20
340.9543662211199
 30
0.0
 10
437.3534222772651
 20
340.990907097138
 30
0.0
 10
437.1875189504826
 20
341.0273761836161
 30
0.0
 10
437.0404746008644
 20
340.8707314066578
 30
0.0
 10
436.9849415241988
 20
340.7294495913266
 30
0.0
 10
436.845691290604
 20
340.3754553680537
 30
0.0
 10
436.4212599189432
 20
339.8961883969387
 30
0.0
 10
436.0387219209078
 20
340.2352503958273
 30
0.0
 10
435.993006495286
 20
340.2771754873684
 30
0.0
 10
435.9423393254401
 20
340.2931127653173
 30
0.0
 10
435.8866670681327
 20
340.2832058087542
 30
0.0
  0
POLYLINE
  5
1D2
330
1C9
100
AcDbEntity
  8
Connectors
 62
     7
420
 16776959
370
     5
100
AcDb2dPolyline
 66
     1
 10
0.0
 20
0.0
 30
0.0
  0
VERTEX
  5
1D3
330
1D2
100
AcDbEntity
  8
Connectors
 62
     7
420
 16776959
370
     5
100
AcDbVertex
100
AcDb2dVertex
 10
438.8656199664238
 20
337.5178009264428
 30
0.0
  0
VERTEX
  5
1D4
330
1D2
100
AcDbEntity
  8
Connectors
 62
     7
420
 16776959
370
     5
100
AcDbVertex
100
AcDb2dVertex
 10
437.6913528791301
 20
337.036388152268
 30
0.0
  0
SEQEND
  5
1D5
330
1D2
100
AcDbEntity
  8
Connectors
 62
     7
420
 16776959
370
     5
  0
POLYLINE
  5
1D6
330
1C9
100
AcDbEntity
  8
Connectors
 62
     7
420
 16776959
370
     5
100
AcDb2dPolyline
 66
     1
 10
0.0
 20
0.0
 30
0.0
  0
VERTEX
  5
1D7
330
1D6
100
AcDbEntity
  8
Connectors
 62
     7
420
 16776959
370
     5
100
AcDbVertex
100
AcDb2dVertex
 10
438.8656199664238
 20
338.9207121231966
 30
0.0
  0
VERTEX
  5
1D8
330
1D6
100
AcDbEntity
  8
Connectors
 62
     7
420
 16776959
370
     5
100
AcDbVertex
100
AcDb2dVertex
 10
437.6913528791301
 20
338.4383582018481
 30
0.0
  0
SEQEND
  5
1D9
330
1D6
100
AcDbEntity
  8
Connectors
 62
     7
420
 16776959
370
     5
  0
POLYLINE
  5
1DA
330
1C9
100
AcDbEntity
  8
Connectors
 62
     7
420
 16776959
370
     5
100
AcDb2dPolyline
 66
     1
 10
0.0
 20
0.0
 30
0.0
  0
VERTEX
  5
1DB
330
1DA
100
AcDbEntity
  8
Connectors
 62
     7
420
 16776959
370
     5
100
AcDbVertex
100
AcDb2dVertex
 10
438.5539945061355
 20
339.683117041297
 30
0.0
  0
VERTEX
  5
1DC
330
1DA
100
AcDbEntity
  8
Connectors
 62
     7
420
 16776959
370
     5
100
AcDbVertex
100
AcDb2dVertex
 10
437.3798665994855
 20
339.2001888036266
 30
0.0
  0
SEQEND
  5
1DD
330
1DA
100
AcDbEntity
  8
Connectors
 62
     7
420
 16776959
370
     5
  0
SPLINE
  5
1DE
330
1C9
100
AcDbEntity
  8
Connectors
 62
     7
420
 16776959
370
     5
100
AcDbSpline
210
0.0
220
0.0
230
1.0
 70
     8
 71
     3
 72
    20
 73
    16
 74
     0
 42
0.0000000001
 43
0.0000000001
 12
1.0
 22
0.0
 32
0.0
 13
1.0
 23
0.0
 33
0.0
 40
0.0
 40
0.0
 40
0.0
 40
0.0
 40
1.0
 40
1.0
 40
1.0
 40
2.0
 40
2.0
 40
2.0
 40
3.0
 40
3.0
 40
3.0
 40
4.0
 40
4.0
 40
4.0
 40
5.0
 40
5.0
 40
5.0
 40
5.0
 10
436.4348300316633
 20
340.1086854362593
 30
0.0
 10
436.4419282444687
 20
339.5742123086457
 30
0.0
 10
436.8342088875343
 20
339.1021960811022
 30
0.0
 10
437.3798665994855
 20
339.2001888036266
 30
0.0
 10
437.5530073197169
 20
339.2312736745807
 30
0.0
 10
437.7319240366451
 20
339.1132596059251
 30
0.0
 10
437.7985219744514
 20
338.950432992885
 30
0.0
 10
437.8667900799755
 20
338.7833787325817
 30
0.0
 10
437.8253197102604
 20
338.5593953668122
 30
0.0
 10
437.6913528791301
 20
338.4383582018481
 30
0.0
 10
437.2733934073822
 20
338.0606734302728
 30
0.0
 10
437.3118768552467
 20
337.4228951541518
 30
0.0
 10
437.6913528791301
 20
337.036388152268
 30
0.0
 10
437.742919307464
 20
336.9838303256111
 30
0.0
 10
437.7811939843632
 20
336.9235989012905
 30
0.0
 10
437.8061769098313
 20
336.8557577856973
 30
0.0
  0
POLYLINE
  5
1DF
330
1C9
100
AcDbEntity
  8
Connectors
 62
     7
420
 16776959
370
     5
100
AcDb2dPolyline
 66
     1
 10
0.0
 20
0.0
 30
0.0
  0
VERTEX
  5
1E0
330
1DF
100
AcDbEntity
  8
Connectors
 62
     7
420
 16776959
370
     5
100
AcDbVertex
100
AcDb2dVertex
 10
437.930743585559
 20
336.9068001488577
 30
0.0
  0
VERTEX
  5
1E1
330
1DF
100
AcDbEntity
  8
Connectors
 62
     7
420
 16776959
370
     5
100
AcDbVertex
100
AcDb2dVertex
 10
436.9900912080011
 20
336.5212903173888
 30
0.0
  0
SEQEND
  5
1E2
330
1DF
100
AcDbEntity
  8
Connectors
 62
     7
420
 16776959
370
     5
  0
POLYLINE
  5
1E3
330
1C9
100
AcDbEntity
  8
Connectors
 62
     7
420
 16776959
370
     5
100
AcDb2dPolyline
 66
     1
 10
0.0
 20
0.0
 30
0.0
  0
VERTEX
  5
1E4
330
1E3
100
AcDbEntity
  8
Connectors
 62
     7
420
 16776959
370
     5
100
AcDbVertex
100
AcDb2dVertex
 10
436.4937730340898
 20
340.1504669487204
 30
0.0
  0
VERTEX
  5
1E5
330
1E3
100
AcDbEntity
  8
Connectors
 62
     7
420
 16776959
370
     5
100
AcDbVertex
100
AcDb2dVertex
 10
435.6923762982224
 20
339.8202350632901
 30
0.0
  0
SEQEND
  5
1E6
330
1E3
100
AcDbEntity
  8
Connectors
 62
     7
420
 16776959
370
     5
  0
SPLINE
  5
1E7
330
1C9
100
AcDbEntity
  8
Connectors
 62
     7
420
 16776959
370
     5
100
AcDbSpline
210
0.0
220
0.0
230
1.0
 70
     8
 71
     3
 72
     8
 73
     4
 74
     0
 42
0.0000000001
 43
0.0000000001
 12
1.0
 22
0.0
 32
0.0
 13
1.0
 23
0.0
 33
0.0
 40
0.0
 40
0.0
 40
0.0
 40
0.0
 40
1.0
 40
1.0
 40
1.0
 40
1.0
 10
429.3897842304759
 20
348.4434510663395
 30
0.0
 10
429.3684200017324
 20
348.1076195967671
 30
0.0
 10
429.4860276452982
 20
347.8068214228642
 30
0.0
 10
429.7279236033064
 20
347.5939654358426
 30
0.0
  0
SPLINE
  5
1E8
330
1C9
100
AcDbEntity
  8
Connectors
 62
     7
420
 16776959
370
     5
100
AcDbSpline
210
0.0
220
0.0
230
1.0
 70
     8
 71
     3
 72
     8
 73
     4
 74
     0
 42
0.0000000001
 43
0.0000000001
 12
1.0
 22
0.0
 32
0.0
 13
1.0
 23
0.0
 33
0.0
 40
0.0
 40
0.0
 40
0.0
 40
0.0
 40
1.0
 40
1.0
 40
1.0
 40
1.0
 10
438.1733354467833
 20
326.819077523468
 30
0.0
 10
438.1563554083041
 20
326.5697524499683
 30
0.0
 10
438.3354167807429
 20
326.3027671495529
 30
0.0
 10
438.5133537583006
 20
326.1502219845343
 30
0.0
  0
SPLINE
  5
1E9
330
1C9
100
AcDbEntity
  8
Connectors
 62
     7
420
 16776959
370
     5
100
AcDbSpline
210
0.0
220
0.0
230
1.0
 70
     8
 71
     3
 72
    23
 73
    19
 74
     0
 42
0.0000000001
 43
0.0000000001
 12
1.0
 22
0.0
 32
0.0
 13
1.0
 23
0.0
 33
0.0
 40
0.0
 40
0.0
 40
0.0
 40
0.0
 40
1.0
 40
1.0
 40
1.0
 40
2.0
 40
2.0
 40
2.0
 40
3.0
 40
3.0
 40
3.0
 40
4.0
 40
4.0
 40
4.0
 40
5.0
 40
5.0
 40
5.0
 40
6.0
 40
6.0
 40
6.0
 40
6.0
 10
429.3897842304759
 20
326.9793117774416
 30
0.0
 10
429.374613540358
 20
327.5483156739447
 30
0.0
 10
429.6036352888623
 20
328.0512731933622
 30
0.0
 10
430.0404537377763
 20
328.3736800188981
 30
0.0
 10
430.0404537377763
 20
328.3736800188981
 30
0.0
 10
432.7317898367437
 20
329.4682551400174
 30
0.0
 10
432.7317898367437
 20
329.4682551400174
 30
0.0
 10
433.17006968241
 20
329.7913875610793
 30
0.0
 10
433.3999961050977
 20
330.2956295920976
 30
0.0
 10
433.3850341859452
 20
330.8663564375693
 30
0.0
 10
432.9214234632018
 20
330.6247846344231
 30
0.0
 10
432.448418047039
 20
330.4021652699194
 30
0.0
 10
431.9678272858182
 20
330.1993598185418
 30
0.0
 10
431.9678272858182
 20
330.1993598185418
 30
0.0
 10
429.2770479094252
 20
329.1033489066167
 30
0.0
 10
429.2770479094252
 20
329.1033489066167
 30
0.0
 10
428.7974314127059
 20
328.9009024029401
 30
0.0
 10
428.3254698513665
 20
328.6787855652183
 30
0.0
 10
427.8629029834483
 20
328.4377880783959
 30
0.0
  0
SPLINE
  5
1EA
330
1C9
100
AcDbEntity
  8
Connectors
 62
     7
420
 16776959
370
     5
100
AcDbSpline
210
0.0
220
0.0
230
1.0
 70
     8
 71
     3
 72
    17
 73
    13
 74
     0
 42
0.0000000001
 43
0.0000000001
 12
1.0
 22
0.0
 32
0.0
 13
1.0
 23
0.0
 33
0.0
 40
0.0
 40
0.0
 40
0.0
 40
0.0
 40
1.0
 40
1.0
 40
1.0
 40
2.0
 40
2.0
 40
2.0
 40
3.0
 40
3.0
 40
3.0
 40
4.0
 40
4.0
 40
4.0
 40
4.0
 10
437.0024086949306
 20
325.3430845746789
 30
0.0
 10
436.9875859564199
 20
325.9114423653191
 30
0.0
 10
437.2171002837931
 20
326.412971708708
 30
0.0
 10
437.6544700086633
 20
326.7335043914172
 30
0.0
 10
437.6544700086633
 20
326.7335043914172
 30
0.0
 10
440.3513733333621
 20
327.8229183160302
 30
0.0
 10
440.3513733333621
 20
327.8229183160302
 30
0.0
 10
440.7902794919246
 20
328.1441688585246
 30
0.0
 10
441.0206234565412
 20
328.647062259618
 30
0.0
 10
441.0060094889959
 20
329.2169917489282
 30
0.0
 10
441.2571609597835
 20
329.0103814519143
 30
0.0
 10
441.3717762195174
 20
328.7250898187194
 30
0.0
 10
441.3200010202199
 20
328.4100055262952
 30
0.0
  0
SPLINE
  5
1EB
330
1C9
100
AcDbEntity
  8
Connectors
 62
     7
420
 16776959
370
     5
100
AcDbSpline
210
0.0
220
0.0
230
1.0
 70
     8
 71
     3
 72
    23
 73
    19
 74
     0
 42
0.0000000001
 43
0.0000000001
 12
1.0
 22
0.0
 32
0.0
 13
1.0
 23
0.0
 33
0.0
 40
0.0
 40
0.0
 40
0.0
 40
0.0
 40
1.0
 40
1.0
 40
1.0
 40
2.0
 40
2.0
 40
2.0
 40
3.0
 40
3.0
 40
3.0
 40
4.0
 40
4.0
 40
4.0
 40
5.0
 40
5.0
 40
5.0
 40
6.0
 40
6.0
 40
6.0
 40
6.0
 10
424.0394019417781
 20
340.0108362928158
 30
0.0
 10
424.4287597913335
 20
339.625254671806
 30
0.0
 10
424.9339159360934
 20
339.4556159880522
 30
0.0
 10
425.4546603128983
 20
339.5471476519479
 30
0.0
 10
425.4546603128983
 20
339.5471476519479
 30
0.0
 10
428.1425864861067
 20
340.6610421341256
 30
0.0
 10
428.1425864861067
 20
340.6610421341256
 30
0.0
 10
428.6645138983804
 20
340.7530683500881
 30
0.0
 10
429.1707138979637
 20
340.5832142977133
 30
0.0
 10
429.5609068313788
 20
340.1966276231396
 30
0.0
 10
429.0961826634903
 20
339.9559890840183
 30
0.0
 10
428.6228988860421
 20
339.7327236136516
 30
0.0
 10
428.1425864861067
 20
339.5274852639814
 30
0.0
 10
428.1425864861067
 20
339.5274852639814
 30
0.0
 10
425.4546603128983
 20
338.4153855489494
 30
0.0
 10
425.4546603128983
 20
338.4153855489494
 30
0.0
 10
424.9753221774663
 20
338.2106417799823
 30
0.0
 10
424.5030822548415
 20
337.9878070468576
 30
0.0
 10
424.0394019417781
 20
337.7476710345181
 30
0.0
  0
SPLINE
  5
1EC
330
1C9
100
AcDbEntity
  8
Connectors
 62
     7
420
 16776959
370
     5
100
AcDbSpline
210
0.0
220
0.0
230
1.0
 70
     8
 71
     3
 72
    11
 73
     7
 74
     0
 42
0.0000000001
 43
0.0000000001
 12
1.0
 22
0.0
 32
0.0
 13
1.0
 23
0.0
 33
0.0
 40
0.0
 40
0.0
 40
0.0
 40
0.0
 40
1.0
 40
1.0
 40
1.0
 40
2.0
 40
2.0
 40
2.0
 40
2.0
 10
445.1117688752256
 20
336.0416643985727
 30
0.0
 10
445.2446863895511
 20
336.3166901275035
 30
0.0
 10
445.008844789525
 20
336.6876266822892
 30
0.0
 10
444.8029270278021
 20
336.857696103285
 30
0.0
 10
444.9218568874785
 20
336.9201530033561
 30
0.0
 10
445.0382814955774
 20
336.983614956991
 30
0.0
 10
445.1477470715108
 20
337.0615144920112
 30
0.0
  0
SPLINE
  5
1ED
330
1C9
100
AcDbEntity
  8
Connectors
 62
     7
420
 16776959
370
     5
100
AcDbSpline
210
0.0
220
0.0
230
1.0
 70
     8
 71
     3
 72
    14
 73
    10
 74
     0
 42
0.0000000001
 43
0.0000000001
 12
1.0
 22
0.0
 32
0.0
 13
1.0
 23
0.0
 33
0.0
 40
0.0
 40
0.0
 40
0.0
 40
0.0
 40
1.0
 40
1.0
 40
1.0
 40
2.0
 40
2.0
 40
2.0
 40
3.0
 40
3.0
 40
3.0
 40
3.0
 10
441.3543090487874
 20
346.368589772278
 30
0.0
 10
441.3050391010693
 20
346.2833755879292
 30
0.0
 10
441.0977991232357
 20
346.205268568071
 30
0.0
 10
441.0129685211596
 20
346.1654971627404
 30
0.0
 10
441.0129685211596
 20
346.1654971627404
 30
0.0
 10
441.0060094889959
 20
346.1618358961832
 30
0.0
 10
441.0060094889959
 20
346.1618358961832
 30
0.0
 10
441.0338456176505
 20
346.5398078259204
 30
0.0
 10
440.8886106163955
 20
346.8549639078838
 30
0.0
 10
440.5858927172776
 20
347.0421192394742
 30
0.0
  0
SPLINE
  5
1EE
330
1C9
100
AcDbEntity
  8
Connectors
 62
     7
420
 16776959
370
     5
100
AcDbSpline
210
0.0
220
0.0
230
1.0
 70
     8
 71
     3
 72
    17
 73
    13
 74
     0
 42
0.0000000001
 43
0.0000000001
 12
1.0
 22
0.0
 32
0.0
 13
1.0
 23
0.0
 33
0.0
 40
0.0
 40
0.0
 40
0.0
 40
0.0
 40
1.0
 40
1.0
 40
1.0
 40
2.0
 40
2.0
 40
2.0
 40
3.0
 40
3.0
 40
3.0
 40
4.0
 40
4.0
 40
4.0
 40
4.0
 10
427.8629029834483
 20
347.6516124367126
 30
0.0
 10
428.2517789208869
 20
347.2654564993809
 30
0.0
 10
428.7565818939038
 20
347.096392131949
 30
0.0
 10
429.2770479094252
 20
347.1895830949125
 30
0.0
 10
429.2770479094252
 20
347.1895830949125
 30
0.0
 10
431.9678272858182
 20
348.314229893781
 30
0.0
 10
431.9678272858182
 20
348.314229893781
 30
0.0
 10
432.4894763368065
 20
348.4080588229672
 30
0.0
 10
432.9953283847808
 20
348.2386355078343
 30
0.0
 10
433.3850341859452
 20
347.851482673299
 30
0.0
 10
433.4075814501557
 20
348.1539956398074
 30
0.0
 10
433.2896258549808
 20
348.6574556860069
 30
0.0
 10
432.9579583820632
 20
348.7352119368497
 30
0.0
  0
POLYLINE
  5
1EF
330
1C9
100
AcDbEntity
  8
Connectors
 62
     7
420
 16776959
370
     5
100
AcDb2dPolyline
 66
     1
 10
0.0
 20
0.0
 30
0.0
  0
VERTEX
  5
1F0
330
1EF
100
AcDbEntity
  8
Connectors
 62
     7
420
 16776959
370
     5
100
AcDbVertex
100
AcDb2dVertex
 10
441.0060094889959
 20
346.1618358961832
 30
0.0
  0
VERTEX
  5
1F1
330
1EF
100
AcDbEntity
  8
Connectors
 62
     7
420
 16776959
370
     5
100
AcDbVertex
100
AcDb2dVertex
 10
433.3850341859452
 20
347.851482673299
 30
0.0
  0
VERTEX
  5
1F2
330
1EF
100
AcDbEntity
  8
Connectors
 62
     7
420
 16776959
370
     5
100
AcDbVertex
100
AcDb2dVertex
 10
429.5609068313788
 20
340.1966276231396
 30
0.0
  0
VERTEX
  5
1F3
330
1EF
100
AcDbEntity
  8
Connectors
 62
     7
420
 16776959
370
     5
100
AcDbVertex
100
AcDb2dVertex
 10
433.3850341859452
 20
330.8663564375693
 30
0.0
  0
VERTEX
  5
1F4
330
1EF
100
AcDbEntity
  8
Connectors
 62
     7
420
 16776959
370
     5
100
AcDbVertex
100
AcDb2dVertex
 10
441.0060094889959
 20
329.2169917489282
 30
0.0
  0
VERTEX
  5
1F5
330
1EF
100
AcDbEntity
  8
Connectors
 62
     7
420
 16776959
370
     5
100
AcDbVertex
100
AcDb2dVertex
 10
444.8029270278021
 20
336.857696103285
 30
0.0
  0
VERTEX
  5
1F6
330
1EF
100
AcDbEntity
  8
Connectors
 62
     7
420
 16776959
370
     5
100
AcDbVertex
100
AcDb2dVertex
 10
441.0060094889959
 20
346.1618358961832
 30
0.0
  0
SEQEND
  5
1F7
330
1EF
100
AcDbEntity
  8
Connectors
 62
     7
420
 16776959
370
     5
  0
SPLINE
  5
1F8
330
1C9
100
AcDbEntity
  8
Connectors
 62
     7
420
 16776959
370
     5
100
AcDbSpline
210
0.0
220
0.0
230
1.0
 70
     8
 71
     3
 72
    29
 73
    25
 74
     0
 42
0.0000000001
 43
0.0000000001
 12
1.0
 22
0.0
 32
0.0
 13
1.0
 23
0.0
 33
0.0
 40
0.0
 40
0.0
 40
0.0
 40
0.0
 40
1.0
 40
1.0
 40
1.0
 40
2.0
 40
2.0
 40
2.0
 40
3.0
 40
3.0
 40
3.0
 40
4.0
 40
4.0
 40
4.0
 40
5.0
 40
5.0
 40
5.0
 40
6.0
 40
6.0
 40
6.0
 40
7.0
 40
7.0
 40
7.0
 40
8.0
 40
8.0
 40
8.0
 40
8.0
 10
432.3332513879723
 20
348.677062407729
 30
0.0
 10
432.1723532411088
 20
348.6021777399674
 30
0.0
 10
432.0491087814898
 20
348.4756127803994
 30
0.0
 10
431.9678272858182
 20
348.314229893781
 30
0.0
 10
431.9678272858182
 20
348.314229893781
 30
0.0
 10
428.1425864861067
 20
340.6610421341256
 30
0.0
 10
428.1425864861067
 20
340.6610421341256
 30
0.0
 10
427.9883047430376
 20
340.2952664515269
 30
0.0
 10
427.9890702365774
 20
339.8963319760196
 30
0.0
 10
428.1425864861067
 20
339.5274852639814
 30
0.0
 10
428.1425864861067
 20
339.5274852639814
 30
0.0
 10
431.9678272858182
 20
330.1993598185418
 30
0.0
 10
431.9678272858182
 20
330.1993598185418
 30
0.0
 10
432.1072167000566
 20
329.8412018019308
 30
0.0
 10
432.3775750996138
 20
329.5802468229012
 30
0.0
 10
432.7317898367437
 20
329.4682551400174
 30
0.0
 10
432.7317898367437
 20
329.4682551400174
 30
0.0
 10
440.3513733333621
 20
327.8229183160302
 30
0.0
 10
440.3513733333621
 20
327.8229183160302
 30
0.0
 10
440.3513733333621
 20
327.8229183160302
 30
0.0
 10
440.3596545816363
 20
327.8211877166659
 30
0.0
 10
440.3596545816363
 20
327.8211877166659
 30
0.0
 10
440.4842908476876
 20
327.7953434821538
 30
0.0
 10
440.6135896652886
 20
327.8055375968788
 30
0.0
 10
440.7323107539996
 20
327.8525597457819
 30
0.0
  0
SPLINE
  5
1F9
330
1C9
100
AcDbEntity
  8
Connectors
 62
     7
420
 16776959
370
     5
100
AcDbSpline
210
0.0
220
0.0
230
1.0
 70
     8
 71
     3
 72
    38
 73
    34
 74
     0
 42
0.0000000001
 43
0.0000000001
 12
1.0
 22
0.0
 32
0.0
 13
1.0
 23
0.0
 33
0.0
 40
0.0
 40
0.0
 40
0.0
 40
0.0
 40
1.0
 40
1.0
 40
1.0
 40
2.0
 40
2.0
 40
2.0
 40
3.0
 40
3.0
 40
3.0
 40
4.0
 40
4.0
 40
4.0
 40
5.0
 40
5.0
 40
5.0
 40
6.0
 40
6.0
 40
6.0
 40
7.0
 40
7.0
 40
7.0
 40
8.0
 40
8.0
 40
8.0
 40
9.0
 40
9.0
 40
9.0
 40
10.0
 40
10.0
 40
10.0
 40
11.0
 40
11.0
 40
11.0
 40
11.0
 10
430.9925885184057
 20
348.1165932893055
 30
0.0
 10
430.9925885184057
 20
348.1165932893055
 30
0.0
 10
429.6471292398855
 20
347.5540504514302
 30
0.0
 10
429.6471292398855
 20
347.5540504514302
 30
0.0
 10
429.4870715001234
 20
347.486352914917
 30
0.0
 10
429.3579118631642
 20
347.3531833176403
 30
0.0
 10
429.2797619319681
 20
347.1949591707953
 30
0.0
 10
429.2797619319681
 20
347.1949591707953
 30
0.0
 10
429.2770479094252
 20
347.1895830949125
 30
0.0
 10
429.2770479094252
 20
347.1895830949125
 30
0.0
 10
429.2770479094252
 20
347.1895830949125
 30
0.0
 10
425.4546603128983
 20
339.5471476519479
 30
0.0
 10
425.4546603128983
 20
339.5471476519479
 30
0.0
 10
425.3005873407965
 20
339.1819542603871
 30
0.0
 10
425.3013528343326
 20
338.7836658907427
 30
0.0
 10
425.4546603128983
 20
338.4153855489494
 30
0.0
 10
425.4546603128983
 20
338.4153855489494
 30
0.0
 10
429.2770479094252
 20
329.1033489066167
 30
0.0
 10
429.2770479094252
 20
329.1033489066167
 30
0.0
 10
429.4164373236617
 20
328.7458369958695
 30
0.0
 10
429.6867957232189
 20
328.4851691750009
 30
0.0
 10
430.0404537377763
 20
328.3736800188981
 30
0.0
 10
430.0404537377763
 20
328.3736800188981
 30
0.0
 10
437.6544700086633
 20
326.7335043914172
 30
0.0
 10
437.6544700086633
 20
326.7335043914172
 30
0.0
 10
437.7800109488962
 20
326.7072294196641
 30
0.0
 10
437.9070828762033
 20
326.7150544795577
 30
0.0
 10
438.0276133132775
 20
326.7602818899531
 30
0.0
 10
438.0276133132775
 20
326.7602818899531
 30
0.0
 10
438.0350594776937
 20
326.7632252611074
 30
0.0
 10
438.0350594776937
 20
326.7632252611074
 30
0.0
 10
438.0350594776937
 20
326.7632252611074
 30
0.0
 10
439.0281829577671
 20
327.1643134228234
 30
0.0
 10
439.0281829577671
 20
327.1643134228234
 30
0.0
  0
SPLINE
  5
1FA
330
1C9
100
AcDbEntity
  8
Connectors
 62
     7
420
 16776959
370
    13
100
AcDbSpline
210
0.0
220
0.0
230
1.0
 70
    11
 71
     3
 72
    17
 73
    13
 74
     0
 42
0.0000000001
 43
0.0000000001
 12
1.0
 22
0.0
 32
0.0
 13
1.0
 23
0.0
 33
0.0
 40
0.0
 40
0.0
 40
0.0
 40
0.0
 40
1.0
 40
1.0
 40
1.0
 40
2.0
 40
2.0
 40
2.0
 40
3.0
 40
3.0
 40
3.0
 40
4.0
 40
4.0
 40
4.0
 40
4.0
 10
442.5736706645002
 20
340.5877370387534
 30
0.0
 10
443.9546210070548
 20
336.7276134562426
 30
0.0
 10
442.7693586489422
 20
332.7208238428766
 30
0.0
 10
439.9263156488068
 20
331.6383811540709
 30
0.0
 10
437.0832030583497
 20
330.5559461847042
 30
0.0
 10
433.6588721015833
 20
332.8076891866531
 30
0.0
 10
432.2778521687105
 20
336.667812769163
 30
0.0
 10
430.8969071131105
 20
340.5279363516738
 30
0.0
 10
432.0821641842667
 20
344.5347259650398
 30
0.0
 10
434.9252071844021
 20
345.6171686538464
 30
0.0
 10
437.7683197748593
 20
346.6996113426512
 30
0.0
 10
441.1926507316239
 20
344.4478606212633
 30
0.0
 10
442.5736706645002
 20
340.5877370387534
 30
0.0
  0
SPLINE
  5
1FB
330
1C9
100
AcDbEntity
  8
Connectors
 62
     7
420
 16776959
370
     5
100
AcDbSpline
210
0.0
220
0.0
230
1.0
 70
    11
 71
     3
 72
    17
 73
    13
 74
     0
 42
0.0000000001
 43
0.0000000001
 12
1.0
 22
0.0
 32
0.0
 13
1.0
 23
0.0
 33
0.0
 40
0.0
 40
0.0
 40
0.0
 40
0.0
 40
1.0
 40
1.0
 40
1.0
 40
2.0
 40
2.0
 40
2.0
 40
3.0
 40
3.0
 40
3.0
 40
4.0
 40
4.0
 40
4.0
 40
4.0
 10
439.0924844149595
 20
339.2623585455349
 30
0.0
 10
439.5565126796319
 20
337.9653448273566
 30
0.0
 10
439.1862921685242
 20
336.6296925232582
 30
0.0
 10
438.2654730326321
 20
336.2791441979207
 30
0.0
 10
437.3447234870582
 20
335.9285240830432
 30
0.0
 10
436.2220924184203
 20
336.6958106898846
 30
0.0
 10
435.7580641537479
 20
337.9928323146796
 30
0.0
 10
435.2940358890773
 20
339.2898618795516
 30
0.0
 10
435.6643259905031
 20
340.6254983369563
 30
0.0
 10
436.5850755360771
 20
340.9761184518338
 30
0.0
 10
437.5059001258815
 20
341.3266667771713
 30
0.0
 10
438.6284561502871
 20
340.5593801703299
 30
0.0
 10
439.0924844149595
 20
339.2623585455349
 30
0.0
  0
MTEXT
  5
1FC
330
1C9
100
AcDbEntity
  8
Connectors
 62
     7
420
 16776959
100
AcDbMText
 10
435.8991457257653
 20
342.4295153513085
 30
0.0
 40
1.285843988882529
 41
0.0
 46
0.0
 71
     7
 72
     1
  1
\fHelvetica Neue LT Std 77 Condensed|b1|i0|c0|p34;\W0.808141;WS22
 11
0.9736682486621002
 21
-0.22796960663053
 31
0.0
 73
     1
 44
1.0
  0
MTEXT
  5
1FD
330
1C9
100
AcDbEntity
  8
Connectors
 62
     7
420
 16776959
100
AcDbMText
 10
436.5856591057964
 20
333.8014935320243
 30
0.0
 40
1.482614227601738
 41
0.0
 46
0.0
 71
     7
 72
     1
  1
\fHelvetica Neue LT Std 77 Condensed|b1|i0|c0|p34;\W0.808141;3.5
 11
0.9736682486621002
 21
-0.22796960663053
 31
0.0
 73
     1
 44
1.0
  0
INSERT
  5
1FF
330
1C9
100
AcDbEntity
  8
Connectors
100
AcDbBlockReference
  2
block 28
 10
0.0
 20
0.0
 30
0.0
  0
ENDBLK
  5
1CC
330
1C9
100
AcDbEntity
  8
0
100
AcDbBlockEnd
  0
BLOCK
  5
200
330
1FE
100
AcDbEntity
  8
0
100
AcDbBlockBegin
  2
block 28
 70
     0
 10
0.0
 20
0.0
 30
0.0
  3
block 28
  1

  0
INSERT
  5
203
330
1FE
100
AcDbEntity
  8
Connectors
100
AcDbBlockReference
  2
block 29
 10
0.0
 20
0.0
 30
0.0
  0
INSERT
  5
217
330
1FE
100
AcDbEntity
  8
Connectors
100
AcDbBlockReference
  2
block 30
 10
0.0
 20
0.0
 30
0.0
  0
ENDBLK
  5
201
330
1FE
100
AcDbEntity
  8
0
100
AcDbBlockEnd
  0
BLOCK
  5
204
330
202
100
AcDbEntity
  8
0
100
AcDbBlockBegin
  2
block 29
 70
     0
 10
0.0
 20
0.0
 30
0.0
  3
block 29
  1

  0
POLYLINE
  5
206
330
202
100
AcDbEntity
  8
Connectors
370
     0
100
AcDb2dPolyline
 66
     1
 10
0.0
 20
0.0
 30
0.0
  0
VERTEX
  5
207
330
206
100
AcDbEntity
  8
Connectors
370
     0
100
AcDbVertex
100
AcDb2dVertex
 10
442.0621122101511
 20
337.7180937439098
 30
0.0
  0
VERTEX
  5
208
330
206
100
AcDbEntity
  8
Connectors
370
     0
100
AcDbVertex
100
AcDb2dVertex
 10
440.2121230997673
 20
338.1835850354146
 30
0.0
  0
VERTEX
  5
209
330
206
100
AcDbEntity
  8
Connectors
370
     0
100
AcDbVertex
100
AcDb2dVertex
 10
440.2121230997673
 20
338.4698020205042
 30
0.0
  0
VERTEX
  5
20A
330
206
100
AcDbEntity
  8
Connectors
370
     0
100
AcDbVertex
100
AcDb2dVertex
 10
442.0621122101511
 20
338.0043186411294
 30
0.0
  0
VERTEX
  5
20B
330
206
100
AcDbEntity
  8
Connectors
370
     0
100
AcDbVertex
100
AcDb2dVertex
 10
442.0621122101511
 20
337.7180937439098
 30
0.0
  0
SEQEND
  5
20D
330
206
100
AcDbEntity
  8
Connectors
370
     0
  0
HATCH
  5
20C
330
202
100
AcDbEntity
  8
Connectors
 62
     7
420
 16776959
100
AcDbHatch
 10
0.0
 20
0.0
 30
0.0
210
0.0
220
0.0
230
1.0
  2
SOLID
 70
     1
 71
     0
 91
        1
 92
        1
 93
        4
 72
     1
 10
442.0621122101511
 20
337.7180937439098
 11
440.2121230997673
 21
338.1835850354146
 72
     1
 10
440.2121230997673
 20
338.1835850354146
 11
440.2121230997673
 21
338.4698020205042
 72
     1
 10
440.2121230997673
 20
338.4698020205042
 11
442.0621122101511
 21
338.0043186411294
 72
     1
 10
442.0621122101511
 20
338.0043186411294
 11
442.0621122101511
 21
337.7180937439098
 97
        0
 75
     2
 76
     1
 98
        0
  0
POLYLINE
  5
20E
330
202
100
AcDbEntity
  8
Connectors
370
     0
100
AcDb2dPolyline
 66
     1
 10
0.0
 20
0.0
 30
0.0
  0
VERTEX
  5
20F
330
20E
100
AcDbEntity
  8
Connectors
370
     0
100
AcDbVertex
100
AcDb2dVertex
 10
442.0621122101511
 20
337.1328654112967
 30
0.0
  0
VERTEX
  5
210
330
20E
100
AcDbEntity
  8
Connectors
370
     0
100
AcDbVertex
100
AcDb2dVertex
 10
440.2121230997673
 20
337.5983487906724
 30
0.0
  0
VERTEX
  5
211
330
20E
100
AcDbEntity
  8
Connectors
370
     0
100
AcDbVertex
100
AcDb2dVertex
 10
440.2121230997673
 20
337.8845736878911
 30
0.0
  0
VERTEX
  5
212
330
20E
100
AcDbEntity
  8
Connectors
370
     0
100
AcDbVertex
100
AcDb2dVertex
 10
442.0621122101511
 20
337.4190903085164
 30
0.0
  0
VERTEX
  5
213
330
20E
100
AcDbEntity
  8
Connectors
370
     0
100
AcDbVertex
100
AcDb2dVertex
 10
442.0621122101511
 20
337.1328654112967
 30
0.0
  0
SEQEND
  5
215
330
20E
100
AcDbEntity
  8
Connectors
370
     0
  0
HATCH
  5
214
330
202
100
AcDbEntity
  8
Connectors
 62
     7
420
 16776959
100
AcDbHatch
 10
0.0
 20
0.0
 30
0.0
210
0.0
220
0.0
230
1.0
  2
SOLID
 70
     1
 71
     0
 91
        1
 92
        1
 93
        4
 72
     1
 10
442.0621122101511
 20
337.1328654112967
 11
440.2121230997673
 21
337.5983487906724
 72
     1
 10
440.2121230997673
 20
337.5983487906724
 11
440.2121230997673
 21
337.8845736878911
 72
     1
 10
440.2121230997673
 20
337.8845736878911
 11
442.0621122101511
 21
337.4190903085164
 72
     1
 10
442.0621122101511
 20
337.4190903085164
 11
442.0621122101511
 21
337.1328654112967
 97
        0
 75
     2
 76
     1
 98
        0
  0
ENDBLK
  5
205
330
202
100
AcDbEntity
  8
0
100
AcDbBlockEnd
  0
BLOCK
  5
218
330
216
100
AcDbEntity
  8
0
100
AcDbBlockBegin
  2
block 30
 70
     0
 10
0.0
 20
0.0
 30
0.0
  3
block 30
  1

  0
POLYLINE
  5
21A
330
216
100
AcDbEntity
  8
Connectors
370
     0
100
AcDb2dPolyline
 66
     1
 10
0.0
 20
0.0
 30
0.0
  0
VERTEX
  5
21B
330
21A
100
AcDbEntity
  8
Connectors
370
     0
100
AcDbVertex
100
AcDb2dVertex
 10
440.5822044302295
 20
336.8503735701734
 30
0.0
  0
VERTEX
  5
21C
330
21A
100
AcDbEntity
  8
Connectors
370
     0
100
AcDbVertex
100
AcDb2dVertex
 10
440.4989799350769
 20
336.9471458705129
 30
0.0
  0
VERTEX
  5
21D
330
21A
100
AcDbEntity
  8
Connectors
370
     0
100
AcDbVertex
100
AcDb2dVertex
 10
441.7723381108572
 20
338.7320571372438
 30
0.0
  0
VERTEX
  5
21E
330
21A
100
AcDbEntity
  8
Connectors
370
     0
100
AcDbVertex
100
AcDb2dVertex
 10
441.8555681355338
 20
338.6352769109208
 30
0.0
  0
VERTEX
  5
21F
330
21A
100
AcDbEntity
  8
Connectors
370
     0
100
AcDbVertex
100
AcDb2dVertex
 10
440.5822044302295
 20
336.8503735701734
 30
0.0
  0
SEQEND
  5
221
330
21A
100
AcDbEntity
  8
Connectors
370
     0
  0
HATCH
  5
220
330
216
100
AcDbEntity
  8
Connectors
 62
     7
420
 16776959
100
AcDbHatch
 10
0.0
 20
0.0
 30
0.0
210
0.0
220
0.0
230
1.0
  2
SOLID
 70
     1
 71
     0
 91
        1
 92
        1
 93
        4
 72
     1
 10
440.5822044302295
 20
336.8503735701734
 11
440.4989799350769
 21
336.9471458705129
 72
     1
 10
440.4989799350769
 20
336.9471458705129
 11
441.7723381108572
 21
338.7320571372438
 72
     1
 10
441.7723381108572
 20
338.7320571372438
 11
441.8555681355338
 21
338.6352769109208
 72
     1
 10
441.8555681355338
 20
338.6352769109208
 11
440.5822044302295
 21
336.8503735701734
 97
        0
 75
     2
 76
     1
 98
        0
  0
ENDBLK
  5
219
330
216
100
AcDbEntity
  8
0
100
AcDbBlockEnd
  0
BLOCK
  5
224
330
222
100
AcDbEntity
  8
0
100
AcDbBlockBegin
  2
block 31
 70
     0
 10
0.0
 20
0.0
 30
0.0
  3
block 31
  1

  0
INSERT
  5
227
330
222
100
AcDbEntity
  8
Connectors
100
AcDbBlockReference
  2
block 32
 10
0.0
 20
0.0
 30
0.0
  0
INSERT
  5
22E
330
222
100
AcDbEntity
  8
Connectors
100
AcDbBlockReference
  2
block 33
 10
0.0
 20
0.0
 30
0.0
  0
ENDBLK
  5
225
330
222
100
AcDbEntity
  8
0
100
AcDbBlockEnd
  0
BLOCK
  5
228
330
226
100
AcDbEntity
  8
0
100
AcDbBlockBegin
  2
block 32
 70
     0
 10
0.0
 20
0.0
 30
0.0
  3
block 32
  1

  0
SPLINE
  5
22A
330
226
100
AcDbEntity
  8
Connectors
 62
     7
420
 16776959
370
     9
100
AcDbSpline
210
0.0
220
0.0
230
1.0
 70
    11
 71
     3
 72
    23
 73
    19
 74
     0
 42
0.0000000001
 43
0.0000000001
 12
1.0
 22
0.0
 32
0.0
 13
1.0
 23
0.0
 33
0.0
 40
0.0
 40
0.0
 40
0.0
 40
0.0
 40
1.0
 40
1.0
 40
1.0
 40
2.0
 40
2.0
 40
2.0
 40
3.0
 40
3.0
 40
3.0
 40
4.0
 40
4.0
 40
4.0
 40
5.0
 40
5.0
 40
5.0
 40
6.0
 40
6.0
 40
6.0
 40
6.0
 10
434.1674381721041
 20
286.297086434517
 30
0.0
 10
429.2849116157686
 20
285.7353332815856
 30
0.0
 10
424.0974402700231
 20
290.0702010941714
 30
0.0
 10
422.1069533651571
 20
296.6806537555276
 30
0.0
 10
420.0232052994952
 20
303.6009500728669
 30
0.0
 10
422.1961630925944
 20
310.5139956466328
 30
0.0
 10
426.9667884117371
 20
312.5939539980573
 30
0.0
 10
426.9667884117371
 20
312.5939539980573
 30
0.0
 10
429.1556823884894
 20
313.4189593953088
 30
0.0
 10
429.1556823884894
 20
313.4189593953088
 30
0.0
 10
434.4104475752574
 20
315.1027830632984
 30
0.0
 10
440.4401705837699
 20
310.5898054012014
 30
0.0
 10
442.6234973347928
 20
303.3389182507326
 30
0.0
 10
444.5990969757295
 20
296.7777850035691
 30
0.0
 10
442.7483423718077
 20
290.2230410254924
 30
0.0
 10
438.4851696780388
 20
287.7877962390703
 30
0.0
 10
438.4851696780388
 20
287.7877962390703
 30
0.0
 10
434.1674381721041
 20
286.297086434517
 30
0.0
 10
434.1674381721041
 20
286.297086434517
 30
0.0
  0
HATCH
  5
22B
330
226
100
AcDbEntity
  8
Connectors
 62
   250
420
  2301728
100
AcDbHatch
 10
0.0
 20
0.0
 30
0.0
210
0.0
220
0.0
230
1.0
  2
SOLID
 70
     1
 71
     0
 91
        1
 92
        1
 93
        1
 72
     4
 94
        3
 73
     0
 74
     1
 95
       23
 96
       19
 40
0.0
 40
0.0
 40
0.0
 40
0.0
 40
1.0
 40
1.0
 40
1.0
 40
2.0
 40
2.0
 40
2.0
 40
3.0
 40
3.0
 40
3.0
 40
4.0
 40
4.0
 40
4.0
 40
5.0
 40
5.0
 40
5.0
 40
6.0
 40
6.0
 40
6.0
 40
6.0
 10
434.1674381721041
 20
286.297086434517
 10
429.2849116157686
 20
285.7353332815856
 10
424.0974402700231
 20
290.0702010941714
 10
422.1069533651571
 20
296.6806537555276
 10
420.0232052994952
 20
303.6009500728669
 10
422.1961630925944
 20
310.5139956466328
 10
426.9667884117371
 20
312.5939539980573
 10
426.9667884117371
 20
312.5939539980573
 10
429.1556823884894
 20
313.4189593953088
 10
429.1556823884894
 20
313.4189593953088
 10
434.4104475752574
 20
315.1027830632984
 10
440.4401705837699
 20
310.5898054012014
 10
442.6234973347928
 20
303.3389182507326
 10
444.5990969757295
 20
296.7777850035691
 10
442.7483423718077
 20
290.2230410254924
 10
438.4851696780388
 20
287.7877962390703
 10
438.4851696780388
 20
287.7877962390703
 10
434.1674381721041
 20
286.297086434517
 10
434.1674381721041
 20
286.297086434517
 97
        0
 97
        0
 75
     2
 76
     1
 98
        0
  0
SPLINE
  5
22C
330
226
100
AcDbEntity
  8
Connectors
 62
     7
420
 16776959
370
     5
100
AcDbSpline
210
0.0
220
0.0
230
1.0
 70
     8
 71
     3
 72
    14
 73
    10
 74
     0
 42
0.0000000001
 43
0.0000000001
 12
1.0
 22
0.0
 32
0.0
 13
1.0
 23
0.0
 33
0.0
 40
0.0
 40
0.0
 40
0.0
 40
0.0
 40
1.0
 40
1.0
 40
1.0
 40
2.0
 40
2.0
 40
2.0
 40
3.0
 40
3.0
 40
3.0
 40
3.0
 10
438.4851696780388
 20
287.7877962390703
 30
0.0
 10
438.0369384163769
 20
287.5317229487828
 30
0.0
 10
437.5620540615309
 20
287.3212360165908
 30
0.0
 10
437.0621867812151
 20
287.1610735521572
 30
0.0
 10
431.8074215944471
 20
285.4772498841685
 30
0.0
 10
425.7776985859346
 20
289.9902275462646
 30
0.0
 10
423.5943718349117
 20
297.2411864862752
 30
0.0
 10
421.4110501312134
 20
304.492073636744
 30
0.0
 10
423.9009172017213
 20
311.7351357273192
 30
0.0
 10
429.1556823884894
 20
313.4189593953088
 30
0.0
  0
ENDBLK
  5
229
330
226
100
AcDbEntity
  8
0
100
AcDbBlockEnd
  0
BLOCK
  5
22F
330
22D
100
AcDbEntity
  8
0
100
AcDbBlockBegin
  2
block 33
 70
     0
 10
0.0
 20
0.0
 30
0.0
  3
block 33
  1

  0
SPLINE
  5
231
330
22D
100
AcDbEntity
  8
Connectors
 62
     7
420
 16776959
370
     9
100
AcDbSpline
210
0.0
220
0.0
230
1.0
 70
    11
 71
     3
 72
    65
 73
    61
 74
     0
 42
0.0000000001
 43
0.0000000001
 12
1.0
 22
0.0
 32
0.0
 13
1.0
 23
0.0
 33
0.0
 40
0.0
 40
0.0
 40
0.0
 40
0.0
 40
1.0
 40
1.0
 40
1.0
 40
2.0
 40
2.0
 40
2.0
 40
3.0
 40
3.0
 40
3.0
 40
4.0
 40
4.0
 40
4.0
 40
5.0
 40
5.0
 40
5.0
 40
6.0
 40
6.0
 40
6.0
 40
7.0
 40
7.0
 40
7.0
 40
8.0
 40
8.0
 40
8.0
 40
9.0
 40
9.0
 40
9.0
 40
10.0
 40
10.0
 40
10.0
 40
11.0
 40
11.0
 40
11.0
 40
12.0
 40
12.0
 40
12.0
 40
13.0
 40
13.0
 40
13.0
 40
14.0
 40
14.0
 40
14.0
 40
15.0
 40
15.0
 40
15.0
 40
16.0
 40
16.0
 40
16.0
 40
17.0
 40
17.0
 40
17.0
 40
18.0
 40
18.0
 40
18.0
 40
19.0
 40
19.0
 40
19.0
 40
20.0
 40
20.0
 40
20.0
 40
20.0
 10
424.0394019417781
 20
301.1954979456732
 30
0.0
 10
424.0394019417781
 20
301.1954979456732
 30
0.0
 10
427.8629029834483
 20
291.885614989551
 30
0.0
 10
427.8629029834483
 20
291.885614989551
 30
0.0
 10
428.1425221131576
 20
291.1682939027651
 30
0.0
 10
428.6805196723562
 20
290.6505477380433
 30
0.0
 10
429.3897842304759
 20
290.4271386885957
 30
0.0
 10
429.3897842304759
 20
290.4271386885957
 30
0.0
 10
437.0024086949306
 20
288.7909114858339
 30
0.0
 10
437.0024086949306
 20
288.7909114858339
 30
0.0
 10
437.6631742567515
 20
288.6941391854944
 30
0.0
 10
438.2028417431575
 20
288.9811537676578
 30
0.0
 10
438.5205911517514
 20
289.5910777021381
 30
0.0
 10
438.5205911517514
 20
289.5910777021381
 30
0.0
 10
439.0281829577671
 20
290.6121403339766
 30
0.0
 10
439.0281829577671
 20
290.6121403339766
 30
0.0
 10
439.0281829577671
 20
290.6121403339766
 30
0.0
 10
440.7323107539996
 20
291.3003866569361
 30
0.0
 10
440.7323107539996
 20
291.3003866569361
 30
0.0
 10
440.7323107539996
 20
291.3003866569361
 30
0.0
 10
440.7401048700231
 20
291.3036171862514
 30
0.0
 10
440.7401048700231
 20
291.3036171862514
 30
0.0
 10
440.9898645343765
 20
291.4116604444189
 30
0.0
 10
441.1921635993749
 20
291.6026206216447
 30
0.0
 10
441.3167998654244
 20
291.8512277997415
 30
0.0
 10
441.3167998654244
 20
291.8512277997415
 30
0.0
 10
445.1117688752256
 20
299.4894913097269
 30
0.0
 10
445.1117688752256
 20
299.4894913097269
 30
0.0
 10
445.2659810279729
 20
299.8164208763028
 30
0.0
 10
445.2793423697258
 20
300.1769558231299
 30
0.0
 10
445.1496260101958
 20
300.5150048930664
 30
0.0
 10
445.1496260101958
 20
300.5150048930664
 30
0.0
 10
441.3543090487874
 20
309.8164166834331
 30
0.0
 10
441.3543090487874
 20
309.8164166834331
 30
0.0
 10
441.2062904346658
 20
310.1607274463622
 30
0.0
 10
440.931135843357
 20
310.4009989101842
 30
0.0
 10
440.5780290109324
 20
310.491740889137
 30
0.0
 10
440.5780290109324
 20
310.491740889137
 30
0.0
 10
432.9579583820632
 20
312.1830388480048
 30
0.0
 10
432.9579583820632
 20
312.1830388480048
 30
0.0
 10
432.9579583820632
 20
312.1830388480048
 30
0.0
 10
432.9514864821504
 20
312.184474638847
 30
0.0
 10
432.9514864821504
 20
312.184474638847
 30
0.0
 10
432.7455687204274
 20
312.2272530261498
 30
0.0
 10
432.5331094684716
 20
312.2077262711864
 30
0.0
 10
432.3381227106111
 20
312.1269630383358
 30
0.0
 10
432.3381227106111
 20
312.1269630383358
 30
0.0
 10
430.9483290738444
 20
311.5458984990601
 30
0.0
 10
430.9483290738444
 20
311.5458984990601
 30
0.0
 10
430.9483290738444
 20
311.5458984990601
 30
0.0
 10
429.3897842304759
 20
311.8912779774964
 30
0.0
 10
429.3897842304759
 20
311.8912779774964
 30
0.0
 10
428.727284368495
 20
311.9938652305991
 30
0.0
 10
428.1844102694085
 20
311.7099457654058
 30
0.0
 10
427.8629029834483
 20
311.0994393478677
 30
0.0
 10
427.8629029834483
 20
311.0994393478677
 30
0.0
 10
424.0394019417781
 20
303.45866320397
 30
0.0
 10
424.0394019417781
 20
303.45866320397
 30
0.0
 10
423.731116816929
 20
302.7284199999285
 30
0.0
 10
423.732647804005
 20
301.9319150501824
 30
0.0
 10
424.0394019417781
 20
301.1954979456732
 30
0.0
  0
HATCH
  5
232
330
22D
100
AcDbEntity
  8
Connectors
 62
   250
420
  2301728
100
AcDbHatch
 10
0.0
 20
0.0
 30
0.0
210
0.0
220
0.0
230
1.0
  2
SOLID
 70
     1
 71
     0
 91
        1
 92
        1
 93
        1
 72
     4
 94
        3
 73
     0
 74
     1
 95
       65
 96
       61
 40
0.0
 40
0.0
 40
0.0
 40
0.0
 40
1.0
 40
1.0
 40
1.0
 40
2.0
 40
2.0
 40
2.0
 40
3.0
 40
3.0
 40
3.0
 40
4.0
 40
4.0
 40
4.0
 40
5.0
 40
5.0
 40
5.0
 40
6.0
 40
6.0
 40
6.0
 40
7.0
 40
7.0
 40
7.0
 40
8.0
 40
8.0
 40
8.0
 40
9.0
 40
9.0
 40
9.0
 40
10.0
 40
10.0
 40
10.0
 40
11.0
 40
11.0
 40
11.0
 40
12.0
 40
12.0
 40
12.0
 40
13.0
 40
13.0
 40
13.0
 40
14.0
 40
14.0
 40
14.0
 40
15.0
 40
15.0
 40
15.0
 40
16.0
 40
16.0
 40
16.0
 40
17.0
 40
17.0
 40
17.0
 40
18.0
 40
18.0
 40
18.0
 40
19.0
 40
19.0
 40
19.0
 40
20.0
 40
20.0
 40
20.0
 40
20.0
 10
424.0394019417781
 20
301.1954979456732
 10
424.0394019417781
 20
301.1954979456732
 10
427.8629029834483
 20
291.885614989551
 10
427.8629029834483
 20
291.885614989551
 10
428.1425221131576
 20
291.1682939027651
 10
428.6805196723562
 20
290.6505477380433
 10
429.3897842304759
 20
290.4271386885957
 10
429.3897842304759
 20
290.4271386885957
 10
437.0024086949306
 20
288.7909114858339
 10
437.0024086949306
 20
288.7909114858339
 10
437.6631742567515
 20
288.6941391854944
 10
438.2028417431575
 20
288.9811537676578
 10
438.5205911517514
 20
289.5910777021381
 10
438.5205911517514
 20
289.5910777021381
 10
439.0281829577671
 20
290.6121403339766
 10
439.0281829577671
 20
290.6121403339766
 10
439.0281829577671
 20
290.6121403339766
 10
440.7323107539996
 20
291.3003866569361
 10
440.7323107539996
 20
291.3003866569361
 10
440.7323107539996
 20
291.3003866569361
 10
440.7401048700231
 20
291.3036171862514
 10
440.7401048700231
 20
291.3036171862514
 10
440.9898645343765
 20
291.4116604444189
 10
441.1921635993749
 20
291.6026206216447
 10
441.3167998654244
 20
291.8512277997415
 10
441.3167998654244
 20
291.8512277997415
 10
445.1117688752256
 20
299.4894913097269
 10
445.1117688752256
 20
299.4894913097269
 10
445.2659810279729
 20
299.8164208763028
 10
445.2793423697258
 20
300.1769558231299
 10
445.1496260101958
 20
300.5150048930664
 10
445.1496260101958
 20
300.5150048930664
 10
441.3543090487874
 20
309.8164166834331
 10
441.3543090487874
 20
309.8164166834331
 10
441.2062904346658
 20
310.1607274463622
 10
440.931135843357
 20
310.4009989101842
 10
440.5780290109324
 20
310.491740889137
 10
440.5780290109324
 20
310.491740889137
 10
432.9579583820632
 20
312.1830388480048
 10
432.9579583820632
 20
312.1830388480048
 10
432.9579583820632
 20
312.1830388480048
 10
432.9514864821504
 20
312.184474638847
 10
432.9514864821504
 20
312.184474638847
 10
432.7455687204274
 20
312.2272530261498
 10
432.5331094684716
 20
312.2077262711864
 10
432.3381227106111
 20
312.1269630383358
 10
432.3381227106111
 20
312.1269630383358
 10
430.9483290738444
 20
311.5458984990601
 10
430.9483290738444
 20
311.5458984990601
 10
430.9483290738444
 20
311.5458984990601
 10
429.3897842304759
 20
311.8912779774964
 10
429.3897842304759
 20
311.8912779774964
 10
428.727284368495
 20
311.9938652305991
 10
428.1844102694085
 20
311.7099457654058
 10
427.8629029834483
 20
311.0994393478677
 10
427.8629029834483
 20
311.0994393478677
 10
424.0394019417781
 20
303.45866320397
 10
424.0394019417781
 20
303.45866320397
 10
423.731116816929
 20
302.7284199999285
 10
423.732647804005
 20
301.9319150501824
 10
424.0394019417781
 20
301.1954979456732
 97
        0
 97
        0
 75
     2
 76
     1
 98
        0
  0
SPLINE
  5
233
330
22D
100
AcDbEntity
  8
Connectors
 62
     7
420
 16776959
370
     5
100
AcDbSpline
210
0.0
220
0.0
230
1.0
 70
     8
 71
     3
 72
     8
 73
     4
 74
     0
 42
0.0000000001
 43
0.0000000001
 12
1.0
 22
0.0
 32
0.0
 13
1.0
 23
0.0
 33
0.0
 40
0.0
 40
0.0
 40
0.0
 40
0.0
 40
1.0
 40
1.0
 40
1.0
 40
1.0
 10
435.726539738047
 20
301.6526537383725
 30
0.0
 10
435.9805444120211
 20
302.0136115470541
 30
0.0
 10
435.8758109779574
 20
302.6804645870016
 30
0.0
 10
435.726539738047
 20
303.0569289363921
 30
0.0
  0
SPLINE
  5
234
330
22D
100
AcDbEntity
  8
Connectors
 62
     7
420
 16776959
370
     5
100
AcDbSpline
210
0.0
220
0.0
230
1.0
 70
     8
 71
     3
 72
    11
 73
     7
 74
     0
 42
0.0000000001
 43
0.0000000001
 12
1.0
 22
0.0
 32
0.0
 13
1.0
 23
0.0
 33
0.0
 40
0.0
 40
0.0
 40
0.0
 40
0.0
 40
1.0
 40
1.0
 40
1.0
 40
2.0
 40
2.0
 40
2.0
 40
2.0
 10
436.0387219209078
 20
300.8897462934892
 30
0.0
 10
436.4593258248788
 20
300.9001557768352
 30
0.0
 10
436.8390106197276
 20
300.3272752451539
 30
0.0
 10
436.9849415241988
 20
299.9809703731316
 30
0.0
 10
437.0148653625038
 20
299.9108959113528
 30
0.0
 10
437.0543926651917
 20
299.8478646949588
 30
0.0
 10
437.1034538419444
 20
299.7917970639755
 30
0.0
  0
SPLINE
  5
235
330
22D
100
AcDbEntity
  8
Connectors
 62
     7
420
 16776959
370
     5
100
AcDbSpline
210
0.0
220
0.0
230
1.0
 70
     8
 71
     3
 72
    41
 73
    37
 74
     0
 42
0.0000000001
 43
0.0000000001
 12
1.0
 22
0.0
 32
0.0
 13
1.0
 23
0.0
 33
0.0
 40
0.0
 40
0.0
 40
0.0
 40
0.0
 40
1.0
 40
1.0
 40
1.0
 40
2.0
 40
2.0
 40
2.0
 40
3.0
 40
3.0
 40
3.0
 40
4.0
 40
4.0
 40
4.0
 40
5.0
 40
5.0
 40
5.0
 40
6.0
 40
6.0
 40
6.0
 40
7.0
 40
7.0
 40
7.0
 40
8.0
 40
8.0
 40
8.0
 40
9.0
 40
9.0
 40
9.0
 40
10.0
 40
10.0
 40
10.0
 40
11.0
 40
11.0
 40
11.0
 40
12.0
 40
12.0
 40
12.0
 40
12.0
 10
437.5250320104205
 20
299.6581967294587
 30
0.0
 10
437.5818873031967
 20
299.704285614338
 30
0.0
 10
437.6097930221731
 20
299.7664553562463
 30
0.0
 10
437.6086795770261
 20
299.8447777447254
 30
0.0
 10
437.6175175478747
 20
300.3681234935921
 30
0.0
 10
438.1558737463856
 20
300.4848532861361
 30
0.0
 10
438.5539945061355
 20
300.3397666251694
 30
0.0
 10
438.7003429525375
 20
300.2864987862577
 30
0.0
 10
438.8956188840675
 20
300.3223217668728
 30
0.0
 10
438.9728641430374
 20
300.4774589634853
 30
0.0
 10
439.0517740768009
 20
300.6359702684913
 30
0.0
 10
438.9802352261595
 20
300.8489059374151
 30
0.0
 10
438.8656199664238
 20
300.9656278375987
 30
0.0
 10
438.4844737748208
 20
301.3539374611391
 30
0.0
 10
438.4496786140026
 20
301.992720790824
 30
0.0
 10
438.8656199664238
 20
302.3685390343508
 30
0.0
 10
438.9996509258963
 20
302.4896479888557
 30
0.0
 10
439.0411963479128
 20
302.7138467232453
 30
0.0
 10
438.9728641430374
 20
302.8809727730895
 30
0.0
 10
438.9062607142587
 20
303.0439350295946
 30
0.0
 10
438.7272744070106
 20
303.1620288234062
 30
0.0
 10
438.5539945061355
 20
303.1309439524521
 30
0.0
 10
438.0036046523128
 20
303.0321615449848
 30
0.0
 10
437.6156386091898
 20
303.5081261972446
 30
0.0
 10
437.6086795770261
 20
304.0401584804877
 30
0.0
 10
437.6066614576994
 20
304.1957982038821
 30
0.0
 10
437.5198181905616
 20
304.402193132275
 30
0.0
 10
437.3534222772651
 20
304.438734008294
 30
0.0
 10
437.1875189504826
 20
304.4752030947711
 30
0.0
 10
437.0404746008644
 20
304.3185583178129
 30
0.0
 10
436.9849415241988
 20
304.1772765024816
 30
0.0
 10
436.845691290604
 20
303.8232822792088
 30
0.0
 10
436.4212599189432
 20
303.3440153080937
 30
0.0
 10
436.0387219209078
 20
303.6830773069814
 30
0.0
 10
435.993006495286
 20
303.7250023985234
 30
0.0
 10
435.9423393254401
 20
303.7409396764724
 30
0.0
 10
435.8866670681327
 20
303.7310327199102
 30
0.0
  0
POLYLINE
  5
236
330
22D
100
AcDbEntity
  8
Connectors
 62
     7
420
 16776959
370
     5
100
AcDb2dPolyline
 66
     1
 10
0.0
 20
0.0
 30
0.0
  0
VERTEX
  5
237
330
236
100
AcDbEntity
  8
Connectors
 62
     7
420
 16776959
370
     5
100
AcDbVertex
100
AcDb2dVertex
 10
438.8656199664238
 20
300.9656278375987
 30
0.0
  0
VERTEX
  5
238
330
236
100
AcDbEntity
  8
Connectors
 62
     7
420
 16776959
370
     5
100
AcDbVertex
100
AcDb2dVertex
 10
437.6913528791301
 20
300.4842150634231
 30
0.0
  0
SEQEND
  5
239
330
236
100
AcDbEntity
  8
Connectors
 62
     7
420
 16776959
370
     5
  0
POLYLINE
  5
23A
330
22D
100
AcDbEntity
  8
Connectors
 62
     7
420
 16776959
370
     5
100
AcDb2dPolyline
 66
     1
 10
0.0
 20
0.0
 30
0.0
  0
VERTEX
  5
23B
330
23A
100
AcDbEntity
  8
Connectors
 62
     7
420
 16776959
370
     5
100
AcDbVertex
100
AcDb2dVertex
 10
438.8656199664238
 20
302.3685390343508
 30
0.0
  0
VERTEX
  5
23C
330
23A
100
AcDbEntity
  8
Connectors
 62
     7
420
 16776959
370
     5
100
AcDbVertex
100
AcDb2dVertex
 10
437.6913528791301
 20
301.8861851130023
 30
0.0
  0
SEQEND
  5
23D
330
23A
100
AcDbEntity
  8
Connectors
 62
     7
420
 16776959
370
     5
  0
POLYLINE
  5
23E
330
22D
100
AcDbEntity
  8
Connectors
 62
     7
420
 16776959
370
     5
100
AcDb2dPolyline
 66
     1
 10
0.0
 20
0.0
 30
0.0
  0
VERTEX
  5
23F
330
23E
100
AcDbEntity
  8
Connectors
 62
     7
420
 16776959
370
     5
100
AcDbVertex
100
AcDb2dVertex
 10
438.5539945061355
 20
303.1309439524521
 30
0.0
  0
VERTEX
  5
240
330
23E
100
AcDbEntity
  8
Connectors
 62
     7
420
 16776959
370
     5
100
AcDbVertex
100
AcDb2dVertex
 10
437.3798665994855
 20
302.6480157147816
 30
0.0
  0
SEQEND
  5
241
330
23E
100
AcDbEntity
  8
Connectors
 62
     7
420
 16776959
370
     5
  0
SPLINE
  5
242
330
22D
100
AcDbEntity
  8
Connectors
 62
     7
420
 16776959
370
     5
100
AcDbSpline
210
0.0
220
0.0
230
1.0
 70
     8
 71
     3
 72
    20
 73
    16
 74
     0
 42
0.0000000001
 43
0.0000000001
 12
1.0
 22
0.0
 32
0.0
 13
1.0
 23
0.0
 33
0.0
 40
0.0
 40
0.0
 40
0.0
 40
0.0
 40
1.0
 40
1.0
 40
1.0
 40
2.0
 40
2.0
 40
2.0
 40
3.0
 40
3.0
 40
3.0
 40
4.0
 40
4.0
 40
4.0
 40
5.0
 40
5.0
 40
5.0
 40
5.0
 10
436.4348300316633
 20
303.5565123474134
 30
0.0
 10
436.4419282444687
 20
303.0220392198007
 30
0.0
 10
436.8342088875343
 20
302.5500229922563
 30
0.0
 10
437.3798665994855
 20
302.6480157147816
 30
0.0
 10
437.5530073197169
 20
302.6791005857358
 30
0.0
 10
437.7319240366451
 20
302.5610865170802
 30
0.0
 10
437.7985219744514
 20
302.3982599040392
 30
0.0
 10
437.8667900799755
 20
302.2312056437368
 30
0.0
 10
437.8253197102604
 20
302.0072222779672
 30
0.0
 10
437.6913528791301
 20
301.8861851130023
 30
0.0
 10
437.2733934073822
 20
301.5085003414279
 30
0.0
 10
437.3118768552467
 20
300.8707220653068
 30
0.0
 10
437.6913528791301
 20
300.4842150634231
 30
0.0
 10
437.742919307464
 20
300.4316572367661
 30
0.0
 10
437.7811939843632
 20
300.3714258124455
 30
0.0
 10
437.8061769098313
 20
300.3035846968523
 30
0.0
  0
POLYLINE
  5
243
330
22D
100
AcDbEntity
  8
Connectors
 62
     7
420
 16776959
370
     5
100
AcDb2dPolyline
 66
     1
 10
0.0
 20
0.0
 30
0.0
  0
VERTEX
  5
244
330
243
100
AcDbEntity
  8
Connectors
 62
     7
420
 16776959
370
     5
100
AcDbVertex
100
AcDb2dVertex
 10
437.930743585559
 20
300.3546270600127
 30
0.0
  0
VERTEX
  5
245
330
243
100
AcDbEntity
  8
Connectors
 62
     7
420
 16776959
370
     5
100
AcDbVertex
100
AcDb2dVertex
 10
436.9900912080011
 20
299.9691172285438
 30
0.0
  0
SEQEND
  5
246
330
243
100
AcDbEntity
  8
Connectors
 62
     7
420
 16776959
370
     5
  0
POLYLINE
  5
247
330
22D
100
AcDbEntity
  8
Connectors
 62
     7
420
 16776959
370
     5
100
AcDb2dPolyline
 66
     1
 10
0.0
 20
0.0
 30
0.0
  0
VERTEX
  5
248
330
247
100
AcDbEntity
  8
Connectors
 62
     7
420
 16776959
370
     5
100
AcDbVertex
100
AcDb2dVertex
 10
436.4937730340898
 20
303.5982938598754
 30
0.0
  0
VERTEX
  5
249
330
247
100
AcDbEntity
  8
Connectors
 62
     7
420
 16776959
370
     5
100
AcDbVertex
100
AcDb2dVertex
 10
435.6923762982224
 20
303.268061974446
 30
0.0
  0
SEQEND
  5
24A
330
247
100
AcDbEntity
  8
Connectors
 62
     7
420
 16776959
370
     5
  0
SPLINE
  5
24B
330
22D
100
AcDbEntity
  8
Connectors
 62
     7
420
 16776959
370
     5
100
AcDbSpline
210
0.0
220
0.0
230
1.0
 70
     8
 71
     3
 72
     8
 73
     4
 74
     0
 42
0.0000000001
 43
0.0000000001
 12
1.0
 22
0.0
 32
0.0
 13
1.0
 23
0.0
 33
0.0
 40
0.0
 40
0.0
 40
0.0
 40
0.0
 40
1.0
 40
1.0
 40
1.0
 40
1.0
 10
429.3897842304759
 20
311.8912779774964
 30
0.0
 10
429.3684200017324
 20
311.5554465079213
 30
0.0
 10
429.4860276452982
 20
311.2546483340193
 30
0.0
 10
429.7279236033064
 20
311.0417923469977
 30
0.0
  0
SPLINE
  5
24C
330
22D
100
AcDbEntity
  8
Connectors
 62
     7
420
 16776959
370
     5
100
AcDbSpline
210
0.0
220
0.0
230
1.0
 70
     8
 71
     3
 72
     8
 73
     4
 74
     0
 42
0.0000000001
 43
0.0000000001
 12
1.0
 22
0.0
 32
0.0
 13
1.0
 23
0.0
 33
0.0
 40
0.0
 40
0.0
 40
0.0
 40
0.0
 40
1.0
 40
1.0
 40
1.0
 40
1.0
 10
438.1733354467833
 20
290.2669044346221
 30
0.0
 10
438.1563554083041
 20
290.0175793611234
 30
0.0
 10
438.3354167807429
 20
289.750594060708
 30
0.0
 10
438.5133537583006
 20
289.5980488956902
 30
0.0
  0
SPLINE
  5
24D
330
22D
100
AcDbEntity
  8
Connectors
 62
     7
420
 16776959
370
     5
100
AcDbSpline
210
0.0
220
0.0
230
1.0
 70
     8
 71
     3
 72
    23
 73
    19
 74
     0
 42
0.0000000001
 43
0.0000000001
 12
1.0
 22
0.0
 32
0.0
 13
1.0
 23
0.0
 33
0.0
 40
0.0
 40
0.0
 40
0.0
 40
0.0
 40
1.0
 40
1.0
 40
1.0
 40
2.0
 40
2.0
 40
2.0
 40
3.0
 40
3.0
 40
3.0
 40
4.0
 40
4.0
 40
4.0
 40
5.0
 40
5.0
 40
5.0
 40
6.0
 40
6.0
 40
6.0
 40
6.0
 10
429.3897842304759
 20
290.4271386885957
 30
0.0
 10
429.374613540358
 20
290.9961425850997
 30
0.0
 10
429.6036352888623
 20
291.4991001045164
 30
0.0
 10
430.0404537377763
 20
291.8215069300531
 30
0.0
 10
430.0404537377763
 20
291.8215069300531
 30
0.0
 10
432.7317898367437
 20
292.9160820511715
 30
0.0
 10
432.7317898367437
 20
292.9160820511715
 30
0.0
 10
433.17006968241
 20
293.2392144722344
 30
0.0
 10
433.3999961050977
 20
293.7434565032527
 30
0.0
 10
433.3850341859452
 20
294.3141833487243
 30
0.0
 10
432.9214234632018
 20
294.0726115455782
 30
0.0
 10
432.448418047039
 20
293.8499921810744
 30
0.0
 10
431.9678272858182
 20
293.6471867296968
 30
0.0
 10
431.9678272858182
 20
293.6471867296968
 30
0.0
 10
429.2770479094252
 20
292.5511758177709
 30
0.0
 10
429.2770479094252
 20
292.5511758177709
 30
0.0
 10
428.7974314127059
 20
292.3487293140952
 30
0.0
 10
428.3254698513665
 20
292.1266124763733
 30
0.0
 10
427.8629029834483
 20
291.885614989551
 30
0.0
  0
SPLINE
  5
24E
330
22D
100
AcDbEntity
  8
Connectors
 62
     7
420
 16776959
370
     5
100
AcDbSpline
210
0.0
220
0.0
230
1.0
 70
     8
 71
     3
 72
    17
 73
    13
 74
     0
 42
0.0000000001
 43
0.0000000001
 12
1.0
 22
0.0
 32
0.0
 13
1.0
 23
0.0
 33
0.0
 40
0.0
 40
0.0
 40
0.0
 40
0.0
 40
1.0
 40
1.0
 40
1.0
 40
2.0
 40
2.0
 40
2.0
 40
3.0
 40
3.0
 40
3.0
 40
4.0
 40
4.0
 40
4.0
 40
4.0
 10
437.0024086949306
 20
288.7909114858339
 30
0.0
 10
436.9875859564199
 20
289.3592692764742
 30
0.0
 10
437.2171002837931
 20
289.8607986198622
 30
0.0
 10
437.6544700086633
 20
290.1813313025723
 30
0.0
 10
437.6544700086633
 20
290.1813313025723
 30
0.0
 10
440.3513733333621
 20
291.2707452271843
 30
0.0
 10
440.3513733333621
 20
291.2707452271843
 30
0.0
 10
440.7902794919246
 20
291.5919957696788
 30
0.0
 10
441.0206234565412
 20
292.094889170774
 30
0.0
 10
441.0060094889959
 20
292.6648186600833
 30
0.0
 10
441.2571609597835
 20
292.4582083630685
 30
0.0
 10
441.3717762195174
 20
292.1729167298745
 30
0.0
 10
441.3200010202199
 20
291.8578324374503
 30
0.0
  0
SPLINE
  5
24F
330
22D
100
AcDbEntity
  8
Connectors
 62
     7
420
 16776959
370
     5
100
AcDbSpline
210
0.0
220
0.0
230
1.0
 70
     8
 71
     3
 72
    23
 73
    19
 74
     0
 42
0.0000000001
 43
0.0000000001
 12
1.0
 22
0.0
 32
0.0
 13
1.0
 23
0.0
 33
0.0
 40
0.0
 40
0.0
 40
0.0
 40
0.0
 40
1.0
 40
1.0
 40
1.0
 40
2.0
 40
2.0
 40
2.0
 40
3.0
 40
3.0
 40
3.0
 40
4.0
 40
4.0
 40
4.0
 40
5.0
 40
5.0
 40
5.0
 40
6.0
 40
6.0
 40
6.0
 40
6.0
 10
424.0394019417781
 20
303.45866320397
 30
0.0
 10
424.4287597913335
 20
303.0730815829611
 30
0.0
 10
424.9339159360934
 20
302.9034428992072
 30
0.0
 10
425.4546603128983
 20
302.9949745631038
 30
0.0
 10
425.4546603128983
 20
302.9949745631038
 30
0.0
 10
428.1425864861067
 20
304.1088690452816
 30
0.0
 10
428.1425864861067
 20
304.1088690452816
 30
0.0
 10
428.6645138983804
 20
304.2008952612432
 30
0.0
 10
429.1707138979637
 20
304.0310412088675
 30
0.0
 10
429.5609068313788
 20
303.6444545342947
 30
0.0
 10
429.0961826634903
 20
303.4038159951724
 30
0.0
 10
428.6228988860421
 20
303.1805505248067
 30
0.0
 10
428.1425864861067
 20
302.9753121751364
 30
0.0
 10
428.1425864861067
 20
302.9753121751364
 30
0.0
 10
425.4546603128983
 20
301.8632124601054
 30
0.0
 10
425.4546603128983
 20
301.8632124601054
 30
0.0
 10
424.9753221774663
 20
301.6584686911374
 30
0.0
 10
424.5030822548415
 20
301.4356339580117
 30
0.0
 10
424.0394019417781
 20
301.1954979456732
 30
0.0
  0
SPLINE
  5
250
330
22D
100
AcDbEntity
  8
Connectors
 62
     7
420
 16776959
370
     5
100
AcDbSpline
210
0.0
220
0.0
230
1.0
 70
     8
 71
     3
 72
    11
 73
     7
 74
     0
 42
0.0000000001
 43
0.0000000001
 12
1.0
 22
0.0
 32
0.0
 13
1.0
 23
0.0
 33
0.0
 40
0.0
 40
0.0
 40
0.0
 40
0.0
 40
1.0
 40
1.0
 40
1.0
 40
2.0
 40
2.0
 40
2.0
 40
2.0
 10
445.1117688752256
 20
299.4894913097269
 30
0.0
 10
445.2446863895511
 20
299.7645170386586
 30
0.0
 10
445.008844789525
 20
300.1354535934443
 30
0.0
 10
444.8029270278021
 20
300.30552301444
 30
0.0
 10
444.9218568874785
 20
300.3679799145102
 30
0.0
 10
445.0382814955774
 20
300.4314418681461
 30
0.0
 10
445.1477470715108
 20
300.5093414031653
 30
0.0
  0
SPLINE
  5
251
330
22D
100
AcDbEntity
  8
Connectors
 62
     7
420
 16776959
370
     5
100
AcDbSpline
210
0.0
220
0.0
230
1.0
 70
     8
 71
     3
 72
    14
 73
    10
 74
     0
 42
0.0000000001
 43
0.0000000001
 12
1.0
 22
0.0
 32
0.0
 13
1.0
 23
0.0
 33
0.0
 40
0.0
 40
0.0
 40
0.0
 40
0.0
 40
1.0
 40
1.0
 40
1.0
 40
2.0
 40
2.0
 40
2.0
 40
3.0
 40
3.0
 40
3.0
 40
3.0
 10
441.3543090487874
 20
309.8164166834331
 30
0.0
 10
441.3050391010693
 20
309.7312024990842
 30
0.0
 10
441.0977991232357
 20
309.6530954792261
 30
0.0
 10
441.0129685211596
 20
309.6133240738945
 30
0.0
 10
441.0129685211596
 20
309.6133240738945
 30
0.0
 10
441.0060094889959
 20
309.6096628073383
 30
0.0
 10
441.0060094889959
 20
309.6096628073383
 30
0.0
 10
441.0338456176505
 20
309.9876347370746
 30
0.0
 10
440.8886106163955
 20
310.3027908190388
 30
0.0
 10
440.5858927172776
 20
310.4899461506293
 30
0.0
  0
SPLINE
  5
252
330
22D
100
AcDbEntity
  8
Connectors
 62
     7
420
 16776959
370
     5
100
AcDbSpline
210
0.0
220
0.0
230
1.0
 70
     8
 71
     3
 72
    17
 73
    13
 74
     0
 42
0.0000000001
 43
0.0000000001
 12
1.0
 22
0.0
 32
0.0
 13
1.0
 23
0.0
 33
0.0
 40
0.0
 40
0.0
 40
0.0
 40
0.0
 40
1.0
 40
1.0
 40
1.0
 40
2.0
 40
2.0
 40
2.0
 40
3.0
 40
3.0
 40
3.0
 40
4.0
 40
4.0
 40
4.0
 40
4.0
 10
427.8629029834483
 20
311.0994393478677
 30
0.0
 10
428.2517789208869
 20
310.713283410536
 30
0.0
 10
428.7565818939038
 20
310.544219043104
 30
0.0
 10
429.2770479094252
 20
310.6374100060684
 30
0.0
 10
429.2770479094252
 20
310.6374100060684
 30
0.0
 10
431.9678272858182
 20
311.762056804936
 30
0.0
 10
431.9678272858182
 20
311.762056804936
 30
0.0
 10
432.4894763368065
 20
311.8558857341222
 30
0.0
 10
432.9953283847808
 20
311.6864624189884
 30
0.0
 10
433.3850341859452
 20
311.299309584454
 30
0.0
 10
433.4075814501557
 20
311.6018225509624
 30
0.0
 10
433.2896258549808
 20
312.1052825971619
 30
0.0
 10
432.9579583820632
 20
312.1830388480048
 30
0.0
  0
POLYLINE
  5
253
330
22D
100
AcDbEntity
  8
Connectors
 62
     7
420
 16776959
370
     5
100
AcDb2dPolyline
 66
     1
 10
0.0
 20
0.0
 30
0.0
  0
VERTEX
  5
254
330
253
100
AcDbEntity
  8
Connectors
 62
     7
420
 16776959
370
     5
100
AcDbVertex
100
AcDb2dVertex
 10
441.0060094889959
 20
309.6096628073383
 30
0.0
  0
VERTEX
  5
255
330
253
100
AcDbEntity
  8
Connectors
 62
     7
420
 16776959
370
     5
100
AcDbVertex
100
AcDb2dVertex
 10
433.3850341859452
 20
311.299309584454
 30
0.0
  0
VERTEX
  5
256
330
253
100
AcDbEntity
  8
Connectors
 62
     7
420
 16776959
370
     5
100
AcDbVertex
100
AcDb2dVertex
 10
429.5609068313788
 20
303.6444545342947
 30
0.0
  0
VERTEX
  5
257
330
253
100
AcDbEntity
  8
Connectors
 62
     7
420
 16776959
370
     5
100
AcDbVertex
100
AcDb2dVertex
 10
433.3850341859452
 20
294.3141833487243
 30
0.0
  0
VERTEX
  5
258
330
253
100
AcDbEntity
  8
Connectors
 62
     7
420
 16776959
370
     5
100
AcDbVertex
100
AcDb2dVertex
 10
441.0060094889959
 20
292.6648186600833
 30
0.0
  0
VERTEX
  5
259
330
253
100
AcDbEntity
  8
Connectors
 62
     7
420
 16776959
370
     5
100
AcDbVertex
100
AcDb2dVertex
 10
444.8029270278021
 20
300.30552301444
 30
0.0
  0
VERTEX
  5
25A
330
253
100
AcDbEntity
  8
Connectors
 62
     7
420
 16776959
370
     5
100
AcDbVertex
100
AcDb2dVertex
 10
441.0060094889959
 20
309.6096628073383
 30
0.0
  0
SEQEND
  5
25B
330
253
100
AcDbEntity
  8
Connectors
 62
     7
420
 16776959
370
     5
  0
SPLINE
  5
25C
330
22D
100
AcDbEntity
  8
Connectors
 62
     7
420
 16776959
370
     5
100
AcDbSpline
210
0.0
220
0.0
230
1.0
 70
     8
 71
     3
 72
    29
 73
    25
 74
     0
 42
0.0000000001
 43
0.0000000001
 12
1.0
 22
0.0
 32
0.0
 13
1.0
 23
0.0
 33
0.0
 40
0.0
 40
0.0
 40
0.0
 40
0.0
 40
1.0
 40
1.0
 40
1.0
 40
2.0
 40
2.0
 40
2.0
 40
3.0
 40
3.0
 40
3.0
 40
4.0
 40
4.0
 40
4.0
 40
5.0
 40
5.0
 40
5.0
 40
6.0
 40
6.0
 40
6.0
 40
7.0
 40
7.0
 40
7.0
 40
8.0
 40
8.0
 40
8.0
 40
8.0
 10
432.3332513879723
 20
312.124889318884
 30
0.0
 10
432.1723532411088
 20
312.0500046511224
 30
0.0
 10
432.0491087814898
 20
311.9234396915544
 30
0.0
 10
431.9678272858182
 20
311.762056804936
 30
0.0
 10
431.9678272858182
 20
311.762056804936
 30
0.0
 10
428.1425864861067
 20
304.1088690452816
 30
0.0
 10
428.1425864861067
 20
304.1088690452816
 30
0.0
 10
427.9883047430376
 20
303.743093362682
 30
0.0
 10
427.9890702365774
 20
303.3441588871756
 30
0.0
 10
428.1425864861067
 20
302.9753121751364
 30
0.0
 10
428.1425864861067
 20
302.9753121751364
 30
0.0
 10
431.9678272858182
 20
293.6471867296968
 30
0.0
 10
431.9678272858182
 20
293.6471867296968
 30
0.0
 10
432.1072167000566
 20
293.2890287130867
 30
0.0
 10
432.3775750996138
 20
293.0280737340563
 30
0.0
 10
432.7317898367437
 20
292.9160820511715
 30
0.0
 10
432.7317898367437
 20
292.9160820511715
 30
0.0
 10
440.3513733333621
 20
291.2707452271843
 30
0.0
 10
440.3513733333621
 20
291.2707452271843
 30
0.0
 10
440.3513733333621
 20
291.2707452271843
 30
0.0
 10
440.3596545816363
 20
291.2690146278219
 30
0.0
 10
440.3596545816363
 20
291.2690146278219
 30
0.0
 10
440.4842908476876
 20
291.2431703933089
 30
0.0
 10
440.6135896652886
 20
291.253364508033
 30
0.0
 10
440.7323107539996
 20
291.3003866569361
 30
0.0
  0
SPLINE
  5
25D
330
22D
100
AcDbEntity
  8
Connectors
 62
     7
420
 16776959
370
     5
100
AcDbSpline
210
0.0
220
0.0
230
1.0
 70
     8
 71
     3
 72
    38
 73
    34
 74
     0
 42
0.0000000001
 43
0.0000000001
 12
1.0
 22
0.0
 32
0.0
 13
1.0
 23
0.0
 33
0.0
 40
0.0
 40
0.0
 40
0.0
 40
0.0
 40
1.0
 40
1.0
 40
1.0
 40
2.0
 40
2.0
 40
2.0
 40
3.0
 40
3.0
 40
3.0
 40
4.0
 40
4.0
 40
4.0
 40
5.0
 40
5.0
 40
5.0
 40
6.0
 40
6.0
 40
6.0
 40
7.0
 40
7.0
 40
7.0
 40
8.0
 40
8.0
 40
8.0
 40
9.0
 40
9.0
 40
9.0
 40
10.0
 40
10.0
 40
10.0
 40
11.0
 40
11.0
 40
11.0
 40
11.0
 10
430.9925885184057
 20
311.5644202004605
 30
0.0
 10
430.9925885184057
 20
311.5644202004605
 30
0.0
 10
429.6471292398855
 20
311.0018773625852
 30
0.0
 10
429.6471292398855
 20
311.0018773625852
 30
0.0
 10
429.4870715001234
 20
310.9341798260721
 30
0.0
 10
429.3579118631642
 20
310.8010102287953
 30
0.0
 10
429.2797619319681
 20
310.6427860819504
 30
0.0
 10
429.2797619319681
 20
310.6427860819504
 30
0.0
 10
429.2770479094252
 20
310.6374100060684
 30
0.0
 10
429.2770479094252
 20
310.6374100060684
 30
0.0
 10
429.2770479094252
 20
310.6374100060684
 30
0.0
 10
425.4546603128983
 20
302.9949745631038
 30
0.0
 10
425.4546603128983
 20
302.9949745631038
 30
0.0
 10
425.3005873407965
 20
302.6297811715413
 30
0.0
 10
425.3013528343326
 20
302.2314928018986
 30
0.0
 10
425.4546603128983
 20
301.8632124601054
 30
0.0
 10
425.4546603128983
 20
301.8632124601054
 30
0.0
 10
429.2770479094252
 20
292.5511758177709
 30
0.0
 10
429.2770479094252
 20
292.5511758177709
 30
0.0
 10
429.4164373236617
 20
292.1936639070245
 30
0.0
 10
429.6867957232189
 20
291.932996086156
 30
0.0
 10
430.0404537377763
 20
291.8215069300531
 30
0.0
 10
430.0404537377763
 20
291.8215069300531
 30
0.0
 10
437.6544700086633
 20
290.1813313025723
 30
0.0
 10
437.6544700086633
 20
290.1813313025723
 30
0.0
 10
437.7800109488962
 20
290.1550563308192
 30
0.0
 10
437.9070828762033
 20
290.1628813907118
 30
0.0
 10
438.0276133132775
 20
290.2081088011091
 30
0.0
 10
438.0276133132775
 20
290.2081088011091
 30
0.0
 10
438.0350594776937
 20
290.2110521722607
 30
0.0
 10
438.0350594776937
 20
290.2110521722607
 30
0.0
 10
438.0350594776937
 20
290.2110521722607
 30
0.0
 10
439.0281829577671
 20
290.6121403339766
 30
0.0
 10
439.0281829577671
 20
290.6121403339766
 30
0.0
  0
SPLINE
  5
25E
330
22D
100
AcDbEntity
  8
Connectors
 62
     7
420
 16776959
370
    13
100
AcDbSpline
210
0.0
220
0.0
230
1.0
 70
    11
 71
     3
 72
    17
 73
    13
 74
     0
 42
0.0000000001
 43
0.0000000001
 12
1.0
 22
0.0
 32
0.0
 13
1.0
 23
0.0
 33
0.0
 40
0.0
 40
0.0
 40
0.0
 40
0.0
 40
1.0
 40
1.0
 40
1.0
 40
2.0
 40
2.0
 40
2.0
 40
3.0
 40
3.0
 40
3.0
 40
4.0
 40
4.0
 40
4.0
 40
4.0
 10
442.5736706645002
 20
304.0355639499085
 30
0.0
 10
443.9546210070548
 20
300.1754403673967
 30
0.0
 10
442.7693586489422
 20
296.1686507540326
 30
0.0
 10
439.9263156488068
 20
295.0862080652259
 30
0.0
 10
437.0832030583497
 20
294.0037730958593
 30
0.0
 10
433.6588721015833
 20
296.2555160978081
 30
0.0
 10
432.2778521687105
 20
300.1156396803181
 30
0.0
 10
430.8969071131105
 20
303.9757632628298
 30
0.0
 10
432.0821641842667
 20
307.9825528761939
 30
0.0
 10
434.9252071844021
 20
309.0649955650006
 30
0.0
 10
437.7683197748593
 20
310.1474382538063
 30
0.0
 10
441.1926507316239
 20
307.8956875324184
 30
0.0
 10
442.5736706645002
 20
304.0355639499085
 30
0.0
  0
SPLINE
  5
25F
330
22D
100
AcDbEntity
  8
Connectors
 62
     7
420
 16776959
370
     5
100
AcDbSpline
210
0.0
220
0.0
230
1.0
 70
    11
 71
     3
 72
    17
 73
    13
 74
     0
 42
0.0000000001
 43
0.0000000001
 12
1.0
 22
0.0
 32
0.0
 13
1.0
 23
0.0
 33
0.0
 40
0.0
 40
0.0
 40
0.0
 40
0.0
 40
1.0
 40
1.0
 40
1.0
 40
2.0
 40
2.0
 40
2.0
 40
3.0
 40
3.0
 40
3.0
 40
4.0
 40
4.0
 40
4.0
 40
4.0
 10
439.0924844149595
 20
302.7101854566899
 30
0.0
 10
439.5565126796319
 20
301.4131717385117
 30
0.0
 10
439.1862921685242
 20
300.0775194344133
 30
0.0
 10
438.2654730326321
 20
299.7269711090757
 30
0.0
 10
437.3447234870582
 20
299.3763509941982
 30
0.0
 10
436.2220924184203
 20
300.1436376010388
 30
0.0
 10
435.7580641537479
 20
301.4406592258347
 30
0.0
 10
435.2940358890773
 20
302.7376887907067
 30
0.0
 10
435.6643259905031
 20
304.0733252481114
 30
0.0
 10
436.5850755360771
 20
304.4239453629889
 30
0.0
 10
437.5059001258815
 20
304.7744936883264
 30
0.0
 10
438.6284561502871
 20
304.0072070814858
 30
0.0
 10
439.0924844149595
 20
302.7101854566899
 30
0.0
  0
MTEXT
  5
260
330
22D
100
AcDbEntity
  8
Connectors
 62
     7
420
 16776959
100
AcDbMText
 10
435.8991457257653
 20
305.8772692575585
 30
0.0
 40
1.285843988882529
 41
0.0
 46
0.0
 71
     7
 72
     1
  1
\fHelvetica Neue LT Std 77 Condensed|b1|i0|c0|p34;\W0.808141;WS22
 11
0.9736682486621002
 21
-0.22796960663053
 31
0.0
 73
     1
 44
1.0
  0
MTEXT
  5
261
330
22D
100
AcDbEntity
  8
Connectors
 62
     7
420
 16776959
100
AcDbMText
 10
436.5856591057964
 20
297.2492474382743
 30
0.0
 40
1.482614227601738
 41
0.0
 46
0.0
 71
     7
 72
     1
  1
\fHelvetica Neue LT Std 77 Condensed|b1|i0|c0|p34;\W0.808141;3.5
 11
0.9736682486621002
 21
-0.22796960663053
 31
0.0
 73
     1
 44
1.0
  0
INSERT
  5
263
330
22D
100
AcDbEntity
  8
Connectors
100
AcDbBlockReference
  2
block 34
 10
0.0
 20
0.0
 30
0.0
  0
ENDBLK
  5
230
330
22D
100
AcDbEntity
  8
0
100
AcDbBlockEnd
  0
BLOCK
  5
264
330
262
100
AcDbEntity
  8
0
100
AcDbBlockBegin
  2
block 34
 70
     0
 10
0.0
 20
0.0
 30
0.0
  3
block 34
  1

  0
INSERT
  5
267
330
262
100
AcDbEntity
  8
Connectors
100
AcDbBlockReference
  2
block 35
 10
0.0
 20
0.0
 30
0.0
  0
INSERT
  5
27B
330
262
100
AcDbEntity
  8
Connectors
100
AcDbBlockReference
  2
block 36
 10
0.0
 20
0.0
 30
0.0
  0
ENDBLK
  5
265
330
262
100
AcDbEntity
  8
0
100
AcDbBlockEnd
  0
BLOCK
  5
268
330
266
100
AcDbEntity
  8
0
100
AcDbBlockBegin
  2
block 35
 70
     0
 10
0.0
 20
0.0
 30
0.0
  3
block 35
  1

  0
POLYLINE
  5
26A
330
266
100
AcDbEntity
  8
Connectors
370
     0
100
AcDb2dPolyline
 66
     1
 10
0.0
 20
0.0
 30
0.0
  0
VERTEX
  5
26B
330
26A
100
AcDbEntity
  8
Connectors
370
     0
100
AcDbVertex
100
AcDb2dVertex
 10
442.0621122101511
 20
301.1659206550648
 30
0.0
  0
VERTEX
  5
26C
330
26A
100
AcDbEntity
  8
Connectors
370
     0
100
AcDbVertex
100
AcDb2dVertex
 10
440.2121230997673
 20
301.6314119465696
 30
0.0
  0
VERTEX
  5
26D
330
26A
100
AcDbEntity
  8
Connectors
370
     0
100
AcDbVertex
100
AcDb2dVertex
 10
440.2121230997673
 20
301.9176289316601
 30
0.0
  0
VERTEX
  5
26E
330
26A
100
AcDbEntity
  8
Connectors
370
     0
100
AcDbVertex
100
AcDb2dVertex
 10
442.0621122101511
 20
301.4521455522854
 30
0.0
  0
VERTEX
  5
26F
330
26A
100
AcDbEntity
  8
Connectors
370
     0
100
AcDbVertex
100
AcDb2dVertex
 10
442.0621122101511
 20
301.1659206550648
 30
0.0
  0
SEQEND
  5
271
330
26A
100
AcDbEntity
  8
Connectors
370
     0
  0
HATCH
  5
270
330
266
100
AcDbEntity
  8
Connectors
 62
     7
420
 16776959
100
AcDbHatch
 10
0.0
 20
0.0
 30
0.0
210
0.0
220
0.0
230
1.0
  2
SOLID
 70
     1
 71
     0
 91
        1
 92
        1
 93
        4
 72
     1
 10
442.0621122101511
 20
301.1659206550648
 11
440.2121230997673
 21
301.6314119465696
 72
     1
 10
440.2121230997673
 20
301.6314119465696
 11
440.2121230997673
 21
301.9176289316601
 72
     1
 10
440.2121230997673
 20
301.9176289316601
 11
442.0621122101511
 21
301.4521455522854
 72
     1
 10
442.0621122101511
 20
301.4521455522854
 11
442.0621122101511
 21
301.1659206550648
 97
        0
 75
     2
 76
     1
 98
        0
  0
POLYLINE
  5
272
330
266
100
AcDbEntity
  8
Connectors
370
     0
100
AcDb2dPolyline
 66
     1
 10
0.0
 20
0.0
 30
0.0
  0
VERTEX
  5
273
330
272
100
AcDbEntity
  8
Connectors
370
     0
100
AcDbVertex
100
AcDb2dVertex
 10
442.0621122101511
 20
300.5806923224518
 30
0.0
  0
VERTEX
  5
274
330
272
100
AcDbEntity
  8
Connectors
370
     0
100
AcDbVertex
100
AcDb2dVertex
 10
440.2121230997673
 20
301.0461757018275
 30
0.0
  0
VERTEX
  5
275
330
272
100
AcDbEntity
  8
Connectors
370
     0
100
AcDbVertex
100
AcDb2dVertex
 10
440.2121230997673
 20
301.3324005990453
 30
0.0
  0
VERTEX
  5
276
330
272
100
AcDbEntity
  8
Connectors
370
     0
100
AcDbVertex
100
AcDb2dVertex
 10
442.0621122101511
 20
300.8669172196714
 30
0.0
  0
VERTEX
  5
277
330
272
100
AcDbEntity
  8
Connectors
370
     0
100
AcDbVertex
100
AcDb2dVertex
 10
442.0621122101511
 20
300.5806923224518
 30
0.0
  0
SEQEND
  5
279
330
272
100
AcDbEntity
  8
Connectors
370
     0
  0
HATCH
  5
278
330
266
100
AcDbEntity
  8
Connectors
 62
     7
420
 16776959
100
AcDbHatch
 10
0.0
 20
0.0
 30
0.0
210
0.0
220
0.0
230
1.0
  2
SOLID
 70
     1
 71
     0
 91
        1
 92
        1
 93
        4
 72
     1
 10
442.0621122101511
 20
300.5806923224518
 11
440.2121230997673
 21
301.0461757018275
 72
     1
 10
440.2121230997673
 20
301.0461757018275
 11
440.2121230997673
 21
301.3324005990453
 72
     1
 10
440.2121230997673
 20
301.3324005990453
 11
442.0621122101511
 21
300.8669172196714
 72
     1
 10
442.0621122101511
 20
300.8669172196714
 11
442.0621122101511
 21
300.5806923224518
 97
        0
 75
     2
 76
     1
 98
        0
  0
ENDBLK
  5
269
330
266
100
AcDbEntity
  8
0
100
AcDbBlockEnd
  0
BLOCK
  5
27C
330
27A
100
AcDbEntity
  8
0
100
AcDbBlockBegin
  2
block 36
 70
     0
 10
0.0
 20
0.0
 30
0.0
  3
block 36
  1

  0
POLYLINE
  5
27E
330
27A
100
AcDbEntity
  8
Connectors
370
     0
100
AcDb2dPolyline
 66
     1
 10
0.0
 20
0.0
 30
0.0
  0
VERTEX
  5
27F
330
27E
100
AcDbEntity
  8
Connectors
370
     0
100
AcDbVertex
100
AcDb2dVertex
 10
440.5822044302295
 20
300.2982004813293
 30
0.0
  0
VERTEX
  5
280
330
27E
100
AcDbEntity
  8
Connectors
370
     0
100
AcDbVertex
100
AcDb2dVertex
 10
440.4989799350769
 20
300.3949727816671
 30
0.0
  0
VERTEX
  5
281
330
27E
100
AcDbEntity
  8
Connectors
370
     0
100
AcDbVertex
100
AcDb2dVertex
 10
441.7723381108572
 20
302.1798840483989
 30
0.0
  0
VERTEX
  5
282
330
27E
100
AcDbEntity
  8
Connectors
370
     0
100
AcDbVertex
100
AcDb2dVertex
 10
441.8555681355338
 20
302.0831038220749
 30
0.0
  0
VERTEX
  5
283
330
27E
100
AcDbEntity
  8
Connectors
370
     0
100
AcDbVertex
100
AcDb2dVertex
 10
440.5822044302295
 20
300.2982004813293
 30
0.0
  0
SEQEND
  5
285
330
27E
100
AcDbEntity
  8
Connectors
370
     0
  0
HATCH
  5
284
330
27A
100
AcDbEntity
  8
Connectors
 62
     7
420
 16776959
100
AcDbHatch
 10
0.0
 20
0.0
 30
0.0
210
0.0
220
0.0
230
1.0
  2
SOLID
 70
     1
 71
     0
 91
        1
 92
        1
 93
        4
 72
     1
 10
440.5822044302295
 20
300.2982004813293
 11
440.4989799350769
 21
300.3949727816671
 72
     1
 10
440.4989799350769
 20
300.3949727816671
 11
441.7723381108572
 21
302.1798840483989
 72
     1
 10
441.7723381108572
 20
302.1798840483989
 11
441.8555681355338
 21
302.0831038220749
 72
     1
 10
441.8555681355338
 20
302.0831038220749
 11
440.5822044302295
 21
300.2982004813293
 97
        0
 75
     2
 76
     1
 98
        0
  0
ENDBLK
  5
27D
330
27A
100
AcDbEntity
  8
0
100
AcDbBlockEnd
  0
BLOCK
  5
288
330
286
100
AcDbEntity
  8
0
100
AcDbBlockBegin
  2
block 37
 70
     0
 10
0.0
 20
0.0
 30
0.0
  3
block 37
  1

  0
INSERT
  5
28B
330
286
100
AcDbEntity
  8
Connectors
100
AcDbBlockReference
  2
block 38
 10
0.0
 20
0.0
 30
0.0
  0
INSERT
  5
2EF
330
286
100
AcDbEntity
  8
Connectors
100
AcDbBlockReference
  2
block 44
 10
0.0
 20
0.0
 30
0.0
  0
ENDBLK
  5
289
330
286
100
AcDbEntity
  8
0
100
AcDbBlockEnd
  0
BLOCK
  5
28C
330
28A
100
AcDbEntity
  8
0
100
AcDbBlockBegin
  2
block 38
 70
     0
 10
0.0
 20
0.0
 30
0.0
  3
block 38
  1

  0
INSERT
  5
28F
330
28A
100
AcDbEntity
  8
Connectors
100
AcDbBlockReference
  2
block 39
 10
0.0
 20
0.0
 30
0.0
  0
INSERT
  5
296
330
28A
100
AcDbEntity
  8
Connectors
100
AcDbBlockReference
  2
block 40
 10
0.0
 20
0.0
 30
0.0
  0
ENDBLK
  5
28D
330
28A
100
AcDbEntity
  8
0
100
AcDbBlockEnd
  0
BLOCK
  5
290
330
28E
100
AcDbEntity
  8
0
100
AcDbBlockBegin
  2
block 39
 70
     0
 10
0.0
 20
0.0
 30
0.0
  3
block 39
  1

  0
SPLINE
  5
292
330
28E
100
AcDbEntity
  8
Connectors
 62
     7
420
 16776959
370
     9
100
AcDbSpline
210
0.0
220
0.0
230
1.0
 70
    11
 71
     3
 72
    23
 73
    19
 74
     0
 42
0.0000000001
 43
0.0000000001
 12
1.0
 22
0.0
 32
0.0
 13
1.0
 23
0.0
 33
0.0
 40
0.0
 40
0.0
 40
0.0
 40
0.0
 40
1.0
 40
1.0
 40
1.0
 40
2.0
 40
2.0
 40
2.0
 40
3.0
 40
3.0
 40
3.0
 40
4.0
 40
4.0
 40
4.0
 40
5.0
 40
5.0
 40
5.0
 40
6.0
 40
6.0
 40
6.0
 40
6.0
 10
453.3035711492357
 20
414.1709717196336
 30
0.0
 10
448.2944074133684
 20
413.5946484800752
 30
0.0
 10
442.9723895920324
 20
418.0419489496262
 30
0.0
 10
440.9302758000158
 20
424.8238556872293
 30
0.0
 10
438.7924819498949
 20
431.9236424378596
 30
0.0
 10
441.0217993434944
 20
439.0159903837366
 30
0.0
 10
445.9161594806792
 20
441.1498962265114
 30
0.0
 10
445.9161594806792
 20
441.1498962265114
 30
0.0
 10
448.1618263917517
 20
441.9962996346903
 30
0.0
 10
448.1618263917517
 20
441.9962996346903
 30
0.0
 10
453.5528834419019
 20
443.7237963227208
 30
0.0
 10
459.7389982500972
 20
439.0937664017529
 30
0.0
 10
461.9789535393502
 20
431.6548143452856
 30
0.0
 10
464.00579393925
 20
424.9235062103126
 30
0.0
 10
462.1070366587774
 20
418.1987530617052
 30
0.0
 10
457.7332908509488
 20
415.7003457860137
 30
0.0
 10
457.7332908509488
 20
415.7003457860137
 30
0.0
 10
453.3035711492357
 20
414.1709717196336
 30
0.0
 10
453.3035711492357
 20
414.1709717196336
 30
0.0
  0
HATCH
  5
293
330
28E
100
AcDbEntity
  8
Connectors
 62
   250
420
  2301728
100
AcDbHatch
 10
0.0
 20
0.0
 30
0.0
210
0.0
220
0.0
230
1.0
  2
SOLID
 70
     1
 71
     0
 91
        1
 92
        1
 93
        1
 72
     4
 94
        3
 73
     0
 74
     1
 95
       23
 96
       19
 40
0.0
 40
0.0
 40
0.0
 40
0.0
 40
1.0
 40
1.0
 40
1.0
 40
2.0
 40
2.0
 40
2.0
 40
3.0
 40
3.0
 40
3.0
 40
4.0
 40
4.0
 40
4.0
 40
5.0
 40
5.0
 40
5.0
 40
6.0
 40
6.0
 40
6.0
 40
6.0
 10
453.3035711492357
 20
414.1709717196336
 10
448.2944074133684
 20
413.5946484800752
 10
442.9723895920324
 20
418.0419489496262
 10
440.9302758000158
 20
424.8238556872293
 10
438.7924819498949
 20
431.9236424378596
 10
441.0217993434944
 20
439.0159903837366
 10
445.9161594806792
 20
441.1498962265114
 10
445.9161594806792
 20
441.1498962265114
 10
448.1618263917517
 20
441.9962996346903
 10
448.1618263917517
 20
441.9962996346903
 10
453.5528834419019
 20
443.7237963227208
 10
459.7389982500972
 20
439.0937664017529
 10
461.9789535393502
 20
431.6548143452856
 10
464.00579393925
 20
424.9235062103126
 10
462.1070366587774
 20
418.1987530617052
 10
457.7332908509488
 20
415.7003457860137
 10
457.7332908509488
 20
415.7003457860137
 10
453.3035711492357
 20
414.1709717196336
 10
453.3035711492357
 20
414.1709717196336
 97
        0
 97
        0
 75
     2
 76
     1
 98
        0
  0
SPLINE
  5
294
330
28E
100
AcDbEntity
  8
Connectors
 62
     7
420
 16776959
370
     5
100
AcDbSpline
210
0.0
220
0.0
230
1.0
 70
     8
 71
     3
 72
    14
 73
    10
 74
     0
 42
0.0000000001
 43
0.0000000001
 12
1.0
 22
0.0
 32
0.0
 13
1.0
 23
0.0
 33
0.0
 40
0.0
 40
0.0
 40
0.0
 40
0.0
 40
1.0
 40
1.0
 40
1.0
 40
2.0
 40
2.0
 40
2.0
 40
3.0
 40
3.0
 40
3.0
 40
3.0
 10
457.7332908509488
 20
415.7003457860137
 30
0.0
 10
457.2734338987575
 20
415.4376307706134
 30
0.0
 10
456.7862325570786
 20
415.2216844781688
 30
0.0
 10
456.2734003124569
 20
415.0573679098034
 30
0.0
 10
450.8823432623103
 20
413.3298712217729
 30
0.0
 10
444.6962284541114
 20
417.9599011427426
 30
0.0
 10
442.4562731648639
 20
425.3989268507403
 30
0.0
 10
440.2163230538463
 20
432.8378789072067
 30
0.0
 10
442.7707693416069
 20
440.2688029466608
 30
0.0
 10
448.1618263917517
 20
441.9962996346903
 30
0.0
  0
ENDBLK
  5
291
330
28E
100
AcDbEntity
  8
0
100
AcDbBlockEnd
  0
BLOCK
  5
297
330
295
100
AcDbEntity
  8
0
100
AcDbBlockBegin
  2
block 40
 70
     0
 10
0.0
 20
0.0
 30
0.0
  3
block 40
  1

  0
SPLINE
  5
299
330
295
100
AcDbEntity
  8
Connectors
 62
     7
420
 16776959
370
     9
100
AcDbSpline
210
0.0
220
0.0
230
1.0
 70
    11
 71
     3
 72
    65
 73
    61
 74
     0
 42
0.0000000001
 43
0.0000000001
 12
1.0
 22
0.0
 32
0.0
 13
1.0
 23
0.0
 33
0.0
 40
0.0
 40
0.0
 40
0.0
 40
0.0
 40
1.0
 40
1.0
 40
1.0
 40
2.0
 40
2.0
 40
2.0
 40
3.0
 40
3.0
 40
3.0
 40
4.0
 40
4.0
 40
4.0
 40
5.0
 40
5.0
 40
5.0
 40
6.0
 40
6.0
 40
6.0
 40
7.0
 40
7.0
 40
7.0
 40
8.0
 40
8.0
 40
8.0
 40
9.0
 40
9.0
 40
9.0
 40
10.0
 40
10.0
 40
10.0
 40
11.0
 40
11.0
 40
11.0
 40
12.0
 40
12.0
 40
12.0
 40
13.0
 40
13.0
 40
13.0
 40
14.0
 40
14.0
 40
14.0
 40
15.0
 40
15.0
 40
15.0
 40
16.0
 40
16.0
 40
16.0
 40
17.0
 40
17.0
 40
17.0
 40
18.0
 40
18.0
 40
18.0
 40
19.0
 40
19.0
 40
19.0
 40
20.0
 40
20.0
 40
20.0
 40
20.0
 10
442.9128459345047
 20
429.4558005480358
 30
0.0
 10
442.9128459345047
 20
429.4558005480358
 30
0.0
 10
446.835516408697
 20
419.9044488962008
 30
0.0
 10
446.835516408697
 20
419.9044488962008
 30
0.0
 10
447.1223879675581
 20
419.1685227863391
 30
0.0
 10
447.6743394689838
 20
418.6373479360273
 30
0.0
 10
448.402000089498
 20
418.4081443677842
 30
0.0
 10
448.402000089498
 20
418.4081443677842
 30
0.0
 10
456.2120717731123
 20
416.7294786456114
 30
0.0
 10
456.2120717731123
 20
416.7294786456114
 30
0.0
 10
456.8899754879203
 20
416.6301963801889
 30
0.0
 10
457.4436402291431
 20
416.9246552059712
 30
0.0
 10
457.7696310448118
 20
417.5503986236454
 30
0.0
 10
457.7696310448118
 20
417.5503986236454
 30
0.0
 10
458.2903881647126
 20
418.5979443662927
 30
0.0
 10
458.2903881647126
 20
418.5979443662927
 30
0.0
 10
458.2903881647126
 20
418.5979443662927
 30
0.0
 10
460.0387156053694
 20
419.3040416056092
 30
0.0
 10
460.0387156053694
 20
419.3040416056092
 30
0.0
 10
460.0387156053694
 20
419.3040416056092
 30
0.0
 10
460.0467118759243
 20
419.3073559245586
 30
0.0
 10
460.0467118759243
 20
419.3073559245586
 30
0.0
 10
460.3029495100527
 20
419.4182014805374
 30
0.0
 10
460.5104955681218
 20
419.6141145562224
 30
0.0
 10
460.6383645017304
 20
419.8691698122711
 30
0.0
 10
460.6383645017304
 20
419.8691698122711
 30
0.0
 10
464.53176291407
 20
427.7055455365535
 30
0.0
 10
464.53176291407
 20
427.7055455365535
 30
0.0
 10
464.6899748386222
 20
428.0409546142464
 30
0.0
 10
464.7036827310039
 20
428.4108406886626
 30
0.0
 10
464.5706019424797
 20
428.7576576741994
 30
0.0
 10
464.5706019424797
 20
428.7576576741994
 30
0.0
 10
460.6768465537752
 20
438.3003184452336
 30
0.0
 10
460.6768465537752
 20
438.3003184452336
 30
0.0
 10
460.5249888085018
 20
438.6535595321247
 30
0.0
 10
460.2426975839408
 20
438.9000628720351
 30
0.0
 10
459.8804322855431
 20
438.9931584087508
 30
0.0
 10
459.8804322855431
 20
438.9931584087508
 30
0.0
 10
452.0627213077369
 20
440.7283232469463
 30
0.0
 10
452.0627213077369
 20
440.7283232469463
 30
0.0
 10
452.0627213077369
 20
440.7283232469463
 30
0.0
 10
452.0560815473655
 20
440.7297962776283
 30
0.0
 10
452.0560815473655
 20
440.7297962776283
 30
0.0
 10
451.8448229351106
 20
440.773684199974
 30
0.0
 10
451.6268531672104
 20
440.7536509832116
 30
0.0
 10
451.4268090742225
 20
440.6707930094744
 30
0.0
 10
451.4268090742225
 20
440.6707930094744
 30
0.0
 10
450.000968619428
 20
440.0746575077501
 30
0.0
 10
450.000968619428
 20
440.0746575077501
 30
0.0
 10
450.000968619428
 20
440.0746575077501
 30
0.0
 10
448.402000089498
 20
440.4289950292214
 30
0.0
 10
448.402000089498
 20
440.4289950292214
 30
0.0
 10
447.7223170923135
 20
440.5342430687524
 30
0.0
 10
447.165362569096
 20
440.2429596374086
 30
0.0
 10
446.835516408697
 20
439.6166186289247
 30
0.0
 10
446.835516408697
 20
439.6166186289247
 30
0.0
 10
442.9128459345047
 20
431.7776651010163
 30
0.0
 10
442.9128459345047
 20
431.7776651010163
 30
0.0
 10
442.5965648759411
 20
431.0284817153561
 30
0.0
 10
442.598135571945
 20
430.2113179654652
 30
0.0
 10
442.9128459345047
 20
429.4558005480358
 30
0.0
  0
HATCH
  5
29A
330
295
100
AcDbEntity
  8
Connectors
 62
   250
420
  2301728
100
AcDbHatch
 10
0.0
 20
0.0
 30
0.0
210
0.0
220
0.0
230
1.0
  2
SOLID
 70
     1
 71
     0
 91
        1
 92
        1
 93
        1
 72
     4
 94
        3
 73
     0
 74
     1
 95
       65
 96
       61
 40
0.0
 40
0.0
 40
0.0
 40
0.0
 40
1.0
 40
1.0
 40
1.0
 40
2.0
 40
2.0
 40
2.0
 40
3.0
 40
3.0
 40
3.0
 40
4.0
 40
4.0
 40
4.0
 40
5.0
 40
5.0
 40
5.0
 40
6.0
 40
6.0
 40
6.0
 40
7.0
 40
7.0
 40
7.0
 40
8.0
 40
8.0
 40
8.0
 40
9.0
 40
9.0
 40
9.0
 40
10.0
 40
10.0
 40
10.0
 40
11.0
 40
11.0
 40
11.0
 40
12.0
 40
12.0
 40
12.0
 40
13.0
 40
13.0
 40
13.0
 40
14.0
 40
14.0
 40
14.0
 40
15.0
 40
15.0
 40
15.0
 40
16.0
 40
16.0
 40
16.0
 40
17.0
 40
17.0
 40
17.0
 40
18.0
 40
18.0
 40
18.0
 40
19.0
 40
19.0
 40
19.0
 40
20.0
 40
20.0
 40
20.0
 40
20.0
 10
442.9128459345047
 20
429.4558005480358
 10
442.9128459345047
 20
429.4558005480358
 10
446.835516408697
 20
419.9044488962008
 10
446.835516408697
 20
419.9044488962008
 10
447.1223879675581
 20
419.1685227863391
 10
447.6743394689838
 20
418.6373479360273
 10
448.402000089498
 20
418.4081443677842
 10
448.402000089498
 20
418.4081443677842
 10
456.2120717731123
 20
416.7294786456114
 10
456.2120717731123
 20
416.7294786456114
 10
456.8899754879203
 20
416.6301963801889
 10
457.4436402291431
 20
416.9246552059712
 10
457.7696310448118
 20
417.5503986236454
 10
457.7696310448118
 20
417.5503986236454
 10
458.2903881647126
 20
418.5979443662927
 10
458.2903881647126
 20
418.5979443662927
 10
458.2903881647126
 20
418.5979443662927
 10
460.0387156053694
 20
419.3040416056092
 10
460.0387156053694
 20
419.3040416056092
 10
460.0387156053694
 20
419.3040416056092
 10
460.0467118759243
 20
419.3073559245586
 10
460.0467118759243
 20
419.3073559245586
 10
460.3029495100527
 20
419.4182014805374
 10
460.5104955681218
 20
419.6141145562224
 10
460.6383645017304
 20
419.8691698122711
 10
460.6383645017304
 20
419.8691698122711
 10
464.53176291407
 20
427.7055455365535
 10
464.53176291407
 20
427.7055455365535
 10
464.6899748386222
 20
428.0409546142464
 10
464.7036827310039
 20
428.4108406886626
 10
464.5706019424797
 20
428.7576576741994
 10
464.5706019424797
 20
428.7576576741994
 10
460.6768465537752
 20
438.3003184452336
 10
460.6768465537752
 20
438.3003184452336
 10
460.5249888085018
 20
438.6535595321247
 10
460.2426975839408
 20
438.9000628720351
 10
459.8804322855431
 20
438.9931584087508
 10
459.8804322855431
 20
438.9931584087508
 10
452.0627213077369
 20
440.7283232469463
 10
452.0627213077369
 20
440.7283232469463
 10
452.0627213077369
 20
440.7283232469463
 10
452.0560815473655
 20
440.7297962776283
 10
452.0560815473655
 20
440.7297962776283
 10
451.8448229351106
 20
440.773684199974
 10
451.6268531672104
 20
440.7536509832116
 10
451.4268090742225
 20
440.6707930094744
 10
451.4268090742225
 20
440.6707930094744
 10
450.000968619428
 20
440.0746575077501
 10
450.000968619428
 20
440.0746575077501
 10
450.000968619428
 20
440.0746575077501
 10
448.402000089498
 20
440.4289950292214
 10
448.402000089498
 20
440.4289950292214
 10
447.7223170923135
 20
440.5342430687524
 10
447.165362569096
 20
440.2429596374086
 10
446.835516408697
 20
439.6166186289247
 10
446.835516408697
 20
439.6166186289247
 10
442.9128459345047
 20
431.7776651010163
 10
442.9128459345047
 20
431.7776651010163
 10
442.5965648759411
 20
431.0284817153561
 10
442.598135571945
 20
430.2113179654652
 10
442.9128459345047
 20
429.4558005480358
 97
        0
 97
        0
 75
     2
 76
     1
 98
        0
  0
SPLINE
  5
29B
330
295
100
AcDbEntity
  8
Connectors
 62
     7
420
 16776959
370
     5
100
AcDbSpline
210
0.0
220
0.0
230
1.0
 70
     8
 71
     3
 72
     8
 73
     4
 74
     0
 42
0.0000000001
 43
0.0000000001
 12
1.0
 22
0.0
 32
0.0
 13
1.0
 23
0.0
 33
0.0
 40
0.0
 40
0.0
 40
0.0
 40
0.0
 40
1.0
 40
1.0
 40
1.0
 40
1.0
 10
454.903110841351
 20
429.9248135051612
 30
0.0
 10
455.163703587119
 20
430.2951334091222
 30
0.0
 10
455.0562537015339
 20
430.9792824918386
 30
0.0
 10
454.903110841351
 20
431.3655111267581
 30
0.0
  0
SPLINE
  5
29C
330
295
100
AcDbEntity
  8
Connectors
 62
     7
420
 16776959
370
     5
100
AcDbSpline
210
0.0
220
0.0
230
1.0
 70
     8
 71
     3
 72
    11
 73
     7
 74
     0
 42
0.0000000001
 43
0.0000000001
 12
1.0
 22
0.0
 32
0.0
 13
1.0
 23
0.0
 33
0.0
 40
0.0
 40
0.0
 40
0.0
 40
0.0
 40
1.0
 40
1.0
 40
1.0
 40
2.0
 40
2.0
 40
2.0
 40
2.0
 10
455.2233900351894
 20
429.1421186723455
 30
0.0
 10
455.6549030640745
 20
429.1527981445161
 30
0.0
 10
456.0444356725457
 20
428.5650589174656
 30
0.0
 10
456.1941515596372
 20
428.209772000645
 30
0.0
 10
456.2248515269457
 20
428.1378800306375
 30
0.0
 10
456.2654040419038
 20
428.0732139853544
 30
0.0
 10
456.3157377092357
 20
428.0156921386961
 30
0.0
  0
SPLINE
  5
29D
330
295
100
AcDbEntity
  8
Connectors
 62
     7
420
 16776959
370
     5
100
AcDbSpline
210
0.0
220
0.0
230
1.0
 70
     8
 71
     3
 72
    41
 73
    37
 74
     0
 42
0.0000000001
 43
0.0000000001
 12
1.0
 22
0.0
 32
0.0
 13
1.0
 23
0.0
 33
0.0
 40
0.0
 40
0.0
 40
0.0
 40
0.0
 40
1.0
 40
1.0
 40
1.0
 40
2.0
 40
2.0
 40
2.0
 40
3.0
 40
3.0
 40
3.0
 40
4.0
 40
4.0
 40
4.0
 40
5.0
 40
5.0
 40
5.0
 40
6.0
 40
6.0
 40
6.0
 40
7.0
 40
7.0
 40
7.0
 40
8.0
 40
8.0
 40
8.0
 40
9.0
 40
9.0
 40
9.0
 40
10.0
 40
10.0
 40
10.0
 40
11.0
 40
11.0
 40
11.0
 40
12.0
 40
12.0
 40
12.0
 40
12.0
 10
456.7482502719413
 20
427.8786266372508
 30
0.0
 10
456.8065802098299
 20
427.9259109209306
 30
0.0
 10
456.8352097142269
 20
427.9896931478252
 30
0.0
 10
456.8340673898638
 20
428.0700469694684
 30
0.0
 10
456.8431345895096
 20
428.6069666392941
 30
0.0
 10
457.3954540322084
 20
428.7267240306701
 30
0.0
 10
457.8039007757616
 20
428.5778742840703
 30
0.0
 10
457.9540450344884
 20
428.5232248471693
 30
0.0
 10
458.1543858013902
 20
428.559976961742
 30
0.0
 10
458.2336345562144
 20
428.7191379228534
 30
0.0
 10
458.3145911621978
 20
428.8817605059758
 30
0.0
 10
458.2411968217439
 20
429.100219047581
 30
0.0
 10
458.1236088074202
 20
429.219968341893
 30
0.0
 10
457.7325768982209
 20
429.6183494796287
 30
0.0
 10
457.6968792618136
 20
430.273700813249
 30
0.0
 10
458.1236088074202
 20
430.6592665843773
 30
0.0
 10
458.2611161028599
 20
430.7835167192197
 30
0.0
 10
458.3037390807294
 20
431.0135304543173
 30
0.0
 10
458.2336345562144
 20
431.1849912213074
 30
0.0
 10
458.1653036467433
 20
431.3521801994284
 30
0.0
 10
457.9816750050668
 20
431.4733369699161
 30
0.0
 10
457.8039007757616
 20
431.4414458564688
 30
0.0
 10
457.23923556308
 20
431.3401013481453
 30
0.0
 10
456.8412069171445
 20
431.8284110067098
 30
0.0
 10
456.8340673898638
 20
432.3742425119326
 30
0.0
 10
456.8319969269523
 20
432.5339190337672
 30
0.0
 10
456.7429012222092
 20
432.7456671888767
 30
0.0
 10
456.5721895291827
 20
432.7831558187727
 30
0.0
 10
456.4019831987953
 20
432.8205707971374
 30
0.0
 10
456.2511249873423
 20
432.65986315385
 30
0.0
 10
456.1941515596372
 20
432.5149169384576
 30
0.0
 10
456.0512896187356
 20
432.1517412331195
 30
0.0
 10
455.6158498498462
 20
431.6600436040753
 30
0.0
 10
455.2233900351894
 20
432.0078997907112
 30
0.0
 10
455.1764888971102
 20
432.0509122855219
 30
0.0
 10
455.1245075823426
 20
432.0672629256733
 30
0.0
 10
455.0673913640931
 20
432.0570990142278
 30
0.0
  0
POLYLINE
  5
29E
330
295
100
AcDbEntity
  8
Connectors
 62
     7
420
 16776959
370
     5
100
AcDb2dPolyline
 66
     1
 10
0.0
 20
0.0
 30
0.0
  0
VERTEX
  5
29F
330
29E
100
AcDbEntity
  8
Connectors
 62
     7
420
 16776959
370
     5
100
AcDbVertex
100
AcDb2dVertex
 10
458.1236088074202
 20
429.219968341893
 30
0.0
  0
VERTEX
  5
2A0
330
29E
100
AcDbEntity
  8
Connectors
 62
     7
420
 16776959
370
     5
100
AcDbVertex
100
AcDb2dVertex
 10
456.9188849739658
 20
428.7260692544924
 30
0.0
  0
SEQEND
  5
2A1
330
29E
100
AcDbEntity
  8
Connectors
 62
     7
420
 16776959
370
     5
  0
POLYLINE
  5
2A2
330
295
100
AcDbEntity
  8
Connectors
 62
     7
420
 16776959
370
     5
100
AcDb2dPolyline
 66
     1
 10
0.0
 20
0.0
 30
0.0
  0
VERTEX
  5
2A3
330
2A2
100
AcDbEntity
  8
Connectors
 62
     7
420
 16776959
370
     5
100
AcDbVertex
100
AcDb2dVertex
 10
458.1236088074202
 20
430.6592665843773
 30
0.0
  0
VERTEX
  5
2A4
330
2A2
100
AcDbEntity
  8
Connectors
 62
     7
420
 16776959
370
     5
100
AcDbVertex
100
AcDb2dVertex
 10
456.9188849739658
 20
430.1644019394462
 30
0.0
  0
SEQEND
  5
2A5
330
2A2
100
AcDbEntity
  8
Connectors
 62
     7
420
 16776959
370
     5
  0
POLYLINE
  5
2A6
330
295
100
AcDbEntity
  8
Connectors
 62
     7
420
 16776959
370
     5
100
AcDb2dPolyline
 66
     1
 10
0.0
 20
0.0
 30
0.0
  0
VERTEX
  5
2A7
330
2A6
100
AcDbEntity
  8
Connectors
 62
     7
420
 16776959
370
     5
100
AcDbVertex
100
AcDb2dVertex
 10
457.8039007757616
 20
431.4414458564688
 30
0.0
  0
VERTEX
  5
2A8
330
2A6
100
AcDbEntity
  8
Connectors
 62
     7
420
 16776959
370
     5
100
AcDbVertex
100
AcDb2dVertex
 10
456.5993197328535
 20
430.9459919992796
 30
0.0
  0
SEQEND
  5
2A9
330
2A6
100
AcDbEntity
  8
Connectors
 62
     7
420
 16776959
370
     5
  0
SPLINE
  5
2AA
330
295
100
AcDbEntity
  8
Connectors
 62
     7
420
 16776959
370
     5
100
AcDbSpline
210
0.0
220
0.0
230
1.0
 70
     8
 71
     3
 72
    20
 73
    16
 74
     0
 42
0.0000000001
 43
0.0000000001
 12
1.0
 22
0.0
 32
0.0
 13
1.0
 23
0.0
 33
0.0
 40
0.0
 40
0.0
 40
0.0
 40
0.0
 40
1.0
 40
1.0
 40
1.0
 40
2.0
 40
2.0
 40
2.0
 40
3.0
 40
3.0
 40
3.0
 40
4.0
 40
4.0
 40
4.0
 40
5.0
 40
5.0
 40
5.0
 40
5.0
 10
455.6297719280446
 20
431.878052139421
 30
0.0
 10
455.6370542458717
 20
431.3297164821033
 30
0.0
 10
456.0395093987208
 20
430.8454576578097
 30
0.0
 10
456.5993197328535
 20
430.9459919992796
 30
0.0
 10
456.7769511716124
 20
430.9778831127269
 30
0.0
 10
456.9605084180148
 20
430.8568081352096
 30
0.0
 10
457.0288336940976
 20
430.6897583187138
 30
0.0
 10
457.0988724567287
 20
430.5183712032567
 30
0.0
 10
457.0563264777775
 20
430.2885784227565
 30
0.0
 10
456.9188849739658
 20
430.1644019394462
 30
0.0
 10
456.4900849654477
 20
429.7769212284802
 30
0.0
 10
456.5295665513149
 20
429.1226010163091
 30
0.0
 10
456.9188849739658
 20
428.7260692544924
 30
0.0
 10
456.9717888711202
 20
428.6721482453013
 30
0.0
 10
457.011056271167
 20
428.6103546097756
 30
0.0
 10
457.036687174108
 20
428.5407539118351
 30
0.0
  0
POLYLINE
  5
2AB
330
295
100
AcDbEntity
  8
Connectors
 62
     7
420
 16776959
370
     5
100
AcDb2dPolyline
 66
     1
 10
0.0
 20
0.0
 30
0.0
  0
VERTEX
  5
2AC
330
2AB
100
AcDbEntity
  8
Connectors
 62
     7
420
 16776959
370
     5
100
AcDbVertex
100
AcDb2dVertex
 10
457.1644847124444
 20
428.5931201512376
 30
0.0
  0
VERTEX
  5
2AD
330
2AB
100
AcDbEntity
  8
Connectors
 62
     7
420
 16776959
370
     5
100
AcDbVertex
100
AcDb2dVertex
 10
456.1994348098233
 20
428.1976114232602
 30
0.0
  0
SEQEND
  5
2AE
330
2AB
100
AcDbEntity
  8
Connectors
 62
     7
420
 16776959
370
     5
  0
POLYLINE
  5
2AF
330
295
100
AcDbEntity
  8
Connectors
 62
     7
420
 16776959
370
     5
100
AcDb2dPolyline
 66
     1
 10
0.0
 20
0.0
 30
0.0
  0
VERTEX
  5
2B0
330
2AF
100
AcDbEntity
  8
Connectors
 62
     7
420
 16776959
370
     5
100
AcDbVertex
100
AcDb2dVertex
 10
455.6902437241188
 20
431.9209173311683
 30
0.0
  0
VERTEX
  5
2B1
330
2AF
100
AcDbEntity
  8
Connectors
 62
     7
420
 16776959
370
     5
100
AcDbVertex
100
AcDb2dVertex
 10
454.8680613107645
 20
431.5821202829929
 30
0.0
  0
SEQEND
  5
2B2
330
2AF
100
AcDbEntity
  8
Connectors
 62
     7
420
 16776959
370
     5
  0
SPLINE
  5
2B3
330
295
100
AcDbEntity
  8
Connectors
 62
     7
420
 16776959
370
     5
100
AcDbSpline
210
0.0
220
0.0
230
1.0
 70
     8
 71
     3
 72
     8
 73
     4
 74
     0
 42
0.0000000001
 43
0.0000000001
 12
1.0
 22
0.0
 32
0.0
 13
1.0
 23
0.0
 33
0.0
 40
0.0
 40
0.0
 40
0.0
 40
0.0
 40
1.0
 40
1.0
 40
1.0
 40
1.0
 10
448.402000089498
 20
440.4289950292214
 30
0.0
 10
448.3800817407446
 20
440.0844531615348
 30
0.0
 10
448.5007397518002
 20
439.7758532415664
 30
0.0
 10
448.7489097200996
 20
439.5574764485582
 30
0.0
  0
SPLINE
  5
2B4
330
295
100
AcDbEntity
  8
Connectors
 62
     7
420
 16776959
370
     5
100
AcDbSpline
210
0.0
220
0.0
230
1.0
 70
     8
 71
     3
 72
     8
 73
     4
 74
     0
 42
0.0000000001
 43
0.0000000001
 12
1.0
 22
0.0
 32
0.0
 13
1.0
 23
0.0
 33
0.0
 40
0.0
 40
0.0
 40
0.0
 40
0.0
 40
1.0
 40
1.0
 40
1.0
 40
1.0
 10
457.4133686334717
 20
418.2437541478866
 30
0.0
 10
457.395948186906
 20
417.9879623765146
 30
0.0
 10
457.579653840723
 20
417.7140523282196
 30
0.0
 10
457.7622059364403
 20
417.557550627741
 30
0.0
  0
SPLINE
  5
2B5
330
295
100
AcDbEntity
  8
Connectors
 62
     7
420
 16776959
370
     5
100
AcDbSpline
210
0.0
220
0.0
230
1.0
 70
     8
 71
     3
 72
    23
 73
    19
 74
     0
 42
0.0000000001
 43
0.0000000001
 12
1.0
 22
0.0
 32
0.0
 13
1.0
 23
0.0
 33
0.0
 40
0.0
 40
0.0
 40
0.0
 40
0.0
 40
1.0
 40
1.0
 40
1.0
 40
2.0
 40
2.0
 40
2.0
 40
3.0
 40
3.0
 40
3.0
 40
4.0
 40
4.0
 40
4.0
 40
5.0
 40
5.0
 40
5.0
 40
6.0
 40
6.0
 40
6.0
 40
6.0
 10
448.402000089498
 20
418.4081443677842
 30
0.0
 10
448.3864359200234
 20
418.9919064120959
 30
0.0
 10
448.621397762854
 20
419.5079090467716
 30
0.0
 10
449.0695458903047
 20
419.8386780779356
 30
0.0
 10
449.0695458903047
 20
419.8386780779356
 30
0.0
 10
451.8306866710936
 20
420.9616429895705
 30
0.0
 10
451.8306866710936
 20
420.9616429895705
 30
0.0
 10
452.2803340992741
 20
421.2931564358969
 30
0.0
 10
452.5162240806494
 20
421.8104768983121
 30
0.0
 10
452.5008740969934
 20
422.3960065793963
 30
0.0
 10
452.0252387895089
 20
422.1481691735025
 30
0.0
 10
451.5399651201969
 20
421.919775772114
 30
0.0
 10
451.0469093661468
 20
421.7117101936165
 30
0.0
 10
451.0469093661468
 20
421.7117101936165
 30
0.0
 10
448.2863397475412
 20
420.5872722513377
 30
0.0
 10
448.2863397475412
 20
420.5872722513377
 30
0.0
 10
447.7942835273097
 20
420.3795749304991
 30
0.0
 10
447.3100807870887
 20
420.1516970898374
 30
0.0
 10
446.835516408697
 20
419.9044488962008
 30
0.0
  0
SPLINE
  5
2B6
330
295
100
AcDbEntity
  8
Connectors
 62
     7
420
 16776959
370
     5
100
AcDbSpline
210
0.0
220
0.0
230
1.0
 70
     8
 71
     3
 72
    17
 73
    13
 74
     0
 42
0.0000000001
 43
0.0000000001
 12
1.0
 22
0.0
 32
0.0
 13
1.0
 23
0.0
 33
0.0
 40
0.0
 40
0.0
 40
0.0
 40
0.0
 40
1.0
 40
1.0
 40
1.0
 40
2.0
 40
2.0
 40
2.0
 40
3.0
 40
3.0
 40
3.0
 40
4.0
 40
4.0
 40
4.0
 40
4.0
 10
456.2120717731123
 20
416.7294786456114
 30
0.0
 10
456.1968645800007
 20
417.3125778261319
 30
0.0
 10
456.4323317776252
 20
417.8271152424459
 30
0.0
 10
456.8810454793747
 20
418.1559615214901
 30
0.0
 10
456.8810454793747
 20
418.1559615214901
 30
0.0
 10
459.6478978819887
 20
419.2736313716287
 30
0.0
 10
459.6478978819887
 20
419.2736313716287
 30
0.0
 10
460.098187867623
 20
419.6032141294536
 30
0.0
 10
460.3345062206354
 20
420.1191509827822
 30
0.0
 10
460.3195132133442
 20
420.7038626268286
 30
0.0
 10
460.5771787529284
 20
420.4918935171245
 30
0.0
 10
460.6947667672521
 20
420.1992023281127
 30
0.0
 10
460.6416486842791
 20
419.8759457532342
 30
0.0
  0
SPLINE
  5
2B7
330
295
100
AcDbEntity
  8
Connectors
 62
     7
420
 16776959
370
     5
100
AcDbSpline
210
0.0
220
0.0
230
1.0
 70
     8
 71
     3
 72
    23
 73
    19
 74
     0
 42
0.0000000001
 43
0.0000000001
 12
1.0
 22
0.0
 32
0.0
 13
1.0
 23
0.0
 33
0.0
 40
0.0
 40
0.0
 40
0.0
 40
0.0
 40
1.0
 40
1.0
 40
1.0
 40
2.0
 40
2.0
 40
2.0
 40
3.0
 40
3.0
 40
3.0
 40
4.0
 40
4.0
 40
4.0
 40
5.0
 40
5.0
 40
5.0
 40
6.0
 40
6.0
 40
6.0
 40
6.0
 10
442.9128459345047
 20
431.7776651010163
 30
0.0
 10
443.3123024858978
 20
431.3820827215059
 30
0.0
 10
443.83056077125
 20
431.2080441508888
 30
0.0
 10
444.3648115977121
 20
431.30194985446
 30
0.0
 10
444.3648115977121
 20
431.30194985446
 30
0.0
 10
447.1224540101357
 20
432.4447352098132
 30
0.0
 10
447.1224540101357
 20
432.4447352098132
 30
0.0
 10
447.6579185562368
 20
432.5391482925552
 30
0.0
 10
448.17724777068
 20
432.3648887673417
 30
0.0
 10
448.5775610653454
 20
431.9682752663803
 30
0.0
 10
448.1007834334996
 20
431.7213953304063
 30
0.0
 10
447.6152241830932
 20
431.4923390652266
 30
0.0
 10
447.1224540101357
 20
431.2817774868081
 30
0.0
 10
447.1224540101357
 20
431.2817774868081
 30
0.0
 10
444.3648115977121
 20
430.1408334491389
 30
0.0
 10
444.3648115977121
 20
430.1408334491389
 30
0.0
 10
443.8730409585733
 20
429.9307792792706
 30
0.0
 10
443.3885526372615
 20
429.7021649232847
 30
0.0
 10
442.9128459345047
 20
429.4558005480358
 30
0.0
  0
SPLINE
  5
2B8
330
295
100
AcDbEntity
  8
Connectors
 62
     7
420
 16776959
370
     5
100
AcDbSpline
210
0.0
220
0.0
230
1.0
 70
     8
 71
     3
 72
    11
 73
     7
 74
     0
 42
0.0000000001
 43
0.0000000001
 12
1.0
 22
0.0
 32
0.0
 13
1.0
 23
0.0
 33
0.0
 40
0.0
 40
0.0
 40
0.0
 40
0.0
 40
1.0
 40
1.0
 40
1.0
 40
2.0
 40
2.0
 40
2.0
 40
2.0
 10
464.53176291407
 20
427.7055455365535
 30
0.0
 10
464.6681278851429
 20
427.9877045564554
 30
0.0
 10
464.4261693055778
 20
428.3682620233949
 30
0.0
 10
464.2149106933211
 20
428.5427425032049
 30
0.0
 10
464.3369252145603
 20
428.6068193362298
 30
0.0
 10
464.4563695059769
 20
428.6719272907048
 30
0.0
 10
464.5686742701128
 20
428.751847291418
 30
0.0
  0
SPLINE
  5
2B9
330
295
100
AcDbEntity
  8
Connectors
 62
     7
420
 16776959
370
     5
100
AcDbSpline
210
0.0
220
0.0
230
1.0
 70
     8
 71
     3
 72
    14
 73
    10
 74
     0
 42
0.0000000001
 43
0.0000000001
 12
1.0
 22
0.0
 32
0.0
 13
1.0
 23
0.0
 33
0.0
 40
0.0
 40
0.0
 40
0.0
 40
0.0
 40
1.0
 40
1.0
 40
1.0
 40
2.0
 40
2.0
 40
2.0
 40
3.0
 40
3.0
 40
3.0
 40
3.0
 10
460.6768465537752
 20
438.3003184452336
 30
0.0
 10
460.626298700623
 20
438.2128940764978
 30
0.0
 10
460.4136835781865
 20
438.1327612094519
 30
0.0
 10
460.3266527406267
 20
438.0919582606066
 30
0.0
 10
460.3266527406267
 20
438.0919582606066
 30
0.0
 10
460.3195132133442
 20
438.0882020324634
 30
0.0
 10
460.3195132133442
 20
438.0882020324634
 30
0.0
 10
460.3480713224708
 20
438.4759773495598
 30
0.0
 10
460.1990693881089
 20
438.7993075759687
 30
0.0
 10
459.8884999513684
 20
438.9913171204453
 30
0.0
  0
SPLINE
  5
2BA
330
295
100
AcDbEntity
  8
Connectors
 62
     7
420
 16776959
370
     5
100
AcDbSpline
210
0.0
220
0.0
230
1.0
 70
     8
 71
     3
 72
    17
 73
    13
 74
     0
 42
0.0000000001
 43
0.0000000001
 12
1.0
 22
0.0
 32
0.0
 13
1.0
 23
0.0
 33
0.0
 40
0.0
 40
0.0
 40
0.0
 40
0.0
 40
1.0
 40
1.0
 40
1.0
 40
2.0
 40
2.0
 40
2.0
 40
3.0
 40
3.0
 40
3.0
 40
4.0
 40
4.0
 40
4.0
 40
4.0
 10
446.835516408697
 20
439.6166186289247
 30
0.0
 10
447.2344785487076
 20
439.2204470371571
 30
0.0
 10
447.7523745021681
 20
439.0469976787981
 30
0.0
 10
448.2863397475412
 20
439.1426057183653
 30
0.0
 10
448.2863397475412
 20
439.1426057183653
 30
0.0
 10
451.0469093661468
 20
440.2964222712408
 30
0.0
 10
451.0469093661468
 20
440.2964222712408
 30
0.0
 10
451.5820883311571
 20
440.3926848238416
 30
0.0
 10
452.1010605692391
 20
440.2188672078209
 30
0.0
 10
452.5008740969934
 20
439.8216728625139
 30
0.0
 10
452.5240061653858
 20
440.1320320513432
 30
0.0
 10
452.4029911779671
 20
440.6485502467458
 30
0.0
 10
452.0627213077369
 20
440.7283232469463
 30
0.0
  0
POLYLINE
  5
2BB
330
295
100
AcDbEntity
  8
Connectors
 62
     7
420
 16776959
370
     5
100
AcDb2dPolyline
 66
     1
 10
0.0
 20
0.0
 30
0.0
  0
VERTEX
  5
2BC
330
2BB
100
AcDbEntity
  8
Connectors
 62
     7
420
 16776959
370
     5
100
AcDbVertex
100
AcDb2dVertex
 10
460.3195132133442
 20
438.0882020324634
 30
0.0
  0
VERTEX
  5
2BD
330
2BB
100
AcDbEntity
  8
Connectors
 62
     7
420
 16776959
370
     5
100
AcDbVertex
100
AcDb2dVertex
 10
452.5008740969934
 20
439.8216728625139
 30
0.0
  0
VERTEX
  5
2BE
330
2BB
100
AcDbEntity
  8
Connectors
 62
     7
420
 16776959
370
     5
100
AcDbVertex
100
AcDb2dVertex
 10
448.5775610653454
 20
431.9682752663803
 30
0.0
  0
VERTEX
  5
2BF
330
2BB
100
AcDbEntity
  8
Connectors
 62
     7
420
 16776959
370
     5
100
AcDbVertex
100
AcDb2dVertex
 10
452.5008740969934
 20
422.3960065793963
 30
0.0
  0
VERTEX
  5
2C0
330
2BB
100
AcDbEntity
  8
Connectors
 62
     7
420
 16776959
370
     5
100
AcDbVertex
100
AcDb2dVertex
 10
460.3195132133442
 20
420.7038626268286
 30
0.0
  0
VERTEX
  5
2C1
330
2BB
100
AcDbEntity
  8
Connectors
 62
     7
420
 16776959
370
     5
100
AcDbVertex
100
AcDb2dVertex
 10
464.2149106933211
 20
428.5427425032049
 30
0.0
  0
VERTEX
  5
2C2
330
2BB
100
AcDbEntity
  8
Connectors
 62
     7
420
 16776959
370
     5
100
AcDbVertex
100
AcDb2dVertex
 10
460.3195132133442
 20
438.0882020324634
 30
0.0
  0
SEQEND
  5
2C3
330
2BB
100
AcDbEntity
  8
Connectors
 62
     7
420
 16776959
370
     5
  0
SPLINE
  5
2C4
330
295
100
AcDbEntity
  8
Connectors
 62
     7
420
 16776959
370
     5
100
AcDbSpline
210
0.0
220
0.0
230
1.0
 70
     8
 71
     3
 72
    29
 73
    25
 74
     0
 42
0.0000000001
 43
0.0000000001
 12
1.0
 22
0.0
 32
0.0
 13
1.0
 23
0.0
 33
0.0
 40
0.0
 40
0.0
 40
0.0
 40
0.0
 40
1.0
 40
1.0
 40
1.0
 40
2.0
 40
2.0
 40
2.0
 40
3.0
 40
3.0
 40
3.0
 40
4.0
 40
4.0
 40
4.0
 40
5.0
 40
5.0
 40
5.0
 40
6.0
 40
6.0
 40
6.0
 40
7.0
 40
7.0
 40
7.0
 40
8.0
 40
8.0
 40
8.0
 40
8.0
 10
451.4218114049982
 20
440.6686655043468
 30
0.0
 10
451.2567400729458
 20
440.5918385669429
 30
0.0
 10
451.1302990447912
 20
440.4619909156527
 30
0.0
 10
451.0469093661468
 20
440.2964222712408
 30
0.0
 10
451.0469093661468
 20
440.2964222712408
 30
0.0
 10
447.1224540101357
 20
432.4447352098132
 30
0.0
 10
447.1224540101357
 20
432.4447352098132
 30
0.0
 10
446.9641706903058
 20
432.0694724716395
 30
0.0
 10
446.9649560383077
 20
431.6601909071378
 30
0.0
 10
447.1224540101357
 20
431.2817774868081
 30
0.0
 10
447.1224540101357
 20
431.2817774868081
 30
0.0
 10
451.0469093661468
 20
421.7117101936165
 30
0.0
 10
451.0469093661468
 20
421.7117101936165
 30
0.0
 10
451.1899140975929
 20
421.3442626994101
 30
0.0
 10
451.4672847324728
 20
421.076539379821
 30
0.0
 10
451.8306866710936
 20
420.9616429895705
 30
0.0
 10
451.8306866710936
 20
420.9616429895705
 30
0.0
 10
459.6478978819887
 20
419.2736313716287
 30
0.0
 10
459.6478978819887
 20
419.2736313716287
 30
0.0
 10
459.6478978819887
 20
419.2736313716287
 30
0.0
 10
459.656393919453
 20
419.2718558860324
 30
0.0
 10
459.656393919453
 20
419.2718558860324
 30
0.0
 10
459.7842628530634
 20
419.2453413344374
 30
0.0
 10
459.9169152699506
 20
419.2557998520115
 30
0.0
 10
460.0387156053694
 20
419.3040416056092
 30
0.0
  0
SPLINE
  5
2C5
330
295
100
AcDbEntity
  8
Connectors
 62
     7
420
 16776959
370
     5
100
AcDbSpline
210
0.0
220
0.0
230
1.0
 70
     8
 71
     3
 72
    38
 73
    34
 74
     0
 42
0.0000000001
 43
0.0000000001
 12
1.0
 22
0.0
 32
0.0
 13
1.0
 23
0.0
 33
0.0
 40
0.0
 40
0.0
 40
0.0
 40
0.0
 40
1.0
 40
1.0
 40
1.0
 40
2.0
 40
2.0
 40
2.0
 40
3.0
 40
3.0
 40
3.0
 40
4.0
 40
4.0
 40
4.0
 40
5.0
 40
5.0
 40
5.0
 40
6.0
 40
6.0
 40
6.0
 40
7.0
 40
7.0
 40
7.0
 40
8.0
 40
8.0
 40
8.0
 40
9.0
 40
9.0
 40
9.0
 40
10.0
 40
10.0
 40
10.0
 40
11.0
 40
11.0
 40
11.0
 40
11.0
 10
450.0463760129387
 20
440.0936596030624
 30
0.0
 10
450.0463760129387
 20
440.0936596030624
 30
0.0
 10
448.6660198083628
 20
439.5165261966486
 30
0.0
 10
448.6660198083628
 20
439.5165261966486
 30
0.0
 10
448.501810680893
 20
439.4470728017732
 30
0.0
 10
448.3693010545503
 20
439.310449209519
 30
0.0
 10
448.2891241631805
 20
439.1481212325252
 30
0.0
 10
448.2891241631805
 20
439.1481212325252
 30
0.0
 10
448.2863397475412
 20
439.1426057183653
 30
0.0
 10
448.2863397475412
 20
439.1426057183653
 30
0.0
 10
448.2863397475412
 20
439.1426057183653
 30
0.0
 10
444.3648115977121
 20
431.30194985446
 30
0.0
 10
444.3648115977121
 20
431.30194985446
 30
0.0
 10
444.2067424637044
 20
430.9272845100968
 30
0.0
 10
444.2075278117045
 20
430.5186658093853
 30
0.0
 10
444.3648115977121
 20
430.1408334491389
 30
0.0
 10
444.3648115977121
 20
430.1408334491389
 30
0.0
 10
448.2863397475412
 20
420.5872722513377
 30
0.0
 10
448.2863397475412
 20
420.5872722513377
 30
0.0
 10
448.4293444789855
 20
420.2204876209216
 30
0.0
 10
448.7067151138654
 20
419.9530589074602
 30
0.0
 10
449.0695458903047
 20
419.8386780779356
 30
0.0
 10
449.0695458903047
 20
419.8386780779356
 30
0.0
 10
456.8810454793747
 20
418.1559615214901
 30
0.0
 10
456.8810454793747
 20
418.1559615214901
 30
0.0
 10
457.0098425515298
 20
418.1290050607004
 30
0.0
 10
457.1402103196888
 20
418.1370330777117
 30
0.0
 10
457.2638669322005
 20
418.1834335430058
 30
0.0
 10
457.2638669322005
 20
418.1834335430058
 30
0.0
 10
457.2715062263906
 20
418.1864532558266
 30
0.0
 10
457.2715062263906
 20
418.1864532558266
 30
0.0
 10
457.2715062263906
 20
418.1864532558266
 30
0.0
 10
458.2903881647126
 20
418.5979443662927
 30
0.0
 10
458.2903881647126
 20
418.5979443662927
 30
0.0
  0
SPLINE
  5
2C6
330
295
100
AcDbEntity
  8
Connectors
 62
     7
420
 16776959
370
    13
100
AcDbSpline
210
0.0
220
0.0
230
1.0
 70
    11
 71
     3
 72
    17
 73
    13
 74
     0
 42
0.0000000001
 43
0.0000000001
 12
1.0
 22
0.0
 32
0.0
 13
1.0
 23
0.0
 33
0.0
 40
0.0
 40
0.0
 40
0.0
 40
0.0
 40
1.0
 40
1.0
 40
1.0
 40
2.0
 40
2.0
 40
2.0
 40
3.0
 40
3.0
 40
3.0
 40
4.0
 40
4.0
 40
4.0
 40
4.0
 10
461.9278345240127
 20
432.3695288138706
 30
0.0
 10
463.3446023177239
 20
428.4092859268367
 30
0.0
 10
462.1285980311659
 20
424.2985729594948
 30
0.0
 10
459.2118155556418
 20
423.1880551568038
 30
0.0
 10
456.2949616848491
 20
422.0775452737689
 30
0.0
 10
452.7818144955145
 20
424.3876913134709
 30
0.0
 10
451.3649753065311
 20
428.3479342005039
 30
0.0
 10
449.9482129369026
 20
432.3081770875378
 30
0.0
 10
451.1642117993797
 20
436.4188900548806
 30
0.0
 10
454.080994274902
 20
437.5294078575716
 30
0.0
 10
456.9978481456965
 20
438.6399256602626
 30
0.0
 10
460.5109953350293
 20
436.3297717009045
 30
0.0
 10
461.9278345240127
 20
432.3695288138706
 30
0.0
  0
SPLINE
  5
2C7
330
295
100
AcDbEntity
  8
Connectors
 62
     7
420
 16776959
370
     5
100
AcDbSpline
210
0.0
220
0.0
230
1.0
 70
    11
 71
     3
 72
    17
 73
    13
 74
     0
 42
0.0000000001
 43
0.0000000001
 12
1.0
 22
0.0
 32
0.0
 13
1.0
 23
0.0
 33
0.0
 40
0.0
 40
0.0
 40
0.0
 40
0.0
 40
1.0
 40
1.0
 40
1.0
 40
2.0
 40
2.0
 40
2.0
 40
3.0
 40
3.0
 40
3.0
 40
4.0
 40
4.0
 40
4.0
 40
4.0
 10
458.3563573967913
 20
431.0097742261751
 30
0.0
 10
458.8324210759129
 20
429.6791201053911
 30
0.0
 10
458.452598224545
 20
428.3088252368998
 30
0.0
 10
457.5078959746752
 20
427.9491848051084
 30
0.0
 10
456.5632651200831
 20
427.5894707217867
 30
0.0
 10
455.4115165790536
 20
428.3766582980679
 30
0.0
 10
454.9354528999338
 20
429.7073205305396
 30
0.0
 10
454.4593892208122
 20
431.0379909090288
 30
0.0
 10
454.8392834674523
 20
432.4082695198149
 30
0.0
 10
455.7839143220499
 20
432.7679836031366
 30
0.0
 10
456.7286221672857
 20
433.127624034928
 30
0.0
 10
457.8802937176715
 20
432.3404364586468
 30
0.0
 10
458.3563573967913
 20
431.0097742261751
 30
0.0
  0
MTEXT
  5
2C8
330
295
100
AcDbEntity
  8
Connectors
 62
     7
420
 16776959
100
AcDbMText
 10
455.0853880834766
 20
434.2581493919715
 30
0.0
 40
1.319195180440944
 41
0.0
 46
0.0
 71
     7
 72
     1
  1
\fHelvetica Neue LT Std 77 Condensed|b1|i0|c0|p34;\W0.808141;WS22
 11
0.9736682486621002
 21
-0.22796960663053
 31
0.0
 73
     1
 44
1.0
  0
MTEXT
  5
2C9
330
295
100
AcDbEntity
  8
Connectors
 62
     7
420
 16776959
100
AcDbMText
 10
455.7890167555306
 20
425.4068820062093
 30
0.0
 40
1.521066522212073
 41
0.0
 46
0.0
 71
     7
 72
     1
  1
\fHelvetica Neue LT Std 77 Condensed|b1|i0|c0|p34;\W0.808141;3.5
 11
0.9736682486621002
 21
-0.22796960663053
 31
0.0
 73
     1
 44
1.0
  0
INSERT
  5
2CB
330
295
100
AcDbEntity
  8
Connectors
100
AcDbBlockReference
  2
block 41
 10
0.0
 20
0.0
 30
0.0
  0
ENDBLK
  5
298
330
295
100
AcDbEntity
  8
0
100
AcDbBlockEnd
  0
BLOCK
  5
2CC
330
2CA
100
AcDbEntity
  8
0
100
AcDbBlockBegin
  2
block 41
 70
     0
 10
0.0
 20
0.0
 30
0.0
  3
block 41
  1

  0
INSERT
  5
2CF
330
2CA
100
AcDbEntity
  8
Connectors
100
AcDbBlockReference
  2
block 42
 10
0.0
 20
0.0
 30
0.0
  0
INSERT
  5
2E3
330
2CA
100
AcDbEntity
  8
Connectors
100
AcDbBlockReference
  2
block 43
 10
0.0
 20
0.0
 30
0.0
  0
ENDBLK
  5
2CD
330
2CA
100
AcDbEntity
  8
0
100
AcDbBlockEnd
  0
BLOCK
  5
2D0
330
2CE
100
AcDbEntity
  8
0
100
AcDbBlockBegin
  2
block 42
 70
     0
 10
0.0
 20
0.0
 30
0.0
  3
block 42
  1

  0
POLYLINE
  5
2D2
330
2CE
100
AcDbEntity
  8
Connectors
370
     0
100
AcDb2dPolyline
 66
     1
 10
0.0
 20
0.0
 30
0.0
  0
VERTEX
  5
2D3
330
2D2
100
AcDbEntity
  8
Connectors
370
     0
100
AcDbVertex
100
AcDb2dVertex
 10
461.4030078735632
 20
429.4254561167654
 30
0.0
  0
VERTEX
  5
2D4
330
2D2
100
AcDbEntity
  8
Connectors
370
     0
100
AcDbVertex
100
AcDb2dVertex
 10
459.5050359410889
 20
429.9030207689711
 30
0.0
  0
VERTEX
  5
2D5
330
2D2
100
AcDbEntity
  8
Connectors
370
     0
100
AcDbVertex
100
AcDb2dVertex
 10
459.5050359410889
 20
430.1966613105551
 30
0.0
  0
VERTEX
  5
2D6
330
2D2
100
AcDbEntity
  8
Connectors
370
     0
100
AcDbVertex
100
AcDb2dVertex
 10
461.4030078735632
 20
429.7191047756933
 30
0.0
  0
VERTEX
  5
2D7
330
2D2
100
AcDbEntity
  8
Connectors
370
     0
100
AcDbVertex
100
AcDb2dVertex
 10
461.4030078735632
 20
429.4254561167654
 30
0.0
  0
SEQEND
  5
2D9
330
2D2
100
AcDbEntity
  8
Connectors
370
     0
  0
HATCH
  5
2D8
330
2CE
100
AcDbEntity
  8
Connectors
 62
     7
420
 16776959
100
AcDbHatch
 10
0.0
 20
0.0
 30
0.0
210
0.0
220
0.0
230
1.0
  2
SOLID
 70
     1
 71
     0
 91
        1
 92
        1
 93
        4
 72
     1
 10
461.4030078735632
 20
429.4254561167654
 11
459.5050359410889
 21
429.9030207689711
 72
     1
 10
459.5050359410889
 20
429.9030207689711
 11
459.5050359410889
 21
430.1966613105551
 72
     1
 10
459.5050359410889
 20
430.1966613105551
 11
461.4030078735632
 21
429.7191047756933
 72
     1
 10
461.4030078735632
 20
429.7191047756933
 11
461.4030078735632
 21
429.4254561167654
 97
        0
 75
     2
 76
     1
 98
        0
  0
POLYLINE
  5
2DA
330
2CE
100
AcDbEntity
  8
Connectors
370
     0
100
AcDb2dPolyline
 66
     1
 10
0.0
 20
0.0
 30
0.0
  0
VERTEX
  5
2DB
330
2DA
100
AcDbEntity
  8
Connectors
370
     0
100
AcDbVertex
100
AcDb2dVertex
 10
461.4030078735632
 20
428.8250488261738
 30
0.0
  0
VERTEX
  5
2DC
330
2DA
100
AcDbEntity
  8
Connectors
370
     0
100
AcDbVertex
100
AcDb2dVertex
 10
459.5050359410889
 20
429.3026053610356
 30
0.0
  0
VERTEX
  5
2DD
330
2DA
100
AcDbEntity
  8
Connectors
370
     0
100
AcDbVertex
100
AcDb2dVertex
 10
459.5050359410889
 20
429.5962540199644
 30
0.0
  0
VERTEX
  5
2DE
330
2DA
100
AcDbEntity
  8
Connectors
370
     0
100
AcDbVertex
100
AcDb2dVertex
 10
461.4030078735632
 20
429.1186974851016
 30
0.0
  0
VERTEX
  5
2DF
330
2DA
100
AcDbEntity
  8
Connectors
370
     0
100
AcDbVertex
100
AcDb2dVertex
 10
461.4030078735632
 20
428.8250488261738
 30
0.0
  0
SEQEND
  5
2E1
330
2DA
100
AcDbEntity
  8
Connectors
370
     0
  0
HATCH
  5
2E0
330
2CE
100
AcDbEntity
  8
Connectors
 62
     7
420
 16776959
100
AcDbHatch
 10
0.0
 20
0.0
 30
0.0
210
0.0
220
0.0
230
1.0
  2
SOLID
 70
     1
 71
     0
 91
        1
 92
        1
 93
        4
 72
     1
 10
461.4030078735632
 20
428.8250488261738
 11
459.5050359410889
 21
429.3026053610356
 72
     1
 10
459.5050359410889
 20
429.3026053610356
 11
459.5050359410889
 21
429.5962540199644
 72
     1
 10
459.5050359410889
 20
429.5962540199644
 11
461.4030078735632
 21
429.1186974851016
 72
     1
 10
461.4030078735632
 20
429.1186974851016
 11
461.4030078735632
 21
428.8250488261738
 97
        0
 75
     2
 76
     1
 98
        0
  0
ENDBLK
  5
2D1
330
2CE
100
AcDbEntity
  8
0
100
AcDbBlockEnd
  0
BLOCK
  5
2E4
330
2E2
100
AcDbEntity
  8
0
100
AcDbBlockBegin
  2
block 43
 70
     0
 10
0.0
 20
0.0
 30
0.0
  3
block 43
  1

  0
POLYLINE
  5
2E6
330
2E2
100
AcDbEntity
  8
Connectors
370
     0
100
AcDb2dPolyline
 66
     1
 10
0.0
 20
0.0
 30
0.0
  0
VERTEX
  5
2E7
330
2E6
100
AcDbEntity
  8
Connectors
370
     0
100
AcDbVertex
100
AcDb2dVertex
 10
459.8847160019104
 20
428.5352300469194
 30
0.0
  0
VERTEX
  5
2E8
330
2E6
100
AcDbEntity
  8
Connectors
370
     0
100
AcDbVertex
100
AcDb2dVertex
 10
459.7993329285673
 20
428.634512312341
 30
0.0
  0
VERTEX
  5
2E9
330
2E6
100
AcDbEntity
  8
Connectors
370
     0
100
AcDbVertex
100
AcDb2dVertex
 10
461.1057179575655
 20
430.4657184892849
 30
0.0
  0
VERTEX
  5
2EA
330
2E6
100
AcDbEntity
  8
Connectors
370
     0
100
AcDbVertex
100
AcDb2dVertex
 10
461.1911067038527
 20
430.366428092304
 30
0.0
  0
VERTEX
  5
2EB
330
2E6
100
AcDbEntity
  8
Connectors
370
     0
100
AcDbVertex
100
AcDb2dVertex
 10
459.8847160019104
 20
428.5352300469194
 30
0.0
  0
SEQEND
  5
2ED
330
2E6
100
AcDbEntity
  8
Connectors
370
     0
  0
HATCH
  5
2EC
330
2E2
100
AcDbEntity
  8
Connectors
 62
     7
420
 16776959
100
AcDbHatch
 10
0.0
 20
0.0
 30
0.0
210
0.0
220
0.0
230
1.0
  2
SOLID
 70
     1
 71
     0
 91
        1
 92
        1
 93
        4
 72
     1
 10
459.8847160019104
 20
428.5352300469194
 11
459.7993329285673
 21
428.634512312341
 72
     1
 10
459.7993329285673
 20
428.634512312341
 11
461.1057179575655
 21
430.4657184892849
 72
     1
 10
461.1057179575655
 20
430.4657184892849
 11
461.1911067038527
 21
430.366428092304
 72
     1
 10
461.1911067038527
 20
430.366428092304
 11
459.8847160019104
 21
428.5352300469194
 97
        0
 75
     2
 76
     1
 98
        0
  0
ENDBLK
  5
2E5
330
2E2
100
AcDbEntity
  8
0
100
AcDbBlockEnd
  0
BLOCK
  5
2F0
330
2EE
100
AcDbEntity
  8
0
100
AcDbBlockBegin
  2
block 44
 70
     0
 10
0.0
 20
0.0
 30
0.0
  3
block 44
  1

  0
INSERT
  5
2F3
330
2EE
100
AcDbEntity
  8
Connectors
100
AcDbBlockReference
  2
block 45
 10
0.0
 20
0.0
 30
0.0
  0
INSERT
  5
2FA
330
2EE
100
AcDbEntity
  8
Connectors
100
AcDbBlockReference
  2
block 46
 10
0.0
 20
0.0
 30
0.0
  0
ENDBLK
  5
2F1
330
2EE
100
AcDbEntity
  8
0
100
AcDbBlockEnd
  0
BLOCK
  5
2F4
330
2F2
100
AcDbEntity
  8
0
100
AcDbBlockBegin
  2
block 45
 70
     0
 10
0.0
 20
0.0
 30
0.0
  3
block 45
  1

  0
SPLINE
  5
2F6
330
2F2
100
AcDbEntity
  8
Connectors
 62
     7
420
 16776959
370
     9
100
AcDbSpline
210
0.0
220
0.0
230
1.0
 70
    11
 71
     3
 72
    23
 73
    19
 74
     0
 42
0.0000000001
 43
0.0000000001
 12
1.0
 22
0.0
 32
0.0
 13
1.0
 23
0.0
 33
0.0
 40
0.0
 40
0.0
 40
0.0
 40
0.0
 40
1.0
 40
1.0
 40
1.0
 40
2.0
 40
2.0
 40
2.0
 40
3.0
 40
3.0
 40
3.0
 40
4.0
 40
4.0
 40
4.0
 40
5.0
 40
5.0
 40
5.0
 40
6.0
 40
6.0
 40
6.0
 40
6.0
 10
453.3035711492357
 20
376.6707517431078
 30
0.0
 10
448.2944074133684
 20
376.0944285035503
 30
0.0
 10
442.9723895920324
 20
380.5417289731013
 30
0.0
 10
440.9302758000158
 20
387.3236357107035
 30
0.0
 10
438.7924819498949
 20
394.4234224613338
 30
0.0
 10
441.0217993434944
 20
401.5157704072108
 30
0.0
 10
445.9161594806792
 20
403.6496762499864
 30
0.0
 10
445.9161594806792
 20
403.6496762499864
 30
0.0
 10
448.1618263917517
 20
404.4960796581654
 30
0.0
 10
448.1618263917517
 20
404.4960796581654
 30
0.0
 10
453.5528834419019
 20
406.2235763461949
 30
0.0
 10
459.7389982500972
 20
401.593546425227
 30
0.0
 10
461.9789535393502
 20
394.1545943687606
 30
0.0
 10
464.00579393925
 20
387.4232862337867
 30
0.0
 10
462.1070366587774
 20
380.6985330851794
 30
0.0
 10
457.7332908509488
 20
378.2001258094879
 30
0.0
 10
457.7332908509488
 20
378.2001258094879
 30
0.0
 10
453.3035711492357
 20
376.6707517431078
 30
0.0
 10
453.3035711492357
 20
376.6707517431078
 30
0.0
  0
HATCH
  5
2F7
330
2F2
100
AcDbEntity
  8
Connectors
 62
   250
420
  2301728
100
AcDbHatch
 10
0.0
 20
0.0
 30
0.0
210
0.0
220
0.0
230
1.0
  2
SOLID
 70
     1
 71
     0
 91
        1
 92
        1
 93
        1
 72
     4
 94
        3
 73
     0
 74
     1
 95
       23
 96
       19
 40
0.0
 40
0.0
 40
0.0
 40
0.0
 40
1.0
 40
1.0
 40
1.0
 40
2.0
 40
2.0
 40
2.0
 40
3.0
 40
3.0
 40
3.0
 40
4.0
 40
4.0
 40
4.0
 40
5.0
 40
5.0
 40
5.0
 40
6.0
 40
6.0
 40
6.0
 40
6.0
 10
453.3035711492357
 20
376.6707517431078
 10
448.2944074133684
 20
376.0944285035503
 10
442.9723895920324
 20
380.5417289731013
 10
440.9302758000158
 20
387.3236357107035
 10
438.7924819498949
 20
394.4234224613338
 10
441.0217993434944
 20
401.5157704072108
 10
445.9161594806792
 20
403.6496762499864
 10
445.9161594806792
 20
403.6496762499864
 10
448.1618263917517
 20
404.4960796581654
 10
448.1618263917517
 20
404.4960796581654
 10
453.5528834419019
 20
406.2235763461949
 10
459.7389982500972
 20
401.593546425227
 10
461.9789535393502
 20
394.1545943687606
 10
464.00579393925
 20
387.4232862337867
 10
462.1070366587774
 20
380.6985330851794
 10
457.7332908509488
 20
378.2001258094879
 10
457.7332908509488
 20
378.2001258094879
 10
453.3035711492357
 20
376.6707517431078
 10
453.3035711492357
 20
376.6707517431078
 97
        0
 97
        0
 75
     2
 76
     1
 98
        0
  0
SPLINE
  5
2F8
330
2F2
100
AcDbEntity
  8
Connectors
 62
     7
420
 16776959
370
     5
100
AcDbSpline
210
0.0
220
0.0
230
1.0
 70
     8
 71
     3
 72
    14
 73
    10
 74
     0
 42
0.0000000001
 43
0.0000000001
 12
1.0
 22
0.0
 32
0.0
 13
1.0
 23
0.0
 33
0.0
 40
0.0
 40
0.0
 40
0.0
 40
0.0
 40
1.0
 40
1.0
 40
1.0
 40
2.0
 40
2.0
 40
2.0
 40
3.0
 40
3.0
 40
3.0
 40
3.0
 10
457.7332908509488
 20
378.2001258094879
 30
0.0
 10
457.2734338987575
 20
377.9374107940876
 30
0.0
 10
456.7862325570786
 20
377.7214645016429
 30
0.0
 10
456.2734003124569
 20
377.5571479332775
 30
0.0
 10
450.8823432623103
 20
375.829651245248
 30
0.0
 10
444.6962284541114
 20
380.4596811662159
 30
0.0
 10
442.4562731648639
 20
387.8987068742135
 30
0.0
 10
440.2163230538463
 20
395.3376589306808
 30
0.0
 10
442.7707693416069
 20
402.768582970135
 30
0.0
 10
448.1618263917517
 20
404.4960796581654
 30
0.0
  0
ENDBLK
  5
2F5
330
2F2
100
AcDbEntity
  8
0
100
AcDbBlockEnd
  0
BLOCK
  5
2FB
330
2F9
100
AcDbEntity
  8
0
100
AcDbBlockBegin
  2
block 46
 70
     0
 10
0.0
 20
0.0
 30
0.0
  3
block 46
  1

  0
SPLINE
  5
2FD
330
2F9
100
AcDbEntity
  8
Connectors
 62
     7
420
 16776959
370
     9
100
AcDbSpline
210
0.0
220
0.0
230
1.0
 70
    11
 71
     3
 72
    65
 73
    61
 74
     0
 42
0.0000000001
 43
0.0000000001
 12
1.0
 22
0.0
 32
0.0
 13
1.0
 23
0.0
 33
0.0
 40
0.0
 40
0.0
 40
0.0
 40
0.0
 40
1.0
 40
1.0
 40
1.0
 40
2.0
 40
2.0
 40
2.0
 40
3.0
 40
3.0
 40
3.0
 40
4.0
 40
4.0
 40
4.0
 40
5.0
 40
5.0
 40
5.0
 40
6.0
 40
6.0
 40
6.0
 40
7.0
 40
7.0
 40
7.0
 40
8.0
 40
8.0
 40
8.0
 40
9.0
 40
9.0
 40
9.0
 40
10.0
 40
10.0
 40
10.0
 40
11.0
 40
11.0
 40
11.0
 40
12.0
 40
12.0
 40
12.0
 40
13.0
 40
13.0
 40
13.0
 40
14.0
 40
14.0
 40
14.0
 40
15.0
 40
15.0
 40
15.0
 40
16.0
 40
16.0
 40
16.0
 40
17.0
 40
17.0
 40
17.0
 40
18.0
 40
18.0
 40
18.0
 40
19.0
 40
19.0
 40
19.0
 40
20.0
 40
20.0
 40
20.0
 40
20.0
 10
442.9128459345047
 20
391.9555805715099
 30
0.0
 10
442.9128459345047
 20
391.9555805715099
 30
0.0
 10
446.835516408697
 20
382.4042289196741
 30
0.0
 10
446.835516408697
 20
382.4042289196741
 30
0.0
 10
447.1223879675581
 20
381.6683028098132
 30
0.0
 10
447.6743394689838
 20
381.1371279595014
 30
0.0
 10
448.402000089498
 20
380.9079243912583
 30
0.0
 10
448.402000089498
 20
380.9079243912583
 30
0.0
 10
456.2120717731123
 20
379.2292586690846
 30
0.0
 10
456.2120717731123
 20
379.2292586690846
 30
0.0
 10
456.8899754879203
 20
379.1299764036621
 30
0.0
 10
457.4436402291431
 20
379.4244352294463
 30
0.0
 10
457.7696310448118
 20
380.0501786471186
 30
0.0
 10
457.7696310448118
 20
380.0501786471186
 30
0.0
 10
458.2903881647126
 20
381.0977243897678
 30
0.0
 10
458.2903881647126
 20
381.0977243897678
 30
0.0
 10
458.2903881647126
 20
381.0977243897678
 30
0.0
 10
460.0387156053694
 20
381.8038216290834
 30
0.0
 10
460.0387156053694
 20
381.8038216290834
 30
0.0
 10
460.0387156053694
 20
381.8038216290834
 30
0.0
 10
460.0467118759243
 20
381.8071359480336
 30
0.0
 10
460.0467118759243
 20
381.8071359480336
 30
0.0
 10
460.3029495100527
 20
381.9179815040115
 30
0.0
 10
460.5104955681218
 20
382.1138945796956
 30
0.0
 10
460.6383645017304
 20
382.3689498357453
 30
0.0
 10
460.6383645017304
 20
382.3689498357453
 30
0.0
 10
464.53176291407
 20
390.2053255600258
 30
0.0
 10
464.53176291407
 20
390.2053255600258
 30
0.0
 10
464.6899748386222
 20
390.5407346377215
 30
0.0
 10
464.7036827310039
 20
390.9106207121376
 30
0.0
 10
464.5706019424797
 20
391.2574376976736
 30
0.0
 10
464.5706019424797
 20
391.2574376976736
 30
0.0
 10
460.6768465537752
 20
400.8000984687078
 30
0.0
 10
460.6768465537752
 20
400.8000984687078
 30
0.0
 10
460.5249888085018
 20
401.1533395555989
 30
0.0
 10
460.2426975839408
 20
401.3998428955092
 30
0.0
 10
459.8804322855431
 20
401.4929384322259
 30
0.0
 10
459.8804322855431
 20
401.4929384322259
 30
0.0
 10
452.0627213077369
 20
403.2281032704195
 30
0.0
 10
452.0627213077369
 20
403.2281032704195
 30
0.0
 10
452.0627213077369
 20
403.2281032704195
 30
0.0
 10
452.0560815473655
 20
403.2295763011034
 30
0.0
 10
452.0560815473655
 20
403.2295763011034
 30
0.0
 10
451.8448229351106
 20
403.2734642234482
 30
0.0
 10
451.6268531672104
 20
403.2534310066867
 30
0.0
 10
451.4268090742225
 20
403.1705730329477
 30
0.0
 10
451.4268090742225
 20
403.1705730329477
 30
0.0
 10
450.000968619428
 20
402.5744375312242
 30
0.0
 10
450.000968619428
 20
402.5744375312242
 30
0.0
 10
450.000968619428
 20
402.5744375312242
 30
0.0
 10
448.402000089498
 20
402.9287750526964
 30
0.0
 10
448.402000089498
 20
402.9287750526964
 30
0.0
 10
447.7223170923135
 20
403.0340230922284
 30
0.0
 10
447.165362569096
 20
402.7427396608837
 30
0.0
 10
446.835516408697
 20
402.1163986523979
 30
0.0
 10
446.835516408697
 20
402.1163986523979
 30
0.0
 10
442.9128459345047
 20
394.2774451244895
 30
0.0
 10
442.9128459345047
 20
394.2774451244895
 30
0.0
 10
442.5965648759411
 20
393.5282617388302
 30
0.0
 10
442.598135571945
 20
392.7110979889403
 30
0.0
 10
442.9128459345047
 20
391.9555805715099
 30
0.0
  0
HATCH
  5
2FE
330
2F9
100
AcDbEntity
  8
Connectors
 62
   250
420
  2301728
100
AcDbHatch
 10
0.0
 20
0.0
 30
0.0
210
0.0
220
0.0
230
1.0
  2
SOLID
 70
     1
 71
     0
 91
        1
 92
        1
 93
        1
 72
     4
 94
        3
 73
     0
 74
     1
 95
       65
 96
       61
 40
0.0
 40
0.0
 40
0.0
 40
0.0
 40
1.0
 40
1.0
 40
1.0
 40
2.0
 40
2.0
 40
2.0
 40
3.0
 40
3.0
 40
3.0
 40
4.0
 40
4.0
 40
4.0
 40
5.0
 40
5.0
 40
5.0
 40
6.0
 40
6.0
 40
6.0
 40
7.0
 40
7.0
 40
7.0
 40
8.0
 40
8.0
 40
8.0
 40
9.0
 40
9.0
 40
9.0
 40
10.0
 40
10.0
 40
10.0
 40
11.0
 40
11.0
 40
11.0
 40
12.0
 40
12.0
 40
12.0
 40
13.0
 40
13.0
 40
13.0
 40
14.0
 40
14.0
 40
14.0
 40
15.0
 40
15.0
 40
15.0
 40
16.0
 40
16.0
 40
16.0
 40
17.0
 40
17.0
 40
17.0
 40
18.0
 40
18.0
 40
18.0
 40
19.0
 40
19.0
 40
19.0
 40
20.0
 40
20.0
 40
20.0
 40
20.0
 10
442.9128459345047
 20
391.9555805715099
 10
442.9128459345047
 20
391.9555805715099
 10
446.835516408697
 20
382.4042289196741
 10
446.835516408697
 20
382.4042289196741
 10
447.1223879675581
 20
381.6683028098132
 10
447.6743394689838
 20
381.1371279595014
 10
448.402000089498
 20
380.9079243912583
 10
448.402000089498
 20
380.9079243912583
 10
456.2120717731123
 20
379.2292586690846
 10
456.2120717731123
 20
379.2292586690846
 10
456.8899754879203
 20
379.1299764036621
 10
457.4436402291431
 20
379.4244352294463
 10
457.7696310448118
 20
380.0501786471186
 10
457.7696310448118
 20
380.0501786471186
 10
458.2903881647126
 20
381.0977243897678
 10
458.2903881647126
 20
381.0977243897678
 10
458.2903881647126
 20
381.0977243897678
 10
460.0387156053694
 20
381.8038216290834
 10
460.0387156053694
 20
381.8038216290834
 10
460.0387156053694
 20
381.8038216290834
 10
460.0467118759243
 20
381.8071359480336
 10
460.0467118759243
 20
381.8071359480336
 10
460.3029495100527
 20
381.9179815040115
 10
460.5104955681218
 20
382.1138945796956
 10
460.6383645017304
 20
382.3689498357453
 10
460.6383645017304
 20
382.3689498357453
 10
464.53176291407
 20
390.2053255600258
 10
464.53176291407
 20
390.2053255600258
 10
464.6899748386222
 20
390.5407346377215
 10
464.7036827310039
 20
390.9106207121376
 10
464.5706019424797
 20
391.2574376976736
 10
464.5706019424797
 20
391.2574376976736
 10
460.6768465537752
 20
400.8000984687078
 10
460.6768465537752
 20
400.8000984687078
 10
460.5249888085018
 20
401.1533395555989
 10
460.2426975839408
 20
401.3998428955092
 10
459.8804322855431
 20
401.4929384322259
 10
459.8804322855431
 20
401.4929384322259
 10
452.0627213077369
 20
403.2281032704195
 10
452.0627213077369
 20
403.2281032704195
 10
452.0627213077369
 20
403.2281032704195
 10
452.0560815473655
 20
403.2295763011034
 10
452.0560815473655
 20
403.2295763011034
 10
451.8448229351106
 20
403.2734642234482
 10
451.6268531672104
 20
403.2534310066867
 10
451.4268090742225
 20
403.1705730329477
 10
451.4268090742225
 20
403.1705730329477
 10
450.000968619428
 20
402.5744375312242
 10
450.000968619428
 20
402.5744375312242
 10
450.000968619428
 20
402.5744375312242
 10
448.402000089498
 20
402.9287750526964
 10
448.402000089498
 20
402.9287750526964
 10
447.7223170923135
 20
403.0340230922284
 10
447.165362569096
 20
402.7427396608837
 10
446.835516408697
 20
402.1163986523979
 10
446.835516408697
 20
402.1163986523979
 10
442.9128459345047
 20
394.2774451244895
 10
442.9128459345047
 20
394.2774451244895
 10
442.5965648759411
 20
393.5282617388302
 10
442.598135571945
 20
392.7110979889403
 10
442.9128459345047
 20
391.9555805715099
 97
        0
 97
        0
 75
     2
 76
     1
 98
        0
  0
SPLINE
  5
2FF
330
2F9
100
AcDbEntity
  8
Connectors
 62
     7
420
 16776959
370
     5
100
AcDbSpline
210
0.0
220
0.0
230
1.0
 70
     8
 71
     3
 72
     8
 73
     4
 74
     0
 42
0.0000000001
 43
0.0000000001
 12
1.0
 22
0.0
 32
0.0
 13
1.0
 23
0.0
 33
0.0
 40
0.0
 40
0.0
 40
0.0
 40
0.0
 40
1.0
 40
1.0
 40
1.0
 40
1.0
 10
454.903110841351
 20
392.4245935286353
 30
0.0
 10
455.163703587119
 20
392.7949134325972
 30
0.0
 10
455.0562537015339
 20
393.4790625153128
 30
0.0
 10
454.903110841351
 20
393.8652911502313
 30
0.0
  0
SPLINE
  5
300
330
2F9
100
AcDbEntity
  8
Connectors
 62
     7
420
 16776959
370
     5
100
AcDbSpline
210
0.0
220
0.0
230
1.0
 70
     8
 71
     3
 72
    11
 73
     7
 74
     0
 42
0.0000000001
 43
0.0000000001
 12
1.0
 22
0.0
 32
0.0
 13
1.0
 23
0.0
 33
0.0
 40
0.0
 40
0.0
 40
0.0
 40
0.0
 40
1.0
 40
1.0
 40
1.0
 40
2.0
 40
2.0
 40
2.0
 40
2.0
 10
455.2233900351894
 20
391.6418986958197
 30
0.0
 10
455.6549030640745
 20
391.6525781679911
 30
0.0
 10
456.0444356725457
 20
391.0648389409398
 30
0.0
 10
456.1941515596372
 20
390.709552024121
 30
0.0
 10
456.2248515269457
 20
390.6376600541107
 30
0.0
 10
456.2654040419038
 20
390.5729940088295
 30
0.0
 10
456.3157377092357
 20
390.5154721621711
 30
0.0
  0
SPLINE
  5
301
330
2F9
100
AcDbEntity
  8
Connectors
 62
     7
420
 16776959
370
     5
100
AcDbSpline
210
0.0
220
0.0
230
1.0
 70
     8
 71
     3
 72
    41
 73
    37
 74
     0
 42
0.0000000001
 43
0.0000000001
 12
1.0
 22
0.0
 32
0.0
 13
1.0
 23
0.0
 33
0.0
 40
0.0
 40
0.0
 40
0.0
 40
0.0
 40
1.0
 40
1.0
 40
1.0
 40
2.0
 40
2.0
 40
2.0
 40
3.0
 40
3.0
 40
3.0
 40
4.0
 40
4.0
 40
4.0
 40
5.0
 40
5.0
 40
5.0
 40
6.0
 40
6.0
 40
6.0
 40
7.0
 40
7.0
 40
7.0
 40
8.0
 40
8.0
 40
8.0
 40
9.0
 40
9.0
 40
9.0
 40
10.0
 40
10.0
 40
10.0
 40
11.0
 40
11.0
 40
11.0
 40
12.0
 40
12.0
 40
12.0
 40
12.0
 10
456.7482502719413
 20
390.3784066607241
 30
0.0
 10
456.8065802098299
 20
390.4256909444048
 30
0.0
 10
456.8352097142269
 20
390.4894731713002
 30
0.0
 10
456.8340673898638
 20
390.5698269929444
 30
0.0
 10
456.8431345895096
 20
391.1067466627674
 30
0.0
 10
457.3954540322084
 20
391.2265040541442
 30
0.0
 10
457.8039007757616
 20
391.0776543075444
 30
0.0
 10
457.9540450344884
 20
391.0230048706444
 30
0.0
 10
458.1543858013902
 20
391.0597569852171
 30
0.0
 10
458.2336345562144
 20
391.2189179463267
 30
0.0
 10
458.3145911621978
 20
391.3815405294508
 30
0.0
 10
458.2411968217439
 20
391.5999990710552
 30
0.0
 10
458.1236088074202
 20
391.7197483653672
 30
0.0
 10
457.7325768982209
 20
392.118129503102
 30
0.0
 10
457.6968792618136
 20
392.7734808367231
 30
0.0
 10
458.1236088074202
 20
393.1590466078524
 30
0.0
 10
458.2611161028599
 20
393.2832967426939
 30
0.0
 10
458.3037390807294
 20
393.5133104777924
 30
0.0
 10
458.2336345562144
 20
393.6847712447816
 30
0.0
 10
458.1653036467433
 20
393.8519602229026
 30
0.0
 10
457.9816750050668
 20
393.9731169933902
 30
0.0
 10
457.8039007757616
 20
393.941225879943
 30
0.0
 10
457.23923556308
 20
393.8398813716194
 30
0.0
 10
456.8412069171445
 20
394.3281910301848
 30
0.0
 10
456.8340673898638
 20
394.8740225354059
 30
0.0
 10
456.8319969269523
 20
395.0336990572423
 30
0.0
 10
456.7429012222092
 20
395.24544721235
 30
0.0
 10
456.5721895291827
 20
395.2829358422478
 30
0.0
 10
456.4019831987953
 20
395.3203508206107
 30
0.0
 10
456.2511249873423
 20
395.1596431773241
 30
0.0
 10
456.1941515596372
 20
395.0146969619318
 30
0.0
 10
456.0512896187356
 20
394.6515212565964
 30
0.0
 10
455.6158498498462
 20
394.1598236275477
 30
0.0
 10
455.2233900351894
 20
394.5076798141854
 30
0.0
 10
455.1764888971102
 20
394.5506923089961
 30
0.0
 10
455.1245075823426
 20
394.5670429491474
 30
0.0
 10
455.0673913640931
 20
394.5568790377029
 30
0.0
  0
POLYLINE
  5
302
330
2F9
100
AcDbEntity
  8
Connectors
 62
     7
420
 16776959
370
     5
100
AcDb2dPolyline
 66
     1
 10
0.0
 20
0.0
 30
0.0
  0
VERTEX
  5
303
330
302
100
AcDbEntity
  8
Connectors
 62
     7
420
 16776959
370
     5
100
AcDbVertex
100
AcDb2dVertex
 10
458.1236088074202
 20
391.7197483653672
 30
0.0
  0
VERTEX
  5
304
330
302
100
AcDbEntity
  8
Connectors
 62
     7
420
 16776959
370
     5
100
AcDbVertex
100
AcDb2dVertex
 10
456.9188849739658
 20
391.2258492779674
 30
0.0
  0
SEQEND
  5
305
330
302
100
AcDbEntity
  8
Connectors
 62
     7
420
 16776959
370
     5
  0
POLYLINE
  5
306
330
2F9
100
AcDbEntity
  8
Connectors
 62
     7
420
 16776959
370
     5
100
AcDb2dPolyline
 66
     1
 10
0.0
 20
0.0
 30
0.0
  0
VERTEX
  5
307
330
306
100
AcDbEntity
  8
Connectors
 62
     7
420
 16776959
370
     5
100
AcDbVertex
100
AcDb2dVertex
 10
458.1236088074202
 20
393.1590466078524
 30
0.0
  0
VERTEX
  5
308
330
306
100
AcDbEntity
  8
Connectors
 62
     7
420
 16776959
370
     5
100
AcDbVertex
100
AcDb2dVertex
 10
456.9188849739658
 20
392.6641819629212
 30
0.0
  0
SEQEND
  5
309
330
306
100
AcDbEntity
  8
Connectors
 62
     7
420
 16776959
370
     5
  0
POLYLINE
  5
30A
330
2F9
100
AcDbEntity
  8
Connectors
 62
     7
420
 16776959
370
     5
100
AcDb2dPolyline
 66
     1
 10
0.0
 20
0.0
 30
0.0
  0
VERTEX
  5
30B
330
30A
100
AcDbEntity
  8
Connectors
 62
     7
420
 16776959
370
     5
100
AcDbVertex
100
AcDb2dVertex
 10
457.8039007757616
 20
393.941225879943
 30
0.0
  0
VERTEX
  5
30C
330
30A
100
AcDbEntity
  8
Connectors
 62
     7
420
 16776959
370
     5
100
AcDbVertex
100
AcDb2dVertex
 10
456.5993197328535
 20
393.4457720227529
 30
0.0
  0
SEQEND
  5
30D
330
30A
100
AcDbEntity
  8
Connectors
 62
     7
420
 16776959
370
     5
  0
SPLINE
  5
30E
330
2F9
100
AcDbEntity
  8
Connectors
 62
     7
420
 16776959
370
     5
100
AcDbSpline
210
0.0
220
0.0
230
1.0
 70
     8
 71
     3
 72
    20
 73
    16
 74
     0
 42
0.0000000001
 43
0.0000000001
 12
1.0
 22
0.0
 32
0.0
 13
1.0
 23
0.0
 33
0.0
 40
0.0
 40
0.0
 40
0.0
 40
0.0
 40
1.0
 40
1.0
 40
1.0
 40
2.0
 40
2.0
 40
2.0
 40
3.0
 40
3.0
 40
3.0
 40
4.0
 40
4.0
 40
4.0
 40
5.0
 40
5.0
 40
5.0
 40
5.0
 10
455.6297719280446
 20
394.3778321628961
 30
0.0
 10
455.6370542458717
 20
393.8294965055784
 30
0.0
 10
456.0395093987208
 20
393.3452376812838
 30
0.0
 10
456.5993197328535
 20
393.4457720227529
 30
0.0
 10
456.7769511716124
 20
393.477663136201
 30
0.0
 10
456.9605084180148
 20
393.3565881586846
 30
0.0
 10
457.0288336940976
 20
393.1895383421888
 30
0.0
 10
457.0988724567287
 20
393.0181512267318
 30
0.0
 10
457.0563264777775
 20
392.7883584462297
 30
0.0
 10
456.9188849739658
 20
392.6641819629212
 30
0.0
 10
456.4900849654477
 20
392.2767012519525
 30
0.0
 10
456.5295665513149
 20
391.6223810397842
 30
0.0
 10
456.9188849739658
 20
391.2258492779674
 30
0.0
 10
456.9717888711202
 20
391.1719282687764
 30
0.0
 10
457.011056271167
 20
391.1101346332507
 30
0.0
 10
457.036687174108
 20
391.0405339353101
 30
0.0
  0
POLYLINE
  5
30F
330
2F9
100
AcDbEntity
  8
Connectors
 62
     7
420
 16776959
370
     5
100
AcDb2dPolyline
 66
     1
 10
0.0
 20
0.0
 30
0.0
  0
VERTEX
  5
310
330
30F
100
AcDbEntity
  8
Connectors
 62
     7
420
 16776959
370
     5
100
AcDbVertex
100
AcDb2dVertex
 10
457.1644847124444
 20
391.0929001747118
 30
0.0
  0
VERTEX
  5
311
330
30F
100
AcDbEntity
  8
Connectors
 62
     7
420
 16776959
370
     5
100
AcDbVertex
100
AcDb2dVertex
 10
456.1994348098233
 20
390.6973914467353
 30
0.0
  0
SEQEND
  5
312
330
30F
100
AcDbEntity
  8
Connectors
 62
     7
420
 16776959
370
     5
  0
POLYLINE
  5
313
330
2F9
100
AcDbEntity
  8
Connectors
 62
     7
420
 16776959
370
     5
100
AcDb2dPolyline
 66
     1
 10
0.0
 20
0.0
 30
0.0
  0
VERTEX
  5
314
330
313
100
AcDbEntity
  8
Connectors
 62
     7
420
 16776959
370
     5
100
AcDbVertex
100
AcDb2dVertex
 10
455.6902437241188
 20
394.4206973546434
 30
0.0
  0
VERTEX
  5
315
330
313
100
AcDbEntity
  8
Connectors
 62
     7
420
 16776959
370
     5
100
AcDbVertex
100
AcDb2dVertex
 10
454.8680613107645
 20
394.081900306468
 30
0.0
  0
SEQEND
  5
316
330
313
100
AcDbEntity
  8
Connectors
 62
     7
420
 16776959
370
     5
  0
SPLINE
  5
317
330
2F9
100
AcDbEntity
  8
Connectors
 62
     7
420
 16776959
370
     5
100
AcDbSpline
210
0.0
220
0.0
230
1.0
 70
     8
 71
     3
 72
     8
 73
     4
 74
     0
 42
0.0000000001
 43
0.0000000001
 12
1.0
 22
0.0
 32
0.0
 13
1.0
 23
0.0
 33
0.0
 40
0.0
 40
0.0
 40
0.0
 40
0.0
 40
1.0
 40
1.0
 40
1.0
 40
1.0
 10
448.402000089498
 20
402.9287750526964
 30
0.0
 10
448.3800817407446
 20
402.5842331850099
 30
0.0
 10
448.5007397518002
 20
402.2756332650406
 30
0.0
 10
448.7489097200996
 20
402.0572564720333
 30
0.0
  0
SPLINE
  5
318
330
2F9
100
AcDbEntity
  8
Connectors
 62
     7
420
 16776959
370
     5
100
AcDbSpline
210
0.0
220
0.0
230
1.0
 70
     8
 71
     3
 72
     8
 73
     4
 74
     0
 42
0.0000000001
 43
0.0000000001
 12
1.0
 22
0.0
 32
0.0
 13
1.0
 23
0.0
 33
0.0
 40
0.0
 40
0.0
 40
0.0
 40
0.0
 40
1.0
 40
1.0
 40
1.0
 40
1.0
 10
457.4133686334717
 20
380.7435341713608
 30
0.0
 10
457.395948186906
 20
380.4877423999897
 30
0.0
 10
457.579653840723
 20
380.2138323516929
 30
0.0
 10
457.7622059364403
 20
380.057330651216
 30
0.0
  0
SPLINE
  5
319
330
2F9
100
AcDbEntity
  8
Connectors
 62
     7
420
 16776959
370
     5
100
AcDbSpline
210
0.0
220
0.0
230
1.0
 70
     8
 71
     3
 72
    23
 73
    19
 74
     0
 42
0.0000000001
 43
0.0000000001
 12
1.0
 22
0.0
 32
0.0
 13
1.0
 23
0.0
 33
0.0
 40
0.0
 40
0.0
 40
0.0
 40
0.0
 40
1.0
 40
1.0
 40
1.0
 40
2.0
 40
2.0
 40
2.0
 40
3.0
 40
3.0
 40
3.0
 40
4.0
 40
4.0
 40
4.0
 40
5.0
 40
5.0
 40
5.0
 40
6.0
 40
6.0
 40
6.0
 40
6.0
 10
448.402000089498
 20
380.9079243912583
 30
0.0
 10
448.3864359200234
 20
381.491686435571
 30
0.0
 10
448.621397762854
 20
382.0076890702467
 30
0.0
 10
449.0695458903047
 20
382.3384581014097
 30
0.0
 10
449.0695458903047
 20
382.3384581014097
 30
0.0
 10
451.8306866710936
 20
383.4614230130437
 30
0.0
 10
451.8306866710936
 20
383.4614230130437
 30
0.0
 10
452.2803340992741
 20
383.792936459371
 30
0.0
 10
452.5162240806494
 20
384.3102569217872
 30
0.0
 10
452.5008740969934
 20
384.8957866028713
 30
0.0
 10
452.0252387895089
 20
384.6479491969794
 30
0.0
 10
451.5399651201969
 20
384.4195557955891
 30
0.0
 10
451.0469093661468
 20
384.2114902170906
 30
0.0
 10
451.0469093661468
 20
384.2114902170906
 30
0.0
 10
448.2863397475412
 20
383.0870522748119
 30
0.0
 10
448.2863397475412
 20
383.0870522748119
 30
0.0
 10
447.7942835273097
 20
382.8793549539741
 30
0.0
 10
447.3100807870887
 20
382.6514771133106
 30
0.0
 10
446.835516408697
 20
382.4042289196741
 30
0.0
  0
SPLINE
  5
31A
330
2F9
100
AcDbEntity
  8
Connectors
 62
     7
420
 16776959
370
     5
100
AcDbSpline
210
0.0
220
0.0
230
1.0
 70
     8
 71
     3
 72
    17
 73
    13
 74
     0
 42
0.0000000001
 43
0.0000000001
 12
1.0
 22
0.0
 32
0.0
 13
1.0
 23
0.0
 33
0.0
 40
0.0
 40
0.0
 40
0.0
 40
0.0
 40
1.0
 40
1.0
 40
1.0
 40
2.0
 40
2.0
 40
2.0
 40
3.0
 40
3.0
 40
3.0
 40
4.0
 40
4.0
 40
4.0
 40
4.0
 10
456.2120717731123
 20
379.2292586690846
 30
0.0
 10
456.1968645800007
 20
379.8123578496061
 30
0.0
 10
456.4323317776252
 20
380.32689526592
 30
0.0
 10
456.8810454793747
 20
380.6557415449643
 30
0.0
 10
456.8810454793747
 20
380.6557415449643
 30
0.0
 10
459.6478978819887
 20
381.7734113951037
 30
0.0
 10
459.6478978819887
 20
381.7734113951037
 30
0.0
 10
460.098187867623
 20
382.1029941529287
 30
0.0
 10
460.3345062206354
 20
382.6189310062564
 30
0.0
 10
460.3195132133442
 20
383.2036426503028
 30
0.0
 10
460.5771787529284
 20
382.9916735405968
 30
0.0
 10
460.6947667672521
 20
382.6989823515869
 30
0.0
 10
460.6416486842791
 20
382.3757257767084
 30
0.0
  0
SPLINE
  5
31B
330
2F9
100
AcDbEntity
  8
Connectors
 62
     7
420
 16776959
370
     5
100
AcDbSpline
210
0.0
220
0.0
230
1.0
 70
     8
 71
     3
 72
    23
 73
    19
 74
     0
 42
0.0000000001
 43
0.0000000001
 12
1.0
 22
0.0
 32
0.0
 13
1.0
 23
0.0
 33
0.0
 40
0.0
 40
0.0
 40
0.0
 40
0.0
 40
1.0
 40
1.0
 40
1.0
 40
2.0
 40
2.0
 40
2.0
 40
3.0
 40
3.0
 40
3.0
 40
4.0
 40
4.0
 40
4.0
 40
5.0
 40
5.0
 40
5.0
 40
6.0
 40
6.0
 40
6.0
 40
6.0
 10
442.9128459345047
 20
394.2774451244895
 30
0.0
 10
443.3123024858978
 20
393.88186274498
 30
0.0
 10
443.83056077125
 20
393.7078241743639
 30
0.0
 10
444.3648115977121
 20
393.8017298779332
 30
0.0
 10
444.3648115977121
 20
393.8017298779332
 30
0.0
 10
447.1224540101357
 20
394.9445152332883
 30
0.0
 10
447.1224540101357
 20
394.9445152332883
 30
0.0
 10
447.6579185562368
 20
395.0389283160275
 30
0.0
 10
448.17724777068
 20
394.8646687908158
 30
0.0
 10
448.5775610653454
 20
394.4680552898544
 30
0.0
 10
448.1007834334996
 20
394.2211753538804
 30
0.0
 10
447.6152241830932
 20
393.9921190887017
 30
0.0
 10
447.1224540101357
 20
393.7815575102823
 30
0.0
 10
447.1224540101357
 20
393.7815575102823
 30
0.0
 10
444.3648115977121
 20
392.640613472613
 30
0.0
 10
444.3648115977121
 20
392.640613472613
 30
0.0
 10
443.8730409585733
 20
392.4305593027448
 30
0.0
 10
443.3885526372615
 20
392.2019449467598
 30
0.0
 10
442.9128459345047
 20
391.9555805715099
 30
0.0
  0
SPLINE
  5
31C
330
2F9
100
AcDbEntity
  8
Connectors
 62
     7
420
 16776959
370
     5
100
AcDbSpline
210
0.0
220
0.0
230
1.0
 70
     8
 71
     3
 72
    11
 73
     7
 74
     0
 42
0.0000000001
 43
0.0000000001
 12
1.0
 22
0.0
 32
0.0
 13
1.0
 23
0.0
 33
0.0
 40
0.0
 40
0.0
 40
0.0
 40
0.0
 40
1.0
 40
1.0
 40
1.0
 40
2.0
 40
2.0
 40
2.0
 40
2.0
 10
464.53176291407
 20
390.2053255600258
 30
0.0
 10
464.6681278851429
 20
390.4874845799304
 30
0.0
 10
464.4261693055778
 20
390.86804204687
 30
0.0
 10
464.2149106933211
 20
391.042522526679
 30
0.0
 10
464.3369252145603
 20
391.1065993597031
 30
0.0
 10
464.4563695059769
 20
391.171707314179
 30
0.0
 10
464.5686742701128
 20
391.2516273148922
 30
0.0
  0
SPLINE
  5
31D
330
2F9
100
AcDbEntity
  8
Connectors
 62
     7
420
 16776959
370
     5
100
AcDbSpline
210
0.0
220
0.0
230
1.0
 70
     8
 71
     3
 72
    14
 73
    10
 74
     0
 42
0.0000000001
 43
0.0000000001
 12
1.0
 22
0.0
 32
0.0
 13
1.0
 23
0.0
 33
0.0
 40
0.0
 40
0.0
 40
0.0
 40
0.0
 40
1.0
 40
1.0
 40
1.0
 40
2.0
 40
2.0
 40
2.0
 40
3.0
 40
3.0
 40
3.0
 40
3.0
 10
460.6768465537752
 20
400.8000984687078
 30
0.0
 10
460.626298700623
 20
400.712674099972
 30
0.0
 10
460.4136835781865
 20
400.6325412329261
 30
0.0
 10
460.3266527406267
 20
400.5917382840798
 30
0.0
 10
460.3266527406267
 20
400.5917382840798
 30
0.0
 10
460.3195132133442
 20
400.5879820559367
 30
0.0
 10
460.3195132133442
 20
400.5879820559367
 30
0.0
 10
460.3480713224708
 20
400.975757373033
 30
0.0
 10
460.1990693881089
 20
401.2990875994428
 30
0.0
 10
459.8884999513684
 20
401.4910971439203
 30
0.0
  0
SPLINE
  5
31E
330
2F9
100
AcDbEntity
  8
Connectors
 62
     7
420
 16776959
370
     5
100
AcDbSpline
210
0.0
220
0.0
230
1.0
 70
     8
 71
     3
 72
    17
 73
    13
 74
     0
 42
0.0000000001
 43
0.0000000001
 12
1.0
 22
0.0
 32
0.0
 13
1.0
 23
0.0
 33
0.0
 40
0.0
 40
0.0
 40
0.0
 40
0.0
 40
1.0
 40
1.0
 40
1.0
 40
2.0
 40
2.0
 40
2.0
 40
3.0
 40
3.0
 40
3.0
 40
4.0
 40
4.0
 40
4.0
 40
4.0
 10
446.835516408697
 20
402.1163986523979
 30
0.0
 10
447.2344785487076
 20
401.7202270606313
 30
0.0
 10
447.7523745021681
 20
401.5467777022723
 30
0.0
 10
448.2863397475412
 20
401.6423857418404
 30
0.0
 10
448.2863397475412
 20
401.6423857418404
 30
0.0
 10
451.0469093661468
 20
402.7962022947149
 30
0.0
 10
451.0469093661468
 20
402.7962022947149
 30
0.0
 10
451.5820883311571
 20
402.8924648473148
 30
0.0
 10
452.1010605692391
 20
402.718647231296
 30
0.0
 10
452.5008740969934
 20
402.321452885988
 30
0.0
 10
452.5240061653858
 20
402.6318120748174
 30
0.0
 10
452.4029911779671
 20
403.14833027022
 30
0.0
 10
452.0627213077369
 20
403.2281032704195
 30
0.0
  0
POLYLINE
  5
31F
330
2F9
100
AcDbEntity
  8
Connectors
 62
     7
420
 16776959
370
     5
100
AcDb2dPolyline
 66
     1
 10
0.0
 20
0.0
 30
0.0
  0
VERTEX
  5
320
330
31F
100
AcDbEntity
  8
Connectors
 62
     7
420
 16776959
370
     5
100
AcDbVertex
100
AcDb2dVertex
 10
460.3195132133442
 20
400.5879820559367
 30
0.0
  0
VERTEX
  5
321
330
31F
100
AcDbEntity
  8
Connectors
 62
     7
420
 16776959
370
     5
100
AcDbVertex
100
AcDb2dVertex
 10
452.5008740969934
 20
402.321452885988
 30
0.0
  0
VERTEX
  5
322
330
31F
100
AcDbEntity
  8
Connectors
 62
     7
420
 16776959
370
     5
100
AcDbVertex
100
AcDb2dVertex
 10
448.5775610653454
 20
394.4680552898544
 30
0.0
  0
VERTEX
  5
323
330
31F
100
AcDbEntity
  8
Connectors
 62
     7
420
 16776959
370
     5
100
AcDbVertex
100
AcDb2dVertex
 10
452.5008740969934
 20
384.8957866028713
 30
0.0
  0
VERTEX
  5
324
330
31F
100
AcDbEntity
  8
Connectors
 62
     7
420
 16776959
370
     5
100
AcDbVertex
100
AcDb2dVertex
 10
460.3195132133442
 20
383.2036426503028
 30
0.0
  0
VERTEX
  5
325
330
31F
100
AcDbEntity
  8
Connectors
 62
     7
420
 16776959
370
     5
100
AcDbVertex
100
AcDb2dVertex
 10
464.2149106933211
 20
391.042522526679
 30
0.0
  0
VERTEX
  5
326
330
31F
100
AcDbEntity
  8
Connectors
 62
     7
420
 16776959
370
     5
100
AcDbVertex
100
AcDb2dVertex
 10
460.3195132133442
 20
400.5879820559367
 30
0.0
  0
SEQEND
  5
327
330
31F
100
AcDbEntity
  8
Connectors
 62
     7
420
 16776959
370
     5
  0
SPLINE
  5
328
330
2F9
100
AcDbEntity
  8
Connectors
 62
     7
420
 16776959
370
     5
100
AcDbSpline
210
0.0
220
0.0
230
1.0
 70
     8
 71
     3
 72
    29
 73
    25
 74
     0
 42
0.0000000001
 43
0.0000000001
 12
1.0
 22
0.0
 32
0.0
 13
1.0
 23
0.0
 33
0.0
 40
0.0
 40
0.0
 40
0.0
 40
0.0
 40
1.0
 40
1.0
 40
1.0
 40
2.0
 40
2.0
 40
2.0
 40
3.0
 40
3.0
 40
3.0
 40
4.0
 40
4.0
 40
4.0
 40
5.0
 40
5.0
 40
5.0
 40
6.0
 40
6.0
 40
6.0
 40
7.0
 40
7.0
 40
7.0
 40
8.0
 40
8.0
 40
8.0
 40
8.0
 10
451.4218114049982
 20
403.1684455278209
 30
0.0
 10
451.2567400729458
 20
403.0916185904161
 30
0.0
 10
451.1302990447912
 20
402.9617709391268
 30
0.0
 10
451.0469093661468
 20
402.7962022947149
 30
0.0
 10
451.0469093661468
 20
402.7962022947149
 30
0.0
 10
447.1224540101357
 20
394.9445152332883
 30
0.0
 10
447.1224540101357
 20
394.9445152332883
 30
0.0
 10
446.9641706903058
 20
394.5692524951137
 30
0.0
 10
446.9649560383077
 20
394.159970930612
 30
0.0
 10
447.1224540101357
 20
393.7815575102823
 30
0.0
 10
447.1224540101357
 20
393.7815575102823
 30
0.0
 10
451.0469093661468
 20
384.2114902170906
 30
0.0
 10
451.0469093661468
 20
384.2114902170906
 30
0.0
 10
451.1899140975929
 20
383.8440427228852
 30
0.0
 10
451.4672847324728
 20
383.5763194032952
 30
0.0
 10
451.8306866710936
 20
383.4614230130437
 30
0.0
 10
451.8306866710936
 20
383.4614230130437
 30
0.0
 10
459.6478978819887
 20
381.7734113951037
 30
0.0
 10
459.6478978819887
 20
381.7734113951037
 30
0.0
 10
459.6478978819887
 20
381.7734113951037
 30
0.0
 10
459.656393919453
 20
381.7716359095066
 30
0.0
 10
459.656393919453
 20
381.7716359095066
 30
0.0
 10
459.7842628530634
 20
381.7451213579116
 30
0.0
 10
459.9169152699506
 20
381.7555798754847
 30
0.0
 10
460.0387156053694
 20
381.8038216290834
 30
0.0
  0
SPLINE
  5
329
330
2F9
100
AcDbEntity
  8
Connectors
 62
     7
420
 16776959
370
     5
100
AcDbSpline
210
0.0
220
0.0
230
1.0
 70
     8
 71
     3
 72
    38
 73
    34
 74
     0
 42
0.0000000001
 43
0.0000000001
 12
1.0
 22
0.0
 32
0.0
 13
1.0
 23
0.0
 33
0.0
 40
0.0
 40
0.0
 40
0.0
 40
0.0
 40
1.0
 40
1.0
 40
1.0
 40
2.0
 40
2.0
 40
2.0
 40
3.0
 40
3.0
 40
3.0
 40
4.0
 40
4.0
 40
4.0
 40
5.0
 40
5.0
 40
5.0
 40
6.0
 40
6.0
 40
6.0
 40
7.0
 40
7.0
 40
7.0
 40
8.0
 40
8.0
 40
8.0
 40
9.0
 40
9.0
 40
9.0
 40
10.0
 40
10.0
 40
10.0
 40
11.0
 40
11.0
 40
11.0
 40
11.0
 10
450.0463760129387
 20
402.5934396265357
 30
0.0
 10
450.0463760129387
 20
402.5934396265357
 30
0.0
 10
448.6660198083628
 20
402.0163062201227
 30
0.0
 10
448.6660198083628
 20
402.0163062201227
 30
0.0
 10
448.501810680893
 20
401.9468528252464
 30
0.0
 10
448.3693010545503
 20
401.8102292329932
 30
0.0
 10
448.2891241631805
 20
401.6479012559994
 30
0.0
 10
448.2891241631805
 20
401.6479012559994
 30
0.0
 10
448.2863397475412
 20
401.6423857418404
 30
0.0
 10
448.2863397475412
 20
401.6423857418404
 30
0.0
 10
448.2863397475412
 20
401.6423857418404
 30
0.0
 10
444.3648115977121
 20
393.8017298779332
 30
0.0
 10
444.3648115977121
 20
393.8017298779332
 30
0.0
 10
444.2067424637044
 20
393.4270645335719
 30
0.0
 10
444.2075278117045
 20
393.0184458328604
 30
0.0
 10
444.3648115977121
 20
392.640613472613
 30
0.0
 10
444.3648115977121
 20
392.640613472613
 30
0.0
 10
448.2863397475412
 20
383.0870522748119
 30
0.0
 10
448.2863397475412
 20
383.0870522748119
 30
0.0
 10
448.4293444789855
 20
382.7202676443958
 30
0.0
 10
448.7067151138654
 20
382.4528389309344
 30
0.0
 10
449.0695458903047
 20
382.3384581014097
 30
0.0
 10
449.0695458903047
 20
382.3384581014097
 30
0.0
 10
456.8810454793747
 20
380.6557415449643
 30
0.0
 10
456.8810454793747
 20
380.6557415449643
 30
0.0
 10
457.0098425515298
 20
380.6287850841745
 30
0.0
 10
457.1402103196888
 20
380.6368131011859
 30
0.0
 10
457.2638669322005
 20
380.683213566479
 30
0.0
 10
457.2638669322005
 20
380.683213566479
 30
0.0
 10
457.2715062263906
 20
380.6862332792998
 30
0.0
 10
457.2715062263906
 20
380.6862332792998
 30
0.0
 10
457.2715062263906
 20
380.6862332792998
 30
0.0
 10
458.2903881647126
 20
381.0977243897678
 30
0.0
 10
458.2903881647126
 20
381.0977243897678
 30
0.0
  0
SPLINE
  5
32A
330
2F9
100
AcDbEntity
  8
Connectors
 62
     7
420
 16776959
370
    13
100
AcDbSpline
210
0.0
220
0.0
230
1.0
 70
    11
 71
     3
 72
    17
 73
    13
 74
     0
 42
0.0000000001
 43
0.0000000001
 12
1.0
 22
0.0
 32
0.0
 13
1.0
 23
0.0
 33
0.0
 40
0.0
 40
0.0
 40
0.0
 40
0.0
 40
1.0
 40
1.0
 40
1.0
 40
2.0
 40
2.0
 40
2.0
 40
3.0
 40
3.0
 40
3.0
 40
4.0
 40
4.0
 40
4.0
 40
4.0
 10
461.9278345240127
 20
394.8693088373448
 30
0.0
 10
463.3446023177239
 20
390.9090659503108
 30
0.0
 10
462.1285980311659
 20
386.7983529829689
 30
0.0
 10
459.2118155556418
 20
385.687835180277
 30
0.0
 10
456.2949616848491
 20
384.5773252972431
 30
0.0
 10
452.7818144955145
 20
386.8874713369451
 30
0.0
 10
451.3649753065311
 20
390.847714223979
 30
0.0
 10
449.9482129369026
 20
394.8079571110129
 30
0.0
 10
451.1642117993797
 20
398.9186700783548
 30
0.0
 10
454.080994274902
 20
400.0291878810458
 30
0.0
 10
456.9978481456965
 20
401.1397056837368
 30
0.0
 10
460.5109953350293
 20
398.8295517243787
 30
0.0
 10
461.9278345240127
 20
394.8693088373448
 30
0.0
  0
SPLINE
  5
32B
330
2F9
100
AcDbEntity
  8
Connectors
 62
     7
420
 16776959
370
     5
100
AcDbSpline
210
0.0
220
0.0
230
1.0
 70
    11
 71
     3
 72
    17
 73
    13
 74
     0
 42
0.0000000001
 43
0.0000000001
 12
1.0
 22
0.0
 32
0.0
 13
1.0
 23
0.0
 33
0.0
 40
0.0
 40
0.0
 40
0.0
 40
0.0
 40
1.0
 40
1.0
 40
1.0
 40
2.0
 40
2.0
 40
2.0
 40
3.0
 40
3.0
 40
3.0
 40
4.0
 40
4.0
 40
4.0
 40
4.0
 10
458.3563573967913
 20
393.5095542496492
 30
0.0
 10
458.8324210759129
 20
392.1789001288653
 30
0.0
 10
458.452598224545
 20
390.808605260374
 30
0.0
 10
457.5078959746752
 20
390.4489648285853
 30
0.0
 10
456.5632651200831
 20
390.0892507452609
 30
0.0
 10
455.4115165790536
 20
390.8764383215421
 30
0.0
 10
454.9354528999338
 20
392.2071005540138
 30
0.0
 10
454.4593892208122
 20
393.537770932503
 30
0.0
 10
454.8392834674523
 20
394.9080495432881
 30
0.0
 10
455.7839143220499
 20
395.2677636266117
 30
0.0
 10
456.7286221672857
 20
395.6274040584021
 30
0.0
 10
457.8802937176715
 20
394.8402164821209
 30
0.0
 10
458.3563573967913
 20
393.5095542496492
 30
0.0
  0
MTEXT
  5
32C
330
2F9
100
AcDbEntity
  8
Connectors
 62
     7
420
 16776959
100
AcDbMText
 10
455.0853880834766
 20
396.7581493919715
 30
0.0
 40
1.319195180440944
 41
0.0
 46
0.0
 71
     7
 72
     1
  1
\fHelvetica Neue LT Std 77 Condensed|b1|i0|c0|p34;\W0.808141;WS22
 11
0.9736682486621002
 21
-0.22796960663053
 31
0.0
 73
     1
 44
1.0
  0
MTEXT
  5
32D
330
2F9
100
AcDbEntity
  8
Connectors
 62
     7
420
 16776959
100
AcDbMText
 10
455.7890167555306
 20
387.9063937249593
 30
0.0
 40
1.521066522212073
 41
0.0
 46
0.0
 71
     7
 72
     1
  1
\fHelvetica Neue LT Std 77 Condensed|b1|i0|c0|p34;\W0.808141;3.5
 11
0.9736682486621002
 21
-0.22796960663053
 31
0.0
 73
     1
 44
1.0
  0
INSERT
  5
32F
330
2F9
100
AcDbEntity
  8
Connectors
100
AcDbBlockReference
  2
block 47
 10
0.0
 20
0.0
 30
0.0
  0
ENDBLK
  5
2FC
330
2F9
100
AcDbEntity
  8
0
100
AcDbBlockEnd
  0
BLOCK
  5
330
330
32E
100
AcDbEntity
  8
0
100
AcDbBlockBegin
  2
block 47
 70
     0
 10
0.0
 20
0.0
 30
0.0
  3
block 47
  1

  0
INSERT
  5
333
330
32E
100
AcDbEntity
  8
Connectors
100
AcDbBlockReference
  2
block 48
 10
0.0
 20
0.0
 30
0.0
  0
INSERT
  5
347
330
32E
100
AcDbEntity
  8
Connectors
100
AcDbBlockReference
  2
block 49
 10
0.0
 20
0.0
 30
0.0
  0
ENDBLK
  5
331
330
32E
100
AcDbEntity
  8
0
100
AcDbBlockEnd
  0
BLOCK
  5
334
330
332
100
AcDbEntity
  8
0
100
AcDbBlockBegin
  2
block 48
 70
     0
 10
0.0
 20
0.0
 30
0.0
  3
block 48
  1

  0
POLYLINE
  5
336
330
332
100
AcDbEntity
  8
Connectors
370
     0
100
AcDb2dPolyline
 66
     1
 10
0.0
 20
0.0
 30
0.0
  0
VERTEX
  5
337
330
336
100
AcDbEntity
  8
Connectors
370
     0
100
AcDbVertex
100
AcDb2dVertex
 10
461.4030078735632
 20
391.9252361402396
 30
0.0
  0
VERTEX
  5
338
330
336
100
AcDbEntity
  8
Connectors
370
     0
100
AcDbVertex
100
AcDb2dVertex
 10
459.5050359410889
 20
392.4028007924453
 30
0.0
  0
VERTEX
  5
339
330
336
100
AcDbEntity
  8
Connectors
370
     0
100
AcDbVertex
100
AcDb2dVertex
 10
459.5050359410889
 20
392.6964413340293
 30
0.0
  0
VERTEX
  5
33A
330
336
100
AcDbEntity
  8
Connectors
370
     0
100
AcDbVertex
100
AcDb2dVertex
 10
461.4030078735632
 20
392.2188847991674
 30
0.0
  0
VERTEX
  5
33B
330
336
100
AcDbEntity
  8
Connectors
370
     0
100
AcDbVertex
100
AcDb2dVertex
 10
461.4030078735632
 20
391.9252361402396
 30
0.0
  0
SEQEND
  5
33D
330
336
100
AcDbEntity
  8
Connectors
370
     0
  0
HATCH
  5
33C
330
332
100
AcDbEntity
  8
Connectors
 62
     7
420
 16776959
100
AcDbHatch
 10
0.0
 20
0.0
 30
0.0
210
0.0
220
0.0
230
1.0
  2
SOLID
 70
     1
 71
     0
 91
        1
 92
        1
 93
        4
 72
     1
 10
461.4030078735632
 20
391.9252361402396
 11
459.5050359410889
 21
392.4028007924453
 72
     1
 10
459.5050359410889
 20
392.4028007924453
 11
459.5050359410889
 21
392.6964413340293
 72
     1
 10
459.5050359410889
 20
392.6964413340293
 11
461.4030078735632
 21
392.2188847991674
 72
     1
 10
461.4030078735632
 20
392.2188847991674
 11
461.4030078735632
 21
391.9252361402396
 97
        0
 75
     2
 76
     1
 98
        0
  0
POLYLINE
  5
33E
330
332
100
AcDbEntity
  8
Connectors
370
     0
100
AcDb2dPolyline
 66
     1
 10
0.0
 20
0.0
 30
0.0
  0
VERTEX
  5
33F
330
33E
100
AcDbEntity
  8
Connectors
370
     0
100
AcDbVertex
100
AcDb2dVertex
 10
461.4030078735632
 20
391.3248288496479
 30
0.0
  0
VERTEX
  5
340
330
33E
100
AcDbEntity
  8
Connectors
370
     0
100
AcDbVertex
100
AcDb2dVertex
 10
459.5050359410889
 20
391.8023853845098
 30
0.0
  0
VERTEX
  5
341
330
33E
100
AcDbEntity
  8
Connectors
370
     0
100
AcDbVertex
100
AcDb2dVertex
 10
459.5050359410889
 20
392.0960340434394
 30
0.0
  0
VERTEX
  5
342
330
33E
100
AcDbEntity
  8
Connectors
370
     0
100
AcDbVertex
100
AcDb2dVertex
 10
461.4030078735632
 20
391.6184775085767
 30
0.0
  0
VERTEX
  5
343
330
33E
100
AcDbEntity
  8
Connectors
370
     0
100
AcDbVertex
100
AcDb2dVertex
 10
461.4030078735632
 20
391.3248288496479
 30
0.0
  0
SEQEND
  5
345
330
33E
100
AcDbEntity
  8
Connectors
370
     0
  0
HATCH
  5
344
330
332
100
AcDbEntity
  8
Connectors
 62
     7
420
 16776959
100
AcDbHatch
 10
0.0
 20
0.0
 30
0.0
210
0.0
220
0.0
230
1.0
  2
SOLID
 70
     1
 71
     0
 91
        1
 92
        1
 93
        4
 72
     1
 10
461.4030078735632
 20
391.3248288496479
 11
459.5050359410889
 21
391.8023853845098
 72
     1
 10
459.5050359410889
 20
391.8023853845098
 11
459.5050359410889
 21
392.0960340434394
 72
     1
 10
459.5050359410889
 20
392.0960340434394
 11
461.4030078735632
 21
391.6184775085767
 72
     1
 10
461.4030078735632
 20
391.6184775085767
 11
461.4030078735632
 21
391.3248288496479
 97
        0
 75
     2
 76
     1
 98
        0
  0
ENDBLK
  5
335
330
332
100
AcDbEntity
  8
0
100
AcDbBlockEnd
  0
BLOCK
  5
348
330
346
100
AcDbEntity
  8
0
100
AcDbBlockBegin
  2
block 49
 70
     0
 10
0.0
 20
0.0
 30
0.0
  3
block 49
  1

  0
POLYLINE
  5
34A
330
346
100
AcDbEntity
  8
Connectors
370
     0
100
AcDb2dPolyline
 66
     1
 10
0.0
 20
0.0
 30
0.0
  0
VERTEX
  5
34B
330
34A
100
AcDbEntity
  8
Connectors
370
     0
100
AcDbVertex
100
AcDb2dVertex
 10
459.8847160019104
 20
391.0350100703954
 30
0.0
  0
VERTEX
  5
34C
330
34A
100
AcDbEntity
  8
Connectors
370
     0
100
AcDbVertex
100
AcDb2dVertex
 10
459.7993329285673
 20
391.1342923358152
 30
0.0
  0
VERTEX
  5
34D
330
34A
100
AcDbEntity
  8
Connectors
370
     0
100
AcDbVertex
100
AcDb2dVertex
 10
461.1057179575655
 20
392.9654985127581
 30
0.0
  0
VERTEX
  5
34E
330
34A
100
AcDbEntity
  8
Connectors
370
     0
100
AcDbVertex
100
AcDb2dVertex
 10
461.1911067038527
 20
392.8662081157781
 30
0.0
  0
VERTEX
  5
34F
330
34A
100
AcDbEntity
  8
Connectors
370
     0
100
AcDbVertex
100
AcDb2dVertex
 10
459.8847160019104
 20
391.0350100703954
 30
0.0
  0
SEQEND
  5
351
330
34A
100
AcDbEntity
  8
Connectors
370
     0
  0
HATCH
  5
350
330
346
100
AcDbEntity
  8
Connectors
 62
     7
420
 16776959
100
AcDbHatch
 10
0.0
 20
0.0
 30
0.0
210
0.0
220
0.0
230
1.0
  2
SOLID
 70
     1
 71
     0
 91
        1
 92
        1
 93
        4
 72
     1
 10
459.8847160019104
 20
391.0350100703954
 11
459.7993329285673
 21
391.1342923358152
 72
     1
 10
459.7993329285673
 20
391.1342923358152
 11
461.1057179575655
 21
392.9654985127581
 72
     1
 10
461.1057179575655
 20
392.9654985127581
 11
461.1911067038527
 21
392.8662081157781
 72
     1
 10
461.1911067038527
 20
392.8662081157781
 11
459.8847160019104
 21
391.0350100703954
 97
        0
 75
     2
 76
     1
 98
        0
  0
ENDBLK
  5
349
330
346
100
AcDbEntity
  8
0
100
AcDbBlockEnd
  0
ENDSEC
  0
SECTION
  2
ENTITIES
  0
INSERT
  5
42
330
1F
100
AcDbEntity
  8
Wood
100
AcDbBlockReference
  2
block 2
 10
0.0
 20
0.0
 30
0.0
  0
INSERT
  5
CE
330
1F
100
AcDbEntity
  8
Wood
100
AcDbBlockReference
  2
block 14
 10
0.0
 20
0.0
 30
0.0
  0
INSERT
  5
14C
330
1F
100
AcDbEntity
  8
Wood
100
AcDbBlockReference
  2
block 21
 10
0.0
 20
0.0
 30
0.0
  0
INSERT
  5
198
330
1F
100
AcDbEntity
  8
Connectors
100
AcDbBlockReference
  2
block 22
 10
0.0
 20
0.0
 30
0.0
  0
INSERT
  5
1BB
330
1F
100
AcDbEntity
  8
Connectors
100
AcDbBlockReference
  2
block 24
 10
0.0
 20
0.0
 30
0.0
  0
INSERT
  5
287
330
1F
100
AcDbEntity
  8
Connectors
100
AcDbBlockReference
  2
block 37
 10
0.0
 20
0.0
 30
0.0
  0
MTEXT
  5
352
330
1F
100
AcDbEntity
  8
Connectors
 62
     7
420
 16776959
100
AcDbMText
 10
444.0464162743883
 20
411.6811146624241
 30
0.0
 40
2.964613020611257
 41
0.0
 46
0.0
 71
     7
 72
     1
  1
\fHelvetica LT Std Condensed|b0|i0|c0|p34;\W0.982004;SIMPSON
 11
0.9721259946592646
 21
-0.2344590593424264
 31
0.0
 73
     1
 44
1.0
  0
MTEXT
  5
353
330
1F
100
AcDbEntity
  8
Connectors
 62
     7
420
 16776959
100
AcDbMText
 10
442.8094188983086
 20
407.672326961736
 30
0.0
 40
2.964613020611257
 41
0.0
 46
0.0
 71
     7
 72
     1
  1
\fHelvetica LT Std Condensed|b0|i0|c0|p34;\W0.982004;Strong-Tie\H1.48231;®
 11
0.9721259946592646
 21
-0.2344590593424264
 31
0.0
 73
     1
 44
1.0
  0
MTEXT
  5
354
330
1F
100
AcDbEntity
  8
Connectors
 62
     7
420
 16776959
100
AcDbMText
 10
425.399464730639
 20
317.669451991329
 30
0.0
 40
2.972233689299786
 41
0.0
 46
0.0
 71
     7
 72
     1
  1
\fHelvetica LT Std Condensed|b0|i0|c0|p34;\W1.02469;APVDJT
 11
0.9842933590247339
 21
-0.1765405998058412
 31
0.0
 73
     1
 44
1.0
  0
MTEXT
  5
356
330
1F
100
AcDbEntity
  8
Layer 3
 62
   250
420
  2236191
100
AcDbMText
 10
360.5351104736328
 20
156.9828414916992
 30
0.0
 40
8.495999999999999
 41
0.0
 46
0.0
 71
     7
 72
     1
  1
\fHelvetica Neue LT Std 55 Roman|b0|i0|c0|p34;\W1;SIMPSON Strong-Tie\H4.248;®\H8.496; ^C
 73
     1
 44
1.0
  0
MTEXT
  5
357
330
1F
100
AcDbEntity
  8
Layer 3
 62
   250
420
  2236191
100
AcDbMText
 10
332.3715362548828
 20
142.5834274291992
 30
0.0
 40
8.495999999999999
 41
0.0
 46
0.0
 71
     7
 72
     1
  1
\fHelvetica Neue LT Std 55 Roman|b0|i0|c0|p34;\W1;APDJT Joist-to-Post Connection 
 73
     1
 44
1.0
  0
MTEXT
  5
358
330
1F
100
AcDbEntity
  8
Layer 3
 62
   250
420
  2236191
100
AcDbMText
 10
493.2599945068359
 20
283.6068620681763
 30
0.0
 40
8.495999999999999
 41
0.0
 46
0.0
 71
     7
 72
     1
  1
\fHelvetica Neue LT Std 57 Condensed|b0|i0|c0|p34;\W1;APDJT Deck Joist Tie
 73
     1
 44
1.0
  0
MTEXT
  5
359
330
1F
100
AcDbEntity
  8
Layer 3
 62
   250
420
  2236191
100
AcDbMText
 10
313.5003471374512
 20
236.1714324951172
 30
0.0
 40
8.495999999999999
 41
0.0
 46
0.0
 71
     7
 72
     1
  1
\fHelvetica Neue LT Std 57 Condensed|b0|i0|c0|p34;\W1;Post
 73
     1
 44
1.0
  0
MTEXT
  5
35A
330
1F
100
AcDbEntity
  8
Layer 3
 62
   250
420
  2236191
100
AcDbMText
 10
571.1541442871094
 20
314.1208324432373
 30
0.0
 40
8.495999999999999
 41
0.0
 46
0.0
 71
     7
 72
     1
  1
\fHelvetica Neue LT Std 57 Condensed|b0|i0|c0|p34;\W1;Joist
 73
     1
 44
1.0
  0
MTEXT
  5
35B
330
1F
100
AcDbEntity
  8
Layer 3
 62
   250
420
  2236191
100
AcDbMText
 10
493.2597351074219
 20
255.5699729919434
 30
0.0
 40
8.495999999999999
 41
0.0
 46
0.0
 71
     7
 72
     1
  1
\fHelvetica Neue LT Std 57 Condensed|b0|i0|c0|p34;\W1;Hex-Head Washer
 73
     1
 44
1.0
  0
POLYLINE
  5
35C
330
1F
100
AcDbEntity
  8
Layer 3
 62
   250
420
  2236191
370
    18
100
AcDb2dPolyline
 66
     1
 10
0.0
 20
0.0
 30
0.0
  0
VERTEX
  5
35D
330
35C
100
AcDbEntity
  8
Layer 3
 62
   250
420
  2236191
370
    18
100
AcDbVertex
100
AcDb2dVertex
 10
484.695257121024
 20
289.5980488956902
 30
0.0
  0
VERTEX
  5
35E
330
35C
100
AcDbEntity
  8
Layer 3
 62
   250
420
  2236191
370
    18
100
AcDbVertex
100
AcDb2dVertex
 10
452.5036205633824
 20
316.3174765721551
 30
0.0
  0
SEQEND
  5
35F
330
35C
100
AcDbEntity
  8
Layer 3
 62
   250
420
  2236191
370
    18
  0
POLYLINE
  5
360
330
1F
100
AcDbEntity
  8
Layer 3
 62
   250
420
  2236191
370
    18
100
AcDb2dPolyline
 66
     1
 10
0.0
 20
0.0
 30
0.0
  0
VERTEX
  5
361
330
360
100
AcDbEntity
  8
Layer 3
 62
   250
420
  2236191
370
    18
100
AcDbVertex
100
AcDb2dVertex
 10
566.8471154978724
 20
321.1849970956664
 30
0.0
  0
VERTEX
  5
362
330
360
100
AcDbEntity
  8
Layer 3
 62
   250
420
  2236191
370
    18
100
AcDbVertex
100
AcDb2dVertex
 10
542.8303019127779
 20
336.5285736610076
 30
0.0
  0
SEQEND
  5
363
330
360
100
AcDbEntity
  8
Layer 3
 62
   250
420
  2236191
370
    18
  0
POLYLINE
  5
364
330
1F
100
AcDbEntity
  8
Layer 3
 62
   250
420
  2236191
370
    18
100
AcDb2dPolyline
 66
     1
 10
0.0
 20
0.0
 30
0.0
  0
VERTEX
  5
365
330
364
100
AcDbEntity
  8
Layer 3
 62
   250
420
  2236191
370
    18
100
AcDbVertex
100
AcDb2dVertex
 10
484.695257121024
 20
261.5957446808497
 30
0.0
  0
VERTEX
  5
366
330
364
100
AcDbEntity
  8
Layer 3
 62
   250
420
  2236191
370
    18
100
AcDbVertex
100
AcDb2dVertex
 10
443.5537326323065
 20
294.2062433169322
 30
0.0
  0
SEQEND
  5
367
330
364
100
AcDbEntity
  8
Layer 3
 62
   250
420
  2236191
370
    18
  0
POLYLINE
  5
368
330
1F
100
AcDbEntity
  8
Layer 3
 62
   250
420
  2236191
370
    18
100
AcDb2dPolyline
 66
     1
 10
0.0
 20
0.0
 30
0.0
  0
VERTEX
  5
369
330
368
100
AcDbEntity
  8
Layer 3
 62
   250
420
  2236191
370
    18
100
AcDbVertex
100
AcDb2dVertex
 10
337.0808244130176
 20
240.7249905557765
 30
0.0
  0
VERTEX
  5
36A
330
368
100
AcDbEntity
  8
Layer 3
 62
   250
420
  2236191
370
    18
100
AcDbVertex
100
AcDb2dVertex
 10
369.5038495419549
 20
255.5677238573808
 30
0.0
  0
SEQEND
  5
36B
330
368
100
AcDbEntity
  8
Layer 3
 62
   250
420
  2236191
370
    18
  0
ENDSEC
  0
SECTION
  2
OBJECTS
  0
DICTIONARY
  5
C
330
0
100
AcDbDictionary
281
     1
  3
ACAD_GROUP
350
D
  3
ACAD_LAYOUT
350
1A
  3
ACAD_MATERIAL
350
3B
  3
ACAD_MLEADERSTYLE
350
36D
  3
ACAD_MLINESTYLE
350
17
  3
ACAD_PLOTSETTINGS
350
19
  3
ACAD_PLOTSTYLENAME
350
E
  3
ACAD_TABLESTYLE
350
36C
  3
ACAD_VISUALSTYLE
350
2A
  0
SUN
  5
3F
330
29
100
AcDbSun
 90
        1
290
     0
 63
     7
421
 16777215
 40
1.0
291
     1
 91
  2455826
 92
 54000000
292
     0
 70
     2
 71
   256
280
     1
  0
DICTIONARY
  5
D
102
{ACAD_REACTORS
330
C
102
}
330
C
100
AcDbDictionary
281
     1
  0
DICTIONARY
  5
1A
102
{ACAD_REACTORS
330
C
102
}
330
C
100
AcDbDictionary
281
     1
  3
Layout1
350
1E
  3
Layout2
350
26
  3
Model
350
22
  0
DICTIONARY
  5
3B
102
{ACAD_REACTORS
330
C
102
}
330
C
100
AcDbDictionary
281
     1
  3
ByBlock
350
3D
  3
ByLayer
350
3C
  3
Global
350
3E
  0
DICTIONARY
  5
36D
102
{ACAD_REACTORS
330
C
102
}
330
C
100
AcDbDictionary
281
     1
  0
DICTIONARY
  5
17
102
{ACAD_REACTORS
330
C
102
}
330
C
100
AcDbDictionary
281
     1
  3
Standard
350
18
  0
DICTIONARY
  5
19
102
{ACAD_REACTORS
330
C
102
}
330
C
100
AcDbDictionary
281
     1
  0
ACDBDICTIONARYWDFLT
  5
E
102
{ACAD_REACTORS
330
C
102
}
330
C
100
AcDbDictionary
281
     1
  3
Normal
350
F
100
AcDbDictionaryWithDefault
340
F
  0
DICTIONARY
  5
36C
102
{ACAD_REACTORS
330
C
102
}
330
C
100
AcDbDictionary
281
     1
  0
DICTIONARY
  5
2A
102
{ACAD_REACTORS
330
C
102
}
330
C
100
AcDbDictionary
281
     1
  3
2dWireframe
350
2F
  3
3D Hidden
350
31
  3
3dWireframe
350
30
  3
Basic
350
32
  3
Brighten
350
36
  3
ColorChange
350
3A
  3
Conceptual
350
34
  3
Dim
350
35
  3
Facepattern
350
39
  3
Flat
350
2B
  3
FlatWithEdges
350
2C
  3
Gouraud
350
2D
  3
GouraudWithEdges
350
2E
  3
Linepattern
350
38
  3
Realistic
350
33
  3
Thicken
350
37
  0
LAYOUT
  5
1E
102
{ACAD_REACTORS
330
1A
102
}
330
1A
100
AcDbPlotSettings
  1

  2
none_device
  4

  6

 40
0.0
 41
0.0
 42
0.0
 43
0.0
 44
0.0
 45
0.0
 46
0.0
 47
0.0
 48
0.0
 49
0.0
140
0.0
141
0.0
142
1.0
143
1.0
 70
   688
 72
     0
 73
     0
 74
     5
  7

 75
    16
 76
     0
 77
     2
 78
   300
147
1.0
148
0.0
149
0.0
100
AcDbLayout
  1
Layout1
 70
     1
 71
     1
 10
0.0
 20
0.0
 11
12.0
 21
9.0
 12
0.0
 22
0.0
 32
0.0
 14
1.000000000000000E+20
 24
1.000000000000000E+20
 34
1.000000000000000E+20
 15
-1.000000000000000E+20
 25
-1.000000000000000E+20
 35
-1.000000000000000E+20
146
0.0
 13
0.0
 23
0.0
 33
0.0
 16
1.0
 26
0.0
 36
0.0
 17
0.0
 27
1.0
 37
0.0
 76
     0
330
1B
  0
LAYOUT
  5
26
102
{ACAD_REACTORS
330
1A
102
}
330
1A
100
AcDbPlotSettings
  1

  2
none_device
  4

  6

 40
0.0
 41
0.0
 42
0.0
 43
0.0
 44
0.0
 45
0.0
 46
0.0
 47
0.0
 48
0.0
 49
0.0
140
0.0
141
0.0
142
1.0
143
1.0
 70
   688
 72
     0
 73
     0
 74
     5
  7

 75
    16
 76
     0
 77
     2
 78
   300
147
1.0
148
0.0
149
0.0
100
AcDbLayout
  1
Layout2
 70
     1
 71
     2
 10
0.0
 20
0.0
 11
0.0
 21
0.0
 12
0.0
 22
0.0
 32
0.0
 14
0.0
 24
0.0
 34
0.0
 15
0.0
 25
0.0
 35
0.0
146
0.0
 13
0.0
 23
0.0
 33
0.0
 16
1.0
 26
0.0
 36
0.0
 17
0.0
 27
1.0
 37
0.0
 76
     0
330
23
  0
LAYOUT
  5
22
102
{ACAD_REACTORS
330
1A
102
}
330
1A
100
AcDbPlotSettings
  1

  2
none_device
  4

  6

 40
0.0
 41
0.0
 42
0.0
 43
0.0
 44
0.0
 45
0.0
 46
0.0
 47
0.0
 48
0.0
 49
0.0
140
0.0
141
0.0
142
1.0
143
1.0
 70
  1712
 72
     0
 73
     0
 74
     0
  7

 75
     0
 76
     0
 77
     2
 78
   300
147
1.0
148
0.0
149
0.0
100
AcDbLayout
  1
Model
 70
     1
 71
     0
 10
0.0
 20
0.0
 11
12.0
 21
9.0
 12
0.0
 22
0.0
 32
0.0
 14
1.000000000000000E+20
 24
1.000000000000000E+20
 34
1.000000000000000E+20
 15
-1.000000000000000E+20
 25
-1.000000000000000E+20
 35
-1.000000000000000E+20
146
0.0
 13
0.0
 23
0.0
 33
0.0
 16
1.0
 26
0.0
 36
0.0
 17
0.0
 27
1.0
 37
0.0
 76
     0
330
1F
331
29
  0
MATERIAL
  5
3D
102
{ACAD_REACTORS
330
3B
102
}
330
3B
100
AcDbMaterial
  1
ByBlock
 72
     1
 94
      127
  0
MATERIAL
  5
3C
102
{ACAD_REACTORS
330
3B
102
}
330
3B
100
AcDbMaterial
  1
ByLayer
 72
     1
 94
      127
  0
MATERIAL
  5
3E
102
{ACAD_REACTORS
330
3B
102
}
330
3B
100
AcDbMaterial
  1
Global
 72
     1
 94
      127
  0
MLINESTYLE
  5
18
102
{ACAD_REACTORS
330
17
102
}
330
17
100
AcDbMlineStyle
  2
Standard
 70
     0
  3

 62
   256
 51
90.0
 52
90.0
 71
     2
 49
0.5
 62
   256
  6
BYLAYER
 49
-0.5
 62
   256
  6
BYLAYER
  0
ACDBPLACEHOLDER
  5
F
102
{ACAD_REACTORS
330
E
102
}
330
E
  0
VISUALSTYLE
  5
2F
102
{ACAD_REACTORS
330
2A
102
}
330
2A
100
AcDbVisualStyle
  2
2dWireframe
 70
     4
177
     2
291
     0
 71
     0
176
     1
 72
     2
176
     1
 73
     0
176
     1
 90
        0
176
     1
 40
-0.6
176
     1
 41
-30.0
176
     1
 62
     5
 63
     7
421
 16777215
176
     1
 74
     1
176
     1
 91
        4
176
     1
 64
     7
176
     1
 65
   257
176
     1
 75
     1
176
     1
175
     1
176
     1
 42
1.0
176
     1
 92
        0
176
     1
 66
   257
176
     1
 43
1.0
176
     1
 76
     1
176
     1
 77
     6
176
     1
 78
     2
176
     1
 67
     7
176
     1
 79
     5
176
     1
170
     0
176
     1
171
     0
176
     1
290
     0
176
     1
 93
        1
176
     1
 44
0.0
176
     1
173
     0
176
     1
  0
VISUALSTYLE
  5
31
102
{ACAD_REACTORS
330
2A
102
}
330
2A
100
AcDbVisualStyle
  2
3D Hidden
 70
     6
177
     2
291
     0
 71
     1
176
     1
 72
     2
176
     1
 73
     2
176
     1
 90
        0
176
     1
 40
-0.6
176
     1
 41
-30.0
176
     1
 62
     5
 63
     7
421
 16777215
176
     1
 74
     2
176
     1
 91
        2
176
     1
 64
     7
176
     1
 65
   257
176
     1
 75
     2
176
     1
175
     1
176
     1
 42
40.0
176
     1
 92
        0
176
     1
 66
   257
176
     1
 43
1.0
176
     1
 76
     1
176
     1
 77
     6
176
     1
 78
     2
176
     1
 67
     7
176
     1
 79
     3
176
     1
170
     0
176
     1
171
     0
176
     1
290
     0
176
     1
 93
        1
176
     1
 44
0.0
176
     1
173
     0
176
     1
  0
VISUALSTYLE
  5
30
102
{ACAD_REACTORS
330
2A
102
}
330
2A
100
AcDbVisualStyle
  2
3dWireframe
 70
     5
177
     2
291
     0
 71
     0
176
     1
 72
     2
176
     1
 73
     0
176
     1
 90
        0
176
     1
 40
-0.6
176
     1
 41
-30.0
176
     1
 62
     5
 63
     7
421
 16777215
176
     1
 74
     1
176
     1
 91
        4
176
     1
 64
     7
176
     1
 65
   257
176
     1
 75
     1
176
     1
175
     1
176
     1
 42
1.0
176
     1
 92
        0
176
     1
 66
   257
176
     1
 43
1.0
176
     1
 76
     1
176
     1
 77
     6
176
     1
 78
     2
176
     1
 67
     7
176
     1
 79
     5
176
     1
170
     0
176
     1
171
     0
176
     1
290
     0
176
     1
 93
        1
176
     1
 44
0.0
176
     1
173
     0
176
     1
  0
VISUALSTYLE
  5
32
102
{ACAD_REACTORS
330
2A
102
}
330
2A
100
AcDbVisualStyle
  2
Basic
 70
     7
177
     2
291
     1
 71
     1
176
     1
 72
     0
176
     1
 73
     1
176
     1
 90
        0
176
     1
 40
-0.6
176
     1
 41
-30.0
176
     1
 62
     5
 63
     7
421
 16777215
176
     1
 74
     0
176
     1
 91
        4
176
     1
 64
     7
176
     1
 65
   257
176
     1
 75
     1
176
     1
175
     1
176
     1
 42
1.0
176
     1
 92
        8
176
     1
 66
     7
176
     1
 43
1.0
176
     1
 76
     1
176
     1
 77
     6
176
     1
 78
     2
176
     1
 67
     7
176
     1
 79
     5
176
     1
170
     0
176
     1
171
     0
176
     1
290
     0
176
     1
 93
        1
176
     1
 44
0.0
176
     1
173
     0
176
     1
  0
VISUALSTYLE
  5
36
102
{ACAD_REACTORS
330
2A
102
}
330
2A
100
AcDbVisualStyle
  2
Brighten
 70
    12
177
     2
291
     1
 71
     2
176
     1
 72
     2
176
     1
 73
     0
176
     1
 90
        0
176
     1
 40
-0.6
176
     1
 41
-30.0
176
     1
 62
     5
 63
     7
421
 16777215
176
     1
 74
     1
176
     1
 91
        4
176
     1
 64
     7
176
     1
 65
   257
176
     1
 75
     1
176
     1
175
     1
176
     1
 42
1.0
176
     1
 92
        8
176
     1
 66
     7
176
     1
 43
1.0
176
     1
 76
     1
176
     1
 77
     6
176
     1
 78
     2
176
     1
 67
     7
176
     1
 79
     5
176
     1
170
     0
176
     1
171
     0
176
     1
290
     0
176
     1
 93
        1
176
     1
 44
50.0
176
     1
173
     0
176
     1
  0
VISUALSTYLE
  5
3A
102
{ACAD_REACTORS
330
2A
102
}
330
2A
100
AcDbVisualStyle
  2
ColorChange
 70
    16
177
     2
291
     1
 71
     2
176
     1
 72
     2
176
     1
 73
     3
176
     1
 90
        0
176
     1
 40
-0.6
176
     1
 41
-30.0
176
     1
 62
     5
 63
     8
421
  8421504
176
     1
 74
     1
176
     1
 91
        4
176
     1
 64
     7
176
     1
 65
   257
176
     1
 75
     1
176
     1
175
     1
176
     1
 42
1.0
176
     1
 92
        8
176
     1
 66
     8
424
  8421504
176
     1
 43
1.0
176
     1
 76
     1
176
     1
 77
     6
176
     1
 78
     2
176
     1
 67
     7
176
     1
 79
     5
176
     1
170
     0
176
     1
171
     0
176
     1
290
     0
176
     1
 93
        1
176
     1
 44
0.0
176
     1
173
     0
176
     1
  0
VISUALSTYLE
  5
34
102
{ACAD_REACTORS
330
2A
102
}
330
2A
100
AcDbVisualStyle
  2
Conceptual
 70
     9
177
     2
291
     0
 71
     3
176
     1
 72
     2
176
     1
 73
     0
176
     1
 90
        0
176
     1
 40
-0.6
176
     1
 41
-30.0
176
     1
 62
     5
 63
     7
421
 16777215
176
     1
 74
     2
176
     1
 91
        2
176
     1
 64
     7
176
     1
 65
   257
176
     1
 75
     1
176
     1
175
     1
176
     1
 42
40.0
176
     1
 92
        8
176
     1
 66
     7
176
     1
 43
1.0
176
     1
 76
     1
176
     1
 77
     6
176
     1
 78
     2
176
     1
 67
     7
176
     1
 79
     3
176
     1
170
     0
176
     1
171
     0
176
     1
290
     0
176
     1
 93
        1
176
     1
 44
0.0
176
     1
173
     0
176
     1
  0
VISUALSTYLE
  5
35
102
{ACAD_REACTORS
330
2A
102
}
330
2A
100
AcDbVisualStyle
  2
Dim
 70
    11
177
     2
291
     1
 71
     2
176
     1
 72
     2
176
     1
 73
     0
176
     1
 90
        0
176
     1
 40
-0.6
176
     1
 41
-30.0
176
     1
 62
     5
 63
     7
421
 16777215
176
     1
 74
     1
176
     1
 91
        4
176
     1
 64
     7
176
     1
 65
   257
176
     1
 75
     1
176
     1
175
     1
176
     1
 42
1.0
176
     1
 92
        8
176
     1
 66
     7
176
     1
 43
1.0
176
     1
 76
     1
176
     1
 77
     6
176
     1
 78
     2
176
     1
 67
     7
176
     1
 79
     5
176
     1
170
     0
176
     1
171
     0
176
     1
290
     0
176
     1
 93
        1
176
     1
 44
-50.0
176
     1
173
     0
176
     1
  0
VISUALSTYLE
  5
39
102
{ACAD_REACTORS
330
2A
102
}
330
2A
100
AcDbVisualStyle
  2
Facepattern
 70
    15
177
     2
291
     1
 71
     2
176
     1
 72
     2
176
     1
 73
     0
176
     1
 90
        0
176
     1
 40
-0.6
176
     1
 41
-30.0
176
     1
 62
     5
 63
     7
421
 16777215
176
     1
 74
     1
176
     1
 91
        4
176
     1
 64
     7
176
     1
 65
   257
176
     1
 75
     1
176
     1
175
     1
176
     1
 42
1.0
176
     1
 92
        8
176
     1
 66
     7
176
     1
 43
1.0
176
     1
 76
     1
176
     1
 77
     6
176
     1
 78
     2
176
     1
 67
     7
176
     1
 79
     5
176
     1
170
     0
176
     1
171
     0
176
     1
290
     0
176
     1
 93
        1
176
     1
 44
0.0
176
     1
173
     0
176
     1
  0
VISUALSTYLE
  5
2B
102
{ACAD_REACTORS
330
2A
102
}
330
2A
100
AcDbVisualStyle
  2
Flat
 70
     0
177
     2
291
     1
 71
     2
176
     1
 72
     1
176
     1
 73
     1
176
     1
 90
        2
176
     1
 40
-0.6
176
     1
 41
30.0
176
     1
 62
     5
 63
     7
421
 16777215
176
     1
 74
     0
176
     1
 91
        4
176
     1
 64
     7
176
     1
 65
   257
176
     1
 75
     1
176
     1
175
     1
176
     1
 42
1.0
176
     1
 92
        8
176
     1
 66
     7
176
     1
 43
1.0
176
     1
 76
     1
176
     1
 77
     6
176
     1
 78
     2
176
     1
 67
     7
176
     1
 79
     5
176
     1
170
     0
176
     1
171
     0
176
     1
290
     0
176
     1
 93
       13
176
     1
 44
0.0
176
     1
173
     0
176
     1
  0
VISUALSTYLE
  5
2C
102
{ACAD_REACTORS
330
2A
102
}
330
2A
100
AcDbVisualStyle
  2
FlatWithEdges
 70
     1
177
     2
291
     1
 71
     2
176
     1
 72
     1
176
     1
 73
     1
176
     1
 90
        2
176
     1
 40
-0.6
176
     1
 41
30.0
176
     1
 62
     5
 63
     7
421
 16777215
176
     1
 74
     1
176
     1
 91
        4
176
     1
 64
     7
176
     1
 65
   257
176
     1
 75
     1
176
     1
175
     1
176
     1
 42
1.0
176
     1
 92
        0
176
     1
 66
   257
176
     1
 43
1.0
176
     1
 76
     1
176
     1
 77
     6
176
     1
 78
     2
176
     1
 67
     7
176
     1
 79
     5
176
     1
170
     0
176
     1
171
     0
176
     1
290
     0
176
     1
 93
       13
176
     1
 44
0.0
176
     1
173
     0
176
     1
  0
VISUALSTYLE
  5
2D
102
{ACAD_REACTORS
330
2A
102
}
330
2A
100
AcDbVisualStyle
  2
Gouraud
 70
     2
177
     2
291
     1
 71
     2
176
     1
 72
     2
176
     1
 73
     1
176
     1
 90
        2
176
     1
 40
-0.6
176
     1
 41
30.0
176
     1
 62
     5
 63
     7
421
 16777215
176
     1
 74
     0
176
     1
 91
        4
176
     1
 64
     7
176
     1
 65
   257
176
     1
 75
     1
176
     1
175
     1
176
     1
 42
1.0
176
     1
 92
        0
176
     1
 66
     7
176
     1
 43
1.0
176
     1
 76
     1
176
     1
 77
     6
176
     1
 78
     2
176
     1
 67
     7
176
     1
 79
     5
176
     1
170
     0
176
     1
171
     0
176
     1
290
     0
176
     1
 93
       13
176
     1
 44
0.0
176
     1
173
     0
176
     1
  0
VISUALSTYLE
  5
2E
102
{ACAD_REACTORS
330
2A
102
}
330
2A
100
AcDbVisualStyle
  2
GouraudWithEdges
 70
     3
177
     2
291
     1
 71
     2
176
     1
 72
     2
176
     1
 73
     1
176
     1
 90
        2
176
     1
 40
-0.6
176
     1
 41
30.0
176
     1
 62
     5
 63
     7
421
 16777215
176
     1
 74
     1
176
     1
 91
        4
176
     1
 64
     7
176
     1
 65
   257
176
     1
 75
     1
176
     1
175
     1
176
     1
 42
1.0
176
     1
 92
        0
176
     1
 66
   257
176
     1
 43
1.0
176
     1
 76
     1
176
     1
 77
     6
176
     1
 78
     2
176
     1
 67
     7
176
     1
 79
     5
176
     1
170
     0
176
     1
171
     0
176
     1
290
     0
176
     1
 93
       13
176
     1
 44
0.0
176
     1
173
     0
176
     1
  0
VISUALSTYLE
  5
38
102
{ACAD_REACTORS
330
2A
102
}
330
2A
100
AcDbVisualStyle
  2
Linepattern
 70
    14
177
     2
291
     1
 71
     2
176
     1
 72
     2
176
     1
 73
     0
176
     1
 90
        0
176
     1
 40
-0.6
176
     1
 41
-30.0
176
     1
 62
     5
 63
     7
421
 16777215
176
     1
 74
     1
176
     1
 91
        4
176
     1
 64
     7
176
     1
 65
   257
176
     1
 75
     7
176
     1
175
     7
176
     1
 42
1.0
176
     1
 92
        8
176
     1
 66
     7
176
     1
 43
1.0
176
     1
 76
     1
176
     1
 77
     6
176
     1
 78
     2
176
     1
 67
     7
176
     1
 79
     5
176
     1
170
     0
176
     1
171
     0
176
     1
290
     0
176
     1
 93
        1
176
     1
 44
0.0
176
     1
173
     0
176
     1
  0
VISUALSTYLE
  5
33
102
{ACAD_REACTORS
330
2A
102
}
330
2A
100
AcDbVisualStyle
  2
Realistic
 70
     8
177
     2
291
     0
 71
     2
176
     1
 72
     2
176
     1
 73
     0
176
     1
 90
        0
176
     1
 40
-0.6
176
     1
 41
-30.0
176
     1
 62
     5
 63
     7
421
 16777215
176
     1
 74
     1
176
     1
 91
        0
176
     1
 64
     7
176
     1
 65
   257
176
     1
 75
     1
176
     1
175
     1
176
     1
 42
1.0
176
     1
 92
        8
176
     1
 66
     8
424
  7895160
176
     1
 43
1.0
176
     1
 76
     1
176
     1
 77
     6
176
     1
 78
     2
176
     1
 67
     7
176
     1
 79
     5
176
     1
170
     0
176
     1
171
     0
176
     1
290
     0
176
     1
 93
       13
176
     1
 44
0.0
176
     1
173
     0
176
     1
  0
VISUALSTYLE
  5
37
102
{ACAD_REACTORS
330
2A
102
}
330
2A
100
AcDbVisualStyle
  2
Thicken
 70
    13
177
     2
291
     1
 71
     2
176
     1
 72
     2
176
     1
 73
     0
176
     1
 90
        0
176
     1
 40
-0.6
176
     1
 41
-30.0
176
     1
 62
     5
 63
     7
421
 16777215
176
     1
 74
     1
176
     1
 91
        4
176
     1
 64
     7
176
     1
 65
   257
176
     1
 75
     1
176
     1
175
     1
176
     1
 42
1.0
176
     1
 92
       12
176
     1
 66
     7
176
     1
 43
1.0
176
     1
 76
     1
176
     1
 77
     6
176
     1
 78
     2
176
     1
 67
     7
176
     1
 79
     5
176
     1
170
     0
176
     1
171
     0
176
     1
290
     0
176
     1
 93
        1
176
     1
 44
0.0
176
     1
173
     0
176
     1
  0
ENDSEC
  0
EOF
