  0
SECTION
  2
HEADER
  9
$ACADVER
  1
AC1024
  9
$ACADMAINTVER
 70
     6
  9
$DWGCODEPAGE
  3
ANSI_1252
  9
$INSBASE
 10
0.0
 20
0.0
 30
0.0
  9
$EXTMIN
 10
1.000000000000000E+20
 20
1.000000000000000E+20
 30
1.000000000000000E+20
  9
$EXTMAX
 10
-1.000000000000000E+20
 20
-1.000000000000000E+20
 30
-1.000000000000000E+20
  9
$LIMMIN
 10
0.0
 20
0.0
  9
$LIMMAX
 10
12.0
 20
9.0
  9
$ORTHOMODE
 70
     0
  9
$REGENMODE
 70
     1
  9
$FILLMODE
 70
     1
  9
$QTEXTMODE
 70
     0
  9
$MIRRTEXT
 70
     1
  9
$LTSCALE
 40
1.0
  9
$ATTMODE
 70
     1
  9
$TEXTSIZE
 40
0.2
  9
$TRACEWID
 40
0.05
  9
$TEXTSTYLE
  7
Standard
  9
$CLAYER
  8
0
  9
$CELTYPE
  6
ByLayer
  9
$CECOLOR
 62
   256
  9
$CELTSCALE
 40
1.0
  9
$DISPSILH
 70
     0
  9
$DIMSCALE
 40
1.0
  9
$DIMASZ
 40
0.18
  9
$DIMEXO
 40
0.0625
  9
$DIMDLI
 40
0.38
  9
$DIMRND
 40
0.0
  9
$DIMDLE
 40
0.0
  9
$DIMEXE
 40
0.18
  9
$DIMTP
 40
0.0
  9
$DIMTM
 40
0.0
  9
$DIMTXT
 40
0.18
  9
$DIMCEN
 40
0.09
  9
$DIMTSZ
 40
0.0
  9
$DIMTOL
 70
     0
  9
$DIMLIM
 70
     0
  9
$DIMTIH
 70
     1
  9
$DIMTOH
 70
     1
  9
$DIMSE1
 70
     0
  9
$DIMSE2
 70
     0
  9
$DIMTAD
 70
     0
  9
$DIMZIN
 70
     0
  9
$DIMBLK
  1

  9
$DIMASO
 70
     1
  9
$DIMSHO
 70
     1
  9
$DIMPOST
  1

  9
$DIMAPOST
  1

  9
$DIMALT
 70
     0
  9
$DIMALTD
 70
     2
  9
$DIMALTF
 40
25.4
  9
$DIMLFAC
 40
1.0
  9
$DIMTOFL
 70
     0
  9
$DIMTVP
 40
0.0
  9
$DIMTIX
 70
     0
  9
$DIMSOXD
 70
     0
  9
$DIMSAH
 70
     0
  9
$DIMBLK1
  1

  9
$DIMBLK2
  1

  9
$DIMSTYLE
  2
Standard
  9
$DIMCLRD
 70
     0
  9
$DIMCLRE
 70
     0
  9
$DIMCLRT
 70
     0
  9
$DIMTFAC
 40
1.0
  9
$DIMGAP
 40
0.09
  9
$DIMJUST
 70
     0
  9
$DIMSD1
 70
     0
  9
$DIMSD2
 70
     0
  9
$DIMTOLJ
 70
     1
  9
$DIMTZIN
 70
     0
  9
$DIMALTZ
 70
     0
  9
$DIMALTTZ
 70
     0
  9
$DIMUPT
 70
     0
  9
$DIMDEC
 70
     4
  9
$DIMTDEC
 70
     4
  9
$DIMALTU
 70
     2
  9
$DIMALTTD
 70
     2
  9
$DIMTXSTY
  7
Standard
  9
$DIMAUNIT
 70
     0
  9
$DIMADEC
 70
     0
  9
$DIMALTRND
 40
0.0
  9
$DIMAZIN
 70
     0
  9
$DIMDSEP
 70
    46
  9
$DIMATFIT
 70
     3
  9
$DIMFRAC
 70
     0
  9
$DIMLDRBLK
  1

  9
$DIMLUNIT
 70
     2
  9
$DIMLWD
 70
    -2
  9
$DIMLWE
 70
    -2
  9
$DIMTMOVE
 70
     0
  9
$DIMFXL
 40
1.0
  9
$DIMFXLON
 70
     0
  9
$DIMJOGANG
 40
0.7853981633974483
  9
$DIMTFILL
 70
     0
  9
$DIMTFILLCLR
 70
     0
  9
$DIMARCSYM
 70
     0
  9
$DIMLTYPE
  6

  9
$DIMLTEX1
  6

  9
$DIMLTEX2
  6

  9
$DIMTXTDIRECTION
 70
     0
  9
$LUNITS
 70
     2
  9
$LUPREC
 70
     4
  9
$SKETCHINC
 40
0.1
  9
$FILLETRAD
 40
0.5
  9
$AUNITS
 70
     0
  9
$AUPREC
 70
     0
  9
$MENU
  1
.
  9
$ELEVATION
 40
0.0
  9
$PELEVATION
 40
0.0
  9
$THICKNESS
 40
0.0
  9
$LIMCHECK
 70
     0
  9
$CHAMFERA
 40
0.5
  9
$CHAMFERB
 40
0.5
  9
$CHAMFERC
 40
1.0
  9
$CHAMFERD
 40
0.0
  9
$SKPOLY
 70
     0
  9
$TDCREATE
 40
2458857.901883033
  9
$TDUCREATE
 40
2458857.360216366
  9
$TDUPDATE
 40
2458857.901883356
  9
$TDUUPDATE
 40
2458857.36021669
  9
$TDINDWG
 40
0.0000000116
  9
$TDUSRTIMER
 40
0.0000000116
  9
$USRTIMER
 70
     1
  9
$ANGBASE
 50
0.0
  9
$ANGDIR
 70
     0
  9
$PDMODE
 70
     0
  9
$PDSIZE
 40
0.0
  9
$PLINEWID
 40
0.0
  9
$SPLFRAME
 70
     0
  9
$SPLINETYPE
 70
     6
  9
$SPLINESEGS
 70
     8
  9
$HANDSEED
  5
29C
  9
$SURFTAB1
 70
     6
  9
$SURFTAB2
 70
     6
  9
$SURFTYPE
 70
     6
  9
$SURFU
 70
     6
  9
$SURFV
 70
     6
  9
$UCSBASE
  2

  9
$UCSNAME
  2

  9
$UCSORG
 10
0.0
 20
0.0
 30
0.0
  9
$UCSXDIR
 10
1.0
 20
0.0
 30
0.0
  9
$UCSYDIR
 10
0.0
 20
1.0
 30
0.0
  9
$UCSORTHOREF
  2

  9
$UCSORTHOVIEW
 70
     0
  9
$UCSORGTOP
 10
0.0
 20
0.0
 30
0.0
  9
$UCSORGBOTTOM
 10
0.0
 20
0.0
 30
0.0
  9
$UCSORGLEFT
 10
0.0
 20
0.0
 30
0.0
  9
$UCSORGRIGHT
 10
0.0
 20
0.0
 30
0.0
  9
$UCSORGFRONT
 10
0.0
 20
0.0
 30
0.0
  9
$UCSORGBACK
 10
0.0
 20
0.0
 30
0.0
  9
$PUCSBASE
  2

  9
$PUCSNAME
  2

  9
$PUCSORG
 10
0.0
 20
0.0
 30
0.0
  9
$PUCSXDIR
 10
1.0
 20
0.0
 30
0.0
  9
$PUCSYDIR
 10
0.0
 20
1.0
 30
0.0
  9
$PUCSORTHOREF
  2

  9
$PUCSORTHOVIEW
 70
     0
  9
$PUCSORGTOP
 10
0.0
 20
0.0
 30
0.0
  9
$PUCSORGBOTTOM
 10
0.0
 20
0.0
 30
0.0
  9
$PUCSORGLEFT
 10
0.0
 20
0.0
 30
0.0
  9
$PUCSORGRIGHT
 10
0.0
 20
0.0
 30
0.0
  9
$PUCSORGFRONT
 10
0.0
 20
0.0
 30
0.0
  9
$PUCSORGBACK
 10
0.0
 20
0.0
 30
0.0
  9
$USERI1
 70
     0
  9
$USERI2
 70
     0
  9
$USERI3
 70
     0
  9
$USERI4
 70
     0
  9
$USERI5
 70
     0
  9
$USERR1
 40
0.0
  9
$USERR2
 40
0.0
  9
$USERR3
 40
0.0
  9
$USERR4
 40
0.0
  9
$USERR5
 40
0.0
  9
$WORLDVIEW
 70
     1
  9
$SHADEDGE
 70
     3
  9
$SHADEDIF
 70
    70
  9
$TILEMODE
 70
     1
  9
$MAXACTVP
 70
    64
  9
$PINSBASE
 10
0.0
 20
0.0
 30
0.0
  9
$PLIMCHECK
 70
     0
  9
$PEXTMIN
 10
1.000000000000000E+20
 20
1.000000000000000E+20
 30
1.000000000000000E+20
  9
$PEXTMAX
 10
-1.000000000000000E+20
 20
-1.000000000000000E+20
 30
-1.000000000000000E+20
  9
$PLIMMIN
 10
0.0
 20
0.0
  9
$PLIMMAX
 10
12.0
 20
9.0
  9
$UNITMODE
 70
     0
  9
$VISRETAIN
 70
     1
  9
$PLINEGEN
 70
     0
  9
$PSLTSCALE
 70
     1
  9
$TREEDEPTH
 70
  3020
  9
$CMLSTYLE
  2
Standard
  9
$CMLJUST
 70
     0
  9
$CMLSCALE
 40
1.0
  9
$PROXYGRAPHICS
 70
     1
  9
$MEASUREMENT
 70
     0
  9
$CELWEIGHT
370
    -1
  9
$ENDCAPS
280
     0
  9
$JOINSTYLE
280
     0
  9
$LWDISPLAY
290
     1
  9
$INSUNITS
 70
     0
  9
$HYPERLINKBASE
  1

  9
$STYLESHEET
  1

  9
$XEDIT
290
     1
  9
$CEPSNTYPE
380
     0
  9
$PSTYLEMODE
290
     1
  9
$FINGERPRINTGUID
  2
{12EBEEBB-05B6-41E8-9238-E92C9399DE40}
  9
$VERSIONGUID
  2
{FAEB1C32-E019-11D5-929B-00C0DF256EC4}
  9
$EXTNAMES
290
     1
  9
$PSVPSCALE
 40
0.0
  9
$OLESTARTUP
290
     0
  9
$SORTENTS
280
   127
  9
$INDEXCTL
280
     0
  9
$HIDETEXT
280
     1
  9
$XCLIPFRAME
280
     2
  9
$HALOGAP
280
     0
  9
$OBSCOLOR
 70
   257
  9
$OBSLTYPE
280
     0
  9
$INTERSECTIONDISPLAY
280
     0
  9
$INTERSECTIONCOLOR
 70
   257
  9
$DIMASSOC
280
     2
  9
$PROJECTNAME
  1

  9
$CAMERADISPLAY
290
     0
  9
$LENSLENGTH
 40
50.0
  9
$CAMERAHEIGHT
 40
0.0
  9
$STEPSPERSEC
 40
2.0
  9
$STEPSIZE
 40
6.0
  9
$3DDWFPREC
 40
2.0
  9
$PSOLWIDTH
 40
0.25
  9
$PSOLHEIGHT
 40
4.0
  9
$LOFTANG1
 40
1.570796326794897
  9
$LOFTANG2
 40
1.570796326794897
  9
$LOFTMAG1
 40
0.0
  9
$LOFTMAG2
 40
0.0
  9
$LOFTPARAM
 70
     7
  9
$LOFTNORMALS
280
     1
  9
$LATITUDE
 40
37.795
  9
$LONGITUDE
 40
-122.394
  9
$NORTHDIRECTION
 40
0.0
  9
$TIMEZONE
 70
 -8000
  9
$LIGHTGLYPHDISPLAY
280
     1
  9
$TILEMODELIGHTSYNCH
280
     1
  9
$CMATERIAL
347
3C
  9
$SOLIDHIST
280
     1
  9
$SHOWHIST
280
     1
  9
$DWFFRAME
280
     2
  9
$DGNFRAME
280
     2
  9
$REALWORLDSCALE
290
     1
  9
$INTERFERECOLOR
 62
   256
  9
$CSHADOW
280
     0
  9
$SHADOWPLANELOCATION
 40
0.0
  0
ENDSEC
  0
SECTION
  2
CLASSES
  0
CLASS
  1
ACDBDICTIONARYWDFLT
  2
AcDbDictionaryWithDefault
  3
ObjectDBX Classes
 90
        0
 91
        4
280
     0
281
     0
  0
CLASS
  1
VISUALSTYLE
  2
AcDbVisualStyle
  3
ObjectDBX Classes
 90
     4095
 91
        4
280
     0
281
     0
  0
CLASS
  1
MATERIAL
  2
AcDbMaterial
  3
ObjectDBX Classes
 90
     1153
 91
        4
280
     0
281
     0
  0
CLASS
  1
SUN
  2
AcDbSun
  3
SCENEOE
 90
     1024
 91
        4
280
     0
281
     0
  0
ENDSEC
  0
SECTION
  2
TABLES
  0
TABLE
  2
VPORT
  5
8
330
0
100
AcDbSymbolTable
 70
     1
  0
VPORT
  5
29
330
8
100
AcDbSymbolTableRecord
100
AcDbViewportTableRecord
  2
*Active
 70
     0
 10
0.0
 20
0.0
 11
1.0
 21
1.0
 12
0.0
 22
0.0
 13
0.0
 23
0.0
 14
0.5
 24
0.5
 15
0.5
 25
0.5
 16
0.0
 26
0.0
 36
1.0
 17
417.9338224432558
 27
312.7473542299454
 37
0.0
 40
841.889763779528
 41
0.7070707070707057
 42
50.0
 43
0.0
 44
0.0
 50
0.0
 51
0.0
 71
     0
 72
   100
 73
     1
 74
     3
 75
     0
 76
     0
 77
     0
 78
     0
281
     0
 65
     1
110
0.0
120
0.0
130
0.0
111
1.0
121
0.0
131
0.0
112
0.0
122
1.0
132
0.0
 79
     0
146
0.0
 60
     3
 61
     5
292
     1
282
     1
141
0.0
142
0.0
 63
   250
361
3F
  0
ENDTAB
  0
TABLE
  2
LTYPE
  5
5
330
0
100
AcDbSymbolTable
 70
     1
  0
LTYPE
  5
14
330
5
100
AcDbSymbolTableRecord
100
AcDbLinetypeTableRecord
  2
ByBlock
 70
     0
  3

 72
    65
 73
     0
 40
0.0
  0
LTYPE
  5
15
330
5
100
AcDbSymbolTableRecord
100
AcDbLinetypeTableRecord
  2
ByLayer
 70
     0
  3

 72
    65
 73
     0
 40
0.0
  0
LTYPE
  5
16
330
5
100
AcDbSymbolTableRecord
100
AcDbLinetypeTableRecord
  2
Continuous
 70
     0
  3
Solid line
 72
    65
 73
     0
 40
0.0
  0
ENDTAB
  0
TABLE
  2
LAYER
  5
2
330
0
100
AcDbSymbolTable
 70
     4
  0
LAYER
  5
10
330
2
100
AcDbSymbolTableRecord
100
AcDbLayerTableRecord
  2
0
 70
     0
 62
     7
  6
Continuous
370
    -3
390
F
347
3E
  0
LAYER
  5
40
330
2
100
AcDbSymbolTableRecord
100
AcDbLayerTableRecord
  2
Layer 3
 70
     0
 62
     7
  6
Continuous
370
    -3
390
F
347
3E
  0
LAYER
  5
130
330
2
100
AcDbSymbolTableRecord
100
AcDbLayerTableRecord
  2
Layer 2
 70
     0
 62
     7
  6
Continuous
370
    -3
390
F
347
3E
  0
LAYER
  5
288
330
2
100
AcDbSymbolTableRecord
100
AcDbLayerTableRecord
  2
Layer 4
 70
     0
 62
     7
  6
Continuous
370
    -3
390
F
347
3E
  0
ENDTAB
  0
TABLE
  2
STYLE
  5
3
330
0
100
AcDbSymbolTable
 70
     1
  0
STYLE
  5
11
330
3
100
AcDbSymbolTableRecord
100
AcDbTextStyleTableRecord
  2
Standard
 70
     0
 40
0.0
 41
1.0
 50
0.0
 71
     0
 42
0.2
  3
txt
  4

  0
ENDTAB
  0
TABLE
  2
VIEW
  5
6
330
0
100
AcDbSymbolTable
 70
     0
  0
ENDTAB
  0
TABLE
  2
UCS
  5
7
330
0
100
AcDbSymbolTable
 70
     0
  0
ENDTAB
  0
TABLE
  2
APPID
  5
9
330
0
100
AcDbSymbolTable
 70
     1
  0
APPID
  5
12
330
9
100
AcDbSymbolTableRecord
100
AcDbRegAppTableRecord
  2
ACAD
 70
     0
  0
ENDTAB
  0
TABLE
  2
DIMSTYLE
  5
A
330
0
100
AcDbSymbolTable
 70
     1
100
AcDbDimStyleTable
  0
DIMSTYLE
105
27
330
A
100
AcDbSymbolTableRecord
100
AcDbDimStyleTableRecord
  2
Standard
 70
     0
178
     0
340
11
  0
ENDTAB
  0
TABLE
  2
BLOCK_RECORD
  5
1
330
0
100
AcDbSymbolTable
 70
    36
  0
BLOCK_RECORD
  5
1F
330
1
100
AcDbSymbolTableRecord
100
AcDbBlockTableRecord
  2
*Model_Space
340
22
 70
     0
280
     1
281
     0
  0
BLOCK_RECORD
  5
1B
330
1
100
AcDbSymbolTableRecord
100
AcDbBlockTableRecord
  2
*Paper_Space
340
1E
 70
     0
280
     1
281
     0
  0
BLOCK_RECORD
  5
23
330
1
100
AcDbSymbolTableRecord
100
AcDbBlockTableRecord
  2
*Paper_Space0
340
26
 70
     0
280
     1
281
     0
  0
BLOCK_RECORD
  5
41
330
1
100
AcDbSymbolTableRecord
100
AcDbBlockTableRecord
  2
block 2
340
0
102
{BLKREFS
331
42
102
}
 70
     0
280
     1
281
     0
  0
BLOCK_RECORD
  5
45
330
1
100
AcDbSymbolTableRecord
100
AcDbBlockTableRecord
  2
block 3
340
0
102
{BLKREFS
331
46
102
}
 70
     0
280
     1
281
     0
  0
BLOCK_RECORD
  5
57
330
1
100
AcDbSymbolTableRecord
100
AcDbBlockTableRecord
  2
block 4
340
0
102
{BLKREFS
331
58
102
}
 70
     0
280
     1
281
     0
  0
BLOCK_RECORD
  5
5F
330
1
100
AcDbSymbolTableRecord
100
AcDbBlockTableRecord
  2
block 5
340
0
102
{BLKREFS
331
60
102
}
 70
     0
280
     1
281
     0
  0
BLOCK_RECORD
  5
67
330
1
100
AcDbSymbolTableRecord
100
AcDbBlockTableRecord
  2
block 6
340
0
102
{BLKREFS
331
68
102
}
 70
     0
280
     1
281
     0
  0
BLOCK_RECORD
  5
6F
330
1
100
AcDbSymbolTableRecord
100
AcDbBlockTableRecord
  2
block 7
340
0
102
{BLKREFS
331
70
102
}
 70
     0
280
     1
281
     0
  0
BLOCK_RECORD
  5
77
330
1
100
AcDbSymbolTableRecord
100
AcDbBlockTableRecord
  2
block 8
340
0
102
{BLKREFS
331
78
102
}
 70
     0
280
     1
281
     0
  0
BLOCK_RECORD
  5
84
330
1
100
AcDbSymbolTableRecord
100
AcDbBlockTableRecord
  2
block 9
340
0
102
{BLKREFS
331
85
102
}
 70
     0
280
     1
281
     0
  0
BLOCK_RECORD
  5
C5
330
1
100
AcDbSymbolTableRecord
100
AcDbBlockTableRecord
  2
block 10
340
0
102
{BLKREFS
331
C6
102
}
 70
     0
280
     1
281
     0
  0
BLOCK_RECORD
  5
C9
330
1
100
AcDbSymbolTableRecord
100
AcDbBlockTableRecord
  2
block 11
340
0
102
{BLKREFS
331
CA
102
}
 70
     0
280
     1
281
     0
  0
BLOCK_RECORD
  5
DB
330
1
100
AcDbSymbolTableRecord
100
AcDbBlockTableRecord
  2
block 12
340
0
102
{BLKREFS
331
DC
102
}
 70
     0
280
     1
281
     0
  0
BLOCK_RECORD
  5
E3
330
1
100
AcDbSymbolTableRecord
100
AcDbBlockTableRecord
  2
block 13
340
0
102
{BLKREFS
331
E4
102
}
 70
     0
280
     1
281
     0
  0
BLOCK_RECORD
  5
EE
330
1
100
AcDbSymbolTableRecord
100
AcDbBlockTableRecord
  2
block 14
340
0
102
{BLKREFS
331
EF
102
}
 70
     0
280
     1
281
     0
  0
BLOCK_RECORD
  5
F7
330
1
100
AcDbSymbolTableRecord
100
AcDbBlockTableRecord
  2
block 15
340
0
102
{BLKREFS
331
F8
102
}
 70
     0
280
     1
281
     0
  0
BLOCK_RECORD
  5
FF
330
1
100
AcDbSymbolTableRecord
100
AcDbBlockTableRecord
  2
block 16
340
0
102
{BLKREFS
331
100
102
}
 70
     0
280
     1
281
     0
  0
BLOCK_RECORD
  5
131
330
1
100
AcDbSymbolTableRecord
100
AcDbBlockTableRecord
  2
block 17
340
0
102
{BLKREFS
331
132
102
}
 70
     0
280
     1
281
     0
  0
BLOCK_RECORD
  5
15B
330
1
100
AcDbSymbolTableRecord
100
AcDbBlockTableRecord
  2
block 18
340
0
102
{BLKREFS
331
15C
102
}
 70
     0
280
     1
281
     0
  0
BLOCK_RECORD
  5
15F
330
1
100
AcDbSymbolTableRecord
100
AcDbBlockTableRecord
  2
block 19
340
0
102
{BLKREFS
331
160
102
}
 70
     0
280
     1
281
     0
  0
BLOCK_RECORD
  5
163
330
1
100
AcDbSymbolTableRecord
100
AcDbBlockTableRecord
  2
block 20
340
0
102
{BLKREFS
331
164
102
}
 70
     0
280
     1
281
     0
  0
BLOCK_RECORD
  5
16A
330
1
100
AcDbSymbolTableRecord
100
AcDbBlockTableRecord
  2
block 21
340
0
102
{BLKREFS
331
16B
102
}
 70
     0
280
     1
281
     0
  0
BLOCK_RECORD
  5
19F
330
1
100
AcDbSymbolTableRecord
100
AcDbBlockTableRecord
  2
block 22
340
0
102
{BLKREFS
331
1A0
102
}
 70
     0
280
     1
281
     0
  0
BLOCK_RECORD
  5
1A3
330
1
100
AcDbSymbolTableRecord
100
AcDbBlockTableRecord
  2
block 23
340
0
102
{BLKREFS
331
1A4
102
}
 70
     0
280
     1
281
     0
  0
BLOCK_RECORD
  5
1B5
330
1
100
AcDbSymbolTableRecord
100
AcDbBlockTableRecord
  2
block 24
340
0
102
{BLKREFS
331
1B6
102
}
 70
     0
280
     1
281
     0
  0
BLOCK_RECORD
  5
1C0
330
1
100
AcDbSymbolTableRecord
100
AcDbBlockTableRecord
  2
block 25
340
0
102
{BLKREFS
331
1C1
102
}
 70
     0
280
     1
281
     0
  0
BLOCK_RECORD
  5
1C4
330
1
100
AcDbSymbolTableRecord
100
AcDbBlockTableRecord
  2
block 26
340
0
102
{BLKREFS
331
1C5
102
}
 70
     0
280
     1
281
     0
  0
BLOCK_RECORD
  5
1CB
330
1
100
AcDbSymbolTableRecord
100
AcDbBlockTableRecord
  2
block 27
340
0
102
{BLKREFS
331
1CC
102
}
 70
     0
280
     1
281
     0
  0
BLOCK_RECORD
  5
200
330
1
100
AcDbSymbolTableRecord
100
AcDbBlockTableRecord
  2
block 28
340
0
102
{BLKREFS
331
201
102
}
 70
     0
280
     1
281
     0
  0
BLOCK_RECORD
  5
204
330
1
100
AcDbSymbolTableRecord
100
AcDbBlockTableRecord
  2
block 29
340
0
102
{BLKREFS
331
205
102
}
 70
     0
280
     1
281
     0
  0
BLOCK_RECORD
  5
216
330
1
100
AcDbSymbolTableRecord
100
AcDbBlockTableRecord
  2
block 30
340
0
102
{BLKREFS
331
217
102
}
 70
     0
280
     1
281
     0
  0
BLOCK_RECORD
  5
221
330
1
100
AcDbSymbolTableRecord
100
AcDbBlockTableRecord
  2
block 31
340
0
102
{BLKREFS
331
222
102
}
 70
     0
280
     1
281
     0
  0
BLOCK_RECORD
  5
225
330
1
100
AcDbSymbolTableRecord
100
AcDbBlockTableRecord
  2
block 32
340
0
102
{BLKREFS
331
226
102
}
 70
     0
280
     1
281
     0
  0
BLOCK_RECORD
  5
22C
330
1
100
AcDbSymbolTableRecord
100
AcDbBlockTableRecord
  2
block 33
340
0
102
{BLKREFS
331
22D
102
}
 70
     0
280
     1
281
     0
  0
BLOCK_RECORD
  5
261
330
1
100
AcDbSymbolTableRecord
100
AcDbBlockTableRecord
  2
block 34
340
0
102
{BLKREFS
331
262
102
}
 70
     0
280
     1
281
     0
  0
BLOCK_RECORD
  5
265
330
1
100
AcDbSymbolTableRecord
100
AcDbBlockTableRecord
  2
block 35
340
0
102
{BLKREFS
331
266
102
}
 70
     0
280
     1
281
     0
  0
BLOCK_RECORD
  5
277
330
1
100
AcDbSymbolTableRecord
100
AcDbBlockTableRecord
  2
block 36
340
0
102
{BLKREFS
331
278
102
}
 70
     0
280
     1
281
     0
  0
ENDTAB
  0
ENDSEC
  0
SECTION
  2
BLOCKS
  0
BLOCK
  5
20
330
1F
100
AcDbEntity
  8
0
100
AcDbBlockBegin
  2
*Model_Space
 70
     0
 10
0.0
 20
0.0
 30
0.0
  3
*Model_Space
  1

  0
ENDBLK
  5
21
330
1F
100
AcDbEntity
  8
0
100
AcDbBlockEnd
  0
BLOCK
  5
1C
330
1B
100
AcDbEntity
 67
     1
  8
0
100
AcDbBlockBegin
  2
*Paper_Space
 70
     0
 10
0.0
 20
0.0
 30
0.0
  3
*Paper_Space
  1

  0
ENDBLK
  5
1D
330
1B
100
AcDbEntity
 67
     1
  8
0
100
AcDbBlockEnd
  0
BLOCK
  5
24
330
23
100
AcDbEntity
  8
0
100
AcDbBlockBegin
  2
*Paper_Space0
 70
     0
 10
0.0
 20
0.0
 30
0.0
  3
*Paper_Space0
  1

  0
ENDBLK
  5
25
330
23
100
AcDbEntity
  8
0
100
AcDbBlockEnd
  0
BLOCK
  5
43
330
41
100
AcDbEntity
  8
0
100
AcDbBlockBegin
  2
block 2
 70
     0
 10
0.0
 20
0.0
 30
0.0
  3
block 2
  1

  0
INSERT
  5
46
330
41
100
AcDbEntity
  8
Layer 3
100
AcDbBlockReference
  2
block 3
 10
0.0
 20
0.0
 30
0.0
  0
INSERT
  5
58
330
41
100
AcDbEntity
  8
Layer 3
100
AcDbBlockReference
  2
block 4
 10
0.0
 20
0.0
 30
0.0
  0
INSERT
  5
60
330
41
100
AcDbEntity
  8
Layer 3
100
AcDbBlockReference
  2
block 5
 10
0.0
 20
0.0
 30
0.0
  0
INSERT
  5
68
330
41
100
AcDbEntity
  8
Layer 3
100
AcDbBlockReference
  2
block 6
 10
0.0
 20
0.0
 30
0.0
  0
INSERT
  5
70
330
41
100
AcDbEntity
  8
Layer 3
100
AcDbBlockReference
  2
block 7
 10
0.0
 20
0.0
 30
0.0
  0
INSERT
  5
78
330
41
100
AcDbEntity
  8
Layer 3
100
AcDbBlockReference
  2
block 8
 10
0.0
 20
0.0
 30
0.0
  0
INSERT
  5
85
330
41
100
AcDbEntity
  8
Layer 3
100
AcDbBlockReference
  2
block 9
 10
0.0
 20
0.0
 30
0.0
  0
ENDBLK
  5
44
330
41
100
AcDbEntity
  8
0
100
AcDbBlockEnd
  0
BLOCK
  5
47
330
45
100
AcDbEntity
  8
0
100
AcDbBlockBegin
  2
block 3
 70
     0
 10
0.0
 20
0.0
 30
0.0
  3
block 3
  1

  0
POLYLINE
  5
49
330
45
100
AcDbEntity
  8
Layer 3
 62
   250
420
  2301728
370
    25
100
AcDb2dPolyline
 66
     1
 10
0.0
 20
0.0
 30
0.0
  0
VERTEX
  5
4A
330
49
100
AcDbEntity
  8
Layer 3
 62
   250
420
  2301728
370
    25
100
AcDbVertex
100
AcDb2dVertex
 10
507.8553865536123
 20
383.3457281681949
 30
0.0
  0
VERTEX
  5
4B
330
49
100
AcDbEntity
  8
Layer 3
 62
   250
420
  2301728
370
    25
100
AcDbVertex
100
AcDb2dVertex
 10
507.8553865536123
 20
473.3190640716321
 30
0.0
  0
VERTEX
  5
4C
330
49
100
AcDbEntity
  8
Layer 3
 62
   250
420
  2301728
370
    25
100
AcDbVertex
100
AcDb2dVertex
 10
342.0752542123846
 20
519.9072967855554
 30
0.0
  0
VERTEX
  5
4D
330
49
100
AcDbEntity
  8
Layer 3
 62
   250
420
  2301728
370
    25
100
AcDbVertex
100
AcDb2dVertex
 10
311.3234329431762
 20
499.3928840534163
 30
0.0
  0
VERTEX
  5
4E
330
49
100
AcDbEntity
  8
Layer 3
 62
   250
420
  2301728
370
    25
100
AcDbVertex
100
AcDb2dVertex
 10
311.3234329431762
 20
466.6778304483514
 30
0.0
  0
VERTEX
  5
4F
330
49
100
AcDbEntity
  8
Layer 3
 62
   250
420
  2301728
370
    25
100
AcDbVertex
100
AcDb2dVertex
 10
318.4185105104852
 20
459.321030189828
 30
0.0
  0
VERTEX
  5
50
330
49
100
AcDbEntity
  8
Layer 3
 62
   250
420
  2301728
370
    25
100
AcDbVertex
100
AcDb2dVertex
 10
299.7663380501217
 20
447.8984219839813
 30
0.0
  0
VERTEX
  5
51
330
49
100
AcDbEntity
  8
Layer 3
 62
   250
420
  2301728
370
    25
100
AcDbVertex
100
AcDb2dVertex
 10
311.3234329431762
 20
437.0755278835259
 30
0.0
  0
VERTEX
  5
52
330
49
100
AcDbEntity
  8
Layer 3
 62
   250
420
  2301728
370
    25
100
AcDbVertex
100
AcDb2dVertex
 10
311.3234329431762
 20
402.5693354604018
 30
0.0
  0
VERTEX
  5
53
330
49
100
AcDbEntity
  8
Layer 3
 62
   250
420
  2301728
370
    25
100
AcDbVertex
100
AcDb2dVertex
 10
481.4948031119129
 20
368.3208399305213
 30
0.0
  0
VERTEX
  5
54
330
49
100
AcDbEntity
  8
Layer 3
 62
   250
420
  2301728
370
    25
100
AcDbVertex
100
AcDb2dVertex
 10
507.8553865536123
 20
383.3457281681949
 30
0.0
  0
SEQEND
  5
56
330
49
100
AcDbEntity
  8
Layer 3
 62
   250
420
  2301728
370
    25
  0
HATCH
  5
55
330
45
100
AcDbEntity
  8
Layer 3
 62
    43
420
 15510365
100
AcDbHatch
 10
0.0
 20
0.0
 30
0.0
210
0.0
220
0.0
230
1.0
  2
SOLID
 70
     1
 71
     0
 91
        1
 92
        1
 93
       10
 72
     1
 10
507.8553865536123
 20
383.3457281681949
 11
507.8553865536123
 21
473.3190640716321
 72
     1
 10
507.8553865536123
 20
473.3190640716321
 11
342.0752542123846
 21
519.9072967855554
 72
     1
 10
342.0752542123846
 20
519.9072967855554
 11
311.3234329431762
 21
499.3928840534163
 72
     1
 10
311.3234329431762
 20
499.3928840534163
 11
311.3234329431762
 21
466.6778304483514
 72
     1
 10
311.3234329431762
 20
466.6778304483514
 11
318.4185105104852
 21
459.321030189828
 72
     1
 10
318.4185105104852
 20
459.321030189828
 11
299.7663380501217
 21
447.8984219839813
 72
     1
 10
299.7663380501217
 20
447.8984219839813
 11
311.3234329431762
 21
437.0755278835259
 72
     1
 10
311.3234329431762
 20
437.0755278835259
 11
311.3234329431762
 21
402.5693354604018
 72
     1
 10
311.3234329431762
 20
402.5693354604018
 11
481.4948031119129
 21
368.3208399305213
 72
     1
 10
481.4948031119129
 20
368.3208399305213
 11
507.8553865536123
 21
383.3457281681949
 97
        0
 75
     2
 76
     1
 98
        0
  0
ENDBLK
  5
48
330
45
100
AcDbEntity
  8
0
100
AcDbBlockEnd
  0
BLOCK
  5
59
330
57
100
AcDbEntity
  8
0
100
AcDbBlockBegin
  2
block 4
 70
     0
 10
0.0
 20
0.0
 30
0.0
  3
block 4
  1

  0
POLYLINE
  5
5B
330
57
100
AcDbEntity
  8
Layer 3
 62
   250
420
  2301728
370
    18
100
AcDb2dPolyline
 66
     1
 10
0.0
 20
0.0
 30
0.0
  0
VERTEX
  5
5C
330
5B
100
AcDbEntity
  8
Layer 3
 62
   250
420
  2301728
370
    18
100
AcDbVertex
100
AcDb2dVertex
 10
342.0752542123846
 20
487.0451980874959
 30
0.0
  0
VERTEX
  5
5D
330
5B
100
AcDbEntity
  8
Layer 3
 62
   250
420
  2301728
370
    18
100
AcDbVertex
100
AcDb2dVertex
 10
311.3234329431762
 20
466.6778304483514
 30
0.0
  0
SEQEND
  5
5E
330
5B
100
AcDbEntity
  8
Layer 3
 62
   250
420
  2301728
370
    18
  0
ENDBLK
  5
5A
330
57
100
AcDbEntity
  8
0
100
AcDbBlockEnd
  0
BLOCK
  5
61
330
5F
100
AcDbEntity
  8
0
100
AcDbBlockBegin
  2
block 5
 70
     0
 10
0.0
 20
0.0
 30
0.0
  3
block 5
  1

  0
POLYLINE
  5
63
330
5F
100
AcDbEntity
  8
Layer 3
 62
   250
420
  2301728
370
    18
100
AcDb2dPolyline
 66
     1
 10
0.0
 20
0.0
 30
0.0
  0
VERTEX
  5
64
330
63
100
AcDbEntity
  8
Layer 3
 62
   250
420
  2301728
370
    18
100
AcDbVertex
100
AcDb2dVertex
 10
330.088433633764
 20
466.4677022417218
 30
0.0
  0
VERTEX
  5
65
330
63
100
AcDbEntity
  8
Layer 3
 62
   250
420
  2301728
370
    18
100
AcDbVertex
100
AcDb2dVertex
 10
299.7663380501217
 20
447.8984219839813
 30
0.0
  0
SEQEND
  5
66
330
63
100
AcDbEntity
  8
Layer 3
 62
   250
420
  2301728
370
    18
  0
ENDBLK
  5
62
330
5F
100
AcDbEntity
  8
0
100
AcDbBlockEnd
  0
BLOCK
  5
69
330
67
100
AcDbEntity
  8
0
100
AcDbBlockBegin
  2
block 6
 70
     0
 10
0.0
 20
0.0
 30
0.0
  3
block 6
  1

  0
POLYLINE
  5
6B
330
67
100
AcDbEntity
  8
Layer 3
 62
   250
420
  2301728
370
    18
100
AcDb2dPolyline
 66
     1
 10
0.0
 20
0.0
 30
0.0
  0
VERTEX
  5
6C
330
6B
100
AcDbEntity
  8
Layer 3
 62
   250
420
  2301728
370
    18
100
AcDbVertex
100
AcDb2dVertex
 10
342.0752542123846
 20
455.6688246296817
 30
0.0
  0
VERTEX
  5
6D
330
6B
100
AcDbEntity
  8
Layer 3
 62
   250
420
  2301728
370
    18
100
AcDbVertex
100
AcDb2dVertex
 10
311.3234329431762
 20
437.0755278835259
 30
0.0
  0
SEQEND
  5
6E
330
6B
100
AcDbEntity
  8
Layer 3
 62
   250
420
  2301728
370
    18
  0
ENDBLK
  5
6A
330
67
100
AcDbEntity
  8
0
100
AcDbBlockEnd
  0
BLOCK
  5
71
330
6F
100
AcDbEntity
  8
0
100
AcDbBlockBegin
  2
block 7
 70
     0
 10
0.0
 20
0.0
 30
0.0
  3
block 7
  1

  0
POLYLINE
  5
73
330
6F
100
AcDbEntity
  8
Layer 3
 62
   250
420
  2301728
370
    18
100
AcDb2dPolyline
 66
     1
 10
0.0
 20
0.0
 30
0.0
  0
VERTEX
  5
74
330
73
100
AcDbEntity
  8
Layer 3
 62
   250
420
  2301728
370
    18
100
AcDbVertex
100
AcDb2dVertex
 10
342.0752542123846
 20
419.5742374719093
 30
0.0
  0
VERTEX
  5
75
330
73
100
AcDbEntity
  8
Layer 3
 62
   250
420
  2301728
370
    18
100
AcDbVertex
100
AcDb2dVertex
 10
311.3234329431762
 20
402.5693354604018
 30
0.0
  0
SEQEND
  5
76
330
73
100
AcDbEntity
  8
Layer 3
 62
   250
420
  2301728
370
    18
  0
ENDBLK
  5
72
330
6F
100
AcDbEntity
  8
0
100
AcDbBlockEnd
  0
BLOCK
  5
79
330
77
100
AcDbEntity
  8
0
100
AcDbBlockBegin
  2
block 8
 70
     0
 10
0.0
 20
0.0
 30
0.0
  3
block 8
  1

  0
POLYLINE
  5
7B
330
77
100
AcDbEntity
  8
Layer 3
 62
   250
420
  2301728
370
    18
100
AcDb2dPolyline
 66
     1
 10
0.0
 20
0.0
 30
0.0
  0
VERTEX
  5
7C
330
7B
100
AcDbEntity
  8
Layer 3
 62
   250
420
  2301728
370
    18
100
AcDbVertex
100
AcDb2dVertex
 10
507.8553865536123
 20
383.3457281681949
 30
0.0
  0
VERTEX
  5
7D
330
7B
100
AcDbEntity
  8
Layer 3
 62
   250
420
  2301728
370
    18
100
AcDbVertex
100
AcDb2dVertex
 10
342.0752542123846
 20
419.5742374719093
 30
0.0
  0
VERTEX
  5
7E
330
7B
100
AcDbEntity
  8
Layer 3
 62
   250
420
  2301728
370
    18
100
AcDbVertex
100
AcDb2dVertex
 10
342.0752542123846
 20
455.6688246296817
 30
0.0
  0
VERTEX
  5
7F
330
7B
100
AcDbEntity
  8
Layer 3
 62
   250
420
  2301728
370
    18
100
AcDbVertex
100
AcDb2dVertex
 10
330.088433633764
 20
466.4677022417218
 30
0.0
  0
VERTEX
  5
80
330
7B
100
AcDbEntity
  8
Layer 3
 62
   250
420
  2301728
370
    18
100
AcDbVertex
100
AcDb2dVertex
 10
353.9250441062504
 20
476.190426973767
 30
0.0
  0
VERTEX
  5
81
330
7B
100
AcDbEntity
  8
Layer 3
 62
   250
420
  2301728
370
    18
100
AcDbVertex
100
AcDb2dVertex
 10
342.0752542123846
 20
487.0451980874959
 30
0.0
  0
VERTEX
  5
82
330
7B
100
AcDbEntity
  8
Layer 3
 62
   250
420
  2301728
370
    18
100
AcDbVertex
100
AcDb2dVertex
 10
342.0752542123846
 20
519.9072967855554
 30
0.0
  0
SEQEND
  5
83
330
7B
100
AcDbEntity
  8
Layer 3
 62
   250
420
  2301728
370
    18
  0
ENDBLK
  5
7A
330
77
100
AcDbEntity
  8
0
100
AcDbBlockEnd
  0
BLOCK
  5
86
330
84
100
AcDbEntity
  8
0
100
AcDbBlockBegin
  2
block 9
 70
     0
 10
0.0
 20
0.0
 30
0.0
  3
block 9
  1

  0
SPLINE
  5
88
330
84
100
AcDbEntity
  8
Layer 3
 62
   250
420
  2301728
370
     9
100
AcDbSpline
210
0.0
220
0.0
230
1.0
 70
     8
 71
     3
 72
    20
 73
    16
 74
     0
 42
0.0000000001
 43
0.0000000001
 12
1.0
 22
0.0
 32
0.0
 13
1.0
 23
0.0
 33
0.0
 40
0.0
 40
0.0
 40
0.0
 40
0.0
 40
1.0
 40
1.0
 40
1.0
 40
2.0
 40
2.0
 40
2.0
 40
3.0
 40
3.0
 40
3.0
 40
4.0
 40
4.0
 40
4.0
 40
5.0
 40
5.0
 40
5.0
 40
5.0
 10
317.229049811358
 20
503.3935303068747
 30
0.0
 10
317.229049811358
 20
503.3935303068747
 30
0.0
 10
316.6186332643993
 20
501.5181304482257
 30
0.0
 10
316.41516108208
 20
500.89299716201
 30
0.0
 10
316.2018260314562
 20
500.237561909189
 30
0.0
 10
316.2356469912784
 20
498.0069573690698
 30
0.0
 10
316.0714077057364
 20
497.3375302471595
 30
0.0
 10
315.7638361418431
 20
496.0838914108881
 30
0.0
 10
314.6449690922727
 20
493.1389192119759
 30
0.0
 10
314.2762405394724
 20
491.9018865312946
 30
0.0
 10
313.7210435718625
 20
490.0392784204396
 30
0.0
 10
311.5866675965844
 20
486.0582813514729
 30
0.0
 10
311.5866675965844
 20
486.0582813514729
 30
0.0
 10
311.5866675965844
 20
486.0582813514729
 30
0.0
 10
311.3234312675877
 20
485.7423977566777
 30
0.0
 10
311.3234312675877
 20
485.7423977566777
 30
0.0
  0
SPLINE
  5
89
330
84
100
AcDbEntity
  8
Layer 3
 62
   250
420
  2301728
370
     9
100
AcDbSpline
210
0.0
220
0.0
230
1.0
 70
     8
 71
     3
 72
    14
 73
    10
 74
     0
 42
0.0000000001
 43
0.0000000001
 12
1.0
 22
0.0
 32
0.0
 13
1.0
 23
0.0
 33
0.0
 40
0.0
 40
0.0
 40
0.0
 40
0.0
 40
1.0
 40
1.0
 40
1.0
 40
2.0
 40
2.0
 40
2.0
 40
3.0
 40
3.0
 40
3.0
 40
3.0
 10
333.2560419194442
 20
514.0240367546803
 30
0.0
 10
332.7715659797459
 20
511.1961961344659
 30
0.0
 10
330.316655877722
 20
506.4556919795841
 30
0.0
 10
329.0542751637404
 20
502.9390599906346
 30
0.0
 10
326.7373055466014
 20
496.4846446286019
 30
0.0
 10
326.4127293192996
 20
493.4199813876994
 30
0.0
 10
325.1944755732238
 20
490.3659341670209
 30
0.0
 10
322.2897374313106
 20
483.0840296560091
 30
0.0
 10
311.3234329431762
 20
470.588943506431
 30
0.0
 10
311.3234329431762
 20
470.588943506431
 30
0.0
  0
POLYLINE
  5
8A
330
84
100
AcDbEntity
  8
Layer 3
 62
   250
420
  2301728
370
     9
100
AcDb2dPolyline
 66
     1
 10
0.0
 20
0.0
 30
0.0
  0
VERTEX
  5
8B
330
8A
100
AcDbEntity
  8
Layer 3
 62
   250
420
  2301728
370
     9
100
AcDbVertex
100
AcDb2dVertex
 10
317.8661539486238
 20
471.1868866360101
 30
0.0
  0
VERTEX
  5
8C
330
8A
100
AcDbEntity
  8
Layer 3
 62
   250
420
  2301728
370
     9
100
AcDbVertex
100
AcDb2dVertex
 10
330.2268691089484
 20
488.2097531388172
 30
0.0
  0
VERTEX
  5
8D
330
8A
100
AcDbEntity
  8
Layer 3
 62
   250
420
  2301728
370
     9
100
AcDbVertex
100
AcDb2dVertex
 10
335.0873594275736
 20
500.953086033086
 30
0.0
  0
VERTEX
  5
8E
330
8A
100
AcDbEntity
  8
Layer 3
 62
   250
420
  2301728
370
     9
100
AcDbVertex
100
AcDb2dVertex
 10
340.2423963788551
 20
518.7910141289431
 30
0.0
  0
SEQEND
  5
8F
330
8A
100
AcDbEntity
  8
Layer 3
 62
   250
420
  2301728
370
     9
  0
SPLINE
  5
90
330
84
100
AcDbEntity
  8
Layer 3
 62
   250
420
  2301728
370
     9
100
AcDbSpline
210
0.0
220
0.0
230
1.0
 70
     8
 71
     3
 72
    11
 73
     7
 74
     0
 42
0.0000000001
 43
0.0000000001
 12
1.0
 22
0.0
 32
0.0
 13
1.0
 23
0.0
 33
0.0
 40
0.0
 40
0.0
 40
0.0
 40
0.0
 40
1.0
 40
1.0
 40
1.0
 40
2.0
 40
2.0
 40
2.0
 40
2.0
 10
332.6462324209206
 20
480.8647130719546
 30
0.0
 10
332.6462324209206
 20
480.8647130719546
 30
0.0
 10
335.6094849264919
 20
483.9849159606092
 30
0.0
 10
337.4299610542448
 20
488.5407487984085
 30
0.0
 10
339.2504371819978
 20
493.0965816362077
 30
0.0
 10
342.2136896875691
 20
502.9390599906346
 30
0.0
 10
342.2136896875691
 20
502.9390599906346
 30
0.0
  0
POLYLINE
  5
91
330
84
100
AcDbEntity
  8
Layer 3
 62
   250
420
  2301728
370
     9
100
AcDb2dPolyline
 66
     1
 10
0.0
 20
0.0
 30
0.0
  0
VERTEX
  5
92
330
91
100
AcDbEntity
  8
Layer 3
 62
   250
420
  2301728
370
     9
100
AcDbVertex
100
AcDb2dVertex
 10
317.0801387800011
 20
440.3301839110882
 30
0.0
  0
VERTEX
  5
93
330
91
100
AcDbEntity
  8
Layer 3
 62
   250
420
  2301728
370
     9
100
AcDbVertex
100
AcDb2dVertex
 10
314.5088257804728
 20
432.4576269563486
 30
0.0
  0
VERTEX
  5
94
330
91
100
AcDbEntity
  8
Layer 3
 62
   250
420
  2301728
370
     9
100
AcDbVertex
100
AcDb2dVertex
 10
311.3234336019523
 20
428.6198323086401
 30
0.0
  0
SEQEND
  5
95
330
91
100
AcDbEntity
  8
Layer 3
 62
   250
420
  2301728
370
     9
  0
SPLINE
  5
96
330
84
100
AcDbEntity
  8
Layer 3
 62
   250
420
  2301728
370
     9
100
AcDbSpline
210
0.0
220
0.0
230
1.0
 70
     8
 71
     3
 72
    17
 73
    13
 74
     0
 42
0.0000000001
 43
0.0000000001
 12
1.0
 22
0.0
 32
0.0
 13
1.0
 23
0.0
 33
0.0
 40
0.0
 40
0.0
 40
0.0
 40
0.0
 40
1.0
 40
1.0
 40
1.0
 40
2.0
 40
2.0
 40
2.0
 40
3.0
 40
3.0
 40
3.0
 40
4.0
 40
4.0
 40
4.0
 40
4.0
 10
325.2119234673073
 20
445.4728459939133
 30
0.0
 10
325.2119234673073
 20
445.4728459939133
 30
0.0
 10
322.6169382897469
 20
437.0208881270664
 30
0.0
 10
321.2929556513809
 20
433.8104808309563
 30
0.0
 10
319.9689730130158
 20
430.6000735348462
 30
0.0
 10
319.8034751832192
 20
429.12303672916
 30
0.0
 10
317.8175012256725
 20
426.1279019127487
 30
0.0
 10
315.831527268123
 20
423.1327670963374
 30
0.0
 10
314.9446313434164
 20
422.3719630123642
 30
0.0
 10
313.8158499227102
 20
420.1398656562387
 30
0.0
 10
313.4697807731754
 20
419.4555347312753
 30
0.0
 10
312.5009003639616
 20
418.1180118345492
 30
0.0
 10
311.3236286167021
 20
416.5921405320969
 30
0.0
  0
SPLINE
  5
97
330
84
100
AcDbEntity
  8
Layer 3
 62
   250
420
  2301728
370
     9
100
AcDbSpline
210
0.0
220
0.0
230
1.0
 70
     8
 71
     3
 72
    20
 73
    16
 74
     0
 42
0.0000000001
 43
0.0000000001
 12
1.0
 22
0.0
 32
0.0
 13
1.0
 23
0.0
 33
0.0
 40
0.0
 40
0.0
 40
0.0
 40
0.0
 40
1.0
 40
1.0
 40
1.0
 40
2.0
 40
2.0
 40
2.0
 40
3.0
 40
3.0
 40
3.0
 40
4.0
 40
4.0
 40
4.0
 40
5.0
 40
5.0
 40
5.0
 40
5.0
 10
331.5380704177151
 20
449.297787823506
 30
0.0
 10
331.5380704177151
 20
449.297787823506
 30
0.0
 10
328.0199067664953
 20
436.3834154537099
 30
0.0
 10
326.7510752632406
 20
432.5805514044096
 30
0.0
 10
326.2068335235572
 20
430.9493834040413
 30
0.0
 10
324.8955984708864
 20
426.5791864169687
 30
0.0
 10
324.351356731202
 20
424.9480184166005
 30
0.0
 10
323.7192060903117
 20
423.0533752430838
 30
0.0
 10
321.8390486059734
 20
418.4022722705349
 30
0.0
 10
321.206897965084
 20
416.5076290970183
 30
0.0
 10
320.3272879119049
 20
413.8713157330649
 30
0.0
 10
316.546820235958
 20
407.1428499179874
 30
0.0
 10
316.546820235958
 20
407.1428499179874
 30
0.0
 10
316.546820235958
 20
407.1428499179874
 30
0.0
 10
313.791808640528
 20
404.0439833385872
 30
0.0
 10
313.791808640528
 20
404.0439833385872
 30
0.0
  0
SPLINE
  5
98
330
84
100
AcDbEntity
  8
Layer 3
 62
   250
420
  2301728
370
     9
100
AcDbSpline
210
0.0
220
0.0
230
1.0
 70
     8
 71
     3
 72
    14
 73
    10
 74
     0
 42
0.0000000001
 43
0.0000000001
 12
1.0
 22
0.0
 32
0.0
 13
1.0
 23
0.0
 33
0.0
 40
0.0
 40
0.0
 40
0.0
 40
0.0
 40
1.0
 40
1.0
 40
1.0
 40
2.0
 40
2.0
 40
2.0
 40
3.0
 40
3.0
 40
3.0
 40
3.0
 10
339.1786286719125
 20
453.9174545965061
 30
0.0
 10
339.1786286719125
 20
453.9174545965061
 30
0.0
 10
335.9395371132596
 20
445.8287841193023
 30
0.0
 10
334.2845588153032
 20
439.3333075522314
 30
0.0
 10
332.6295805173449
 20
432.8378309851569
 30
0.0
 10
332.7950783471424
 20
429.0189372373816
 30
0.0
 10
330.4781087300007
 20
422.7387331500058
 30
0.0
 10
328.7455631098519
 20
418.0426249210768
 30
0.0
 10
327.1980938623501
 20
413.1475245605079
 30
0.0
 10
326.5276678921264
 20
410.9768612656753
 30
0.0
  0
SPLINE
  5
99
330
84
100
AcDbEntity
  8
Layer 3
 62
   250
420
  2301728
370
     9
100
AcDbSpline
210
0.0
220
0.0
230
1.0
 70
     8
 71
     3
 72
    14
 73
    10
 74
     0
 42
0.0000000001
 43
0.0000000001
 12
1.0
 22
0.0
 32
0.0
 13
1.0
 23
0.0
 33
0.0
 40
0.0
 40
0.0
 40
0.0
 40
0.0
 40
1.0
 40
1.0
 40
1.0
 40
2.0
 40
2.0
 40
2.0
 40
3.0
 40
3.0
 40
3.0
 40
3.0
 10
335.05842080406
 20
415.6941231311448
 30
0.0
 10
335.05842080406
 20
415.6941231311448
 30
0.0
 10
336.1725062797723
 20
418.5312879262929
 30
0.0
 10
336.1725062797723
 20
418.5312879262929
 30
0.0
 10
336.1725062797723
 20
418.5312879262929
 30
0.0
 10
339.347132795313
 20
427.9294375840736
 30
0.0
 10
340.2423963788551
 20
431.5314556746498
 30
0.0
 10
340.8228197784674
 20
433.8667406387949
 30
0.0
 10
342.0752542123846
 20
442.2805001451779
 30
0.0
 10
342.0752542123846
 20
442.2805001451779
 30
0.0
  0
POLYLINE
  5
9A
330
84
100
AcDbEntity
  8
Layer 3
 62
   250
420
  2301728
370
     9
100
AcDb2dPolyline
 66
     1
 10
0.0
 20
0.0
 30
0.0
  0
VERTEX
  5
9B
330
9A
100
AcDbEntity
  8
Layer 3
 62
   250
420
  2301728
370
     9
100
AcDbVertex
100
AcDb2dVertex
 10
316.4692429843835
 20
470.2722053043954
 30
0.0
  0
VERTEX
  5
9C
330
9A
100
AcDbEntity
  8
Layer 3
 62
   250
420
  2301728
370
     9
100
AcDbVertex
100
AcDb2dVertex
 10
316.4692429843835
 20
464.6263123929293
 30
0.0
  0
VERTEX
  5
9D
330
9A
100
AcDbEntity
  8
Layer 3
 62
   250
420
  2301728
370
     9
100
AcDbVertex
100
AcDb2dVertex
 10
315.7740683024822
 20
462.0905092701923
 30
0.0
  0
SEQEND
  5
9E
330
9A
100
AcDbEntity
  8
Layer 3
 62
   250
420
  2301728
370
     9
  0
SPLINE
  5
9F
330
84
100
AcDbEntity
  8
Layer 3
 62
   250
420
  2301728
370
     9
100
AcDbSpline
210
0.0
220
0.0
230
1.0
 70
     8
 71
     3
 72
    14
 73
    10
 74
     0
 42
0.0000000001
 43
0.0000000001
 12
1.0
 22
0.0
 32
0.0
 13
1.0
 23
0.0
 33
0.0
 40
0.0
 40
0.0
 40
0.0
 40
0.0
 40
1.0
 40
1.0
 40
1.0
 40
2.0
 40
2.0
 40
2.0
 40
3.0
 40
3.0
 40
3.0
 40
3.0
 10
325.6285265301794
 20
476.2695994724963
 30
0.0
 10
325.6285265301794
 20
476.2695994724963
 30
0.0
 10
325.5203210162417
 20
473.2011065536981
 30
0.0
 10
325.6285265301794
 20
472.0167937819833
 30
0.0
 10
325.7367320441153
 20
470.8324810102677
 30
0.0
 10
324.8860033446126
 20
467.7293967015994
 30
0.0
 10
324.8860033446126
 20
467.7293967015994
 30
0.0
 10
324.8860033446126
 20
467.7293967015994
 30
0.0
 10
320.0195197262183
 20
460.3014897606454
 30
0.0
 10
320.0195197262183
 20
460.3014897606454
 30
0.0
  0
SPLINE
  5
A0
330
84
100
AcDbEntity
  8
Layer 3
 62
   250
420
  2301728
370
     9
100
AcDbSpline
210
0.0
220
0.0
230
1.0
 70
     8
 71
     3
 72
    11
 73
     7
 74
     0
 42
0.0000000001
 43
0.0000000001
 12
1.0
 22
0.0
 32
0.0
 13
1.0
 23
0.0
 33
0.0
 40
0.0
 40
0.0
 40
0.0
 40
0.0
 40
1.0
 40
1.0
 40
1.0
 40
2.0
 40
2.0
 40
2.0
 40
2.0
 10
333.2505745433409
 20
481.2604293856184
 30
0.0
 10
333.2505745433409
 20
481.2604293856184
 30
0.0
 10
333.0687679570656
 20
478.776376840462
 30
0.0
 10
333.2505745433409
 20
477.4110197446471
 30
0.0
 10
333.4323811296163
 20
476.0456626488331
 30
0.0
 10
329.0195817367494
 20
465.7804646318773
 30
0.0
 10
329.0195817367494
 20
465.7804646318773
 30
0.0
  0
POLYLINE
  5
A1
330
84
100
AcDbEntity
  8
Layer 3
 62
   250
420
  2301728
370
     9
100
AcDb2dPolyline
 66
     1
 10
0.0
 20
0.0
 30
0.0
  0
VERTEX
  5
A2
330
A1
100
AcDbEntity
  8
Layer 3
 62
   250
420
  2301728
370
     9
100
AcDbVertex
100
AcDb2dVertex
 10
337.4299610542448
 20
469.4899509816232
 30
0.0
  0
VERTEX
  5
A3
330
A1
100
AcDbEntity
  8
Layer 3
 62
   250
420
  2301728
370
     9
100
AcDbVertex
100
AcDb2dVertex
 10
340.8797834704228
 20
475.0526756700592
 30
0.0
  0
VERTEX
  5
A4
330
A1
100
AcDbEntity
  8
Layer 3
 62
   250
420
  2301728
370
     9
100
AcDbVertex
100
AcDb2dVertex
 10
342.6579852029936
 20
480.1931703784167
 30
0.0
  0
VERTEX
  5
A5
330
A1
100
AcDbEntity
  8
Layer 3
 62
   250
420
  2301728
370
     9
100
AcDbVertex
100
AcDb2dVertex
 10
343.2774222201642
 20
486.1549630898153
 30
0.0
  0
SEQEND
  5
A6
330
A1
100
AcDbEntity
  8
Layer 3
 62
   250
420
  2301728
370
     9
  0
POLYLINE
  5
A7
330
84
100
AcDbEntity
  8
Layer 3
 62
   250
420
  2301728
370
     9
100
AcDb2dPolyline
 66
     1
 10
0.0
 20
0.0
 30
0.0
  0
VERTEX
  5
A8
330
A7
100
AcDbEntity
  8
Layer 3
 62
   250
420
  2301728
370
     9
100
AcDbVertex
100
AcDb2dVertex
 10
346.257895590621
 20
473.0907807870517
 30
0.0
  0
VERTEX
  5
A9
330
A7
100
AcDbEntity
  8
Layer 3
 62
   250
420
  2301728
370
     9
100
AcDbVertex
100
AcDb2dVertex
 10
347.8306923218424
 20
476.2695994724963
 30
0.0
  0
VERTEX
  5
AA
330
A7
100
AcDbEntity
  8
Layer 3
 62
   250
420
  2301728
370
     9
100
AcDbVertex
100
AcDb2dVertex
 10
348.6206206547977
 20
481.2604293856184
 30
0.0
  0
SEQEND
  5
AB
330
A7
100
AcDbEntity
  8
Layer 3
 62
   250
420
  2301728
370
     9
  0
POLYLINE
  5
AC
330
84
100
AcDbEntity
  8
Layer 3
 62
   250
420
  2301728
370
     9
100
AcDb2dPolyline
 66
     1
 10
0.0
 20
0.0
 30
0.0
  0
VERTEX
  5
AD
330
AC
100
AcDbEntity
  8
Layer 3
 62
   250
420
  2301728
370
     9
100
AcDbVertex
100
AcDb2dVertex
 10
306.7733543393406
 20
452.0192199266066
 30
0.0
  0
VERTEX
  5
AE
330
AC
100
AcDbEntity
  8
Layer 3
 62
   250
420
  2301728
370
     9
100
AcDbVertex
100
AcDb2dVertex
 10
306.3574681670852
 20
446.428356276745
 30
0.0
  0
VERTEX
  5
AF
330
AC
100
AcDbEntity
  8
Layer 3
 62
   250
420
  2301728
370
     9
100
AcDbVertex
100
AcDb2dVertex
 10
305.5314284247088
 20
442.4995776164724
 30
0.0
  0
SEQEND
  5
B0
330
AC
100
AcDbEntity
  8
Layer 3
 62
   250
420
  2301728
370
     9
  0
SPLINE
  5
B1
330
84
100
AcDbEntity
  8
Layer 3
 62
   250
420
  2301728
370
     9
100
AcDbSpline
210
0.0
220
0.0
230
1.0
 70
     8
 71
     3
 72
    14
 73
    10
 74
     0
 42
0.0000000001
 43
0.0000000001
 12
1.0
 22
0.0
 32
0.0
 13
1.0
 23
0.0
 33
0.0
 40
0.0
 40
0.0
 40
0.0
 40
0.0
 40
1.0
 40
1.0
 40
1.0
 40
2.0
 40
2.0
 40
2.0
 40
3.0
 40
3.0
 40
3.0
 40
3.0
 10
314.1637099071804
 20
456.3944354824571
 30
0.0
 10
314.1637099071804
 20
456.3944354824571
 30
0.0
 10
314.0358831003941
 20
453.3575493637163
 30
0.0
 10
314.1379773065446
 20
452.1830809424664
 30
0.0
 10
314.2400715126923
 20
451.0086125212138
 30
0.0
 10
313.0761480647452
 20
444.3528282429561
 30
0.0
 10
313.0761480647452
 20
444.3528282429561
 30
0.0
 10
313.0761480647452
 20
444.3528282429561
 30
0.0
 10
309.6860130585019
 20
438.3722199472077
 30
0.0
 10
309.6860130585019
 20
438.3722199472077
 30
0.0
  0
SPLINE
  5
B2
330
84
100
AcDbEntity
  8
Layer 3
 62
   250
420
  2301728
370
     9
100
AcDbSpline
210
0.0
220
0.0
230
1.0
 70
     8
 71
     3
 72
    14
 73
    10
 74
     0
 42
0.0000000001
 43
0.0000000001
 12
1.0
 22
0.0
 32
0.0
 13
1.0
 23
0.0
 33
0.0
 40
0.0
 40
0.0
 40
0.0
 40
0.0
 40
1.0
 40
1.0
 40
1.0
 40
2.0
 40
2.0
 40
2.0
 40
3.0
 40
3.0
 40
3.0
 40
3.0
 10
321.8902465155907
 20
461.2169507914459
 30
0.0
 10
321.8902465155907
 20
461.2169507914459
 30
0.0
 10
321.6916375570754
 20
458.7599642110054
 30
0.0
 10
321.8669547575892
 20
457.4050604894855
 30
0.0
 10
321.9499615607301
 20
456.763559107083
 30
0.0
 10
321.8153146870818
 20
452.6934977257633
 30
0.0
 10
320.7717971502452
 20
448.7385207325433
 30
0.0
 10
319.6113197575123
 20
444.3402607825246
 30
0.0
 10
317.5243499978251
 20
440.5355873676199
 30
0.0
 10
317.5243499978251
 20
440.5355873676199
 30
0.0
  0
POLYLINE
  5
B3
330
84
100
AcDbEntity
  8
Layer 3
 62
   250
420
  2301728
370
     9
100
AcDb2dPolyline
 66
     1
 10
0.0
 20
0.0
 30
0.0
  0
VERTEX
  5
B4
330
B3
100
AcDbEntity
  8
Layer 3
 62
   250
420
  2301728
370
     9
100
AcDbVertex
100
AcDb2dVertex
 10
326.0391485298715
 20
445.7837315130901
 30
0.0
  0
VERTEX
  5
B5
330
B3
100
AcDbEntity
  8
Layer 3
 62
   250
420
  2301728
370
     9
100
AcDbVertex
100
AcDb2dVertex
 10
330.0399218180955
 20
453.2690238231989
 30
0.0
  0
VERTEX
  5
B6
330
B3
100
AcDbEntity
  8
Layer 3
 62
   250
420
  2301728
370
     9
100
AcDbVertex
100
AcDb2dVertex
 10
330.7637286241606
 20
459.5372541267116
 30
0.0
  0
VERTEX
  5
B7
330
B3
100
AcDbEntity
  8
Layer 3
 62
   250
420
  2301728
370
     9
100
AcDbVertex
100
AcDb2dVertex
 10
331.1378118280963
 20
465.7312143126364
 30
0.0
  0
SEQEND
  5
B8
330
B3
100
AcDbEntity
  8
Layer 3
 62
   250
420
  2301728
370
     9
  0
POLYLINE
  5
B9
330
84
100
AcDbEntity
  8
Layer 3
 62
   250
420
  2301728
370
     9
100
AcDb2dPolyline
 66
     1
 10
0.0
 20
0.0
 30
0.0
  0
VERTEX
  5
BA
330
B9
100
AcDbEntity
  8
Layer 3
 62
   250
420
  2301728
370
     9
100
AcDbVertex
100
AcDb2dVertex
 10
334.974914646612
 20
451.2913414059585
 30
0.0
  0
VERTEX
  5
BB
330
B9
100
AcDbEntity
  8
Layer 3
 62
   250
420
  2301728
370
     9
100
AcDbVertex
100
AcDb2dVertex
 10
336.969897241499
 20
455.753001268914
 30
0.0
  0
VERTEX
  5
BC
330
B9
100
AcDbEntity
  8
Layer 3
 62
   250
420
  2301728
370
     9
100
AcDbVertex
100
AcDb2dVertex
 10
336.7515111059402
 20
460.6738556031578
 30
0.0
  0
SEQEND
  5
BD
330
B9
100
AcDbEntity
  8
Layer 3
 62
   250
420
  2301728
370
     9
  0
POLYLINE
  5
BE
330
84
100
AcDbEntity
  8
Layer 3
 62
   250
420
  2301728
370
     9
100
AcDb2dPolyline
 66
     1
 10
0.0
 20
0.0
 30
0.0
  0
VERTEX
  5
BF
330
BE
100
AcDbEntity
  8
Layer 3
 62
   250
420
  2301728
370
     9
100
AcDbVertex
100
AcDb2dVertex
 10
311.3234312675877
 20
478.8431477674903
 30
0.0
  0
VERTEX
  5
C0
330
BE
100
AcDbEntity
  8
Layer 3
 62
   250
420
  2301728
370
     9
100
AcDbVertex
100
AcDb2dVertex
 10
315.636975902521
 20
484.614884581616
 30
0.0
  0
VERTEX
  5
C1
330
BE
100
AcDbEntity
  8
Layer 3
 62
   250
420
  2301728
370
     9
100
AcDbVertex
100
AcDb2dVertex
 10
317.8661539486238
 20
489.2695110446202
 30
0.0
  0
VERTEX
  5
C2
330
BE
100
AcDbEntity
  8
Layer 3
 62
   250
420
  2301728
370
     9
100
AcDbVertex
100
AcDb2dVertex
 10
322.6756597683216
 20
499.3928840534172
 30
0.0
  0
VERTEX
  5
C3
330
BE
100
AcDbEntity
  8
Layer 3
 62
   250
420
  2301728
370
     9
100
AcDbVertex
100
AcDb2dVertex
 10
323.7563312452658
 20
507.6868190692639
 30
0.0
  0
SEQEND
  5
C4
330
BE
100
AcDbEntity
  8
Layer 3
 62
   250
420
  2301728
370
     9
  0
ENDBLK
  5
87
330
84
100
AcDbEntity
  8
0
100
AcDbBlockEnd
  0
BLOCK
  5
C7
330
C5
100
AcDbEntity
  8
0
100
AcDbBlockBegin
  2
block 10
 70
     0
 10
0.0
 20
0.0
 30
0.0
  3
block 10
  1

  0
INSERT
  5
CA
330
C5
100
AcDbEntity
  8
Layer 3
100
AcDbBlockReference
  2
block 11
 10
0.0
 20
0.0
 30
0.0
  0
INSERT
  5
DC
330
C5
100
AcDbEntity
  8
Layer 3
100
AcDbBlockReference
  2
block 12
 10
0.0
 20
0.0
 30
0.0
  0
INSERT
  5
E4
330
C5
100
AcDbEntity
  8
Layer 3
100
AcDbBlockReference
  2
block 13
 10
0.0
 20
0.0
 30
0.0
  0
INSERT
  5
EF
330
C5
100
AcDbEntity
  8
Layer 3
100
AcDbBlockReference
  2
block 14
 10
0.0
 20
0.0
 30
0.0
  0
INSERT
  5
F8
330
C5
100
AcDbEntity
  8
Layer 3
100
AcDbBlockReference
  2
block 15
 10
0.0
 20
0.0
 30
0.0
  0
INSERT
  5
100
330
C5
100
AcDbEntity
  8
Layer 3
100
AcDbBlockReference
  2
block 16
 10
0.0
 20
0.0
 30
0.0
  0
POLYLINE
  5
12C
330
C5
100
AcDbEntity
  8
Layer 3
 62
   250
420
  2301728
370
    18
100
AcDb2dPolyline
 66
     1
 10
0.0
 20
0.0
 30
0.0
  0
VERTEX
  5
12D
330
12C
100
AcDbEntity
  8
Layer 3
 62
   250
420
  2301728
370
    18
100
AcDbVertex
100
AcDb2dVertex
 10
468.1698880428503
 20
240.9259309775734
 30
0.0
  0
VERTEX
  5
12E
330
12C
100
AcDbEntity
  8
Layer 3
 62
   250
420
  2301728
370
    18
100
AcDbVertex
100
AcDb2dVertex
 10
487.7682896989299
 20
246.4969231790783
 30
0.0
  0
SEQEND
  5
12F
330
12C
100
AcDbEntity
  8
Layer 3
 62
   250
420
  2301728
370
    18
  0
ENDBLK
  5
C8
330
C5
100
AcDbEntity
  8
0
100
AcDbBlockEnd
  0
BLOCK
  5
CB
330
C9
100
AcDbEntity
  8
0
100
AcDbBlockBegin
  2
block 11
 70
     0
 10
0.0
 20
0.0
 30
0.0
  3
block 11
  1

  0
POLYLINE
  5
CD
330
C9
100
AcDbEntity
  8
Layer 3
 62
   250
420
  2301728
370
    25
100
AcDb2dPolyline
 66
     1
 10
0.0
 20
0.0
 30
0.0
  0
VERTEX
  5
CE
330
CD
100
AcDbEntity
  8
Layer 3
 62
   250
420
  2301728
370
    25
100
AcDbVertex
100
AcDb2dVertex
 10
461.54135577544
 20
393.4668945060639
 30
0.0
  0
VERTEX
  5
CF
330
CD
100
AcDbEntity
  8
Layer 3
 62
   250
420
  2301728
370
    25
100
AcDbVertex
100
AcDb2dVertex
 10
428.2713710275839
 20
378.8929434821912
 30
0.0
  0
VERTEX
  5
D0
330
CD
100
AcDbEntity
  8
Layer 3
 62
   250
420
  2301728
370
    25
100
AcDbVertex
100
AcDb2dVertex
 10
428.2713710275821
 20
246.7251529584537
 30
0.0
  0
VERTEX
  5
D1
330
CD
100
AcDbEntity
  8
Layer 3
 62
   250
420
  2301728
370
    25
100
AcDbVertex
100
AcDb2dVertex
 10
445.7274391681822
 20
244.1879254714731
 30
0.0
  0
VERTEX
  5
D2
330
CD
100
AcDbEntity
  8
Layer 3
 62
   250
420
  2301728
370
    25
100
AcDbVertex
100
AcDb2dVertex
 10
450.4255179861502
 20
245.5708114585832
 30
0.0
  0
VERTEX
  5
D3
330
CD
100
AcDbEntity
  8
Layer 3
 62
   250
420
  2301728
370
    25
100
AcDbVertex
100
AcDb2dVertex
 10
454.222055117134
 20
236.9611551851049
 30
0.0
  0
VERTEX
  5
D4
330
CD
100
AcDbEntity
  8
Layer 3
 62
   250
420
  2301728
370
    25
100
AcDbVertex
100
AcDb2dVertex
 10
468.1698880428503
 20
240.9259309775734
 30
0.0
  0
VERTEX
  5
D5
330
CD
100
AcDbEntity
  8
Layer 3
 62
   250
420
  2301728
370
    25
100
AcDbVertex
100
AcDb2dVertex
 10
474.1645511867719
 20
240.0807668485577
 30
0.0
  0
VERTEX
  5
D6
330
CD
100
AcDbEntity
  8
Layer 3
 62
   250
420
  2301728
370
    25
100
AcDbVertex
100
AcDb2dVertex
 10
507.8553865536123
 20
249.6227555349251
 30
0.0
  0
VERTEX
  5
D7
330
CD
100
AcDbEntity
  8
Layer 3
 62
   250
420
  2301728
370
    25
100
AcDbVertex
100
AcDb2dVertex
 10
507.8553865536123
 20
383.3457281681949
 30
0.0
  0
VERTEX
  5
D8
330
CD
100
AcDbEntity
  8
Layer 3
 62
   250
420
  2301728
370
    25
100
AcDbVertex
100
AcDb2dVertex
 10
461.54135577544
 20
393.4668945060639
 30
0.0
  0
SEQEND
  5
DA
330
CD
100
AcDbEntity
  8
Layer 3
 62
   250
420
  2301728
370
    25
  0
HATCH
  5
D9
330
C9
100
AcDbEntity
  8
Layer 3
 62
    43
420
 15510365
100
AcDbHatch
 10
0.0
 20
0.0
 30
0.0
210
0.0
220
0.0
230
1.0
  2
SOLID
 70
     1
 71
     0
 91
        1
 92
        1
 93
       10
 72
     1
 10
461.54135577544
 20
393.4668945060639
 11
428.2713710275839
 21
378.8929434821912
 72
     1
 10
428.2713710275839
 20
378.8929434821912
 11
428.2713710275821
 21
246.7251529584537
 72
     1
 10
428.2713710275821
 20
246.7251529584537
 11
445.7274391681822
 21
244.1879254714731
 72
     1
 10
445.7274391681822
 20
244.1879254714731
 11
450.4255179861502
 21
245.5708114585832
 72
     1
 10
450.4255179861502
 20
245.5708114585832
 11
454.222055117134
 21
236.9611551851049
 72
     1
 10
454.222055117134
 20
236.9611551851049
 11
468.1698880428503
 21
240.9259309775734
 72
     1
 10
468.1698880428503
 20
240.9259309775734
 11
474.1645511867719
 21
240.0807668485577
 72
     1
 10
474.1645511867719
 20
240.0807668485577
 11
507.8553865536123
 21
249.6227555349251
 72
     1
 10
507.8553865536123
 20
249.6227555349251
 11
507.8553865536123
 21
383.3457281681949
 72
     1
 10
507.8553865536123
 20
383.3457281681949
 11
461.54135577544
 21
393.4668945060639
 97
        0
 75
     2
 76
     1
 98
        0
  0
ENDBLK
  5
CC
330
C9
100
AcDbEntity
  8
0
100
AcDbBlockEnd
  0
BLOCK
  5
DD
330
DB
100
AcDbEntity
  8
0
100
AcDbBlockBegin
  2
block 12
 70
     0
 10
0.0
 20
0.0
 30
0.0
  3
block 12
  1

  0
POLYLINE
  5
DF
330
DB
100
AcDbEntity
  8
Layer 3
 62
   250
420
  2301728
370
    18
100
AcDb2dPolyline
 66
     1
 10
0.0
 20
0.0
 30
0.0
  0
VERTEX
  5
E0
330
DF
100
AcDbEntity
  8
Layer 3
 62
   250
420
  2301728
370
    18
100
AcDbVertex
100
AcDb2dVertex
 10
479.1297588051966
 20
254.0199443780402
 30
0.0
  0
VERTEX
  5
E1
330
DF
100
AcDbEntity
  8
Layer 3
 62
   250
420
  2301728
370
    18
100
AcDbVertex
100
AcDb2dVertex
 10
450.4255179861502
 20
245.5708114585832
 30
0.0
  0
SEQEND
  5
E2
330
DF
100
AcDbEntity
  8
Layer 3
 62
   250
420
  2301728
370
    18
  0
ENDBLK
  5
DE
330
DB
100
AcDbEntity
  8
0
100
AcDbBlockEnd
  0
BLOCK
  5
E5
330
E3
100
AcDbEntity
  8
0
100
AcDbBlockBegin
  2
block 13
 70
     0
 10
0.0
 20
0.0
 30
0.0
  3
block 13
  1

  0
POLYLINE
  5
E7
330
E3
100
AcDbEntity
  8
Layer 3
 62
   250
420
  2301728
370
    18
100
AcDb2dPolyline
 66
     1
 10
0.0
 20
0.0
 30
0.0
  0
VERTEX
  5
E8
330
E7
100
AcDbEntity
  8
Layer 3
 62
   250
420
  2301728
370
    18
100
AcDbVertex
100
AcDb2dVertex
 10
487.7682896989299
 20
246.4969231790783
 30
0.0
  0
VERTEX
  5
E9
330
E7
100
AcDbEntity
  8
Layer 3
 62
   250
420
  2301728
370
    18
100
AcDbVertex
100
AcDb2dVertex
 10
482.0180192343814
 20
259.7973389680046
 30
0.0
  0
VERTEX
  5
EA
330
E7
100
AcDbEntity
  8
Layer 3
 62
   250
420
  2301728
370
    18
100
AcDbVertex
100
AcDb2dVertex
 10
479.1297588051966
 20
254.0199443780402
 30
0.0
  0
VERTEX
  5
EB
330
E7
100
AcDbEntity
  8
Layer 3
 62
   250
420
  2301728
370
    18
100
AcDbVertex
100
AcDb2dVertex
 10
461.3696208648325
 20
256.7385857629233
 30
0.0
  0
VERTEX
  5
EC
330
E7
100
AcDbEntity
  8
Layer 3
 62
   250
420
  2301728
370
    18
100
AcDbVertex
100
AcDb2dVertex
 10
428.2713710275857
 20
246.7251529584537
 30
0.0
  0
SEQEND
  5
ED
330
E7
100
AcDbEntity
  8
Layer 3
 62
   250
420
  2301728
370
    18
  0
ENDBLK
  5
E6
330
E3
100
AcDbEntity
  8
0
100
AcDbBlockEnd
  0
BLOCK
  5
F0
330
EE
100
AcDbEntity
  8
0
100
AcDbBlockBegin
  2
block 14
 70
     0
 10
0.0
 20
0.0
 30
0.0
  3
block 14
  1

  0
POLYLINE
  5
F2
330
EE
100
AcDbEntity
  8
Layer 3
 62
   250
420
  2301728
370
    18
100
AcDb2dPolyline
 66
     1
 10
0.0
 20
0.0
 30
0.0
  0
VERTEX
  5
F3
330
F2
100
AcDbEntity
  8
Layer 3
 62
   250
420
  2301728
370
    18
100
AcDbVertex
100
AcDb2dVertex
 10
507.8553865536123
 20
249.6227555349251
 30
0.0
  0
VERTEX
  5
F4
330
F2
100
AcDbEntity
  8
Layer 3
 62
   250
420
  2301728
370
    18
100
AcDbVertex
100
AcDb2dVertex
 10
490.6303791409136
 20
252.2594815651137
 30
0.0
  0
VERTEX
  5
F5
330
F2
100
AcDbEntity
  8
Layer 3
 62
   250
420
  2301728
370
    18
100
AcDbVertex
100
AcDb2dVertex
 10
487.7682896989299
 20
246.4969231790783
 30
0.0
  0
SEQEND
  5
F6
330
F2
100
AcDbEntity
  8
Layer 3
 62
   250
420
  2301728
370
    18
  0
ENDBLK
  5
F1
330
EE
100
AcDbEntity
  8
0
100
AcDbBlockEnd
  0
BLOCK
  5
F9
330
F7
100
AcDbEntity
  8
0
100
AcDbBlockBegin
  2
block 15
 70
     0
 10
0.0
 20
0.0
 30
0.0
  3
block 15
  1

  0
POLYLINE
  5
FB
330
F7
100
AcDbEntity
  8
Layer 3
 62
   250
420
  2301728
370
    18
100
AcDb2dPolyline
 66
     1
 10
0.0
 20
0.0
 30
0.0
  0
VERTEX
  5
FC
330
FB
100
AcDbEntity
  8
Layer 3
 62
   250
420
  2301728
370
    18
100
AcDbVertex
100
AcDb2dVertex
 10
461.54135577544
 20
393.4668945060639
 30
0.0
  0
VERTEX
  5
FD
330
FB
100
AcDbEntity
  8
Layer 3
 62
   250
420
  2301728
370
    18
100
AcDbVertex
100
AcDb2dVertex
 10
461.3696208648325
 20
256.7385857629233
 30
0.0
  0
SEQEND
  5
FE
330
FB
100
AcDbEntity
  8
Layer 3
 62
   250
420
  2301728
370
    18
  0
ENDBLK
  5
FA
330
F7
100
AcDbEntity
  8
0
100
AcDbBlockEnd
  0
BLOCK
  5
101
330
FF
100
AcDbEntity
  8
0
100
AcDbBlockBegin
  2
block 16
 70
     0
 10
0.0
 20
0.0
 30
0.0
  3
block 16
  1

  0
POLYLINE
  5
103
330
FF
100
AcDbEntity
  8
Layer 3
 62
   250
420
  2301728
370
     9
100
AcDb2dPolyline
 66
     1
 10
0.0
 20
0.0
 30
0.0
  0
VERTEX
  5
104
330
103
100
AcDbEntity
  8
Layer 3
 62
   250
420
  2301728
370
     9
100
AcDbVertex
100
AcDb2dVertex
 10
455.8563172296199
 20
255.07611232204
 30
0.0
  0
VERTEX
  5
105
330
103
100
AcDbEntity
  8
Layer 3
 62
   250
420
  2301728
370
     9
100
AcDbVertex
100
AcDb2dVertex
 10
457.6777231071756
 20
255.0119961562596
 30
0.0
  0
VERTEX
  5
106
330
103
100
AcDbEntity
  8
Layer 3
 62
   250
420
  2301728
370
     9
100
AcDbVertex
100
AcDb2dVertex
 10
468.5732797899564
 20
254.8258110977404
 30
0.0
  0
VERTEX
  5
107
330
103
100
AcDbEntity
  8
Layer 3
 62
   250
420
  2301728
370
     9
100
AcDbVertex
100
AcDb2dVertex
 10
471.0767519603578
 20
255.2554554730959
 30
0.0
  0
SEQEND
  5
108
330
103
100
AcDbEntity
  8
Layer 3
 62
   250
420
  2301728
370
     9
  0
SPLINE
  5
109
330
FF
100
AcDbEntity
  8
Layer 3
 62
   250
420
  2301728
370
     9
100
AcDbSpline
210
0.0
220
0.0
230
1.0
 70
     8
 71
     3
 72
    14
 73
    10
 74
     0
 42
0.0000000001
 43
0.0000000001
 12
1.0
 22
0.0
 32
0.0
 13
1.0
 23
0.0
 33
0.0
 40
0.0
 40
0.0
 40
0.0
 40
0.0
 40
1.0
 40
1.0
 40
1.0
 40
2.0
 40
2.0
 40
2.0
 40
3.0
 40
3.0
 40
3.0
 40
3.0
 10
445.9820175777841
 20
252.2552062884897
 30
0.0
 10
445.9820175777841
 20
252.2552062884897
 30
0.0
 10
446.8863604979088
 20
252.2552062884897
 30
0.0
 10
446.8863604979088
 20
252.2552062884897
 30
0.0
 10
446.8863604979088
 20
252.2552062884897
 30
0.0
 10
454.8465832537404
 20
252.1895907059588
 30
0.0
 10
457.4989088335587
 20
252.2552062884897
 30
0.0
 10
462.0069819009295
 20
252.3667309982266
 30
0.0
 10
475.514653027014
 20
253.1471310735396
 30
0.0
 10
475.514653027014
 20
253.1471310735396
 30
0.0
  0
SPLINE
  5
10A
330
FF
100
AcDbEntity
  8
Layer 3
 62
   250
420
  2301728
370
     9
100
AcDbSpline
210
0.0
220
0.0
230
1.0
 70
     8
 71
     3
 72
    14
 73
    10
 74
     0
 42
0.0000000001
 43
0.0000000001
 12
1.0
 22
0.0
 32
0.0
 13
1.0
 23
0.0
 33
0.0
 40
0.0
 40
0.0
 40
0.0
 40
0.0
 40
1.0
 40
1.0
 40
1.0
 40
2.0
 40
2.0
 40
2.0
 40
3.0
 40
3.0
 40
3.0
 40
3.0
 10
462.6092358356073
 20
249.5043838419551
 30
0.0
 10
459.713938406534
 20
249.3134294054944
 30
0.0
 10
455.4424438840142
 20
249.0478555855152
 30
0.0
 10
455.4424438840142
 20
249.0478555855152
 30
0.0
 10
455.4424438840142
 20
249.0478555855152
 30
0.0
 10
447.2503013091264
 20
248.4272387237797
 30
0.0
 10
447.2503013091264
 20
248.4272387237797
 30
0.0
 10
447.2503013091264
 20
248.4272387237797
 30
0.0
 10
436.9994050978821
 20
249.604572883818
 30
0.0
 10
436.9994050978821
 20
249.604572883818
 30
0.0
  0
SPLINE
  5
10B
330
FF
100
AcDbEntity
  8
Layer 3
 62
   250
420
  2301728
370
     9
100
AcDbSpline
210
0.0
220
0.0
230
1.0
 70
     8
 71
     3
 72
    14
 73
    10
 74
     0
 42
0.0000000001
 43
0.0000000001
 12
1.0
 22
0.0
 32
0.0
 13
1.0
 23
0.0
 33
0.0
 40
0.0
 40
0.0
 40
0.0
 40
0.0
 40
1.0
 40
1.0
 40
1.0
 40
2.0
 40
2.0
 40
2.0
 40
3.0
 40
3.0
 40
3.0
 40
3.0
 10
430.1607708847951
 20
246.7132890264074
 30
0.0
 10
430.1607708847951
 20
246.7132890264074
 30
0.0
 10
435.4052843071404
 20
246.3793480555032
 30
0.0
 10
437.1550914194522
 20
246.2991935474856
 30
0.0
 10
439.5461952813203
 20
246.1896627584538
 30
0.0
 10
444.3329539163842
 20
245.889631400114
 30
0.0
 10
446.7245064187864
 20
245.9888851166179
 30
0.0
 10
448.6098148695673
 20
246.0671287973673
 30
0.0
 10
454.222055117134
 20
246.8577487230468
 30
0.0
 10
454.222055117134
 20
246.8577487230468
 30
0.0
  0
SPLINE
  5
10C
330
FF
100
AcDbEntity
  8
Layer 3
 62
   250
420
  2301728
370
     9
100
AcDbSpline
210
0.0
220
0.0
230
1.0
 70
     8
 71
     3
 72
    14
 73
    10
 74
     0
 42
0.0000000001
 43
0.0000000001
 12
1.0
 22
0.0
 32
0.0
 13
1.0
 23
0.0
 33
0.0
 40
0.0
 40
0.0
 40
0.0
 40
0.0
 40
1.0
 40
1.0
 40
1.0
 40
2.0
 40
2.0
 40
2.0
 40
3.0
 40
3.0
 40
3.0
 40
3.0
 10
482.2289183956673
 20
244.9228371021381
 30
0.0
 10
482.3681577080733
 20
245.081648586438
 30
0.0
 10
482.5089312198288
 20
245.24027622629
 30
0.0
 10
482.6511462889248
 20
245.3984632679603
 30
0.0
 10
483.2391013189808
 20
246.0524506929905
 30
0.0
 10
484.1610271641803
 20
246.9915213022832
 30
0.0
 10
484.5688856664838
 20
247.7101771045091
 30
0.0
 10
485.1733875601349
 20
248.7753229599366
 30
0.0
 10
485.2062189869448
 20
249.6223153535757
 30
0.0
 10
485.8721810761235
 20
250.4975171068763
 30
0.0
  0
SPLINE
  5
10D
330
FF
100
AcDbEntity
  8
Layer 3
 62
   250
420
  2301728
370
     9
100
AcDbSpline
210
0.0
220
0.0
230
1.0
 70
     8
 71
     3
 72
    11
 73
     7
 74
     0
 42
0.0000000001
 43
0.0000000001
 12
1.0
 22
0.0
 32
0.0
 13
1.0
 23
0.0
 33
0.0
 40
0.0
 40
0.0
 40
0.0
 40
0.0
 40
1.0
 40
1.0
 40
1.0
 40
2.0
 40
2.0
 40
2.0
 40
2.0
 10
471.1451931673109
 20
241.6925348098412
 30
0.0
 10
472.4514666313007
 20
244.3323901694057
 30
0.0
 10
472.544260179302
 20
244.4019754724504
 30
0.0
 10
474.5328120727518
 20
247.7236535543889
 30
0.0
 10
476.6682986196047
 20
251.290771355194
 30
0.0
 10
476.8240033797538
 20
253.3426895029188
 30
0.0
 10
476.8240033797538
 20
253.3426895029188
 30
0.0
  0
SPLINE
  5
10E
330
FF
100
AcDbEntity
  8
Layer 3
 62
   250
420
  2301728
370
     9
100
AcDbSpline
210
0.0
220
0.0
230
1.0
 70
     8
 71
     3
 72
    11
 73
     7
 74
     0
 42
0.0000000001
 43
0.0000000001
 12
1.0
 22
0.0
 32
0.0
 13
1.0
 23
0.0
 33
0.0
 40
0.0
 40
0.0
 40
0.0
 40
0.0
 40
1.0
 40
1.0
 40
1.0
 40
2.0
 40
2.0
 40
2.0
 40
2.0
 10
457.261743750194
 20
237.8182812728337
 30
0.0
 10
458.99947096305
 20
240.1766253474234
 30
0.0
 10
460.5584746360873
 20
241.5427733692268
 30
0.0
 10
461.8270084432897
 20
243.9007219808191
 30
0.0
 10
462.5035773084437
 20
245.1583271050804
 30
0.0
 10
463.4753235041189
 20
247.5997971405232
 30
0.0
 10
464.2349268546041
 20
249.604572883818
 30
0.0
  0
SPLINE
  5
10F
330
FF
100
AcDbEntity
  8
Layer 3
 62
   250
420
  2301728
370
     9
100
AcDbSpline
210
0.0
220
0.0
230
1.0
 70
     8
 71
     3
 72
    14
 73
    10
 74
     0
 42
0.0000000001
 43
0.0000000001
 12
1.0
 22
0.0
 32
0.0
 13
1.0
 23
0.0
 33
0.0
 40
0.0
 40
0.0
 40
0.0
 40
0.0
 40
1.0
 40
1.0
 40
1.0
 40
2.0
 40
2.0
 40
2.0
 40
3.0
 40
3.0
 40
3.0
 40
3.0
 10
452.3701796465393
 20
240.8898281542934
 30
0.0
 10
453.1758406286917
 20
241.9250294259218
 30
0.0
 10
454.4052242616126
 20
243.4820963061138
 30
0.0
 10
455.1131375053301
 20
244.2684159718629
 30
0.0
 10
456.2302478564507
 20
245.5092542323364
 30
0.0
 10
457.3959243695372
 20
246.9991301634946
 30
0.0
 10
457.3959243695372
 20
246.9991301634946
 30
0.0
 10
457.3959243695372
 20
246.9991301634946
 30
0.0
 10
457.7083354837305
 20
247.714518937024
 30
0.0
 10
457.7083354837305
 20
247.714518937024
 30
0.0
  0
POLYLINE
  5
110
330
FF
100
AcDbEntity
  8
Layer 3
 62
   250
420
  2301728
370
     9
100
AcDb2dPolyline
 66
     1
 10
0.0
 20
0.0
 30
0.0
  0
VERTEX
  5
111
330
110
100
AcDbEntity
  8
Layer 3
 62
   250
420
  2301728
370
     9
100
AcDbVertex
100
AcDb2dVertex
 10
476.3871504029612
 20
243.2617492411882
 30
0.0
  0
VERTEX
  5
112
330
110
100
AcDbEntity
  8
Layer 3
 62
   250
420
  2301728
370
     9
100
AcDbVertex
100
AcDb2dVertex
 10
479.7280741449595
 20
246.9991301634946
 30
0.0
  0
VERTEX
  5
113
330
110
100
AcDbEntity
  8
Layer 3
 62
   250
420
  2301728
370
     9
100
AcDbVertex
100
AcDb2dVertex
 10
483.3404333974158
 20
256.7385857629233
 30
0.0
  0
SEQEND
  5
114
330
110
100
AcDbEntity
  8
Layer 3
 62
   250
420
  2301728
370
     9
  0
POLYLINE
  5
115
330
FF
100
AcDbEntity
  8
Layer 3
 62
   250
420
  2301728
370
     9
100
AcDb2dPolyline
 66
     1
 10
0.0
 20
0.0
 30
0.0
  0
VERTEX
  5
116
330
115
100
AcDbEntity
  8
Layer 3
 62
   250
420
  2301728
370
     9
100
AcDbVertex
100
AcDb2dVertex
 10
464.583209403374
 20
239.8242799158288
 30
0.0
  0
VERTEX
  5
117
330
115
100
AcDbEntity
  8
Layer 3
 62
   250
420
  2301728
370
     9
100
AcDbVertex
100
AcDb2dVertex
 10
467.4380469673488
 20
243.4549401455988
 30
0.0
  0
VERTEX
  5
118
330
115
100
AcDbEntity
  8
Layer 3
 62
   250
420
  2301728
370
     9
100
AcDbVertex
100
AcDb2dVertex
 10
470.7710097349918
 20
251.3173430013339
 30
0.0
  0
SEQEND
  5
119
330
115
100
AcDbEntity
  8
Layer 3
 62
   250
420
  2301728
370
     9
  0
POLYLINE
  5
11A
330
FF
100
AcDbEntity
  8
Layer 3
 62
   250
420
  2301728
370
     9
100
AcDb2dPolyline
 66
     1
 10
0.0
 20
0.0
 30
0.0
  0
VERTEX
  5
11B
330
11A
100
AcDbEntity
  8
Layer 3
 62
   250
420
  2301728
370
     9
100
AcDbVertex
100
AcDb2dVertex
 10
489.4065329672158
 20
249.7953779183117
 30
0.0
  0
VERTEX
  5
11C
330
11A
100
AcDbEntity
  8
Layer 3
 62
   250
420
  2301728
370
     9
100
AcDbVertex
100
AcDb2dVertex
 10
493.4437067892795
 20
250.000167502054
 30
0.0
  0
VERTEX
  5
11D
330
11A
100
AcDbEntity
  8
Layer 3
 62
   250
420
  2301728
370
     9
100
AcDbVertex
100
AcDb2dVertex
 10
497.2490916395564
 20
251.2463190675116
 30
0.0
  0
SEQEND
  5
11E
330
11A
100
AcDbEntity
  8
Layer 3
 62
   250
420
  2301728
370
     9
  0
POLYLINE
  5
11F
330
FF
100
AcDbEntity
  8
Layer 3
 62
   250
420
  2301728
370
     9
100
AcDb2dPolyline
 66
     1
 10
0.0
 20
0.0
 30
0.0
  0
VERTEX
  5
120
330
11F
100
AcDbEntity
  8
Layer 3
 62
   250
420
  2301728
370
     9
100
AcDbVertex
100
AcDb2dVertex
 10
483.3404333974158
 20
245.2622738804203
 30
0.0
  0
VERTEX
  5
121
330
11F
100
AcDbEntity
  8
Layer 3
 62
   250
420
  2301728
370
     9
100
AcDbVertex
100
AcDb2dVertex
 10
489.2362935838883
 20
245.8012569330313
 30
0.0
  0
VERTEX
  5
122
330
11F
100
AcDbEntity
  8
Layer 3
 62
   250
420
  2301728
370
     9
100
AcDbVertex
100
AcDb2dVertex
 10
491.1784552439494
 20
245.7187672715263
 30
0.0
  0
VERTEX
  5
123
330
11F
100
AcDbEntity
  8
Layer 3
 62
   250
420
  2301728
370
     9
100
AcDbVertex
100
AcDb2dVertex
 10
497.9333792084544
 20
246.8142037813886
 30
0.0
  0
SEQEND
  5
124
330
11F
100
AcDbEntity
  8
Layer 3
 62
   250
420
  2301728
370
     9
  0
SPLINE
  5
125
330
FF
100
AcDbEntity
  8
Layer 3
 62
   250
420
  2301728
370
     9
100
AcDbSpline
210
0.0
220
0.0
230
1.0
 70
     8
 71
     3
 72
    14
 73
    10
 74
     0
 42
0.0000000001
 43
0.0000000001
 12
1.0
 22
0.0
 32
0.0
 13
1.0
 23
0.0
 33
0.0
 40
0.0
 40
0.0
 40
0.0
 40
0.0
 40
1.0
 40
1.0
 40
1.0
 40
2.0
 40
2.0
 40
2.0
 40
3.0
 40
3.0
 40
3.0
 40
3.0
 10
473.9845982735314
 20
242.57880583531
 30
0.0
 10
473.9845982735314
 20
242.57880583531
 30
0.0
 10
475.2171166180469
 20
242.5419287077639
 30
0.0
 10
477.9690888708901
 20
242.57880583531
 30
0.0
 10
480.7210611237333
 20
242.6156829628562
 30
0.0
 10
480.7210611237333
 20
242.6156829628562
 30
0.0
 10
480.7210611237333
 20
242.6156829628562
 30
0.0
 10
480.7210611237333
 20
242.6156829628562
 30
0.0
 10
485.7184515481858
 20
243.3863968878832
 30
0.0
 10
485.7184515481858
 20
243.3863968878832
 30
0.0
  0
POLYLINE
  5
126
330
FF
100
AcDbEntity
  8
Layer 3
 62
   250
420
  2301728
370
     9
100
AcDb2dPolyline
 66
     1
 10
0.0
 20
0.0
 30
0.0
  0
VERTEX
  5
127
330
126
100
AcDbEntity
  8
Layer 3
 62
   250
420
  2301728
370
     9
100
AcDbVertex
100
AcDb2dVertex
 10
488.381502873619
 20
247.7315724777327
 30
0.0
  0
VERTEX
  5
128
330
126
100
AcDbEntity
  8
Layer 3
 62
   250
420
  2301728
370
     9
100
AcDbVertex
100
AcDb2dVertex
 10
493.5678301616244
 20
247.7315724777327
 30
0.0
  0
VERTEX
  5
129
330
126
100
AcDbEntity
  8
Layer 3
 62
   250
420
  2301728
370
     9
100
AcDbVertex
100
AcDb2dVertex
 10
499.2428828472621
 20
248.4805123062433
 30
0.0
  0
VERTEX
  5
12A
330
126
100
AcDbEntity
  8
Layer 3
 62
   250
420
  2301728
370
     9
100
AcDbVertex
100
AcDb2dVertex
 10
503.9282487815108
 20
250.2239039779852
 30
0.0
  0
SEQEND
  5
12B
330
126
100
AcDbEntity
  8
Layer 3
 62
   250
420
  2301728
370
     9
  0
ENDBLK
  5
102
330
FF
100
AcDbEntity
  8
0
100
AcDbBlockEnd
  0
BLOCK
  5
133
330
131
100
AcDbEntity
  8
0
100
AcDbBlockBegin
  2
block 17
 70
     0
 10
0.0
 20
0.0
 30
0.0
  3
block 17
  1

  0
SPLINE
  5
135
330
131
100
AcDbEntity
  8
Layer 2
 62
    18
420
        0
370
    13
100
AcDbSpline
210
0.0
220
0.0
230
1.0
 70
    11
 71
     3
 72
    80
 73
    76
 74
     0
 42
0.0000000001
 43
0.0000000001
 12
1.0
 22
0.0
 32
0.0
 13
1.0
 23
0.0
 33
0.0
 40
0.0
 40
0.0
 40
0.0
 40
0.0
 40
1.0
 40
1.0
 40
1.0
 40
2.0
 40
2.0
 40
2.0
 40
3.0
 40
3.0
 40
3.0
 40
4.0
 40
4.0
 40
4.0
 40
5.0
 40
5.0
 40
5.0
 40
6.0
 40
6.0
 40
6.0
 40
7.0
 40
7.0
 40
7.0
 40
8.0
 40
8.0
 40
8.0
 40
9.0
 40
9.0
 40
9.0
 40
10.0
 40
10.0
 40
10.0
 40
11.0
 40
11.0
 40
11.0
 40
12.0
 40
12.0
 40
12.0
 40
13.0
 40
13.0
 40
13.0
 40
14.0
 40
14.0
 40
14.0
 40
15.0
 40
15.0
 40
15.0
 40
16.0
 40
16.0
 40
16.0
 40
17.0
 40
17.0
 40
17.0
 40
18.0
 40
18.0
 40
18.0
 40
19.0
 40
19.0
 40
19.0
 40
20.0
 40
20.0
 40
20.0
 40
21.0
 40
21.0
 40
21.0
 40
22.0
 40
22.0
 40
22.0
 40
23.0
 40
23.0
 40
23.0
 40
24.0
 40
24.0
 40
24.0
 40
25.0
 40
25.0
 40
25.0
 40
25.0
 10
496.6300831580229
 20
320.0900505749778
 30
0.0
 10
496.6300831580229
 20
320.0900505749778
 30
0.0
 10
471.4937194664471
 20
325.031134325257
 30
0.0
 10
471.4937194664471
 20
325.031134325257
 30
0.0
 10
470.9927687442523
 20
325.1489014759118
 30
0.0
 10
470.566419130073
 20
325.442909356052
 30
0.0
 10
470.2735077077414
 20
325.8696096206804
 30
0.0
 10
470.2735077077414
 20
325.8696096206804
 30
0.0
 10
464.3636060871086
 20
334.1764087426454
 30
0.0
 10
464.3636060871086
 20
334.1764087426454
 30
0.0
 10
464.0361787153015
 20
334.646808221547
 30
0.0
 10
463.8593694122064
 20
335.1991810216578
 30
0.0
 10
463.8527962804237
 20
335.7722639886433
 30
0.0
 10
463.8527962804237
 20
335.7722639886433
 30
0.0
 10
463.8527962804237
 20
412.3046091885881
 30
0.0
 10
463.8527962804237
 20
412.3046091885881
 30
0.0
 10
463.8125044691933
 20
413.4872791722637
 30
0.0
 10
463.1923220636636
 20
414.3961506615769
 30
0.0
 10
462.1067560770389
 20
414.8255469949963
 30
0.0
 10
462.1067560770389
 20
414.8255469949963
 30
0.0
 10
397.9431191520507
 20
430.623399228466
 30
0.0
 10
397.9431191520507
 20
430.623399228466
 30
0.0
 10
397.4021700035692
 20
430.77416231598
 30
0.0
 10
396.9414613111821
 20
431.1046163952178
 30
0.0
 10
396.6210501177065
 20
431.5690858940698
 30
0.0
 10
396.6210501177065
 20
431.5690858940698
 30
0.0
 10
390.4318664004359
 20
440.5531155332774
 30
0.0
 10
390.4318664004359
 20
440.5531155332774
 30
0.0
 10
390.0807843291268
 20
441.0510016986418
 30
0.0
 10
389.8890193589314
 20
441.6366906058947
 30
0.0
 10
389.8781762412491
 20
442.2453039547308
 30
0.0
 10
389.8781762412491
 20
442.2453039547308
 30
0.0
 10
389.8781762412491
 20
475.0936194051392
 30
0.0
 10
389.8781762412491
 20
475.0936194051392
 30
0.0
 10
389.8661416914592
 20
475.6303539630489
 30
0.0
 10
390.0593669400669
 20
476.1276132798112
 30
0.0
 10
390.4318664004359
 20
476.508645544237
 30
0.0
 10
390.4318664004359
 20
476.508645544237
 30
0.0
 10
396.5404965948974
 20
482.232584153734
 30
0.0
 10
396.5404965948974
 20
482.232584153734
 30
0.0
 10
396.8537342135915
 20
482.4741710523676
 30
0.0
 10
397.3387933674148
 20
482.6222460031768
 30
0.0
 10
397.4105857350196
 20
482.6532981152068
 30
0.0
 10
397.688274670154
 20
482.7734059791892
 30
0.0
 10
398.9189078652207
 20
483.1011458554194
 30
0.0
 10
398.9188894025228
 20
483.1012108132136
 30
0.0
 10
399.1711963516427
 20
483.174846475461
 30
0.0
 10
399.4416023886488
 20
483.1757368129702
 30
0.0
 10
399.71504524592
 20
483.1011458554194
 30
0.0
 10
399.71504524592
 20
483.1011458554194
 30
0.0
 10
503.9922583514126
 20
454.5186467022804
 30
0.0
 10
503.9922583514126
 20
454.5186467022804
 30
0.0
 10
505.0120835150356
 20
454.0580961901214
 30
0.0
 10
505.5896276615549
 20
453.1595441878944
 30
0.0
 10
505.6200184515783
 20
452.0244636128436
 30
0.0
 10
505.6200184515783
 20
452.0244636128436
 30
0.0
 10
505.6200184515783
 20
327.9857859217764
 30
0.0
 10
505.6200184515783
 20
327.9857859217764
 30
0.0
 10
505.6295675765177
 20
327.4836427649352
 30
0.0
 10
505.463881481699
 20
327.0079684526636
 30
0.0
 10
505.1435511283998
 20
326.6248896952939
 30
0.0
 10
505.1435511283998
 20
326.6248896952939
 30
0.0
 10
499.7114453925351
 20
320.8245991750637
 30
0.0
 10
499.7114453925351
 20
320.8245991750637
 30
0.0
 10
499.5653991235977
 20
320.6723498501824
 30
0.0
 10
499.3970035763741
 20
320.5609314339627
 30
0.0
 10
499.2135080215357
 20
320.4928619240964
 30
0.0
 10
499.2135080215357
 20
320.4928619240964
 30
0.0
 10
497.8755915180809
 20
319.9869173029192
 30
0.0
 10
497.8755915180809
 20
319.9869173029192
 30
0.0
 10
497.8755915180809
 20
319.9869173029192
 30
0.0
 10
497.869312163315
 20
319.9848088246654
 30
0.0
 10
497.869312163315
 20
319.9848088246654
 30
0.0
 10
497.6676725126836
 20
319.9194865131476
 30
0.0
 10
496.8386704554941
 20
320.0529654816091
 30
0.0
 10
496.6300831580229
 20
320.0900505749778
 30
0.0
  0
HATCH
  5
136
330
131
100
AcDbEntity
  8
Layer 2
 62
   250
420
  2301728
100
AcDbHatch
 10
0.0
 20
0.0
 30
0.0
210
0.0
220
0.0
230
1.0
  2
SOLID
 70
     1
 71
     0
 91
        1
 92
        1
 93
        1
 72
     4
 94
        3
 73
     0
 74
     1
 95
       80
 96
       76
 40
0.0
 40
0.0
 40
0.0
 40
0.0
 40
1.0
 40
1.0
 40
1.0
 40
2.0
 40
2.0
 40
2.0
 40
3.0
 40
3.0
 40
3.0
 40
4.0
 40
4.0
 40
4.0
 40
5.0
 40
5.0
 40
5.0
 40
6.0
 40
6.0
 40
6.0
 40
7.0
 40
7.0
 40
7.0
 40
8.0
 40
8.0
 40
8.0
 40
9.0
 40
9.0
 40
9.0
 40
10.0
 40
10.0
 40
10.0
 40
11.0
 40
11.0
 40
11.0
 40
12.0
 40
12.0
 40
12.0
 40
13.0
 40
13.0
 40
13.0
 40
14.0
 40
14.0
 40
14.0
 40
15.0
 40
15.0
 40
15.0
 40
16.0
 40
16.0
 40
16.0
 40
17.0
 40
17.0
 40
17.0
 40
18.0
 40
18.0
 40
18.0
 40
19.0
 40
19.0
 40
19.0
 40
20.0
 40
20.0
 40
20.0
 40
21.0
 40
21.0
 40
21.0
 40
22.0
 40
22.0
 40
22.0
 40
23.0
 40
23.0
 40
23.0
 40
24.0
 40
24.0
 40
24.0
 40
25.0
 40
25.0
 40
25.0
 40
25.0
 10
496.6300831580229
 20
320.0900505749778
 10
496.6300831580229
 20
320.0900505749778
 10
471.4937194664471
 20
325.031134325257
 10
471.4937194664471
 20
325.031134325257
 10
470.9927687442523
 20
325.1489014759118
 10
470.566419130073
 20
325.442909356052
 10
470.2735077077414
 20
325.8696096206804
 10
470.2735077077414
 20
325.8696096206804
 10
464.3636060871086
 20
334.1764087426454
 10
464.3636060871086
 20
334.1764087426454
 10
464.0361787153015
 20
334.646808221547
 10
463.8593694122064
 20
335.1991810216578
 10
463.8527962804237
 20
335.7722639886433
 10
463.8527962804237
 20
335.7722639886433
 10
463.8527962804237
 20
412.3046091885881
 10
463.8527962804237
 20
412.3046091885881
 10
463.8125044691933
 20
413.4872791722637
 10
463.1923220636636
 20
414.3961506615769
 10
462.1067560770389
 20
414.8255469949963
 10
462.1067560770389
 20
414.8255469949963
 10
397.9431191520507
 20
430.623399228466
 10
397.9431191520507
 20
430.623399228466
 10
397.4021700035692
 20
430.77416231598
 10
396.9414613111821
 20
431.1046163952178
 10
396.6210501177065
 20
431.5690858940698
 10
396.6210501177065
 20
431.5690858940698
 10
390.4318664004359
 20
440.5531155332774
 10
390.4318664004359
 20
440.5531155332774
 10
390.0807843291268
 20
441.0510016986418
 10
389.8890193589314
 20
441.6366906058947
 10
389.8781762412491
 20
442.2453039547308
 10
389.8781762412491
 20
442.2453039547308
 10
389.8781762412491
 20
475.0936194051392
 10
389.8781762412491
 20
475.0936194051392
 10
389.8661416914592
 20
475.6303539630489
 10
390.0593669400669
 20
476.1276132798112
 10
390.4318664004359
 20
476.508645544237
 10
390.4318664004359
 20
476.508645544237
 10
396.5404965948974
 20
482.232584153734
 10
396.5404965948974
 20
482.232584153734
 10
396.8537342135915
 20
482.4741710523676
 10
397.3387933674148
 20
482.6222460031768
 10
397.4105857350196
 20
482.6532981152068
 10
397.688274670154
 20
482.7734059791892
 10
398.9189078652207
 20
483.1011458554194
 10
398.9188894025228
 20
483.1012108132136
 10
399.1711963516427
 20
483.174846475461
 10
399.4416023886488
 20
483.1757368129702
 10
399.71504524592
 20
483.1011458554194
 10
399.71504524592
 20
483.1011458554194
 10
503.9922583514126
 20
454.5186467022804
 10
503.9922583514126
 20
454.5186467022804
 10
505.0120835150356
 20
454.0580961901214
 10
505.5896276615549
 20
453.1595441878944
 10
505.6200184515783
 20
452.0244636128436
 10
505.6200184515783
 20
452.0244636128436
 10
505.6200184515783
 20
327.9857859217764
 10
505.6200184515783
 20
327.9857859217764
 10
505.6295675765177
 20
327.4836427649352
 10
505.463881481699
 20
327.0079684526636
 10
505.1435511283998
 20
326.6248896952939
 10
505.1435511283998
 20
326.6248896952939
 10
499.7114453925351
 20
320.8245991750637
 10
499.7114453925351
 20
320.8245991750637
 10
499.5653991235977
 20
320.6723498501824
 10
499.3970035763741
 20
320.5609314339627
 10
499.2135080215357
 20
320.4928619240964
 10
499.2135080215357
 20
320.4928619240964
 10
497.8755915180809
 20
319.9869173029192
 10
497.8755915180809
 20
319.9869173029192
 10
497.8755915180809
 20
319.9869173029192
 10
497.869312163315
 20
319.9848088246654
 10
497.869312163315
 20
319.9848088246654
 10
497.6676725126836
 20
319.9194865131476
 10
496.8386704554941
 20
320.0529654816091
 10
496.6300831580229
 20
320.0900505749778
 97
        0
 97
        0
 75
     2
 76
     1
 98
        0
  0
SPLINE
  5
137
330
131
100
AcDbEntity
  8
Layer 2
 62
    18
420
        0
370
    13
100
AcDbSpline
210
0.0
220
0.0
230
1.0
 70
     8
 71
     3
 72
     8
 73
     4
 74
     0
 42
0.0000000001
 43
0.0000000001
 12
1.0
 22
0.0
 32
0.0
 13
1.0
 23
0.0
 33
0.0
 40
0.0
 40
0.0
 40
0.0
 40
0.0
 40
1.0
 40
1.0
 40
1.0
 40
1.0
 10
398.3921807297138
 20
482.8173323985584
 30
0.0
 10
398.5536085616686
 20
482.9514451435298
 30
0.0
 10
398.7312434935757
 20
483.0464464445704
 30
0.0
 10
398.9188894025228
 20
483.1012108132136
 30
0.0
  0
POLYLINE
  5
138
330
131
100
AcDbEntity
  8
Layer 2
 62
    18
420
        0
370
    13
100
AcDb2dPolyline
 66
     1
 10
0.0
 20
0.0
 30
0.0
  0
VERTEX
  5
139
330
138
100
AcDbEntity
  8
Layer 2
 62
    18
420
        0
370
    13
100
AcDbVertex
100
AcDb2dVertex
 10
392.2773625293403
 20
477.0864783105753
 30
0.0
  0
VERTEX
  5
13A
330
138
100
AcDbEntity
  8
Layer 2
 62
    18
420
        0
370
    13
100
AcDbVertex
100
AcDb2dVertex
 10
398.3921807297138
 20
482.8173323985584
 30
0.0
  0
SEQEND
  5
13B
330
138
100
AcDbEntity
  8
Layer 2
 62
    18
420
        0
370
    13
  0
SPLINE
  5
13C
330
131
100
AcDbEntity
  8
Layer 2
 62
    18
420
        0
370
    13
100
AcDbSpline
210
0.0
220
0.0
230
1.0
 70
     8
 71
     3
 72
     8
 73
     4
 74
     0
 42
0.0000000001
 43
0.0000000001
 12
1.0
 22
0.0
 32
0.0
 13
1.0
 23
0.0
 33
0.0
 40
0.0
 40
0.0
 40
0.0
 40
0.0
 40
1.0
 40
1.0
 40
1.0
 40
1.0
 10
391.7233326705373
 20
475.6700894872802
 30
0.0
 10
391.7112500640469
 20
476.2073110294241
 30
0.0
 10
391.9045891236883
 20
476.7050536675124
 30
0.0
 10
392.2773625293403
 20
477.0864783105753
 30
0.0
  0
POLYLINE
  5
13D
330
131
100
AcDbEntity
  8
Layer 2
 62
    18
420
        0
370
    13
100
AcDb2dPolyline
 66
     1
 10
0.0
 20
0.0
 30
0.0
  0
VERTEX
  5
13E
330
13D
100
AcDbEntity
  8
Layer 2
 62
    18
420
        0
370
    13
100
AcDbVertex
100
AcDb2dVertex
 10
391.7233326705373
 20
475.6700894872802
 30
0.0
  0
VERTEX
  5
13F
330
13D
100
AcDbEntity
  8
Layer 2
 62
    18
420
        0
370
    13
100
AcDbVertex
100
AcDb2dVertex
 10
391.7233326705373
 20
442.7572435196507
 30
0.0
  0
SEQEND
  5
140
330
13D
100
AcDbEntity
  8
Layer 2
 62
    18
420
        0
370
    13
  0
SPLINE
  5
141
330
131
100
AcDbEntity
  8
Layer 2
 62
    18
420
        0
370
    13
100
AcDbSpline
210
0.0
220
0.0
230
1.0
 70
     8
 71
     3
 72
     8
 73
     4
 74
     0
 42
0.0000000001
 43
0.0000000001
 12
1.0
 22
0.0
 32
0.0
 13
1.0
 23
0.0
 33
0.0
 40
0.0
 40
0.0
 40
0.0
 40
0.0
 40
1.0
 40
1.0
 40
1.0
 40
1.0
 10
392.2773625293403
 20
441.0630963094445
 30
0.0
 10
391.9260559598124
 20
441.5616245672772
 30
0.0
 10
391.7341756678452
 20
442.147978352129
 30
0.0
 10
391.7233326705373
 20
442.7572435196507
 30
0.0
  0
POLYLINE
  5
142
330
131
100
AcDbEntity
  8
Layer 2
 62
    18
420
        0
370
    13
100
AcDb2dPolyline
 66
     1
 10
0.0
 20
0.0
 30
0.0
  0
VERTEX
  5
143
330
142
100
AcDbEntity
  8
Layer 2
 62
    18
420
        0
370
    13
100
AcDbVertex
100
AcDb2dVertex
 10
398.4727342525239
 20
432.0612196433758
 30
0.0
  0
VERTEX
  5
144
330
142
100
AcDbEntity
  8
Layer 2
 62
    18
420
        0
370
    13
100
AcDbVertex
100
AcDb2dVertex
 10
392.2773625293403
 20
441.0630963094445
 30
0.0
  0
SEQEND
  5
145
330
142
100
AcDbEntity
  8
Layer 2
 62
    18
420
        0
370
    13
  0
SPLINE
  5
146
330
131
100
AcDbEntity
  8
Layer 2
 62
    18
420
        0
370
    13
100
AcDbSpline
210
0.0
220
0.0
230
1.0
 70
     8
 71
     3
 72
     8
 73
     4
 74
     0
 42
0.0000000001
 43
0.0000000001
 12
1.0
 22
0.0
 32
0.0
 13
1.0
 23
0.0
 33
0.0
 40
0.0
 40
0.0
 40
0.0
 40
0.0
 40
1.0
 40
1.0
 40
1.0
 40
1.0
 10
399.795598768731
 20
431.1141987649708
 30
0.0
 10
399.2542446623593
 20
431.2653178046303
 30
0.0
 10
398.7932601223356
 20
431.5962349819474
 30
0.0
 10
398.4727342525239
 20
432.0612196433758
 30
0.0
  0
POLYLINE
  5
147
330
131
100
AcDbEntity
  8
Layer 2
 62
    18
420
        0
370
    13
100
AcDb2dPolyline
 66
     1
 10
0.0
 20
0.0
 30
0.0
  0
VERTEX
  5
148
330
147
100
AcDbEntity
  8
Layer 2
 62
    18
420
        0
370
    13
100
AcDbVertex
100
AcDb2dVertex
 10
399.795598768731
 20
431.1141987649708
 30
0.0
  0
VERTEX
  5
149
330
147
100
AcDbEntity
  8
Layer 2
 62
    18
420
        0
370
    13
100
AcDbVertex
100
AcDb2dVertex
 10
463.9966440793469
 20
415.2845859984754
 30
0.0
  0
SEQEND
  5
14A
330
147
100
AcDbEntity
  8
Layer 2
 62
    18
420
        0
370
    13
  0
SPLINE
  5
14B
330
131
100
AcDbEntity
  8
Layer 2
 62
    18
420
        0
370
    13
100
AcDbSpline
210
0.0
220
0.0
230
1.0
 70
     8
 71
     3
 72
     8
 73
     4
 74
     0
 42
0.0000000001
 43
0.0000000001
 12
1.0
 22
0.0
 32
0.0
 13
1.0
 23
0.0
 33
0.0
 40
0.0
 40
0.0
 40
0.0
 40
0.0
 40
1.0
 40
1.0
 40
1.0
 40
1.0
 10
465.7436092621938
 20
412.7606329061773
 30
0.0
 10
465.7034222345192
 20
413.9443681269877
 30
0.0
 10
465.0829337890791
 20
414.8543503669071
 30
0.0
 10
463.9966440793469
 20
415.2845859984754
 30
0.0
  0
POLYLINE
  5
14C
330
131
100
AcDbEntity
  8
Layer 2
 62
    18
420
        0
370
    13
100
AcDb2dPolyline
 66
     1
 10
0.0
 20
0.0
 30
0.0
  0
VERTEX
  5
14D
330
14C
100
AcDbEntity
  8
Layer 2
 62
    18
420
        0
370
    13
100
AcDbVertex
100
AcDb2dVertex
 10
465.7436092621938
 20
412.76063290618
 30
0.0
  0
VERTEX
  5
14E
330
14C
100
AcDbEntity
  8
Layer 2
 62
    18
420
        0
370
    13
100
AcDbVertex
100
AcDb2dVertex
 10
465.7436092621938
 20
336.1481324432507
 30
0.0
  0
SEQEND
  5
14F
330
14C
100
AcDbEntity
  8
Layer 2
 62
    18
420
        0
370
    13
  0
SPLINE
  5
150
330
131
100
AcDbEntity
  8
Layer 2
 62
    18
420
        0
370
    13
100
AcDbSpline
210
0.0
220
0.0
230
1.0
 70
     8
 71
     3
 72
     8
 73
     4
 74
     0
 42
0.0000000001
 43
0.0000000001
 12
1.0
 22
0.0
 32
0.0
 13
1.0
 23
0.0
 33
0.0
 40
0.0
 40
0.0
 40
0.0
 40
0.0
 40
1.0
 40
1.0
 40
1.0
 40
1.0
 10
466.254689061725
 20
334.5505310991193
 30
0.0
 10
465.9270775702862
 20
335.0215077356333
 30
0.0
 10
465.7501770364761
 20
335.5744722505642
 30
0.0
 10
465.7436092621938
 20
336.1481324432507
 30
0.0
  0
POLYLINE
  5
151
330
131
100
AcDbEntity
  8
Layer 2
 62
    18
420
        0
370
    13
100
AcDb2dPolyline
 66
     1
 10
0.0
 20
0.0
 30
0.0
  0
VERTEX
  5
152
330
151
100
AcDbEntity
  8
Layer 2
 62
    18
420
        0
370
    13
100
AcDbVertex
100
AcDb2dVertex
 10
472.1695066568245
 20
326.2283786606313
 30
0.0
  0
VERTEX
  5
153
330
151
100
AcDbEntity
  8
Layer 2
 62
    18
420
        0
370
    13
100
AcDbVertex
100
AcDb2dVertex
 10
466.254689061725
 20
334.5505310991193
 30
0.0
  0
SEQEND
  5
154
330
151
100
AcDbEntity
  8
Layer 2
 62
    18
420
        0
370
    13
  0
SPLINE
  5
155
330
131
100
AcDbEntity
  8
Layer 2
 62
    18
420
        0
370
    13
100
AcDbSpline
210
0.0
220
0.0
230
1.0
 70
     8
 71
     3
 72
     8
 73
     4
 74
     0
 42
0.0000000001
 43
0.0000000001
 12
1.0
 22
0.0
 32
0.0
 13
1.0
 23
0.0
 33
0.0
 40
0.0
 40
0.0
 40
0.0
 40
0.0
 40
1.0
 40
1.0
 40
1.0
 40
1.0
 10
473.3903500563683
 20
325.3888159463049
 30
0.0
 10
472.8890601286203
 20
325.5068581031892
 30
0.0
 10
472.4624896930818
 20
325.8012455784938
 30
0.0
 10
472.1695066568245
 20
326.2283786606313
 30
0.0
  0
POLYLINE
  5
156
330
131
100
AcDbEntity
  8
Layer 2
 62
    18
420
        0
370
    13
100
AcDb2dPolyline
 66
     1
 10
0.0
 20
0.0
 30
0.0
  0
VERTEX
  5
157
330
156
100
AcDbEntity
  8
Layer 2
 62
    18
420
        0
370
    13
100
AcDbVertex
100
AcDb2dVertex
 10
473.3903500563683
 20
325.3888159463049
 30
0.0
  0
VERTEX
  5
158
330
156
100
AcDbEntity
  8
Layer 2
 62
    18
420
        0
370
    13
100
AcDbVertex
100
AcDb2dVertex
 10
498.5492532085264
 20
320.4309824098736
 30
0.0
  0
SEQEND
  5
159
330
156
100
AcDbEntity
  8
Layer 2
 62
    18
420
        0
370
    13
  0
SPLINE
  5
15A
330
131
100
AcDbEntity
  8
Layer 2
 62
   250
420
  2301728
370
    13
100
AcDbSpline
210
0.0
220
0.0
230
1.0
 70
     8
 71
     3
 72
     8
 73
     4
 74
     0
 42
0.0000000001
 43
0.0000000001
 12
1.0
 22
0.0
 32
0.0
 13
1.0
 23
0.0
 33
0.0
 40
0.0
 40
0.0
 40
0.0
 40
0.0
 40
1.0
 40
1.0
 40
1.0
 40
1.0
 10
499.2135080215357
 20
320.4928619240964
 30
0.0
 10
499.0076786815735
 20
320.416507473441
 30
0.0
 10
498.7828499089392
 20
320.3946963481203
 30
0.0
 10
498.5492532085264
 20
320.4309824098736
 30
0.0
  0
ENDBLK
  5
134
330
131
100
AcDbEntity
  8
0
100
AcDbBlockEnd
  0
BLOCK
  5
15D
330
15B
100
AcDbEntity
  8
0
100
AcDbBlockBegin
  2
block 18
 70
     0
 10
0.0
 20
0.0
 30
0.0
  3
block 18
  1

  0
INSERT
  5
160
330
15B
100
AcDbEntity
  8
Layer 2
100
AcDbBlockReference
  2
block 19
 10
0.0
 20
0.0
 30
0.0
  0
INSERT
  5
1C1
330
15B
100
AcDbEntity
  8
Layer 2
100
AcDbBlockReference
  2
block 25
 10
0.0
 20
0.0
 30
0.0
  0
INSERT
  5
222
330
15B
100
AcDbEntity
  8
Layer 2
100
AcDbBlockReference
  2
block 31
 10
0.0
 20
0.0
 30
0.0
  0
MTEXT
  5
282
330
15B
100
AcDbEntity
  8
Layer 2
 62
    18
420
        0
100
AcDbMText
 10
443.0625119071919
 20
446.3266706404975
 30
0.0
 40
2.688519544219393
 41
0.0
 46
0.0
 71
     7
 72
     1
  1
\fHelvetica LT Std Condensed|b0|i0|c0|p34;\W1.01937;Use & Warnings:
 11
0.9661051954359136
 21
-0.2581487000775623
 31
0.0
 73
     1
 44
1.0
  0
MTEXT
  5
283
330
15B
100
AcDbEntity
  8
Layer 2
 62
    18
420
        0
100
AcDbMText
 10
441.9501645639539
 20
442.6932319961488
 30
0.0
 40
2.688519544219393
 41
0.0
 46
0.0
 71
     7
 72
     1
  1
\fHelvetica LT Std Condensed|b0|i0|c0|p34;\W1.01937;strongtie.com/info
 11
0.9661051954359136
 21
-0.2581487000775623
 31
0.0
 73
     1
 44
1.0
  0
MTEXT
  5
284
330
15B
100
AcDbEntity
  8
Layer 2
 62
    18
420
        0
100
AcDbMText
 10
482.00563967583
 20
407.8499585936079
 30
0.0
 40
3.611228941175943
 41
0.0
 46
0.0
 71
     7
 72
     1
  1
\fHelvetica LT Std Condensed|b0|i0|c0|p34;\W1.00393;APVL4
 11
0.9732569313509269
 21
-0.2297192755895269
 31
0.0
 73
     1
 44
1.0
  0
MTEXT
  5
285
330
15B
100
AcDbEntity
  8
Layer 2
 62
    18
420
        0
100
AcDbMText
 10
483.1832462402526
 20
403.6413423088379
 30
0.0
 40
2.708421705881957
 41
0.0
 46
0.0
 71
     7
 72
     1
  1
\fHelvetica LT Std Condensed|b0|i0|c0|p34;\W1.00393;ER-102
 11
0.9732569313509269
 21
-0.2297192755895269
 31
0.0
 73
     1
 44
1.0
  0
MTEXT
  5
286
330
15B
100
AcDbEntity
  8
Layer 2
 62
    18
420
        0
100
AcDbMText
 10
481.2595370502677
 20
400.1647341768257
 30
0.0
 40
2.708421705881957
 41
0.0
 46
0.0
 71
     7
 72
     1
  1
\fHelvetica LT Std Condensed|b0|i0|c0|p34;\W1.00393;SIMPSON
 11
0.9732569313509269
 21
-0.2297192755895269
 31
0.0
 73
     1
 44
1.0
  0
MTEXT
  5
287
330
15B
100
AcDbEntity
  8
Layer 2
 62
    18
420
        0
100
AcDbMText
 10
480.1037908175495
 20
396.5073508913629
 30
0.0
 40
2.708421705881957
 41
0.0
 46
0.0
 71
     7
 72
     1
  1
\fHelvetica LT Std Condensed|b0|i0|c0|p34;\W1.00393;Strong-Tie\H1.35421;®
 11
0.9732569313509269
 21
-0.2297192755895269
 31
0.0
 73
     1
 44
1.0
  0
ENDBLK
  5
15E
330
15B
100
AcDbEntity
  8
0
100
AcDbBlockEnd
  0
BLOCK
  5
161
330
15F
100
AcDbEntity
  8
0
100
AcDbBlockBegin
  2
block 19
 70
     0
 10
0.0
 20
0.0
 30
0.0
  3
block 19
  1

  0
INSERT
  5
164
330
15F
100
AcDbEntity
  8
Layer 2
100
AcDbBlockReference
  2
block 20
 10
0.0
 20
0.0
 30
0.0
  0
INSERT
  5
16B
330
15F
100
AcDbEntity
  8
Layer 2
100
AcDbBlockReference
  2
block 21
 10
0.0
 20
0.0
 30
0.0
  0
ENDBLK
  5
162
330
15F
100
AcDbEntity
  8
0
100
AcDbBlockEnd
  0
BLOCK
  5
165
330
163
100
AcDbEntity
  8
0
100
AcDbBlockBegin
  2
block 20
 70
     0
 10
0.0
 20
0.0
 30
0.0
  3
block 20
  1

  0
SPLINE
  5
167
330
163
100
AcDbEntity
  8
Layer 2
 62
    18
420
        0
370
     9
100
AcDbSpline
210
0.0
220
0.0
230
1.0
 70
    11
 71
     3
 72
    23
 73
    19
 74
     0
 42
0.0000000001
 43
0.0000000001
 12
1.0
 22
0.0
 32
0.0
 13
1.0
 23
0.0
 33
0.0
 40
0.0
 40
0.0
 40
0.0
 40
0.0
 40
1.0
 40
1.0
 40
1.0
 40
2.0
 40
2.0
 40
2.0
 40
3.0
 40
3.0
 40
3.0
 40
4.0
 40
4.0
 40
4.0
 40
5.0
 40
5.0
 40
5.0
 40
6.0
 40
6.0
 40
6.0
 40
6.0
 10
488.671624412349
 20
418.7729145977628
 30
0.0
 10
483.9561972607862
 20
418.2470067934128
 30
0.0
 10
478.946261738789
 20
422.3052676177003
 30
0.0
 10
477.0238971827057
 20
428.493908708092
 30
0.0
 10
475.0114632322766
 20
434.9726223970247
 30
0.0
 10
477.1100537997936
 20
441.4445480107825
 30
0.0
 10
481.7174094178881
 20
443.3917846645109
 30
0.0
 10
481.7174094178881
 20
443.3917846645109
 30
0.0
 10
483.8313907697084
 20
444.164146643755
 30
0.0
 10
483.8313907697084
 20
444.164146643755
 30
0.0
 10
488.9063170708541
 20
445.7405258835024
 30
0.0
 10
494.7296790664659
 20
441.5155203611212
 30
0.0
 10
496.8382837250829
 20
434.7273107694364
 30
0.0
 10
498.7462705183952
 20
428.5848420319626
 30
0.0
 10
496.9588560702596
 20
422.4483548656817
 30
0.0
 10
492.841586038021
 20
420.1685025284114
 30
0.0
 10
492.841586038021
 20
420.1685025284114
 30
0.0
 10
488.671624412349
 20
418.7729145977628
 30
0.0
 10
488.671624412349
 20
418.7729145977628
 30
0.0
  0
HATCH
  5
168
330
163
100
AcDbEntity
  8
Layer 2
 62
   250
420
  2301728
100
AcDbHatch
 10
0.0
 20
0.0
 30
0.0
210
0.0
220
0.0
230
1.0
  2
SOLID
 70
     1
 71
     0
 91
        1
 92
        1
 93
        1
 72
     4
 94
        3
 73
     0
 74
     1
 95
       23
 96
       19
 40
0.0
 40
0.0
 40
0.0
 40
0.0
 40
1.0
 40
1.0
 40
1.0
 40
2.0
 40
2.0
 40
2.0
 40
3.0
 40
3.0
 40
3.0
 40
4.0
 40
4.0
 40
4.0
 40
5.0
 40
5.0
 40
5.0
 40
6.0
 40
6.0
 40
6.0
 40
6.0
 10
488.671624412349
 20
418.7729145977628
 10
483.9561972607862
 20
418.2470067934128
 10
478.946261738789
 20
422.3052676177003
 10
477.0238971827057
 20
428.493908708092
 10
475.0114632322766
 20
434.9726223970247
 10
477.1100537997936
 20
441.4445480107825
 10
481.7174094178881
 20
443.3917846645109
 10
481.7174094178881
 20
443.3917846645109
 10
483.8313907697084
 20
444.164146643755
 10
483.8313907697084
 20
444.164146643755
 10
488.9063170708541
 20
445.7405258835024
 10
494.7296790664659
 20
441.5155203611212
 10
496.8382837250829
 20
434.7273107694364
 10
498.7462705183952
 20
428.5848420319626
 10
496.9588560702596
 20
422.4483548656817
 10
492.841586038021
 20
420.1685025284114
 10
492.841586038021
 20
420.1685025284114
 10
488.671624412349
 20
418.7729145977628
 10
488.671624412349
 20
418.7729145977628
 97
        0
 97
        0
 75
     2
 76
     1
 98
        0
  0
SPLINE
  5
169
330
163
100
AcDbEntity
  8
Layer 2
 62
    18
420
        0
370
     5
100
AcDbSpline
210
0.0
220
0.0
230
1.0
 70
     8
 71
     3
 72
    14
 73
    10
 74
     0
 42
0.0000000001
 43
0.0000000001
 12
1.0
 22
0.0
 32
0.0
 13
1.0
 23
0.0
 33
0.0
 40
0.0
 40
0.0
 40
0.0
 40
0.0
 40
1.0
 40
1.0
 40
1.0
 40
2.0
 40
2.0
 40
2.0
 40
3.0
 40
3.0
 40
3.0
 40
3.0
 10
492.841586038021
 20
420.1685025284114
 30
0.0
 10
492.408695026159
 20
419.9287692200251
 30
0.0
 10
491.9500630955663
 20
419.7317134139748
 30
0.0
 10
491.4673032542069
 20
419.5817708821505
 30
0.0
 10
486.3923769530629
 20
418.005391642404
 30
0.0
 10
480.5690149574493
 20
422.2303971647871
 30
0.0
 10
478.4604102988342
 20
429.0186739651363
 30
0.0
 10
476.3518105147996
 20
435.8068835568192
 30
0.0
 10
478.7564644685663
 20
442.5877674040075
 30
0.0
 10
483.8313907697084
 20
444.164146643755
 30
0.0
  0
ENDBLK
  5
166
330
163
100
AcDbEntity
  8
0
100
AcDbBlockEnd
  0
BLOCK
  5
16C
330
16A
100
AcDbEntity
  8
0
100
AcDbBlockBegin
  2
block 21
 70
     0
 10
0.0
 20
0.0
 30
0.0
  3
block 21
  1

  0
SPLINE
  5
16E
330
16A
100
AcDbEntity
  8
Layer 2
 62
    18
420
        0
370
     9
100
AcDbSpline
210
0.0
220
0.0
230
1.0
 70
    11
 71
     3
 72
    65
 73
    61
 74
     0
 42
0.0000000001
 43
0.0000000001
 12
1.0
 22
0.0
 32
0.0
 13
1.0
 23
0.0
 33
0.0
 40
0.0
 40
0.0
 40
0.0
 40
0.0
 40
1.0
 40
1.0
 40
1.0
 40
2.0
 40
2.0
 40
2.0
 40
3.0
 40
3.0
 40
3.0
 40
4.0
 40
4.0
 40
4.0
 40
5.0
 40
5.0
 40
5.0
 40
6.0
 40
6.0
 40
6.0
 40
7.0
 40
7.0
 40
7.0
 40
8.0
 40
8.0
 40
8.0
 40
9.0
 40
9.0
 40
9.0
 40
10.0
 40
10.0
 40
10.0
 40
11.0
 40
11.0
 40
11.0
 40
12.0
 40
12.0
 40
12.0
 40
13.0
 40
13.0
 40
13.0
 40
14.0
 40
14.0
 40
14.0
 40
15.0
 40
15.0
 40
15.0
 40
16.0
 40
16.0
 40
16.0
 40
17.0
 40
17.0
 40
17.0
 40
18.0
 40
18.0
 40
18.0
 40
19.0
 40
19.0
 40
19.0
 40
20.0
 40
20.0
 40
20.0
 40
20.0
 10
478.8902097121008
 20
432.7206616557669
 30
0.0
 10
478.8902097121008
 20
432.7206616557669
 30
0.0
 10
482.5828553982847
 20
424.0048403405617
 30
0.0
 10
482.5828553982847
 20
424.0048403405617
 30
0.0
 10
482.8529048534419
 20
423.3332913589566
 30
0.0
 10
483.3724900044581
 20
422.8485824663094
 30
0.0
 10
484.0574807190806
 20
422.6394291005408
 30
0.0
 10
484.0574807190806
 20
422.6394291005408
 30
0.0
 10
491.4095710108923
 20
421.1076092057501
 30
0.0
 10
491.4095710108923
 20
421.1076092057501
 30
0.0
 10
492.0477225570394
 20
421.0170119252052
 30
0.0
 10
492.5689204837399
 20
421.2857121682446
 30
0.0
 10
492.8757952485521
 20
421.856716986872
 30
0.0
 10
492.8757952485521
 20
421.856716986872
 30
0.0
 10
493.3660152517386
 20
422.8126258304837
 30
0.0
 10
493.3660152517386
 20
422.8126258304837
 30
0.0
 10
493.3660152517386
 20
422.8126258304837
 30
0.0
 10
495.0118210425244
 20
423.4569553027268
 30
0.0
 10
495.0118210425244
 20
423.4569553027268
 30
0.0
 10
495.0118210425244
 20
423.4569553027268
 30
0.0
 10
495.0193484130159
 20
423.4599796926559
 30
0.0
 10
495.0193484130159
 20
423.4599796926559
 30
0.0
 10
495.2605603120337
 20
423.5611287336214
 30
0.0
 10
495.4559359014584
 20
423.7399037827672
 30
0.0
 10
495.5763066206382
 20
423.9726473899827
 30
0.0
 10
495.5763066206382
 20
423.9726473899827
 30
0.0
 10
499.2413967541343
 20
431.1235149385066
 30
0.0
 10
499.2413967541343
 20
431.1235149385066
 30
0.0
 10
499.3903311559789
 20
431.4295831993377
 30
0.0
 10
499.4032352196773
 20
431.7671124882936
 30
0.0
 10
499.277958267945
 20
432.0835907193541
 30
0.0
 10
499.277958267945
 20
432.0835907193541
 30
0.0
 10
495.6125320911233
 20
440.7914814120786
 30
0.0
 10
495.6125320911233
 20
440.7914814120786
 30
0.0
 10
495.4695792604725
 20
441.1138217788402
 30
0.0
 10
495.2038415495208
 20
441.3387615719275
 30
0.0
 10
494.8628194320154
 20
441.4237133246033
 30
0.0
 10
494.8628194320154
 20
441.4237133246033
 30
0.0
 10
487.5035378130397
 20
443.0070899223274
 30
0.0
 10
487.5035378130397
 20
443.0070899223274
 30
0.0
 10
487.5035378130397
 20
443.0070899223274
 30
0.0
 10
487.4972874071864
 20
443.0084340956628
 30
0.0
 10
487.4972874071864
 20
443.0084340956628
 30
0.0
 10
487.2984169671781
 20
443.0484828032186
 30
0.0
 10
487.0932289126504
 20
443.0302020463132
 30
0.0
 10
486.9049153742362
 20
442.9545922980833
 30
0.0
 10
486.9049153742362
 20
442.9545922980833
 30
0.0
 10
485.5626859824952
 20
442.4106053628238
 30
0.0
 10
485.5626859824952
 20
442.4106053628238
 30
0.0
 10
485.5626859824952
 20
442.4106053628238
 30
0.0
 10
484.0574807190806
 20
442.7339462505843
 30
0.0
 10
484.0574807190806
 20
442.7339462505843
 30
0.0
 10
483.4176542273999
 20
442.8299874330014
 30
0.0
 10
482.8933594310129
 20
442.5641848081777
 30
0.0
 10
482.5828553982847
 20
441.9926346746133
 30
0.0
 10
482.5828553982847
 20
441.9926346746133
 30
0.0
 10
478.8902097121008
 20
434.8394148228117
 30
0.0
 10
478.8902097121008
 20
434.8394148228117
 30
0.0
 10
478.5924753257405
 20
434.1557682814891
 30
0.0
 10
478.5939539163737
 20
433.4100881422855
 30
0.0
 10
478.8902097121008
 20
432.7206616557669
 30
0.0
  0
HATCH
  5
16F
330
16A
100
AcDbEntity
  8
Layer 2
 62
   250
420
  2301728
100
AcDbHatch
 10
0.0
 20
0.0
 30
0.0
210
0.0
220
0.0
230
1.0
  2
SOLID
 70
     1
 71
     0
 91
        1
 92
        1
 93
        1
 72
     4
 94
        3
 73
     0
 74
     1
 95
       65
 96
       61
 40
0.0
 40
0.0
 40
0.0
 40
0.0
 40
1.0
 40
1.0
 40
1.0
 40
2.0
 40
2.0
 40
2.0
 40
3.0
 40
3.0
 40
3.0
 40
4.0
 40
4.0
 40
4.0
 40
5.0
 40
5.0
 40
5.0
 40
6.0
 40
6.0
 40
6.0
 40
7.0
 40
7.0
 40
7.0
 40
8.0
 40
8.0
 40
8.0
 40
9.0
 40
9.0
 40
9.0
 40
10.0
 40
10.0
 40
10.0
 40
11.0
 40
11.0
 40
11.0
 40
12.0
 40
12.0
 40
12.0
 40
13.0
 40
13.0
 40
13.0
 40
14.0
 40
14.0
 40
14.0
 40
15.0
 40
15.0
 40
15.0
 40
16.0
 40
16.0
 40
16.0
 40
17.0
 40
17.0
 40
17.0
 40
18.0
 40
18.0
 40
18.0
 40
19.0
 40
19.0
 40
19.0
 40
20.0
 40
20.0
 40
20.0
 40
20.0
 10
478.8902097121008
 20
432.7206616557669
 10
478.8902097121008
 20
432.7206616557669
 10
482.5828553982847
 20
424.0048403405617
 10
482.5828553982847
 20
424.0048403405617
 10
482.8529048534419
 20
423.3332913589566
 10
483.3724900044581
 20
422.8485824663094
 10
484.0574807190806
 20
422.6394291005408
 10
484.0574807190806
 20
422.6394291005408
 10
491.4095710108923
 20
421.1076092057501
 10
491.4095710108923
 20
421.1076092057501
 10
492.0477225570394
 20
421.0170119252052
 10
492.5689204837399
 20
421.2857121682446
 10
492.8757952485521
 20
421.856716986872
 10
492.8757952485521
 20
421.856716986872
 10
493.3660152517386
 20
422.8126258304837
 10
493.3660152517386
 20
422.8126258304837
 10
493.3660152517386
 20
422.8126258304837
 10
495.0118210425244
 20
423.4569553027268
 10
495.0118210425244
 20
423.4569553027268
 10
495.0118210425244
 20
423.4569553027268
 10
495.0193484130159
 20
423.4599796926559
 10
495.0193484130159
 20
423.4599796926559
 10
495.2605603120337
 20
423.5611287336214
 10
495.4559359014584
 20
423.7399037827672
 10
495.5763066206382
 20
423.9726473899827
 10
495.5763066206382
 20
423.9726473899827
 10
499.2413967541343
 20
431.1235149385066
 10
499.2413967541343
 20
431.1235149385066
 10
499.3903311559789
 20
431.4295831993377
 10
499.4032352196773
 20
431.7671124882936
 10
499.277958267945
 20
432.0835907193541
 10
499.277958267945
 20
432.0835907193541
 10
495.6125320911233
 20
440.7914814120786
 10
495.6125320911233
 20
440.7914814120786
 10
495.4695792604725
 20
441.1138217788402
 10
495.2038415495208
 20
441.3387615719275
 10
494.8628194320154
 20
441.4237133246033
 10
494.8628194320154
 20
441.4237133246033
 10
487.5035378130397
 20
443.0070899223274
 10
487.5035378130397
 20
443.0070899223274
 10
487.5035378130397
 20
443.0070899223274
 10
487.4972874071864
 20
443.0084340956628
 10
487.4972874071864
 20
443.0084340956628
 10
487.2984169671781
 20
443.0484828032186
 10
487.0932289126504
 20
443.0302020463132
 10
486.9049153742362
 20
442.9545922980833
 10
486.9049153742362
 20
442.9545922980833
 10
485.5626859824952
 20
442.4106053628238
 10
485.5626859824952
 20
442.4106053628238
 10
485.5626859824952
 20
442.4106053628238
 10
484.0574807190806
 20
442.7339462505843
 10
484.0574807190806
 20
442.7339462505843
 10
483.4176542273999
 20
442.8299874330014
 10
482.8933594310129
 20
442.5641848081777
 10
482.5828553982847
 20
441.9926346746133
 10
482.5828553982847
 20
441.9926346746133
 10
478.8902097121008
 20
434.8394148228117
 10
478.8902097121008
 20
434.8394148228117
 10
478.5924753257405
 20
434.1557682814891
 10
478.5939539163737
 20
433.4100881422855
 10
478.8902097121008
 20
432.7206616557669
 97
        0
 97
        0
 75
     2
 76
     1
 98
        0
  0
SPLINE
  5
170
330
16A
100
AcDbEntity
  8
Layer 2
 62
    18
420
        0
370
     5
100
AcDbSpline
210
0.0
220
0.0
230
1.0
 70
     8
 71
     3
 72
     8
 73
     4
 74
     0
 42
0.0000000001
 43
0.0000000001
 12
1.0
 22
0.0
 32
0.0
 13
1.0
 23
0.0
 33
0.0
 40
0.0
 40
0.0
 40
0.0
 40
0.0
 40
1.0
 40
1.0
 40
1.0
 40
1.0
 10
490.1773673450843
 20
433.1486464350774
 30
0.0
 10
490.4226789726727
 20
433.4865716031627
 30
0.0
 10
490.3215299317071
 20
434.1108728932077
 30
0.0
 10
490.1773673450843
 20
434.4633151329526
 30
0.0
  0
SPLINE
  5
171
330
16A
100
AcDbEntity
  8
Layer 2
 62
    18
420
        0
370
     5
100
AcDbSpline
210
0.0
220
0.0
230
1.0
 70
     8
 71
     3
 72
    11
 73
     7
 74
     0
 42
0.0000000001
 43
0.0000000001
 12
1.0
 22
0.0
 32
0.0
 13
1.0
 23
0.0
 33
0.0
 40
0.0
 40
0.0
 40
0.0
 40
0.0
 40
1.0
 40
1.0
 40
1.0
 40
2.0
 40
2.0
 40
2.0
 40
2.0
 10
490.4788654166896
 20
432.4344199511379
 30
0.0
 10
490.8850745885102
 20
432.4441652075757
 30
0.0
 10
491.2517650652553
 20
431.9078400601375
 30
0.0
 10
491.3927016359557
 20
431.5836328279556
 30
0.0
 10
491.4216013619443
 20
431.5180298025998
 30
0.0
 10
491.4597758837172
 20
431.4590205946479
 30
0.0
 10
491.5071579926062
 20
431.4065306272114
 30
0.0
  0
SPLINE
  5
172
330
16A
100
AcDbEntity
  8
Layer 2
 62
    18
420
        0
370
     5
100
AcDbSpline
210
0.0
220
0.0
230
1.0
 70
     8
 71
     3
 72
    41
 73
    37
 74
     0
 42
0.0000000001
 43
0.0000000001
 12
1.0
 22
0.0
 32
0.0
 13
1.0
 23
0.0
 33
0.0
 40
0.0
 40
0.0
 40
0.0
 40
0.0
 40
1.0
 40
1.0
 40
1.0
 40
2.0
 40
2.0
 40
2.0
 40
3.0
 40
3.0
 40
3.0
 40
4.0
 40
4.0
 40
4.0
 40
5.0
 40
5.0
 40
5.0
 40
6.0
 40
6.0
 40
6.0
 40
7.0
 40
7.0
 40
7.0
 40
8.0
 40
8.0
 40
8.0
 40
9.0
 40
9.0
 40
9.0
 40
10.0
 40
10.0
 40
10.0
 40
11.0
 40
11.0
 40
11.0
 40
12.0
 40
12.0
 40
12.0
 40
12.0
 10
491.9143080857375
 20
431.2814553014741
 30
0.0
 10
491.969217565118
 20
431.3246032644638
 30
0.0
 10
491.9961682398207
 20
431.3828059684329
 30
0.0
 10
491.9950929011793
 20
431.4561306220494
 30
0.0
 10
492.003628401646
 20
431.9460817905747
 30
0.0
 10
492.5235599179177
 20
432.055363080015
 30
0.0
 10
492.9080554077973
 20
431.9195343678639
 30
0.0
 10
493.049395230486
 20
431.8696655383646
 30
0.0
 10
493.2379880459011
 20
431.9032026622453
 30
0.0
 10
493.3125896660385
 20
432.0484405875104
 30
0.0
 10
493.3887989892046
 20
432.1968373200352
 30
0.0
 10
493.3197084814892
 20
432.3961856094511
 30
0.0
 10
493.2090158100818
 20
432.5054595101401
 30
0.0
 10
492.8409139513697
 20
432.8689911796264
 30
0.0
 10
492.8073096188236
 20
433.46701388162
 30
0.0
 10
493.2090158100818
 20
433.8188512433799
 30
0.0
 10
493.3384596990509
 20
433.9322322613916
 30
0.0
 10
493.3785832721114
 20
434.142124922475
 30
0.0
 10
493.3125896660385
 20
434.298586694812
 30
0.0
 10
493.248265670496
 20
434.4511503645717
 30
0.0
 10
493.0754049838779
 20
434.5617086186494
 30
0.0
 10
492.9080554077973
 20
434.5326072666639
 30
0.0
 10
492.37650207558
 20
434.4401281434966
 30
0.0
 10
492.0018137676889
 20
434.8857215930602
 30
0.0
 10
491.9950929011793
 20
435.3838050100621
 30
0.0
 10
491.9931438498916
 20
435.5295133959817
 30
0.0
 10
491.9092727034531
 20
435.7227383081245
 30
0.0
 10
491.748571517619
 20
435.7569475186556
 30
0.0
 10
491.588346060038
 20
435.7910895205223
 30
0.0
 10
491.446334150698
 20
435.6444402132911
 30
0.0
 10
491.3927016359557
 20
435.5121735603889
 30
0.0
 10
491.2582170971036
 20
435.1807676328172
 30
0.0
 10
490.8483114487044
 20
434.7320825846591
 30
0.0
 10
490.4788654166896
 20
435.049509109891
 30
0.0
 10
490.4347145540705
 20
435.0887589703061
 30
0.0
 10
490.3857814155363
 20
435.1036792939558
 30
0.0
 10
490.3320144834615
 20
435.0944044981734
 30
0.0
  0
POLYLINE
  5
173
330
16A
100
AcDbEntity
  8
Layer 2
 62
    18
420
        0
370
     5
100
AcDb2dPolyline
 66
     1
 10
0.0
 20
0.0
 30
0.0
  0
VERTEX
  5
174
330
173
100
AcDbEntity
  8
Layer 2
 62
    18
420
        0
370
     5
100
AcDbVertex
100
AcDb2dVertex
 10
493.2090158100818
 20
432.5054595101401
 30
0.0
  0
VERTEX
  5
175
330
173
100
AcDbEntity
  8
Layer 2
 62
    18
420
        0
370
     5
100
AcDbVertex
100
AcDb2dVertex
 10
492.0749367953085
 20
432.0547655821574
 30
0.0
  0
SEQEND
  5
176
330
173
100
AcDbEntity
  8
Layer 2
 62
    18
420
        0
370
     5
  0
POLYLINE
  5
177
330
16A
100
AcDbEntity
  8
Layer 2
 62
    18
420
        0
370
     5
100
AcDb2dPolyline
 66
     1
 10
0.0
 20
0.0
 30
0.0
  0
VERTEX
  5
178
330
177
100
AcDbEntity
  8
Layer 2
 62
    18
420
        0
370
     5
100
AcDbVertex
100
AcDb2dVertex
 10
493.2090158100818
 20
433.8188512433799
 30
0.0
  0
VERTEX
  5
179
330
177
100
AcDbEntity
  8
Layer 2
 62
    18
420
        0
370
     5
100
AcDbVertex
100
AcDb2dVertex
 10
492.0749367953085
 20
433.3672762226233
 30
0.0
  0
SEQEND
  5
17A
330
177
100
AcDbEntity
  8
Layer 2
 62
    18
420
        0
370
     5
  0
POLYLINE
  5
17B
330
16A
100
AcDbEntity
  8
Layer 2
 62
    18
420
        0
370
     5
100
AcDb2dPolyline
 66
     1
 10
0.0
 20
0.0
 30
0.0
  0
VERTEX
  5
17C
330
17B
100
AcDbEntity
  8
Layer 2
 62
    18
420
        0
370
     5
100
AcDbVertex
100
AcDb2dVertex
 10
492.9080554077973
 20
434.5326072666639
 30
0.0
  0
VERTEX
  5
17D
330
17B
100
AcDbEntity
  8
Layer 2
 62
    18
420
        0
370
     5
100
AcDbVertex
100
AcDb2dVertex
 10
491.7741108103546
 20
434.0804945765858
 30
0.0
  0
SEQEND
  5
17E
330
17B
100
AcDbEntity
  8
Layer 2
 62
    18
420
        0
370
     5
  0
SPLINE
  5
17F
330
16A
100
AcDbEntity
  8
Layer 2
 62
    18
420
        0
370
     5
100
AcDbSpline
210
0.0
220
0.0
230
1.0
 70
     8
 71
     3
 72
    20
 73
    16
 74
     0
 42
0.0000000001
 43
0.0000000001
 12
1.0
 22
0.0
 32
0.0
 13
1.0
 23
0.0
 33
0.0
 40
0.0
 40
0.0
 40
0.0
 40
0.0
 40
1.0
 40
1.0
 40
1.0
 40
2.0
 40
2.0
 40
2.0
 40
3.0
 40
3.0
 40
3.0
 40
4.0
 40
4.0
 40
4.0
 40
5.0
 40
5.0
 40
5.0
 40
5.0
 10
490.8614171383979
 20
434.9310202333327
 30
0.0
 10
490.8682724222344
 20
434.4306517217183
 30
0.0
 10
491.2471276673641
 20
433.9887547487342
 30
0.0
 10
491.7741108103546
 20
434.0804945765858
 30
0.0
 10
491.9413259691046
 20
434.1095959285713
 30
0.0
 10
492.1141194470583
 20
433.9991123124037
 30
0.0
 10
492.1784381395519
 20
433.8466756307289
 30
0.0
 10
492.2443698400075
 20
433.6902810670572
 30
0.0
 10
492.2043187506624
 20
433.4805900319689
 30
0.0
 10
492.0749367953085
 20
433.3672762226233
 30
0.0
 10
491.6712815527626
 20
433.0136914355708
 30
0.0
 10
491.7084479445602
 20
432.4166096548879
 30
0.0
 10
492.0749367953085
 20
432.0547655821574
 30
0.0
 10
492.1247384161434
 20
432.005561459182
 30
0.0
 10
492.1617031819442
 20
431.9491733891682
 30
0.0
 10
492.1858310927128
 20
431.8856612006557
 30
0.0
  0
POLYLINE
  5
180
330
16A
100
AcDbEntity
  8
Layer 2
 62
    18
420
        0
370
     5
100
AcDb2dPolyline
 66
     1
 10
0.0
 20
0.0
 30
0.0
  0
VERTEX
  5
181
330
180
100
AcDbEntity
  8
Layer 2
 62
    18
420
        0
370
     5
100
AcDbVertex
100
AcDb2dVertex
 10
492.3061346032264
 20
431.9334465615366
 30
0.0
  0
VERTEX
  5
182
330
180
100
AcDbEntity
  8
Layer 2
 62
    18
420
        0
370
     5
100
AcDbVertex
100
AcDb2dVertex
 10
491.3976750771708
 20
431.5725360299894
 30
0.0
  0
SEQEND
  5
183
330
180
100
AcDbEntity
  8
Layer 2
 62
    18
420
        0
370
     5
  0
POLYLINE
  5
184
330
16A
100
AcDbEntity
  8
Layer 2
 62
    18
420
        0
370
     5
100
AcDb2dPolyline
 66
     1
 10
0.0
 20
0.0
 30
0.0
  0
VERTEX
  5
185
330
184
100
AcDbEntity
  8
Layer 2
 62
    18
420
        0
370
     5
100
AcDbVertex
100
AcDb2dVertex
 10
490.9183428777305
 20
434.9701356764172
 30
0.0
  0
VERTEX
  5
186
330
184
100
AcDbEntity
  8
Layer 2
 62
    18
420
        0
370
     5
100
AcDbVertex
100
AcDb2dVertex
 10
490.144373113535
 20
434.6609758169907
 30
0.0
  0
SEQEND
  5
187
330
184
100
AcDbEntity
  8
Layer 2
 62
    18
420
        0
370
     5
  0
SPLINE
  5
188
330
16A
100
AcDbEntity
  8
Layer 2
 62
    18
420
        0
370
     5
100
AcDbSpline
210
0.0
220
0.0
230
1.0
 70
     8
 71
     3
 72
     8
 73
     4
 74
     0
 42
0.0000000001
 43
0.0000000001
 12
1.0
 22
0.0
 32
0.0
 13
1.0
 23
0.0
 33
0.0
 40
0.0
 40
0.0
 40
0.0
 40
0.0
 40
1.0
 40
1.0
 40
1.0
 40
1.0
 10
484.0574807190806
 20
442.7339462505843
 30
0.0
 10
484.0368476588974
 20
442.4195441152824
 30
0.0
 10
484.1504303029051
 20
442.1379398085437
 30
0.0
 10
484.384047622767
 20
441.9386661165454
 30
0.0
  0
SPLINE
  5
189
330
16A
100
AcDbEntity
  8
Layer 2
 62
    18
420
        0
370
     5
100
AcDbSpline
210
0.0
220
0.0
230
1.0
 70
     8
 71
     3
 72
     8
 73
     4
 74
     0
 42
0.0000000001
 43
0.0000000001
 12
1.0
 22
0.0
 32
0.0
 13
1.0
 23
0.0
 33
0.0
 40
0.0
 40
0.0
 40
0.0
 40
0.0
 40
1.0
 40
1.0
 40
1.0
 40
1.0
 10
492.5404240097414
 20
422.489419360053
 30
0.0
 10
492.5240250954575
 20
422.2560036661871
 30
0.0
 10
492.6969582782367
 20
422.0060546407076
 30
0.0
 10
492.8688055473831
 20
421.8632433500534
 30
0.0
  0
SPLINE
  5
18A
330
16A
100
AcDbEntity
  8
Layer 2
 62
    18
420
        0
370
     5
100
AcDbSpline
210
0.0
220
0.0
230
1.0
 70
     8
 71
     3
 72
    23
 73
    19
 74
     0
 42
0.0000000001
 43
0.0000000001
 12
1.0
 22
0.0
 32
0.0
 13
1.0
 23
0.0
 33
0.0
 40
0.0
 40
0.0
 40
0.0
 40
0.0
 40
1.0
 40
1.0
 40
1.0
 40
2.0
 40
2.0
 40
2.0
 40
3.0
 40
3.0
 40
3.0
 40
4.0
 40
4.0
 40
4.0
 40
5.0
 40
5.0
 40
5.0
 40
6.0
 40
6.0
 40
6.0
 40
6.0
 10
484.0574807190806
 20
422.6394291005408
 30
0.0
 10
484.0428292300912
 20
423.1721249800648
 30
0.0
 10
484.264012946911
 20
423.6429888877037
 30
0.0
 10
484.6858817376979
 20
423.9448230026355
 30
0.0
 10
484.6858817376979
 20
423.9448230026355
 30
0.0
 10
487.2851096514896
 20
424.9695535193014
 30
0.0
 10
487.2851096514896
 20
424.9695535193014
 30
0.0
 10
487.7083898242436
 20
425.2720669296641
 30
0.0
 10
487.9304472537096
 20
425.7441333844954
 30
0.0
 10
487.9159973907117
 20
426.2784422719797
 30
0.0
 10
487.4682532638653
 20
426.0522851139431
 30
0.0
 10
487.0114359672316
 20
425.8438710434912
 30
0.0
 10
486.5472929261032
 20
425.654006564605
 30
0.0
 10
486.5472929261032
 20
425.654006564605
 30
0.0
 10
483.9486026816321
 20
424.6279318746356
 30
0.0
 10
483.9486026816321
 20
424.6279318746356
 30
0.0
 10
483.4854005618126
 20
424.4384034390741
 30
0.0
 10
483.0295913951541
 20
424.2304598292776
 30
0.0
 10
482.5828553982847
 20
424.0048403405617
 30
0.0
  0
SPLINE
  5
18B
330
16A
100
AcDbEntity
  8
Layer 2
 62
    18
420
        0
370
     5
100
AcDbSpline
210
0.0
220
0.0
230
1.0
 70
     8
 71
     3
 72
    17
 73
    13
 74
     0
 42
0.0000000001
 43
0.0000000001
 12
1.0
 22
0.0
 32
0.0
 13
1.0
 23
0.0
 33
0.0
 40
0.0
 40
0.0
 40
0.0
 40
0.0
 40
1.0
 40
1.0
 40
1.0
 40
2.0
 40
2.0
 40
2.0
 40
3.0
 40
3.0
 40
3.0
 40
4.0
 40
4.0
 40
4.0
 40
4.0
 10
491.4095710108923
 20
421.1076092057501
 30
0.0
 10
491.3952555652268
 20
421.6397002072881
 30
0.0
 10
491.6169150029145
 20
422.1092270705058
 30
0.0
 10
492.0393162028104
 20
422.4093066312644
 30
0.0
 10
492.0393162028104
 20
422.4093066312644
 30
0.0
 10
494.6439208098091
 20
423.4292052862702
 30
0.0
 10
494.6439208098091
 20
423.4292052862702
 30
0.0
 10
495.0678058605481
 20
423.7299569003326
 30
0.0
 10
495.2902665420061
 20
424.2007607810247
 30
0.0
 10
495.2761527223338
 20
424.7343231914774
 30
0.0
 10
495.5187087946542
 20
424.5408966533414
 30
0.0
 10
495.6294014660616
 20
424.2738094182632
 30
0.0
 10
495.5793982192336
 20
423.9788305871707
 30
0.0
  0
SPLINE
  5
18C
330
16A
100
AcDbEntity
  8
Layer 2
 62
    18
420
        0
370
     5
100
AcDbSpline
210
0.0
220
0.0
230
1.0
 70
     8
 71
     3
 72
    23
 73
    19
 74
     0
 42
0.0000000001
 43
0.0000000001
 12
1.0
 22
0.0
 32
0.0
 13
1.0
 23
0.0
 33
0.0
 40
0.0
 40
0.0
 40
0.0
 40
0.0
 40
1.0
 40
1.0
 40
1.0
 40
2.0
 40
2.0
 40
2.0
 40
3.0
 40
3.0
 40
3.0
 40
4.0
 40
4.0
 40
4.0
 40
5.0
 40
5.0
 40
5.0
 40
6.0
 40
6.0
 40
6.0
 40
6.0
 10
478.8902097121008
 20
434.8394148228117
 30
0.0
 10
479.2662421932946
 20
434.4784370825992
 30
0.0
 10
479.7541098932015
 20
434.3196230069861
 30
0.0
 10
480.2570323340897
 20
434.4053140549804
 30
0.0
 10
480.2570323340897
 20
434.4053140549804
 30
0.0
 10
482.8529670232911
 20
435.4481311684058
 30
0.0
 10
482.8529670232911
 20
435.4481311684058
 30
0.0
 10
483.3570320114868
 20
435.5342852112044
 30
0.0
 10
483.8459078413689
 20
435.3752695095955
 30
0.0
 10
484.2227468265428
 20
435.0133508480712
 30
0.0
 10
483.7739273610568
 20
434.788067402681
 30
0.0
 10
483.3168412297618
 20
434.5790484542422
 30
0.0
 10
482.8529670232911
 20
434.3869063197835
 30
0.0
 10
482.8529670232911
 20
434.3869063197835
 30
0.0
 10
480.2570323340897
 20
433.3457694497938
 30
0.0
 10
480.2570323340897
 20
433.3457694497938
 30
0.0
 10
479.7940990489315
 20
433.1540903369496
 30
0.0
 10
479.3380210476134
 20
432.9454746405017
 30
0.0
 10
478.8902097121008
 20
432.7206616557669
 30
0.0
  0
SPLINE
  5
18D
330
16A
100
AcDbEntity
  8
Layer 2
 62
    18
420
        0
370
     5
100
AcDbSpline
210
0.0
220
0.0
230
1.0
 70
     8
 71
     3
 72
    11
 73
     7
 74
     0
 42
0.0000000001
 43
0.0000000001
 12
1.0
 22
0.0
 32
0.0
 13
1.0
 23
0.0
 33
0.0
 40
0.0
 40
0.0
 40
0.0
 40
0.0
 40
1.0
 40
1.0
 40
1.0
 40
2.0
 40
2.0
 40
2.0
 40
2.0
 10
499.2413967541343
 20
431.1235149385066
 30
0.0
 10
499.3697653044619
 20
431.3809913344758
 30
0.0
 10
499.1419951384632
 20
431.7282585070097
 30
0.0
 10
498.9431246984532
 20
431.8874758346128
 30
0.0
 10
499.0579843070973
 20
431.945947373245
 30
0.0
 10
499.1704244037956
 20
432.005359833186
 30
0.0
 10
499.2761436339879
 20
432.0782886155321
 30
0.0
  0
SPLINE
  5
18E
330
16A
100
AcDbEntity
  8
Layer 2
 62
    18
420
        0
370
     5
100
AcDbSpline
210
0.0
220
0.0
230
1.0
 70
     8
 71
     3
 72
    14
 73
    10
 74
     0
 42
0.0000000001
 43
0.0000000001
 12
1.0
 22
0.0
 32
0.0
 13
1.0
 23
0.0
 33
0.0
 40
0.0
 40
0.0
 40
0.0
 40
0.0
 40
1.0
 40
1.0
 40
1.0
 40
2.0
 40
2.0
 40
2.0
 40
3.0
 40
3.0
 40
3.0
 40
3.0
 10
495.6125320911233
 20
440.7914814120786
 30
0.0
 10
495.5649483562374
 20
440.7117047266129
 30
0.0
 10
495.3648009515928
 20
440.6385816989932
 30
0.0
 10
495.2828735888452
 20
440.6013480985312
 30
0.0
 10
495.2828735888452
 20
440.6013480985312
 30
0.0
 10
495.2761527223338
 20
440.5979204566111
 30
0.0
 10
495.2761527223338
 20
440.5979204566111
 30
0.0
 10
495.3030361883721
 20
440.951774078324
 30
0.0
 10
495.1627717043229
 20
441.24682011808
 30
0.0
 10
494.8704140111713
 20
441.4220331079778
 30
0.0
  0
SPLINE
  5
18F
330
16A
100
AcDbEntity
  8
Layer 2
 62
    18
420
        0
370
     5
100
AcDbSpline
210
0.0
220
0.0
230
1.0
 70
     8
 71
     3
 72
    17
 73
    13
 74
     0
 42
0.0000000001
 43
0.0000000001
 12
1.0
 22
0.0
 32
0.0
 13
1.0
 23
0.0
 33
0.0
 40
0.0
 40
0.0
 40
0.0
 40
0.0
 40
1.0
 40
1.0
 40
1.0
 40
2.0
 40
2.0
 40
2.0
 40
3.0
 40
3.0
 40
3.0
 40
4.0
 40
4.0
 40
4.0
 40
4.0
 10
482.5828553982847
 20
441.9926346746133
 30
0.0
 10
482.9584224603022
 20
441.6311192650819
 30
0.0
 10
483.4459490754034
 20
441.4728428587878
 30
0.0
 10
483.9486026816321
 20
441.5600873263284
 30
0.0
 10
483.9486026816321
 20
441.5600873263284
 30
0.0
 10
486.5472929261032
 20
442.6129706534184
 30
0.0
 10
486.5472929261032
 20
442.6129706534184
 30
0.0
 10
487.0510890796359
 20
442.7008123786936
 30
0.0
 10
487.5396288661959
 20
442.5421999290747
 30
0.0
 10
487.9159973907117
 20
442.1797512341373
 30
0.0
 10
487.9377729982043
 20
442.4629609129315
 30
0.0
 10
487.823854310871
 20
442.9342952812258
 30
0.0
 10
487.5035378130397
 20
443.0070899223274
 30
0.0
  0
POLYLINE
  5
190
330
16A
100
AcDbEntity
  8
Layer 2
 62
    18
420
        0
370
     5
100
AcDb2dPolyline
 66
     1
 10
0.0
 20
0.0
 30
0.0
  0
VERTEX
  5
191
330
190
100
AcDbEntity
  8
Layer 2
 62
    18
420
        0
370
     5
100
AcDbVertex
100
AcDb2dVertex
 10
495.2761527223338
 20
440.5979204566111
 30
0.0
  0
VERTEX
  5
192
330
190
100
AcDbEntity
  8
Layer 2
 62
    18
420
        0
370
     5
100
AcDbVertex
100
AcDb2dVertex
 10
487.9159973907117
 20
442.1797512341373
 30
0.0
  0
VERTEX
  5
193
330
190
100
AcDbEntity
  8
Layer 2
 62
    18
420
        0
370
     5
100
AcDbVertex
100
AcDb2dVertex
 10
484.2227468265428
 20
435.0133508480712
 30
0.0
  0
VERTEX
  5
194
330
190
100
AcDbEntity
  8
Layer 2
 62
    18
420
        0
370
     5
100
AcDbVertex
100
AcDb2dVertex
 10
487.9159973907117
 20
426.2784422719797
 30
0.0
  0
VERTEX
  5
195
330
190
100
AcDbEntity
  8
Layer 2
 62
    18
420
        0
370
     5
100
AcDbVertex
100
AcDb2dVertex
 10
495.2761527223338
 20
424.7343231914774
 30
0.0
  0
VERTEX
  5
196
330
190
100
AcDbEntity
  8
Layer 2
 62
    18
420
        0
370
     5
100
AcDbVertex
100
AcDb2dVertex
 10
498.9431246984532
 20
431.8874758346128
 30
0.0
  0
VERTEX
  5
197
330
190
100
AcDbEntity
  8
Layer 2
 62
    18
420
        0
370
     5
100
AcDbVertex
100
AcDb2dVertex
 10
495.2761527223338
 20
440.5979204566111
 30
0.0
  0
SEQEND
  5
198
330
190
100
AcDbEntity
  8
Layer 2
 62
    18
420
        0
370
     5
  0
SPLINE
  5
199
330
16A
100
AcDbEntity
  8
Layer 2
 62
    18
420
        0
370
     5
100
AcDbSpline
210
0.0
220
0.0
230
1.0
 70
     8
 71
     3
 72
    29
 73
    25
 74
     0
 42
0.0000000001
 43
0.0000000001
 12
1.0
 22
0.0
 32
0.0
 13
1.0
 23
0.0
 33
0.0
 40
0.0
 40
0.0
 40
0.0
 40
0.0
 40
1.0
 40
1.0
 40
1.0
 40
2.0
 40
2.0
 40
2.0
 40
3.0
 40
3.0
 40
3.0
 40
4.0
 40
4.0
 40
4.0
 40
5.0
 40
5.0
 40
5.0
 40
6.0
 40
6.0
 40
6.0
 40
7.0
 40
7.0
 40
7.0
 40
8.0
 40
8.0
 40
8.0
 40
8.0
 10
486.9002107675606
 20
442.9526509022262
 30
0.0
 10
486.7448191928088
 20
442.882544609105
 30
0.0
 10
486.6257926469298
 20
442.7640557325467
 30
0.0
 10
486.5472929261032
 20
442.6129706534184
 30
0.0
 10
486.5472929261032
 20
442.6129706534184
 30
0.0
 10
482.8529670232911
 20
435.4481311684058
 30
0.0
 10
482.8529670232911
 20
435.4481311684058
 30
0.0
 10
482.7039654127802
 20
435.1056955539088
 30
0.0
 10
482.7047047080978
 20
434.7322170019888
 30
0.0
 10
482.8529670232911
 20
434.3869063197835
 30
0.0
 10
482.8529670232911
 20
434.3869063197835
 30
0.0
 10
486.5472929261032
 20
425.654006564605
 30
0.0
 10
486.5472929261032
 20
425.654006564605
 30
0.0
 10
486.6819118822841
 20
425.3187025344569
 30
0.0
 10
486.9430175461675
 20
425.0743990368464
 30
0.0
 10
487.2851096514896
 20
424.9695535193014
 30
0.0
 10
487.2851096514896
 20
424.9695535193014
 30
0.0
 10
494.6439208098091
 20
423.4292052862702
 30
0.0
 10
494.6439208098091
 20
423.4292052862702
 30
0.0
 10
494.6439208098091
 20
423.4292052862702
 30
0.0
 10
494.6519186409532
 20
423.427585116081
 30
0.0
 10
494.6519186409532
 20
423.427585116081
 30
0.0
 10
494.7722893601367
 20
423.403389996648
 30
0.0
 10
494.8971630598789
 20
423.4129336270917
 30
0.0
 10
495.0118210425244
 20
423.4569553027268
 30
0.0
  0
SPLINE
  5
19A
330
16A
100
AcDbEntity
  8
Layer 2
 62
    18
420
        0
370
     5
100
AcDbSpline
210
0.0
220
0.0
230
1.0
 70
     8
 71
     3
 72
    38
 73
    34
 74
     0
 42
0.0000000001
 43
0.0000000001
 12
1.0
 22
0.0
 32
0.0
 13
1.0
 23
0.0
 33
0.0
 40
0.0
 40
0.0
 40
0.0
 40
0.0
 40
1.0
 40
1.0
 40
1.0
 40
2.0
 40
2.0
 40
2.0
 40
3.0
 40
3.0
 40
3.0
 40
4.0
 40
4.0
 40
4.0
 40
5.0
 40
5.0
 40
5.0
 40
6.0
 40
6.0
 40
6.0
 40
7.0
 40
7.0
 40
7.0
 40
8.0
 40
8.0
 40
8.0
 40
9.0
 40
9.0
 40
9.0
 40
10.0
 40
10.0
 40
10.0
 40
11.0
 40
11.0
 40
11.0
 40
11.0
 10
485.6054306934948
 20
442.4279451984185
 30
0.0
 10
485.6054306934948
 20
442.4279451984185
 30
0.0
 10
484.306018362593
 20
441.9012980987527
 30
0.0
 10
484.306018362593
 20
441.9012980987527
 30
0.0
 10
484.1514384328802
 20
441.8379203275699
 30
0.0
 10
484.0266991504686
 20
441.7132482538236
 30
0.0
 10
483.9512238195693
 20
441.5651203559601
 30
0.0
 10
483.9512238195693
 20
441.5651203559601
 30
0.0
 10
483.9486026816321
 20
441.5600873263284
 30
0.0
 10
483.9486026816321
 20
441.5600873263284
 30
0.0
 10
483.9486026816321
 20
441.5600873263284
 30
0.0
 10
480.2570323340897
 20
434.4053140549804
 30
0.0
 10
480.2570323340897
 20
434.4053140549804
 30
0.0
 10
480.1082323495739
 20
434.0634235756515
 30
0.0
 10
480.1089716448914
 20
433.6905499017175
 30
0.0
 10
480.2570323340897
 20
433.3457694497938
 30
0.0
 10
480.2570323340897
 20
433.3457694497938
 30
0.0
 10
483.9486026816321
 20
424.6279318746356
 30
0.0
 10
483.9486026816321
 20
424.6279318746356
 30
0.0
 10
484.0832216378112
 20
424.2932327224744
 30
0.0
 10
484.3443273016965
 20
424.0491980595234
 30
0.0
 10
484.6858817376979
 20
423.9448230026355
 30
0.0
 10
484.6858817376979
 20
423.9448230026355
 30
0.0
 10
492.0393162028104
 20
422.4093066312644
 30
0.0
 10
492.0393162028104
 20
422.4093066312644
 30
0.0
 10
492.1605606346366
 20
422.3847082598404
 30
0.0
 10
492.283283657096
 20
422.3920340043342
 30
0.0
 10
492.399689065036
 20
422.4343754633428
 30
0.0
 10
492.399689065036
 20
422.4343754633428
 30
0.0
 10
492.4068803922019
 20
422.4371310186116
 30
0.0
 10
492.4068803922019
 20
422.4371310186116
 30
0.0
 10
492.4068803922019
 20
422.4371310186116
 30
0.0
 10
493.3660152517386
 20
422.8126258304837
 30
0.0
 10
493.3660152517386
 20
422.8126258304837
 30
0.0
  0
SPLINE
  5
19B
330
16A
100
AcDbEntity
  8
Layer 2
 62
    18
420
        0
370
    13
100
AcDbSpline
210
0.0
220
0.0
230
1.0
 70
    11
 71
     3
 72
    17
 73
    13
 74
     0
 42
0.0000000001
 43
0.0000000001
 12
1.0
 22
0.0
 32
0.0
 13
1.0
 23
0.0
 33
0.0
 40
0.0
 40
0.0
 40
0.0
 40
0.0
 40
1.0
 40
1.0
 40
1.0
 40
2.0
 40
2.0
 40
2.0
 40
3.0
 40
3.0
 40
3.0
 40
4.0
 40
4.0
 40
4.0
 40
4.0
 10
496.7901623208763
 20
435.3795036554957
 30
0.0
 10
498.1238510709736
 20
431.7656937334659
 30
0.0
 10
496.9791530871171
 20
428.0145765086527
 30
0.0
 10
494.2334102834229
 20
427.0012042563849
 30
0.0
 10
491.4876002710644
 20
425.987839230982
 30
0.0
 10
488.1804634878517
 20
428.0958989934143
 30
0.0
 10
486.8467075290901
 20
431.709708915444
 30
0.0
 10
485.513023885007
 20
435.3235188374729
 30
0.0
 10
486.6577167628493
 20
439.074636062287
 30
0.0
 10
489.4034595665435
 20
440.0880083145539
 30
0.0
 10
492.149269578902
 20
441.1013805668199
 30
0.0
 10
495.4564063621128
 20
438.9933135775245
 30
0.0
 10
496.7901623208763
 20
435.3795036554957
 30
0.0
  0
SPLINE
  5
19C
330
16A
100
AcDbEntity
  8
Layer 2
 62
    18
420
        0
370
     5
100
AcDbSpline
210
0.0
220
0.0
230
1.0
 70
    11
 71
     3
 72
    17
 73
    13
 74
     0
 42
0.0000000001
 43
0.0000000001
 12
1.0
 22
0.0
 32
0.0
 13
1.0
 23
0.0
 33
0.0
 40
0.0
 40
0.0
 40
0.0
 40
0.0
 40
1.0
 40
1.0
 40
1.0
 40
2.0
 40
2.0
 40
2.0
 40
3.0
 40
3.0
 40
3.0
 40
4.0
 40
4.0
 40
4.0
 40
4.0
 10
493.428116058285
 20
434.1386972805549
 30
0.0
 10
493.8762634371215
 20
432.9244457304248
 30
0.0
 10
493.5187133388281
 20
431.6740211142796
 30
0.0
 10
492.6294082823224
 20
431.3458412026321
 30
0.0
 10
491.7401704344848
 20
431.0175940823192
 30
0.0
 10
490.6559602492089
 20
431.735920294831
 30
0.0
 10
490.2078128703706
 20
432.9501792470583
 30
0.0
 10
489.7596654915324
 20
434.1644456327085
 30
0.0
 10
490.1172827984901
 20
435.4148554133344
 30
0.0
 10
491.0065206463332
 20
435.7431025336473
 30
0.0
 10
491.8958309700938
 20
436.0712824452939
 30
0.0
 10
492.9799686794468
 20
435.352956232784
 30
0.0
 10
493.428116058285
 20
434.1386972805549
 30
0.0
  0
MTEXT
  5
19D
330
16A
100
AcDbEntity
  8
Layer 2
 62
    18
420
        0
100
AcDbMText
 10
490.3495215387084
 20
437.1310491127369
 30
0.0
 40
1.205689283191005
 41
0.0
 46
0.0
 71
     7
 72
     1
  1
\fHelvetica Neue LT Std 77 Condensed|b1|i0|c0|p34;\W0.832371;WS22
 11
0.9751990169949105
 21
-0.2213297929610024
 31
0.0
 73
     1
 44
1.0
  0
MTEXT
  5
19E
330
16A
100
AcDbEntity
  8
Layer 2
 62
    18
420
        0
100
AcDbMText
 10
491.0123527464457
 20
429.0543443457864
 30
0.0
 40
1.39018891557848
 41
0.0
 46
0.0
 71
     7
 72
     1
  1
\fHelvetica Neue LT Std 77 Condensed|b1|i0|c0|p34;\W0.832371;3.5
 11
0.9751990169949105
 21
-0.2213297929610024
 31
0.0
 73
     1
 44
1.0
  0
INSERT
  5
1A0
330
16A
100
AcDbEntity
  8
Layer 2
100
AcDbBlockReference
  2
block 22
 10
0.0
 20
0.0
 30
0.0
  0
ENDBLK
  5
16D
330
16A
100
AcDbEntity
  8
0
100
AcDbBlockEnd
  0
BLOCK
  5
1A1
330
19F
100
AcDbEntity
  8
0
100
AcDbBlockBegin
  2
block 22
 70
     0
 10
0.0
 20
0.0
 30
0.0
  3
block 22
  1

  0
INSERT
  5
1A4
330
19F
100
AcDbEntity
  8
Layer 2
100
AcDbBlockReference
  2
block 23
 10
0.0
 20
0.0
 30
0.0
  0
INSERT
  5
1B6
330
19F
100
AcDbEntity
  8
Layer 2
100
AcDbBlockReference
  2
block 24
 10
0.0
 20
0.0
 30
0.0
  0
ENDBLK
  5
1A2
330
19F
100
AcDbEntity
  8
0
100
AcDbBlockEnd
  0
BLOCK
  5
1A5
330
1A3
100
AcDbEntity
  8
0
100
AcDbBlockBegin
  2
block 23
 70
     0
 10
0.0
 20
0.0
 30
0.0
  3
block 23
  1

  0
POLYLINE
  5
1A7
330
1A3
100
AcDbEntity
  8
Layer 2
370
     0
100
AcDb2dPolyline
 66
     1
 10
0.0
 20
0.0
 30
0.0
  0
VERTEX
  5
1A8
330
1A7
100
AcDbEntity
  8
Layer 2
370
     0
100
AcDbVertex
100
AcDb2dVertex
 10
496.2961114237805
 20
432.6929716857494
 30
0.0
  0
VERTEX
  5
1A9
330
1A7
100
AcDbEntity
  8
Layer 2
370
     0
100
AcDbVertex
100
AcDb2dVertex
 10
494.5094362709588
 20
433.1287600774676
 30
0.0
  0
VERTEX
  5
1AA
330
1A7
100
AcDbEntity
  8
Layer 2
370
     0
100
AcDbVertex
100
AcDb2dVertex
 10
494.5094362709588
 20
433.3967136179326
 30
0.0
  0
VERTEX
  5
1AB
330
1A7
100
AcDbEntity
  8
Layer 2
370
     0
100
AcDbVertex
100
AcDb2dVertex
 10
496.2961114237805
 20
432.9609326334721
 30
0.0
  0
VERTEX
  5
1AC
330
1A7
100
AcDbEntity
  8
Layer 2
370
     0
100
AcDbVertex
100
AcDb2dVertex
 10
496.2961114237805
 20
432.6929716857494
 30
0.0
  0
SEQEND
  5
1AD
330
1A7
100
AcDbEntity
  8
Layer 2
370
     0
  0
POLYLINE
  5
1AE
330
1A3
100
AcDbEntity
  8
Layer 2
370
     0
100
AcDb2dPolyline
 66
     1
 10
0.0
 20
0.0
 30
0.0
  0
VERTEX
  5
1AF
330
1AE
100
AcDbEntity
  8
Layer 2
370
     0
100
AcDbVertex
100
AcDb2dVertex
 10
496.2961114237805
 20
432.1450866479136
 30
0.0
  0
VERTEX
  5
1B0
330
1AE
100
AcDbEntity
  8
Layer 2
370
     0
100
AcDbVertex
100
AcDb2dVertex
 10
494.5094362709588
 20
432.5808676323741
 30
0.0
  0
VERTEX
  5
1B1
330
1AE
100
AcDbEntity
  8
Layer 2
370
     0
100
AcDbVertex
100
AcDb2dVertex
 10
494.5094362709588
 20
432.8488285800986
 30
0.0
  0
VERTEX
  5
1B2
330
1AE
100
AcDbEntity
  8
Layer 2
370
     0
100
AcDbVertex
100
AcDb2dVertex
 10
496.2961114237805
 20
432.4130475956381
 30
0.0
  0
VERTEX
  5
1B3
330
1AE
100
AcDbEntity
  8
Layer 2
370
     0
100
AcDbVertex
100
AcDb2dVertex
 10
496.2961114237805
 20
432.1450866479136
 30
0.0
  0
SEQEND
  5
1B4
330
1AE
100
AcDbEntity
  8
Layer 2
370
     0
  0
ENDBLK
  5
1A6
330
1A3
100
AcDbEntity
  8
0
100
AcDbBlockEnd
  0
BLOCK
  5
1B7
330
1B5
100
AcDbEntity
  8
0
100
AcDbBlockBegin
  2
block 24
 70
     0
 10
0.0
 20
0.0
 30
0.0
  3
block 24
  1

  0
POLYLINE
  5
1B9
330
1B5
100
AcDbEntity
  8
Layer 2
370
     0
100
AcDb2dPolyline
 66
     1
 10
0.0
 20
0.0
 30
0.0
  0
VERTEX
  5
1BA
330
1B9
100
AcDbEntity
  8
Layer 2
370
     0
100
AcDbVertex
100
AcDb2dVertex
 10
494.8668519519197
 20
431.8806205507735
 30
0.0
  0
VERTEX
  5
1BB
330
1B9
100
AcDbEntity
  8
Layer 2
370
     0
100
AcDbVertex
100
AcDb2dVertex
 10
494.7864757287516
 20
431.9712178313193
 30
0.0
  0
VERTEX
  5
1BC
330
1B9
100
AcDbEntity
  8
Layer 2
370
     0
100
AcDbVertex
100
AcDb2dVertex
 10
496.0162545423336
 20
433.6422342917458
 30
0.0
  0
VERTEX
  5
1BD
330
1B9
100
AcDbEntity
  8
Layer 2
370
     0
100
AcDbVertex
100
AcDb2dVertex
 10
496.0966361057872
 20
433.551629590972
 30
0.0
  0
VERTEX
  5
1BE
330
1B9
100
AcDbEntity
  8
Layer 2
370
     0
100
AcDbVertex
100
AcDb2dVertex
 10
494.8668519519197
 20
431.8806205507735
 30
0.0
  0
SEQEND
  5
1BF
330
1B9
100
AcDbEntity
  8
Layer 2
370
     0
  0
ENDBLK
  5
1B8
330
1B5
100
AcDbEntity
  8
0
100
AcDbBlockEnd
  0
BLOCK
  5
1C2
330
1C0
100
AcDbEntity
  8
0
100
AcDbBlockBegin
  2
block 25
 70
     0
 10
0.0
 20
0.0
 30
0.0
  3
block 25
  1

  0
INSERT
  5
1C5
330
1C0
100
AcDbEntity
  8
Layer 2
100
AcDbBlockReference
  2
block 26
 10
0.0
 20
0.0
 30
0.0
  0
INSERT
  5
1CC
330
1C0
100
AcDbEntity
  8
Layer 2
100
AcDbBlockReference
  2
block 27
 10
0.0
 20
0.0
 30
0.0
  0
ENDBLK
  5
1C3
330
1C0
100
AcDbEntity
  8
0
100
AcDbBlockEnd
  0
BLOCK
  5
1C6
330
1C4
100
AcDbEntity
  8
0
100
AcDbBlockBegin
  2
block 26
 70
     0
 10
0.0
 20
0.0
 30
0.0
  3
block 26
  1

  0
SPLINE
  5
1C8
330
1C4
100
AcDbEntity
  8
Layer 2
 62
    18
420
        0
370
     9
100
AcDbSpline
210
0.0
220
0.0
230
1.0
 70
    11
 71
     3
 72
    23
 73
    19
 74
     0
 42
0.0000000001
 43
0.0000000001
 12
1.0
 22
0.0
 32
0.0
 13
1.0
 23
0.0
 33
0.0
 40
0.0
 40
0.0
 40
0.0
 40
0.0
 40
1.0
 40
1.0
 40
1.0
 40
2.0
 40
2.0
 40
2.0
 40
3.0
 40
3.0
 40
3.0
 40
4.0
 40
4.0
 40
4.0
 40
5.0
 40
5.0
 40
5.0
 40
6.0
 40
6.0
 40
6.0
 40
6.0
 10
488.671624412349
 20
334.9053210009588
 30
0.0
 10
483.9561972607862
 20
334.3794131966097
 30
0.0
 10
478.946261738789
 20
338.4376740208972
 30
0.0
 10
477.0238971827057
 20
344.6263151112889
 30
0.0
 10
475.0114632322766
 20
351.1050288002216
 30
0.0
 10
477.1100537997936
 20
357.5769544139803
 30
0.0
 10
481.7174094178881
 20
359.5241910677087
 30
0.0
 10
481.7174094178881
 20
359.5241910677087
 30
0.0
 10
483.8313907697084
 20
360.296553046951
 30
0.0
 10
483.8313907697084
 20
360.296553046951
 30
0.0
 10
488.9063170708541
 20
361.8729322866993
 30
0.0
 10
494.7296790664659
 20
357.6479267643181
 30
0.0
 10
496.8382837250829
 20
350.8597171726333
 30
0.0
 10
498.7462705183952
 20
344.7172484351604
 30
0.0
 10
496.9588560702596
 20
338.5807612688786
 30
0.0
 10
492.841586038021
 20
336.3009089316074
 30
0.0
 10
492.841586038021
 20
336.3009089316074
 30
0.0
 10
488.671624412349
 20
334.9053210009588
 30
0.0
 10
488.671624412349
 20
334.9053210009588
 30
0.0
  0
HATCH
  5
1C9
330
1C4
100
AcDbEntity
  8
Layer 2
 62
   250
420
  2301728
100
AcDbHatch
 10
0.0
 20
0.0
 30
0.0
210
0.0
220
0.0
230
1.0
  2
SOLID
 70
     1
 71
     0
 91
        1
 92
        1
 93
        1
 72
     4
 94
        3
 73
     0
 74
     1
 95
       23
 96
       19
 40
0.0
 40
0.0
 40
0.0
 40
0.0
 40
1.0
 40
1.0
 40
1.0
 40
2.0
 40
2.0
 40
2.0
 40
3.0
 40
3.0
 40
3.0
 40
4.0
 40
4.0
 40
4.0
 40
5.0
 40
5.0
 40
5.0
 40
6.0
 40
6.0
 40
6.0
 40
6.0
 10
488.671624412349
 20
334.9053210009588
 10
483.9561972607862
 20
334.3794131966097
 10
478.946261738789
 20
338.4376740208972
 10
477.0238971827057
 20
344.6263151112889
 10
475.0114632322766
 20
351.1050288002216
 10
477.1100537997936
 20
357.5769544139803
 10
481.7174094178881
 20
359.5241910677087
 10
481.7174094178881
 20
359.5241910677087
 10
483.8313907697084
 20
360.296553046951
 10
483.8313907697084
 20
360.296553046951
 10
488.9063170708541
 20
361.8729322866993
 10
494.7296790664659
 20
357.6479267643181
 10
496.8382837250829
 20
350.8597171726333
 10
498.7462705183952
 20
344.7172484351604
 10
496.9588560702596
 20
338.5807612688786
 10
492.841586038021
 20
336.3009089316074
 10
492.841586038021
 20
336.3009089316074
 10
488.671624412349
 20
334.9053210009588
 10
488.671624412349
 20
334.9053210009588
 97
        0
 97
        0
 75
     2
 76
     1
 98
        0
  0
SPLINE
  5
1CA
330
1C4
100
AcDbEntity
  8
Layer 2
 62
    18
420
        0
370
     5
100
AcDbSpline
210
0.0
220
0.0
230
1.0
 70
     8
 71
     3
 72
    14
 73
    10
 74
     0
 42
0.0000000001
 43
0.0000000001
 12
1.0
 22
0.0
 32
0.0
 13
1.0
 23
0.0
 33
0.0
 40
0.0
 40
0.0
 40
0.0
 40
0.0
 40
1.0
 40
1.0
 40
1.0
 40
2.0
 40
2.0
 40
2.0
 40
3.0
 40
3.0
 40
3.0
 40
3.0
 10
492.841586038021
 20
336.3009089316074
 30
0.0
 10
492.408695026159
 20
336.061175623222
 30
0.0
 10
491.9500630955663
 20
335.8641198171717
 30
0.0
 10
491.4673032542069
 20
335.7141772853493
 30
0.0
 10
486.3923769530629
 20
334.1377980456009
 30
0.0
 10
480.5690149574493
 20
338.3628035679849
 30
0.0
 10
478.4604102988342
 20
345.1510803683332
 30
0.0
 10
476.3518105147996
 20
351.939289960017
 30
0.0
 10
478.7564644685663
 20
358.7201738072063
 30
0.0
 10
483.8313907697084
 20
360.296553046951
 30
0.0
  0
ENDBLK
  5
1C7
330
1C4
100
AcDbEntity
  8
0
100
AcDbBlockEnd
  0
BLOCK
  5
1CD
330
1CB
100
AcDbEntity
  8
0
100
AcDbBlockBegin
  2
block 27
 70
     0
 10
0.0
 20
0.0
 30
0.0
  3
block 27
  1

  0
SPLINE
  5
1CF
330
1CB
100
AcDbEntity
  8
Layer 2
 62
    18
420
        0
370
     9
100
AcDbSpline
210
0.0
220
0.0
230
1.0
 70
    11
 71
     3
 72
    65
 73
    61
 74
     0
 42
0.0000000001
 43
0.0000000001
 12
1.0
 22
0.0
 32
0.0
 13
1.0
 23
0.0
 33
0.0
 40
0.0
 40
0.0
 40
0.0
 40
0.0
 40
1.0
 40
1.0
 40
1.0
 40
2.0
 40
2.0
 40
2.0
 40
3.0
 40
3.0
 40
3.0
 40
4.0
 40
4.0
 40
4.0
 40
5.0
 40
5.0
 40
5.0
 40
6.0
 40
6.0
 40
6.0
 40
7.0
 40
7.0
 40
7.0
 40
8.0
 40
8.0
 40
8.0
 40
9.0
 40
9.0
 40
9.0
 40
10.0
 40
10.0
 40
10.0
 40
11.0
 40
11.0
 40
11.0
 40
12.0
 40
12.0
 40
12.0
 40
13.0
 40
13.0
 40
13.0
 40
14.0
 40
14.0
 40
14.0
 40
15.0
 40
15.0
 40
15.0
 40
16.0
 40
16.0
 40
16.0
 40
17.0
 40
17.0
 40
17.0
 40
18.0
 40
18.0
 40
18.0
 40
19.0
 40
19.0
 40
19.0
 40
20.0
 40
20.0
 40
20.0
 40
20.0
 10
478.8902097121008
 20
348.8530680589638
 30
0.0
 10
478.8902097121008
 20
348.8530680589638
 30
0.0
 10
482.5828553982847
 20
340.1372467437586
 30
0.0
 10
482.5828553982847
 20
340.1372467437586
 30
0.0
 10
482.8529048534419
 20
339.4656977621544
 30
0.0
 10
483.3724900044581
 20
338.9809888695054
 30
0.0
 10
484.0574807190806
 20
338.7718355037377
 30
0.0
 10
484.0574807190806
 20
338.7718355037377
 30
0.0
 10
491.4095710108923
 20
337.2400156089479
 30
0.0
 10
491.4095710108923
 20
337.2400156089479
 30
0.0
 10
492.0477225570394
 20
337.1494183284021
 30
0.0
 10
492.5689204837399
 20
337.4181185714424
 30
0.0
 10
492.8757952485521
 20
337.9891233900689
 30
0.0
 10
492.8757952485521
 20
337.9891233900689
 30
0.0
 10
493.3660152517386
 20
338.9450322336797
 30
0.0
 10
493.3660152517386
 20
338.9450322336797
 30
0.0
 10
493.3660152517386
 20
338.9450322336797
 30
0.0
 10
495.0118210425244
 20
339.5893617059237
 30
0.0
 10
495.0118210425244
 20
339.5893617059237
 30
0.0
 10
495.0118210425244
 20
339.5893617059237
 30
0.0
 10
495.0193484130159
 20
339.5923860958528
 30
0.0
 10
495.0193484130159
 20
339.5923860958528
 30
0.0
 10
495.2605603120337
 20
339.6935351368174
 30
0.0
 10
495.4559359014584
 20
339.8723101859641
 30
0.0
 10
495.5763066206382
 20
340.1050537931796
 30
0.0
 10
495.5763066206382
 20
340.1050537931796
 30
0.0
 10
499.2413967541343
 20
347.2559213417044
 30
0.0
 10
499.2413967541343
 20
347.2559213417044
 30
0.0
 10
499.3903311559789
 20
347.5619896025346
 30
0.0
 10
499.4032352196773
 20
347.8995188914914
 30
0.0
 10
499.277958267945
 20
348.215997122551
 30
0.0
 10
499.277958267945
 20
348.215997122551
 30
0.0
 10
495.6125320911233
 20
356.9238878152755
 30
0.0
 10
495.6125320911233
 20
356.9238878152755
 30
0.0
 10
495.4695792604725
 20
357.2462281820381
 30
0.0
 10
495.2038415495208
 20
357.4711679751235
 30
0.0
 10
494.8628194320154
 20
357.5561197278012
 30
0.0
 10
494.8628194320154
 20
357.5561197278012
 30
0.0
 10
487.5035378130397
 20
359.1394963255243
 30
0.0
 10
487.5035378130397
 20
359.1394963255243
 30
0.0
 10
487.5035378130397
 20
359.1394963255243
 30
0.0
 10
487.4972874071864
 20
359.1408404988606
 30
0.0
 10
487.4972874071864
 20
359.1408404988606
 30
0.0
 10
487.2984169671781
 20
359.1808892064164
 30
0.0
 10
487.0932289126504
 20
359.1626084495101
 30
0.0
 10
486.9049153742362
 20
359.0869987012802
 30
0.0
 10
486.9049153742362
 20
359.0869987012802
 30
0.0
 10
485.5626859824952
 20
358.5430117660208
 30
0.0
 10
485.5626859824952
 20
358.5430117660208
 30
0.0
 10
485.5626859824952
 20
358.5430117660208
 30
0.0
 10
484.0574807190806
 20
358.8663526537812
 30
0.0
 10
484.0574807190806
 20
358.8663526537812
 30
0.0
 10
483.4176542273999
 20
358.9623938361992
 30
0.0
 10
482.8933594310129
 20
358.6965912113747
 30
0.0
 10
482.5828553982847
 20
358.1250410778102
 30
0.0
 10
482.5828553982847
 20
358.1250410778102
 30
0.0
 10
478.8902097121008
 20
350.9718212260086
 30
0.0
 10
478.8902097121008
 20
350.9718212260086
 30
0.0
 10
478.5924753257405
 20
350.288174684687
 30
0.0
 10
478.5939539163737
 20
349.5424945454843
 30
0.0
 10
478.8902097121008
 20
348.8530680589638
 30
0.0
  0
HATCH
  5
1D0
330
1CB
100
AcDbEntity
  8
Layer 2
 62
   250
420
  2301728
100
AcDbHatch
 10
0.0
 20
0.0
 30
0.0
210
0.0
220
0.0
230
1.0
  2
SOLID
 70
     1
 71
     0
 91
        1
 92
        1
 93
        1
 72
     4
 94
        3
 73
     0
 74
     1
 95
       65
 96
       61
 40
0.0
 40
0.0
 40
0.0
 40
0.0
 40
1.0
 40
1.0
 40
1.0
 40
2.0
 40
2.0
 40
2.0
 40
3.0
 40
3.0
 40
3.0
 40
4.0
 40
4.0
 40
4.0
 40
5.0
 40
5.0
 40
5.0
 40
6.0
 40
6.0
 40
6.0
 40
7.0
 40
7.0
 40
7.0
 40
8.0
 40
8.0
 40
8.0
 40
9.0
 40
9.0
 40
9.0
 40
10.0
 40
10.0
 40
10.0
 40
11.0
 40
11.0
 40
11.0
 40
12.0
 40
12.0
 40
12.0
 40
13.0
 40
13.0
 40
13.0
 40
14.0
 40
14.0
 40
14.0
 40
15.0
 40
15.0
 40
15.0
 40
16.0
 40
16.0
 40
16.0
 40
17.0
 40
17.0
 40
17.0
 40
18.0
 40
18.0
 40
18.0
 40
19.0
 40
19.0
 40
19.0
 40
20.0
 40
20.0
 40
20.0
 40
20.0
 10
478.8902097121008
 20
348.8530680589638
 10
478.8902097121008
 20
348.8530680589638
 10
482.5828553982847
 20
340.1372467437586
 10
482.5828553982847
 20
340.1372467437586
 10
482.8529048534419
 20
339.4656977621544
 10
483.3724900044581
 20
338.9809888695054
 10
484.0574807190806
 20
338.7718355037377
 10
484.0574807190806
 20
338.7718355037377
 10
491.4095710108923
 20
337.2400156089479
 10
491.4095710108923
 20
337.2400156089479
 10
492.0477225570394
 20
337.1494183284021
 10
492.5689204837399
 20
337.4181185714424
 10
492.8757952485521
 20
337.9891233900689
 10
492.8757952485521
 20
337.9891233900689
 10
493.3660152517386
 20
338.9450322336797
 10
493.3660152517386
 20
338.9450322336797
 10
493.3660152517386
 20
338.9450322336797
 10
495.0118210425244
 20
339.5893617059237
 10
495.0118210425244
 20
339.5893617059237
 10
495.0118210425244
 20
339.5893617059237
 10
495.0193484130159
 20
339.5923860958528
 10
495.0193484130159
 20
339.5923860958528
 10
495.2605603120337
 20
339.6935351368174
 10
495.4559359014584
 20
339.8723101859641
 10
495.5763066206382
 20
340.1050537931796
 10
495.5763066206382
 20
340.1050537931796
 10
499.2413967541343
 20
347.2559213417044
 10
499.2413967541343
 20
347.2559213417044
 10
499.3903311559789
 20
347.5619896025346
 10
499.4032352196773
 20
347.8995188914914
 10
499.277958267945
 20
348.215997122551
 10
499.277958267945
 20
348.215997122551
 10
495.6125320911233
 20
356.9238878152755
 10
495.6125320911233
 20
356.9238878152755
 10
495.4695792604725
 20
357.2462281820381
 10
495.2038415495208
 20
357.4711679751235
 10
494.8628194320154
 20
357.5561197278012
 10
494.8628194320154
 20
357.5561197278012
 10
487.5035378130397
 20
359.1394963255243
 10
487.5035378130397
 20
359.1394963255243
 10
487.5035378130397
 20
359.1394963255243
 10
487.4972874071864
 20
359.1408404988606
 10
487.4972874071864
 20
359.1408404988606
 10
487.2984169671781
 20
359.1808892064164
 10
487.0932289126504
 20
359.1626084495101
 10
486.9049153742362
 20
359.0869987012802
 10
486.9049153742362
 20
359.0869987012802
 10
485.5626859824952
 20
358.5430117660208
 10
485.5626859824952
 20
358.5430117660208
 10
485.5626859824952
 20
358.5430117660208
 10
484.0574807190806
 20
358.8663526537812
 10
484.0574807190806
 20
358.8663526537812
 10
483.4176542273999
 20
358.9623938361992
 10
482.8933594310129
 20
358.6965912113747
 10
482.5828553982847
 20
358.1250410778102
 10
482.5828553982847
 20
358.1250410778102
 10
478.8902097121008
 20
350.9718212260086
 10
478.8902097121008
 20
350.9718212260086
 10
478.5924753257405
 20
350.288174684687
 10
478.5939539163737
 20
349.5424945454843
 10
478.8902097121008
 20
348.8530680589638
 97
        0
 97
        0
 75
     2
 76
     1
 98
        0
  0
SPLINE
  5
1D1
330
1CB
100
AcDbEntity
  8
Layer 2
 62
    18
420
        0
370
     5
100
AcDbSpline
210
0.0
220
0.0
230
1.0
 70
     8
 71
     3
 72
     8
 73
     4
 74
     0
 42
0.0000000001
 43
0.0000000001
 12
1.0
 22
0.0
 32
0.0
 13
1.0
 23
0.0
 33
0.0
 40
0.0
 40
0.0
 40
0.0
 40
0.0
 40
1.0
 40
1.0
 40
1.0
 40
1.0
 10
490.1773673450843
 20
349.2810528382743
 30
0.0
 10
490.4226789726727
 20
349.6189780063587
 30
0.0
 10
490.3215299317071
 20
350.2432792964037
 30
0.0
 10
490.1773673450843
 20
350.5957215361504
 30
0.0
  0
SPLINE
  5
1D2
330
1CB
100
AcDbEntity
  8
Layer 2
 62
    18
420
        0
370
     5
100
AcDbSpline
210
0.0
220
0.0
230
1.0
 70
     8
 71
     3
 72
    11
 73
     7
 74
     0
 42
0.0000000001
 43
0.0000000001
 12
1.0
 22
0.0
 32
0.0
 13
1.0
 23
0.0
 33
0.0
 40
0.0
 40
0.0
 40
0.0
 40
0.0
 40
1.0
 40
1.0
 40
1.0
 40
2.0
 40
2.0
 40
2.0
 40
2.0
 10
490.4788654166896
 20
348.5668263543357
 30
0.0
 10
490.8850745885102
 20
348.5765716107726
 30
0.0
 10
491.2517650652553
 20
348.0402464633344
 30
0.0
 10
491.3927016359557
 20
347.7160392311525
 30
0.0
 10
491.4216013619443
 20
347.6504362057967
 30
0.0
 10
491.4597758837172
 20
347.5914269978448
 30
0.0
 10
491.5071579926062
 20
347.5389370304083
 30
0.0
  0
SPLINE
  5
1D3
330
1CB
100
AcDbEntity
  8
Layer 2
 62
    18
420
        0
370
     5
100
AcDbSpline
210
0.0
220
0.0
230
1.0
 70
     8
 71
     3
 72
    41
 73
    37
 74
     0
 42
0.0000000001
 43
0.0000000001
 12
1.0
 22
0.0
 32
0.0
 13
1.0
 23
0.0
 33
0.0
 40
0.0
 40
0.0
 40
0.0
 40
0.0
 40
1.0
 40
1.0
 40
1.0
 40
2.0
 40
2.0
 40
2.0
 40
3.0
 40
3.0
 40
3.0
 40
4.0
 40
4.0
 40
4.0
 40
5.0
 40
5.0
 40
5.0
 40
6.0
 40
6.0
 40
6.0
 40
7.0
 40
7.0
 40
7.0
 40
8.0
 40
8.0
 40
8.0
 40
9.0
 40
9.0
 40
9.0
 40
10.0
 40
10.0
 40
10.0
 40
11.0
 40
11.0
 40
11.0
 40
12.0
 40
12.0
 40
12.0
 40
12.0
 10
491.9143080857375
 20
347.413861704671
 30
0.0
 10
491.969217565118
 20
347.4570096676607
 30
0.0
 10
491.9961682398207
 20
347.5152123716298
 30
0.0
 10
491.9950929011793
 20
347.5885370252463
 30
0.0
 10
492.003628401646
 20
348.0784881937716
 30
0.0
 10
492.5235599179177
 20
348.1877694832119
 30
0.0
 10
492.9080554077973
 20
348.0519407710617
 30
0.0
 10
493.049395230486
 20
348.0020719415625
 30
0.0
 10
493.2379880459011
 20
348.0356090654423
 30
0.0
 10
493.3125896660385
 20
348.1808469907073
 30
0.0
 10
493.3887989892046
 20
348.3292437232312
 30
0.0
 10
493.3197084814892
 20
348.5285920126489
 30
0.0
 10
493.2090158100818
 20
348.637865913337
 30
0.0
 10
492.8409139513697
 20
349.0013975828242
 30
0.0
 10
492.8073096188236
 20
349.5994202848178
 30
0.0
 10
493.2090158100818
 20
349.9512576465768
 30
0.0
 10
493.3384596990509
 20
350.0646386645894
 30
0.0
 10
493.3785832721114
 20
350.2745313256719
 30
0.0
 10
493.3125896660385
 20
350.4309930980089
 30
0.0
 10
493.248265670496
 20
350.5835567677686
 30
0.0
 10
493.0754049838779
 20
350.6941150218454
 30
0.0
 10
492.9080554077973
 20
350.6650136698599
 30
0.0
 10
492.37650207558
 20
350.5725345466944
 30
0.0
 10
492.0018137676889
 20
351.0181279962571
 30
0.0
 10
491.9950929011793
 20
351.5162114132581
 30
0.0
 10
491.9931438498916
 20
351.6619197991804
 30
0.0
 10
491.9092727034531
 20
351.8551447113205
 30
0.0
 10
491.748571517619
 20
351.8893539218534
 30
0.0
 10
491.588346060038
 20
351.9234959237201
 30
0.0
 10
491.446334150698
 20
351.776846616488
 30
0.0
 10
491.3927016359557
 20
351.6445799635867
 30
0.0
 10
491.2582170971036
 20
351.3131740360141
 30
0.0
 10
490.8483114487044
 20
350.864488987856
 30
0.0
 10
490.4788654166896
 20
351.1819155130888
 30
0.0
 10
490.4347145540705
 20
351.221165373503
 30
0.0
 10
490.3857814155363
 20
351.2360856971527
 30
0.0
 10
490.3320144834615
 20
351.2268109013703
 30
0.0
  0
POLYLINE
  5
1D4
330
1CB
100
AcDbEntity
  8
Layer 2
 62
    18
420
        0
370
     5
100
AcDb2dPolyline
 66
     1
 10
0.0
 20
0.0
 30
0.0
  0
VERTEX
  5
1D5
330
1D4
100
AcDbEntity
  8
Layer 2
 62
    18
420
        0
370
     5
100
AcDbVertex
100
AcDb2dVertex
 10
493.2090158100818
 20
348.637865913337
 30
0.0
  0
VERTEX
  5
1D6
330
1D4
100
AcDbEntity
  8
Layer 2
 62
    18
420
        0
370
     5
100
AcDbVertex
100
AcDb2dVertex
 10
492.0749367953085
 20
348.1871719853534
 30
0.0
  0
SEQEND
  5
1D7
330
1D4
100
AcDbEntity
  8
Layer 2
 62
    18
420
        0
370
     5
  0
POLYLINE
  5
1D8
330
1CB
100
AcDbEntity
  8
Layer 2
 62
    18
420
        0
370
     5
100
AcDb2dPolyline
 66
     1
 10
0.0
 20
0.0
 30
0.0
  0
VERTEX
  5
1D9
330
1D8
100
AcDbEntity
  8
Layer 2
 62
    18
420
        0
370
     5
100
AcDbVertex
100
AcDb2dVertex
 10
493.2090158100818
 20
349.9512576465768
 30
0.0
  0
VERTEX
  5
1DA
330
1D8
100
AcDbEntity
  8
Layer 2
 62
    18
420
        0
370
     5
100
AcDbVertex
100
AcDb2dVertex
 10
492.0749367953085
 20
349.4996826258202
 30
0.0
  0
SEQEND
  5
1DB
330
1D8
100
AcDbEntity
  8
Layer 2
 62
    18
420
        0
370
     5
  0
POLYLINE
  5
1DC
330
1CB
100
AcDbEntity
  8
Layer 2
 62
    18
420
        0
370
     5
100
AcDb2dPolyline
 66
     1
 10
0.0
 20
0.0
 30
0.0
  0
VERTEX
  5
1DD
330
1DC
100
AcDbEntity
  8
Layer 2
 62
    18
420
        0
370
     5
100
AcDbVertex
100
AcDb2dVertex
 10
492.9080554077973
 20
350.6650136698599
 30
0.0
  0
VERTEX
  5
1DE
330
1DC
100
AcDbEntity
  8
Layer 2
 62
    18
420
        0
370
     5
100
AcDbVertex
100
AcDb2dVertex
 10
491.7741108103546
 20
350.2129009797836
 30
0.0
  0
SEQEND
  5
1DF
330
1DC
100
AcDbEntity
  8
Layer 2
 62
    18
420
        0
370
     5
  0
SPLINE
  5
1E0
330
1CB
100
AcDbEntity
  8
Layer 2
 62
    18
420
        0
370
     5
100
AcDbSpline
210
0.0
220
0.0
230
1.0
 70
     8
 71
     3
 72
    20
 73
    16
 74
     0
 42
0.0000000001
 43
0.0000000001
 12
1.0
 22
0.0
 32
0.0
 13
1.0
 23
0.0
 33
0.0
 40
0.0
 40
0.0
 40
0.0
 40
0.0
 40
1.0
 40
1.0
 40
1.0
 40
2.0
 40
2.0
 40
2.0
 40
3.0
 40
3.0
 40
3.0
 40
4.0
 40
4.0
 40
4.0
 40
5.0
 40
5.0
 40
5.0
 40
5.0
 10
490.8614171383979
 20
351.0634266365314
 30
0.0
 10
490.8682724222344
 20
350.5630581249152
 30
0.0
 10
491.2471276673641
 20
350.1211611519311
 30
0.0
 10
491.7741108103546
 20
350.2129009797836
 30
0.0
 10
491.9413259691046
 20
350.2420023317682
 30
0.0
 10
492.1141194470583
 20
350.1315187156024
 30
0.0
 10
492.1784381395519
 20
349.9790820339249
 30
0.0
 10
492.2443698400075
 20
349.822687470255
 30
0.0
 10
492.2043187506624
 20
349.6129964351658
 30
0.0
 10
492.0749367953085
 20
349.4996826258202
 30
0.0
 10
491.6712815527626
 20
349.1460978387686
 30
0.0
 10
491.7084479445602
 20
348.5490160580848
 30
0.0
 10
492.0749367953085
 20
348.1871719853534
 30
0.0
 10
492.1247384161434
 20
348.1379678623789
 30
0.0
 10
492.1617031819442
 20
348.081579792366
 30
0.0
 10
492.1858310927128
 20
348.0180676038544
 30
0.0
  0
POLYLINE
  5
1E1
330
1CB
100
AcDbEntity
  8
Layer 2
 62
    18
420
        0
370
     5
100
AcDb2dPolyline
 66
     1
 10
0.0
 20
0.0
 30
0.0
  0
VERTEX
  5
1E2
330
1E1
100
AcDbEntity
  8
Layer 2
 62
    18
420
        0
370
     5
100
AcDbVertex
100
AcDb2dVertex
 10
492.3061346032264
 20
348.0658529647344
 30
0.0
  0
VERTEX
  5
1E3
330
1E1
100
AcDbEntity
  8
Layer 2
 62
    18
420
        0
370
     5
100
AcDbVertex
100
AcDb2dVertex
 10
491.3976750771708
 20
347.7049424331863
 30
0.0
  0
SEQEND
  5
1E4
330
1E1
100
AcDbEntity
  8
Layer 2
 62
    18
420
        0
370
     5
  0
POLYLINE
  5
1E5
330
1CB
100
AcDbEntity
  8
Layer 2
 62
    18
420
        0
370
     5
100
AcDb2dPolyline
 66
     1
 10
0.0
 20
0.0
 30
0.0
  0
VERTEX
  5
1E6
330
1E5
100
AcDbEntity
  8
Layer 2
 62
    18
420
        0
370
     5
100
AcDbVertex
100
AcDb2dVertex
 10
490.9183428777305
 20
351.1025420796141
 30
0.0
  0
VERTEX
  5
1E7
330
1E5
100
AcDbEntity
  8
Layer 2
 62
    18
420
        0
370
     5
100
AcDbVertex
100
AcDb2dVertex
 10
490.144373113535
 20
350.7933822201894
 30
0.0
  0
SEQEND
  5
1E8
330
1E5
100
AcDbEntity
  8
Layer 2
 62
    18
420
        0
370
     5
  0
SPLINE
  5
1E9
330
1CB
100
AcDbEntity
  8
Layer 2
 62
    18
420
        0
370
     5
100
AcDbSpline
210
0.0
220
0.0
230
1.0
 70
     8
 71
     3
 72
     8
 73
     4
 74
     0
 42
0.0000000001
 43
0.0000000001
 12
1.0
 22
0.0
 32
0.0
 13
1.0
 23
0.0
 33
0.0
 40
0.0
 40
0.0
 40
0.0
 40
0.0
 40
1.0
 40
1.0
 40
1.0
 40
1.0
 10
484.0574807190806
 20
358.8663526537812
 30
0.0
 10
484.0368476588974
 20
358.5519505184784
 30
0.0
 10
484.1504303029051
 20
358.2703462117406
 30
0.0
 10
484.384047622767
 20
358.0710725197414
 30
0.0
  0
SPLINE
  5
1EA
330
1CB
100
AcDbEntity
  8
Layer 2
 62
    18
420
        0
370
     5
100
AcDbSpline
210
0.0
220
0.0
230
1.0
 70
     8
 71
     3
 72
     8
 73
     4
 74
     0
 42
0.0000000001
 43
0.0000000001
 12
1.0
 22
0.0
 32
0.0
 13
1.0
 23
0.0
 33
0.0
 40
0.0
 40
0.0
 40
0.0
 40
0.0
 40
1.0
 40
1.0
 40
1.0
 40
1.0
 10
492.5404240097414
 20
338.6218257632499
 30
0.0
 10
492.5240250954575
 20
338.3884100693831
 30
0.0
 10
492.6969582782367
 20
338.1384610439054
 30
0.0
 10
492.8688055473831
 20
337.9956497532503
 30
0.0
  0
SPLINE
  5
1EB
330
1CB
100
AcDbEntity
  8
Layer 2
 62
    18
420
        0
370
     5
100
AcDbSpline
210
0.0
220
0.0
230
1.0
 70
     8
 71
     3
 72
    23
 73
    19
 74
     0
 42
0.0000000001
 43
0.0000000001
 12
1.0
 22
0.0
 32
0.0
 13
1.0
 23
0.0
 33
0.0
 40
0.0
 40
0.0
 40
0.0
 40
0.0
 40
1.0
 40
1.0
 40
1.0
 40
2.0
 40
2.0
 40
2.0
 40
3.0
 40
3.0
 40
3.0
 40
4.0
 40
4.0
 40
4.0
 40
5.0
 40
5.0
 40
5.0
 40
6.0
 40
6.0
 40
6.0
 40
6.0
 10
484.0574807190806
 20
338.7718355037377
 30
0.0
 10
484.0428292300912
 20
339.3045313832617
 30
0.0
 10
484.264012946911
 20
339.7753952909025
 30
0.0
 10
484.6858817376979
 20
340.0772294058315
 30
0.0
 10
484.6858817376979
 20
340.0772294058315
 30
0.0
 10
487.2851096514896
 20
341.1019599224983
 30
0.0
 10
487.2851096514896
 20
341.1019599224983
 30
0.0
 10
487.7083898242436
 20
341.404473332861
 30
0.0
 10
487.9304472537096
 20
341.8765397876914
 30
0.0
 10
487.9159973907117
 20
342.4108486751784
 30
0.0
 10
487.4682532638653
 20
342.1846915171391
 30
0.0
 10
487.0114359672316
 20
341.9762774466881
 30
0.0
 10
486.5472929261032
 20
341.7864129678019
 30
0.0
 10
486.5472929261032
 20
341.7864129678019
 30
0.0
 10
483.9486026816321
 20
340.7603382778334
 30
0.0
 10
483.9486026816321
 20
340.7603382778334
 30
0.0
 10
483.4854005618126
 20
340.570809842271
 30
0.0
 10
483.0295913951541
 20
340.3628662324754
 30
0.0
 10
482.5828553982847
 20
340.1372467437586
 30
0.0
  0
SPLINE
  5
1EC
330
1CB
100
AcDbEntity
  8
Layer 2
 62
    18
420
        0
370
     5
100
AcDbSpline
210
0.0
220
0.0
230
1.0
 70
     8
 71
     3
 72
    17
 73
    13
 74
     0
 42
0.0000000001
 43
0.0000000001
 12
1.0
 22
0.0
 32
0.0
 13
1.0
 23
0.0
 33
0.0
 40
0.0
 40
0.0
 40
0.0
 40
0.0
 40
1.0
 40
1.0
 40
1.0
 40
2.0
 40
2.0
 40
2.0
 40
3.0
 40
3.0
 40
3.0
 40
4.0
 40
4.0
 40
4.0
 40
4.0
 10
491.4095710108923
 20
337.2400156089479
 30
0.0
 10
491.3952555652268
 20
337.772106610485
 30
0.0
 10
491.6169150029145
 20
338.2416334737036
 30
0.0
 10
492.0393162028104
 20
338.5417130344613
 30
0.0
 10
492.0393162028104
 20
338.5417130344613
 30
0.0
 10
494.6439208098091
 20
339.561611689468
 30
0.0
 10
494.6439208098091
 20
339.561611689468
 30
0.0
 10
495.0678058605481
 20
339.8623633035304
 30
0.0
 10
495.2902665420061
 20
340.3331671842234
 30
0.0
 10
495.2761527223338
 20
340.8667295946743
 30
0.0
 10
495.5187087946542
 20
340.6733030565392
 30
0.0
 10
495.6294014660616
 20
340.4062158214601
 30
0.0
 10
495.5793982192336
 20
340.1112369903676
 30
0.0
  0
SPLINE
  5
1ED
330
1CB
100
AcDbEntity
  8
Layer 2
 62
    18
420
        0
370
     5
100
AcDbSpline
210
0.0
220
0.0
230
1.0
 70
     8
 71
     3
 72
    23
 73
    19
 74
     0
 42
0.0000000001
 43
0.0000000001
 12
1.0
 22
0.0
 32
0.0
 13
1.0
 23
0.0
 33
0.0
 40
0.0
 40
0.0
 40
0.0
 40
0.0
 40
1.0
 40
1.0
 40
1.0
 40
2.0
 40
2.0
 40
2.0
 40
3.0
 40
3.0
 40
3.0
 40
4.0
 40
4.0
 40
4.0
 40
5.0
 40
5.0
 40
5.0
 40
6.0
 40
6.0
 40
6.0
 40
6.0
 10
478.8902097121008
 20
350.9718212260086
 30
0.0
 10
479.2662421932946
 20
350.6108434857952
 30
0.0
 10
479.7541098932015
 20
350.4520294101821
 30
0.0
 10
480.2570323340897
 20
350.5377204581764
 30
0.0
 10
480.2570323340897
 20
350.5377204581764
 30
0.0
 10
482.8529670232911
 20
351.5805375716036
 30
0.0
 10
482.8529670232911
 20
351.5805375716036
 30
0.0
 10
483.3570320114868
 20
351.6666916144004
 30
0.0
 10
483.8459078413689
 20
351.5076759127915
 30
0.0
 10
484.2227468265428
 20
351.1457572512682
 30
0.0
 10
483.7739273610568
 20
350.9204738058779
 30
0.0
 10
483.3168412297618
 20
350.71145485744
 30
0.0
 10
482.8529670232911
 20
350.5193127229813
 30
0.0
 10
482.8529670232911
 20
350.5193127229813
 30
0.0
 10
480.2570323340897
 20
349.4781758529916
 30
0.0
 10
480.2570323340897
 20
349.4781758529916
 30
0.0
 10
479.7940990489315
 20
349.2864967401474
 30
0.0
 10
479.3380210476134
 20
349.0778810436977
 30
0.0
 10
478.8902097121008
 20
348.8530680589638
 30
0.0
  0
SPLINE
  5
1EE
330
1CB
100
AcDbEntity
  8
Layer 2
 62
    18
420
        0
370
     5
100
AcDbSpline
210
0.0
220
0.0
230
1.0
 70
     8
 71
     3
 72
    11
 73
     7
 74
     0
 42
0.0000000001
 43
0.0000000001
 12
1.0
 22
0.0
 32
0.0
 13
1.0
 23
0.0
 33
0.0
 40
0.0
 40
0.0
 40
0.0
 40
0.0
 40
1.0
 40
1.0
 40
1.0
 40
2.0
 40
2.0
 40
2.0
 40
2.0
 10
499.2413967541343
 20
347.2559213417044
 30
0.0
 10
499.3697653044619
 20
347.5133977376727
 30
0.0
 10
499.1419951384632
 20
347.8606649102067
 30
0.0
 10
498.9431246984532
 20
348.0198822378097
 30
0.0
 10
499.0579843070973
 20
348.078353776441
 30
0.0
 10
499.1704244037956
 20
348.1377662363839
 30
0.0
 10
499.2761436339879
 20
348.2106950187299
 30
0.0
  0
SPLINE
  5
1EF
330
1CB
100
AcDbEntity
  8
Layer 2
 62
    18
420
        0
370
     5
100
AcDbSpline
210
0.0
220
0.0
230
1.0
 70
     8
 71
     3
 72
    14
 73
    10
 74
     0
 42
0.0000000001
 43
0.0000000001
 12
1.0
 22
0.0
 32
0.0
 13
1.0
 23
0.0
 33
0.0
 40
0.0
 40
0.0
 40
0.0
 40
0.0
 40
1.0
 40
1.0
 40
1.0
 40
2.0
 40
2.0
 40
2.0
 40
3.0
 40
3.0
 40
3.0
 40
3.0
 10
495.6125320911233
 20
356.9238878152755
 30
0.0
 10
495.5649483562374
 20
356.8441111298107
 30
0.0
 10
495.3648009515928
 20
356.7709881021892
 30
0.0
 10
495.2828735888452
 20
356.7337545017281
 30
0.0
 10
495.2828735888452
 20
356.7337545017281
 30
0.0
 10
495.2761527223338
 20
356.7303268598089
 30
0.0
 10
495.2761527223338
 20
356.7303268598089
 30
0.0
 10
495.3030361883721
 20
357.0841804815209
 30
0.0
 10
495.1627717043229
 20
357.3792265212769
 30
0.0
 10
494.8704140111713
 20
357.5544395111738
 30
0.0
  0
SPLINE
  5
1F0
330
1CB
100
AcDbEntity
  8
Layer 2
 62
    18
420
        0
370
     5
100
AcDbSpline
210
0.0
220
0.0
230
1.0
 70
     8
 71
     3
 72
    17
 73
    13
 74
     0
 42
0.0000000001
 43
0.0000000001
 12
1.0
 22
0.0
 32
0.0
 13
1.0
 23
0.0
 33
0.0
 40
0.0
 40
0.0
 40
0.0
 40
0.0
 40
1.0
 40
1.0
 40
1.0
 40
2.0
 40
2.0
 40
2.0
 40
3.0
 40
3.0
 40
3.0
 40
4.0
 40
4.0
 40
4.0
 40
4.0
 10
482.5828553982847
 20
358.1250410778102
 30
0.0
 10
482.9584224603022
 20
357.7635256682779
 30
0.0
 10
483.4459490754034
 20
357.6052492619856
 30
0.0
 10
483.9486026816321
 20
357.6924937295253
 30
0.0
 10
483.9486026816321
 20
357.6924937295253
 30
0.0
 10
486.5472929261032
 20
358.7453770566162
 30
0.0
 10
486.5472929261032
 20
358.7453770566162
 30
0.0
 10
487.0510890796359
 20
358.8332187818905
 30
0.0
 10
487.5396288661959
 20
358.6746063322744
 30
0.0
 10
487.9159973907117
 20
358.3121576373342
 30
0.0
 10
487.9377729982043
 20
358.5953673161275
 30
0.0
 10
487.823854310871
 20
359.0667016844227
 30
0.0
 10
487.5035378130397
 20
359.1394963255243
 30
0.0
  0
POLYLINE
  5
1F1
330
1CB
100
AcDbEntity
  8
Layer 2
 62
    18
420
        0
370
     5
100
AcDb2dPolyline
 66
     1
 10
0.0
 20
0.0
 30
0.0
  0
VERTEX
  5
1F2
330
1F1
100
AcDbEntity
  8
Layer 2
 62
    18
420
        0
370
     5
100
AcDbVertex
100
AcDb2dVertex
 10
495.2761527223338
 20
356.7303268598089
 30
0.0
  0
VERTEX
  5
1F3
330
1F1
100
AcDbEntity
  8
Layer 2
 62
    18
420
        0
370
     5
100
AcDbVertex
100
AcDb2dVertex
 10
487.9159973907117
 20
358.3121576373342
 30
0.0
  0
VERTEX
  5
1F4
330
1F1
100
AcDbEntity
  8
Layer 2
 62
    18
420
        0
370
     5
100
AcDbVertex
100
AcDb2dVertex
 10
484.2227468265428
 20
351.1457572512682
 30
0.0
  0
VERTEX
  5
1F5
330
1F1
100
AcDbEntity
  8
Layer 2
 62
    18
420
        0
370
     5
100
AcDbVertex
100
AcDb2dVertex
 10
487.9159973907117
 20
342.4108486751784
 30
0.0
  0
VERTEX
  5
1F6
330
1F1
100
AcDbEntity
  8
Layer 2
 62
    18
420
        0
370
     5
100
AcDbVertex
100
AcDb2dVertex
 10
495.2761527223338
 20
340.8667295946743
 30
0.0
  0
VERTEX
  5
1F7
330
1F1
100
AcDbEntity
  8
Layer 2
 62
    18
420
        0
370
     5
100
AcDbVertex
100
AcDb2dVertex
 10
498.9431246984532
 20
348.0198822378097
 30
0.0
  0
VERTEX
  5
1F8
330
1F1
100
AcDbEntity
  8
Layer 2
 62
    18
420
        0
370
     5
100
AcDbVertex
100
AcDb2dVertex
 10
495.2761527223338
 20
356.7303268598089
 30
0.0
  0
SEQEND
  5
1F9
330
1F1
100
AcDbEntity
  8
Layer 2
 62
    18
420
        0
370
     5
  0
SPLINE
  5
1FA
330
1CB
100
AcDbEntity
  8
Layer 2
 62
    18
420
        0
370
     5
100
AcDbSpline
210
0.0
220
0.0
230
1.0
 70
     8
 71
     3
 72
    29
 73
    25
 74
     0
 42
0.0000000001
 43
0.0000000001
 12
1.0
 22
0.0
 32
0.0
 13
1.0
 23
0.0
 33
0.0
 40
0.0
 40
0.0
 40
0.0
 40
0.0
 40
1.0
 40
1.0
 40
1.0
 40
2.0
 40
2.0
 40
2.0
 40
3.0
 40
3.0
 40
3.0
 40
4.0
 40
4.0
 40
4.0
 40
5.0
 40
5.0
 40
5.0
 40
6.0
 40
6.0
 40
6.0
 40
7.0
 40
7.0
 40
7.0
 40
8.0
 40
8.0
 40
8.0
 40
8.0
 10
486.9002107675606
 20
359.085057305424
 30
0.0
 10
486.7448191928088
 20
359.0149510123019
 30
0.0
 10
486.6257926469298
 20
358.8964621357436
 30
0.0
 10
486.5472929261032
 20
358.7453770566162
 30
0.0
 10
486.5472929261032
 20
358.7453770566162
 30
0.0
 10
482.8529670232911
 20
351.5805375716036
 30
0.0
 10
482.8529670232911
 20
351.5805375716036
 30
0.0
 10
482.7039654127802
 20
351.2381019571067
 30
0.0
 10
482.7047047080978
 20
350.8646234051857
 30
0.0
 10
482.8529670232911
 20
350.5193127229813
 30
0.0
 10
482.8529670232911
 20
350.5193127229813
 30
0.0
 10
486.5472929261032
 20
341.7864129678019
 30
0.0
 10
486.5472929261032
 20
341.7864129678019
 30
0.0
 10
486.6819118822841
 20
341.4511089376547
 30
0.0
 10
486.9430175461675
 20
341.2068054400424
 30
0.0
 10
487.2851096514896
 20
341.1019599224983
 30
0.0
 10
487.2851096514896
 20
341.1019599224983
 30
0.0
 10
494.6439208098091
 20
339.561611689468
 30
0.0
 10
494.6439208098091
 20
339.561611689468
 30
0.0
 10
494.6439208098091
 20
339.561611689468
 30
0.0
 10
494.6519186409532
 20
339.5599915192788
 30
0.0
 10
494.6519186409532
 20
339.5599915192788
 30
0.0
 10
494.7722893601367
 20
339.5357963998449
 30
0.0
 10
494.8971630598789
 20
339.5453400302877
 30
0.0
 10
495.0118210425244
 20
339.5893617059237
 30
0.0
  0
SPLINE
  5
1FB
330
1CB
100
AcDbEntity
  8
Layer 2
 62
    18
420
        0
370
     5
100
AcDbSpline
210
0.0
220
0.0
230
1.0
 70
     8
 71
     3
 72
    38
 73
    34
 74
     0
 42
0.0000000001
 43
0.0000000001
 12
1.0
 22
0.0
 32
0.0
 13
1.0
 23
0.0
 33
0.0
 40
0.0
 40
0.0
 40
0.0
 40
0.0
 40
1.0
 40
1.0
 40
1.0
 40
2.0
 40
2.0
 40
2.0
 40
3.0
 40
3.0
 40
3.0
 40
4.0
 40
4.0
 40
4.0
 40
5.0
 40
5.0
 40
5.0
 40
6.0
 40
6.0
 40
6.0
 40
7.0
 40
7.0
 40
7.0
 40
8.0
 40
8.0
 40
8.0
 40
9.0
 40
9.0
 40
9.0
 40
10.0
 40
10.0
 40
10.0
 40
11.0
 40
11.0
 40
11.0
 40
11.0
 10
485.6054306934948
 20
358.5603516016163
 30
0.0
 10
485.6054306934948
 20
358.5603516016163
 30
0.0
 10
484.306018362593
 20
358.0337045019487
 30
0.0
 10
484.306018362593
 20
358.0337045019487
 30
0.0
 10
484.1514384328802
 20
357.9703267307668
 30
0.0
 10
484.0266991504686
 20
357.8456546570196
 30
0.0
 10
483.9512238195693
 20
357.6975267591561
 30
0.0
 10
483.9512238195693
 20
357.6975267591561
 30
0.0
 10
483.9486026816321
 20
357.6924937295253
 30
0.0
 10
483.9486026816321
 20
357.6924937295253
 30
0.0
 10
483.9486026816321
 20
357.6924937295253
 30
0.0
 10
480.2570323340897
 20
350.5377204581764
 30
0.0
 10
480.2570323340897
 20
350.5377204581764
 30
0.0
 10
480.1082323495739
 20
350.1958299788494
 30
0.0
 10
480.1089716448914
 20
349.8229563049135
 30
0.0
 10
480.2570323340897
 20
349.4781758529916
 30
0.0
 10
480.2570323340897
 20
349.4781758529916
 30
0.0
 10
483.9486026816321
 20
340.7603382778334
 30
0.0
 10
483.9486026816321
 20
340.7603382778334
 30
0.0
 10
484.0832216378112
 20
340.4256391256722
 30
0.0
 10
484.3443273016965
 20
340.1816044627203
 30
0.0
 10
484.6858817376979
 20
340.0772294058315
 30
0.0
 10
484.6858817376979
 20
340.0772294058315
 30
0.0
 10
492.0393162028104
 20
338.5417130344613
 30
0.0
 10
492.0393162028104
 20
338.5417130344613
 30
0.0
 10
492.1605606346366
 20
338.5171146630364
 30
0.0
 10
492.283283657096
 20
338.524440407532
 30
0.0
 10
492.399689065036
 20
338.5667818665397
 30
0.0
 10
492.399689065036
 20
338.5667818665397
 30
0.0
 10
492.4068803922019
 20
338.5695374218094
 30
0.0
 10
492.4068803922019
 20
338.5695374218094
 30
0.0
 10
492.4068803922019
 20
338.5695374218094
 30
0.0
 10
493.3660152517386
 20
338.9450322336797
 30
0.0
 10
493.3660152517386
 20
338.9450322336797
 30
0.0
  0
SPLINE
  5
1FC
330
1CB
100
AcDbEntity
  8
Layer 2
 62
    18
420
        0
370
    13
100
AcDbSpline
210
0.0
220
0.0
230
1.0
 70
    11
 71
     3
 72
    17
 73
    13
 74
     0
 42
0.0000000001
 43
0.0000000001
 12
1.0
 22
0.0
 32
0.0
 13
1.0
 23
0.0
 33
0.0
 40
0.0
 40
0.0
 40
0.0
 40
0.0
 40
1.0
 40
1.0
 40
1.0
 40
2.0
 40
2.0
 40
2.0
 40
3.0
 40
3.0
 40
3.0
 40
4.0
 40
4.0
 40
4.0
 40
4.0
 10
496.7901623208763
 20
351.5119100586944
 30
0.0
 10
498.1238510709736
 20
347.8981001366628
 30
0.0
 10
496.9791530871171
 20
344.1469829118496
 30
0.0
 10
494.2334102834229
 20
343.1336106595827
 30
0.0
 10
491.4876002710644
 20
342.1202456341798
 30
0.0
 10
488.1804634878517
 20
344.2283053966112
 30
0.0
 10
486.8467075290901
 20
347.84211531864
 30
0.0
 10
485.513023885007
 20
351.4559252406707
 30
0.0
 10
486.6577167628493
 20
355.2070424654839
 30
0.0
 10
489.4034595665435
 20
356.2204147177517
 30
0.0
 10
492.149269578902
 20
357.2337869700168
 30
0.0
 10
495.4564063621128
 20
355.1257199807224
 30
0.0
 10
496.7901623208763
 20
351.5119100586944
 30
0.0
  0
SPLINE
  5
1FD
330
1CB
100
AcDbEntity
  8
Layer 2
 62
    18
420
        0
370
     5
100
AcDbSpline
210
0.0
220
0.0
230
1.0
 70
    11
 71
     3
 72
    17
 73
    13
 74
     0
 42
0.0000000001
 43
0.0000000001
 12
1.0
 22
0.0
 32
0.0
 13
1.0
 23
0.0
 33
0.0
 40
0.0
 40
0.0
 40
0.0
 40
0.0
 40
1.0
 40
1.0
 40
1.0
 40
2.0
 40
2.0
 40
2.0
 40
3.0
 40
3.0
 40
3.0
 40
4.0
 40
4.0
 40
4.0
 40
4.0
 10
493.428116058285
 20
350.2711036837527
 30
0.0
 10
493.8762634371215
 20
349.0568521336209
 30
0.0
 10
493.5187133388281
 20
347.8064275174756
 30
0.0
 10
492.6294082823224
 20
347.4782476058281
 30
0.0
 10
491.7401704344848
 20
347.150000485517
 30
0.0
 10
490.6559602492089
 20
347.8683266980279
 30
0.0
 10
490.2078128703706
 20
349.0825856502561
 30
0.0
 10
489.7596654915324
 20
350.2968520359045
 30
0.0
 10
490.1172827984901
 20
351.5472618165322
 30
0.0
 10
491.0065206463332
 20
351.8755089368433
 30
0.0
 10
491.8958309700938
 20
352.2036888484918
 30
0.0
 10
492.9799686794468
 20
351.4853626359818
 30
0.0
 10
493.428116058285
 20
350.2711036837527
 30
0.0
  0
MTEXT
  5
1FE
330
1CB
100
AcDbEntity
  8
Layer 2
 62
    18
420
        0
100
AcDbMText
 10
490.3495215387084
 20
353.2633733314869
 30
0.0
 40
1.205689283191005
 41
0.0
 46
0.0
 71
     7
 72
     1
  1
\fHelvetica Neue LT Std 77 Condensed|b1|i0|c0|p34;\W0.832371;WS22
 11
0.9751990169949105
 21
-0.2213297929610024
 31
0.0
 73
     1
 44
1.0
  0
MTEXT
  5
1FF
330
1CB
100
AcDbEntity
  8
Layer 2
 62
    18
420
        0
100
AcDbMText
 10
491.0123527464457
 20
345.1866685645364
 30
0.0
 40
1.39018891557848
 41
0.0
 46
0.0
 71
     7
 72
     1
  1
\fHelvetica Neue LT Std 77 Condensed|b1|i0|c0|p34;\W0.832371;3.5
 11
0.9751990169949105
 21
-0.2213297929610024
 31
0.0
 73
     1
 44
1.0
  0
INSERT
  5
201
330
1CB
100
AcDbEntity
  8
Layer 2
100
AcDbBlockReference
  2
block 28
 10
0.0
 20
0.0
 30
0.0
  0
ENDBLK
  5
1CE
330
1CB
100
AcDbEntity
  8
0
100
AcDbBlockEnd
  0
BLOCK
  5
202
330
200
100
AcDbEntity
  8
0
100
AcDbBlockBegin
  2
block 28
 70
     0
 10
0.0
 20
0.0
 30
0.0
  3
block 28
  1

  0
INSERT
  5
205
330
200
100
AcDbEntity
  8
Layer 2
100
AcDbBlockReference
  2
block 29
 10
0.0
 20
0.0
 30
0.0
  0
INSERT
  5
217
330
200
100
AcDbEntity
  8
Layer 2
100
AcDbBlockReference
  2
block 30
 10
0.0
 20
0.0
 30
0.0
  0
ENDBLK
  5
203
330
200
100
AcDbEntity
  8
0
100
AcDbBlockEnd
  0
BLOCK
  5
206
330
204
100
AcDbEntity
  8
0
100
AcDbBlockBegin
  2
block 29
 70
     0
 10
0.0
 20
0.0
 30
0.0
  3
block 29
  1

  0
POLYLINE
  5
208
330
204
100
AcDbEntity
  8
Layer 2
370
     0
100
AcDb2dPolyline
 66
     1
 10
0.0
 20
0.0
 30
0.0
  0
VERTEX
  5
209
330
208
100
AcDbEntity
  8
Layer 2
370
     0
100
AcDbVertex
100
AcDb2dVertex
 10
496.2961114237805
 20
348.8253780889463
 30
0.0
  0
VERTEX
  5
20A
330
208
100
AcDbEntity
  8
Layer 2
370
     0
100
AcDbVertex
100
AcDb2dVertex
 10
494.5094362709588
 20
349.2611664806645
 30
0.0
  0
VERTEX
  5
20B
330
208
100
AcDbEntity
  8
Layer 2
370
     0
100
AcDbVertex
100
AcDb2dVertex
 10
494.5094362709588
 20
349.5291200211304
 30
0.0
  0
VERTEX
  5
20C
330
208
100
AcDbEntity
  8
Layer 2
370
     0
100
AcDbVertex
100
AcDb2dVertex
 10
496.2961114237805
 20
349.093339036669
 30
0.0
  0
VERTEX
  5
20D
330
208
100
AcDbEntity
  8
Layer 2
370
     0
100
AcDbVertex
100
AcDb2dVertex
 10
496.2961114237805
 20
348.8253780889463
 30
0.0
  0
SEQEND
  5
20E
330
208
100
AcDbEntity
  8
Layer 2
370
     0
  0
POLYLINE
  5
20F
330
204
100
AcDbEntity
  8
Layer 2
370
     0
100
AcDb2dPolyline
 66
     1
 10
0.0
 20
0.0
 30
0.0
  0
VERTEX
  5
210
330
20F
100
AcDbEntity
  8
Layer 2
370
     0
100
AcDbVertex
100
AcDb2dVertex
 10
496.2961114237805
 20
348.2774930511114
 30
0.0
  0
VERTEX
  5
211
330
20F
100
AcDbEntity
  8
Layer 2
370
     0
100
AcDbVertex
100
AcDb2dVertex
 10
494.5094362709588
 20
348.713274035571
 30
0.0
  0
VERTEX
  5
212
330
20F
100
AcDbEntity
  8
Layer 2
370
     0
100
AcDbVertex
100
AcDb2dVertex
 10
494.5094362709588
 20
348.9812349832964
 30
0.0
  0
VERTEX
  5
213
330
20F
100
AcDbEntity
  8
Layer 2
370
     0
100
AcDbVertex
100
AcDb2dVertex
 10
496.2961114237805
 20
348.545453998835
 30
0.0
  0
VERTEX
  5
214
330
20F
100
AcDbEntity
  8
Layer 2
370
     0
100
AcDbVertex
100
AcDb2dVertex
 10
496.2961114237805
 20
348.2774930511114
 30
0.0
  0
SEQEND
  5
215
330
20F
100
AcDbEntity
  8
Layer 2
370
     0
  0
ENDBLK
  5
207
330
204
100
AcDbEntity
  8
0
100
AcDbBlockEnd
  0
BLOCK
  5
218
330
216
100
AcDbEntity
  8
0
100
AcDbBlockBegin
  2
block 30
 70
     0
 10
0.0
 20
0.0
 30
0.0
  3
block 30
  1

  0
POLYLINE
  5
21A
330
216
100
AcDbEntity
  8
Layer 2
370
     0
100
AcDb2dPolyline
 66
     1
 10
0.0
 20
0.0
 30
0.0
  0
VERTEX
  5
21B
330
21A
100
AcDbEntity
  8
Layer 2
370
     0
100
AcDbVertex
100
AcDb2dVertex
 10
494.8668519519197
 20
348.0130269539713
 30
0.0
  0
VERTEX
  5
21C
330
21A
100
AcDbEntity
  8
Layer 2
370
     0
100
AcDbVertex
100
AcDb2dVertex
 10
494.7864757287516
 20
348.1036242345153
 30
0.0
  0
VERTEX
  5
21D
330
21A
100
AcDbEntity
  8
Layer 2
370
     0
100
AcDbVertex
100
AcDb2dVertex
 10
496.0162545423336
 20
349.7746406949427
 30
0.0
  0
VERTEX
  5
21E
330
21A
100
AcDbEntity
  8
Layer 2
370
     0
100
AcDbVertex
100
AcDb2dVertex
 10
496.0966361057872
 20
349.6840359941698
 30
0.0
  0
VERTEX
  5
21F
330
21A
100
AcDbEntity
  8
Layer 2
370
     0
100
AcDbVertex
100
AcDb2dVertex
 10
494.8668519519197
 20
348.0130269539713
 30
0.0
  0
SEQEND
  5
220
330
21A
100
AcDbEntity
  8
Layer 2
370
     0
  0
ENDBLK
  5
219
330
216
100
AcDbEntity
  8
0
100
AcDbBlockEnd
  0
BLOCK
  5
223
330
221
100
AcDbEntity
  8
0
100
AcDbBlockBegin
  2
block 31
 70
     0
 10
0.0
 20
0.0
 30
0.0
  3
block 31
  1

  0
INSERT
  5
226
330
221
100
AcDbEntity
  8
Layer 2
100
AcDbBlockReference
  2
block 32
 10
0.0
 20
0.0
 30
0.0
  0
INSERT
  5
22D
330
221
100
AcDbEntity
  8
Layer 2
100
AcDbBlockReference
  2
block 33
 10
0.0
 20
0.0
 30
0.0
  0
ENDBLK
  5
224
330
221
100
AcDbEntity
  8
0
100
AcDbBlockEnd
  0
BLOCK
  5
227
330
225
100
AcDbEntity
  8
0
100
AcDbBlockBegin
  2
block 32
 70
     0
 10
0.0
 20
0.0
 30
0.0
  3
block 32
  1

  0
SPLINE
  5
229
330
225
100
AcDbEntity
  8
Layer 2
 62
    18
420
        0
370
     9
100
AcDbSpline
210
0.0
220
0.0
230
1.0
 70
    11
 71
     3
 72
    23
 73
    19
 74
     0
 42
0.0000000001
 43
0.0000000001
 12
1.0
 22
0.0
 32
0.0
 13
1.0
 23
0.0
 33
0.0
 40
0.0
 40
0.0
 40
0.0
 40
0.0
 40
1.0
 40
1.0
 40
1.0
 40
2.0
 40
2.0
 40
2.0
 40
3.0
 40
3.0
 40
3.0
 40
4.0
 40
4.0
 40
4.0
 40
5.0
 40
5.0
 40
5.0
 40
6.0
 40
6.0
 40
6.0
 40
6.0
 10
419.7777906311294
 20
438.7833812269437
 30
0.0
 10
414.7066030587175
 20
438.2177957484846
 30
0.0
 10
409.3186876183699
 20
442.58223638053
 30
0.0
 10
407.2512882220663
 20
449.2377860855704
 30
0.0
 10
405.0870240500853
 20
456.2052932251172
 30
0.0
 10
407.3439450168416
 20
463.165500155932
 30
0.0
 10
412.2989074839033
 20
465.259648151763
 30
0.0
 10
412.2989074839033
 20
465.259648151763
 30
0.0
 10
414.5723804090694
 20
466.0902818026834
 30
0.0
 10
414.5723804090694
 20
466.0902818026834
 30
0.0
 10
420.0301899270753
 20
467.7855926521706
 30
0.0
 10
426.2929016672024
 20
463.2418270907883
 30
0.0
 10
428.5605922488248
 20
455.9414738006599
 30
0.0
 10
430.6125291367389
 20
449.3355799708543
 30
0.0
 10
428.6902613029251
 20
442.7361189982475
 30
0.0
 10
424.2623594504221
 20
440.2842607745715
 30
0.0
 10
424.2623594504221
 20
440.2842607745715
 30
0.0
 10
419.7777906311294
 20
438.7833812269437
 30
0.0
 10
419.7777906311294
 20
438.7833812269437
 30
0.0
  0
HATCH
  5
22A
330
225
100
AcDbEntity
  8
Layer 2
 62
   250
420
  2301728
100
AcDbHatch
 10
0.0
 20
0.0
 30
0.0
210
0.0
220
0.0
230
1.0
  2
SOLID
 70
     1
 71
     0
 91
        1
 92
        1
 93
        1
 72
     4
 94
        3
 73
     0
 74
     1
 95
       23
 96
       19
 40
0.0
 40
0.0
 40
0.0
 40
0.0
 40
1.0
 40
1.0
 40
1.0
 40
2.0
 40
2.0
 40
2.0
 40
3.0
 40
3.0
 40
3.0
 40
4.0
 40
4.0
 40
4.0
 40
5.0
 40
5.0
 40
5.0
 40
6.0
 40
6.0
 40
6.0
 40
6.0
 10
419.7777906311294
 20
438.7833812269437
 10
414.7066030587175
 20
438.2177957484846
 10
409.3186876183699
 20
442.58223638053
 10
407.2512882220663
 20
449.2377860855704
 10
405.0870240500853
 20
456.2052932251172
 10
407.3439450168416
 20
463.165500155932
 10
412.2989074839033
 20
465.259648151763
 10
412.2989074839033
 20
465.259648151763
 10
414.5723804090694
 20
466.0902818026834
 10
414.5723804090694
 20
466.0902818026834
 10
420.0301899270753
 20
467.7855926521706
 10
426.2929016672024
 20
463.2418270907883
 10
428.5605922488248
 20
455.9414738006599
 10
430.6125291367389
 20
449.3355799708543
 10
428.6902613029251
 20
442.7361189982475
 10
424.2623594504221
 20
440.2842607745715
 10
424.2623594504221
 20
440.2842607745715
 10
419.7777906311294
 20
438.7833812269437
 10
419.7777906311294
 20
438.7833812269437
 97
        0
 97
        0
 75
     2
 76
     1
 98
        0
  0
SPLINE
  5
22B
330
225
100
AcDbEntity
  8
Layer 2
 62
    18
420
        0
370
     5
100
AcDbSpline
210
0.0
220
0.0
230
1.0
 70
     8
 71
     3
 72
    14
 73
    10
 74
     0
 42
0.0000000001
 43
0.0000000001
 12
1.0
 22
0.0
 32
0.0
 13
1.0
 23
0.0
 33
0.0
 40
0.0
 40
0.0
 40
0.0
 40
0.0
 40
1.0
 40
1.0
 40
1.0
 40
2.0
 40
2.0
 40
2.0
 40
3.0
 40
3.0
 40
3.0
 40
3.0
 10
424.2623594504221
 20
440.2842607745715
 30
0.0
 10
423.7968085153734
 20
440.0264405315465
 30
0.0
 10
423.3035746105797
 20
439.8145176404514
 30
0.0
 10
422.7843924391091
 20
439.6532625347072
 30
0.0
 10
417.3265829211014
 20
437.9579516852182
 30
0.0
 10
411.0638711809715
 20
442.5017172466014
 30
0.0
 10
408.7961805993573
 20
449.8021428160237
 30
0.0
 10
406.5284952600896
 20
457.102496106153
 30
0.0
 10
409.1145708910644
 20
464.3949709531944
 30
0.0
 10
414.5723804090694
 20
466.0902818026834
 30
0.0
  0
ENDBLK
  5
228
330
225
100
AcDbEntity
  8
0
100
AcDbBlockEnd
  0
BLOCK
  5
22E
330
22C
100
AcDbEntity
  8
0
100
AcDbBlockBegin
  2
block 33
 70
     0
 10
0.0
 20
0.0
 30
0.0
  3
block 33
  1

  0
SPLINE
  5
230
330
22C
100
AcDbEntity
  8
Layer 2
 62
    18
420
        0
370
     9
100
AcDbSpline
210
0.0
220
0.0
230
1.0
 70
    11
 71
     3
 72
    65
 73
    61
 74
     0
 42
0.0000000001
 43
0.0000000001
 12
1.0
 22
0.0
 32
0.0
 13
1.0
 23
0.0
 33
0.0
 40
0.0
 40
0.0
 40
0.0
 40
0.0
 40
1.0
 40
1.0
 40
1.0
 40
2.0
 40
2.0
 40
2.0
 40
3.0
 40
3.0
 40
3.0
 40
4.0
 40
4.0
 40
4.0
 40
5.0
 40
5.0
 40
5.0
 40
6.0
 40
6.0
 40
6.0
 40
7.0
 40
7.0
 40
7.0
 40
8.0
 40
8.0
 40
8.0
 40
9.0
 40
9.0
 40
9.0
 40
10.0
 40
10.0
 40
10.0
 40
11.0
 40
11.0
 40
11.0
 40
12.0
 40
12.0
 40
12.0
 40
13.0
 40
13.0
 40
13.0
 40
14.0
 40
14.0
 40
14.0
 40
15.0
 40
15.0
 40
15.0
 40
16.0
 40
16.0
 40
16.0
 40
17.0
 40
17.0
 40
17.0
 40
18.0
 40
18.0
 40
18.0
 40
19.0
 40
19.0
 40
19.0
 40
20.0
 40
20.0
 40
20.0
 40
20.0
 10
409.2584066868631
 20
453.7834309086047
 30
0.0
 10
409.2584066868631
 20
453.7834309086047
 30
0.0
 10
413.229647957527
 20
444.4100351766019
 30
0.0
 10
413.229647957527
 20
444.4100351766019
 30
0.0
 10
413.5200715812853
 20
443.6878204672394
 30
0.0
 10
414.0788573871014
 20
443.1665421962316
 30
0.0
 10
414.8155279553357
 20
442.9416090321474
 30
0.0
 10
414.8155279553357
 20
442.9416090321474
 30
0.0
 10
422.7223045252431
 20
441.2942193548288
 30
0.0
 10
422.7223045252431
 20
441.2942193548288
 30
0.0
 10
423.4086020940777
 20
441.1967868660149
 30
0.0
 10
423.9691223531554
 20
441.4857594849127
 30
0.0
 10
424.2991496112554
 20
442.0998443698954
 30
0.0
 10
424.2991496112554
 20
442.0998443698954
 30
0.0
 10
424.8263547844017
 20
443.1278727737426
 30
0.0
 10
424.8263547844017
 20
443.1278727737426
 30
0.0
 10
424.8263547844017
 20
443.1278727737426
 30
0.0
 10
426.5963301449756
 20
443.8208143688844
 30
0.0
 10
426.5963301449756
 20
443.8208143688844
 30
0.0
 10
426.5963301449756
 20
443.8208143688844
 30
0.0
 10
426.6044254259468
 20
443.8240669371307
 30
0.0
 10
426.6044254259468
 20
443.8240669371307
 30
0.0
 10
426.8638358134467
 20
443.9328472751604
 30
0.0
 10
427.0739517221864
 20
444.1251101981888
 30
0.0
 10
427.2034039384034
 20
444.3754133945977
 30
0.0
 10
427.2034039384034
 20
444.3754133945977
 30
0.0
 10
431.1450106983757
 20
452.0657857571559
 30
0.0
 10
431.1450106983757
 20
452.0657857571559
 30
0.0
 10
431.3051816147017
 20
452.3949456637247
 30
0.0
 10
431.3190592392239
 20
452.7579402091724
 30
0.0
 10
431.1843306345145
 20
453.0982954772562
 30
0.0
 10
431.1843306345145
 20
453.0982954772562
 30
0.0
 10
427.2423624780713
 20
462.463162252523
 30
0.0
 10
427.2423624780713
 20
462.463162252523
 30
0.0
 10
427.0886244189423
 20
462.8098219313752
 30
0.0
 10
426.802837843521
 20
463.0517325465917
 30
0.0
 10
426.4360869493539
 20
463.1430935746757
 30
0.0
 10
426.4360869493539
 20
463.1430935746757
 30
0.0
 10
418.521576494948
 20
464.8459297052596
 30
0.0
 10
418.521576494948
 20
464.8459297052596
 30
0.0
 10
418.521576494948
 20
464.8459297052596
 30
0.0
 10
418.5148545205748
 20
464.8473752911859
 30
0.0
 10
418.5148545205748
 20
464.8473752911859
 30
0.0
 10
418.3009800885284
 20
464.8904455161119
 30
0.0
 10
418.0803114028095
 20
464.8707855480434
 30
0.0
 10
417.8777903490382
 20
464.7894713418764
 30
0.0
 10
417.8777903490382
 20
464.7894713418764
 30
0.0
 10
416.4342950320843
 20
464.2044427332303
 30
0.0
 10
416.4342950320843
 20
464.2044427332303
 30
0.0
 10
416.4342950320843
 20
464.2044427332303
 30
0.0
 10
414.8155279553357
 20
464.5521784184521
 30
0.0
 10
414.8155279553357
 20
464.5521784184521
 30
0.0
 10
414.127429072917
 20
464.6554655301106
 30
0.0
 10
413.5635782975241
 20
464.3696091433194
 30
0.0
 10
413.229647957527
 20
463.7549378015328
 30
0.0
 10
413.229647957527
 20
463.7549378015328
 30
0.0
 10
409.2584066868631
 20
456.0620356636728
 30
0.0
 10
409.2584066868631
 20
456.0620356636728
 30
0.0
 10
408.9382094127959
 20
455.3268106813221
 30
0.0
 10
408.9397995572745
 20
454.5248719102692
 30
0.0
 10
409.2584066868631
 20
453.7834309086047
 30
0.0
  0
HATCH
  5
231
330
22C
100
AcDbEntity
  8
Layer 2
 62
   250
420
  2301728
100
AcDbHatch
 10
0.0
 20
0.0
 30
0.0
210
0.0
220
0.0
230
1.0
  2
SOLID
 70
     1
 71
     0
 91
        1
 92
        1
 93
        1
 72
     4
 94
        3
 73
     0
 74
     1
 95
       65
 96
       61
 40
0.0
 40
0.0
 40
0.0
 40
0.0
 40
1.0
 40
1.0
 40
1.0
 40
2.0
 40
2.0
 40
2.0
 40
3.0
 40
3.0
 40
3.0
 40
4.0
 40
4.0
 40
4.0
 40
5.0
 40
5.0
 40
5.0
 40
6.0
 40
6.0
 40
6.0
 40
7.0
 40
7.0
 40
7.0
 40
8.0
 40
8.0
 40
8.0
 40
9.0
 40
9.0
 40
9.0
 40
10.0
 40
10.0
 40
10.0
 40
11.0
 40
11.0
 40
11.0
 40
12.0
 40
12.0
 40
12.0
 40
13.0
 40
13.0
 40
13.0
 40
14.0
 40
14.0
 40
14.0
 40
15.0
 40
15.0
 40
15.0
 40
16.0
 40
16.0
 40
16.0
 40
17.0
 40
17.0
 40
17.0
 40
18.0
 40
18.0
 40
18.0
 40
19.0
 40
19.0
 40
19.0
 40
20.0
 40
20.0
 40
20.0
 40
20.0
 10
409.2584066868631
 20
453.7834309086047
 10
409.2584066868631
 20
453.7834309086047
 10
413.229647957527
 20
444.4100351766019
 10
413.229647957527
 20
444.4100351766019
 10
413.5200715812853
 20
443.6878204672394
 10
414.0788573871014
 20
443.1665421962316
 10
414.8155279553357
 20
442.9416090321474
 10
414.8155279553357
 20
442.9416090321474
 10
422.7223045252431
 20
441.2942193548288
 10
422.7223045252431
 20
441.2942193548288
 10
423.4086020940777
 20
441.1967868660149
 10
423.9691223531554
 20
441.4857594849127
 10
424.2991496112554
 20
442.0998443698954
 10
424.2991496112554
 20
442.0998443698954
 10
424.8263547844017
 20
443.1278727737426
 10
424.8263547844017
 20
443.1278727737426
 10
424.8263547844017
 20
443.1278727737426
 10
426.5963301449756
 20
443.8208143688844
 10
426.5963301449756
 20
443.8208143688844
 10
426.5963301449756
 20
443.8208143688844
 10
426.6044254259468
 20
443.8240669371307
 10
426.6044254259468
 20
443.8240669371307
 10
426.8638358134467
 20
443.9328472751604
 10
427.0739517221864
 20
444.1251101981888
 10
427.2034039384034
 20
444.3754133945977
 10
427.2034039384034
 20
444.3754133945977
 10
431.1450106983757
 20
452.0657857571559
 10
431.1450106983757
 20
452.0657857571559
 10
431.3051816147017
 20
452.3949456637247
 10
431.3190592392239
 20
452.7579402091724
 10
431.1843306345145
 20
453.0982954772562
 10
431.1843306345145
 20
453.0982954772562
 10
427.2423624780713
 20
462.463162252523
 10
427.2423624780713
 20
462.463162252523
 10
427.0886244189423
 20
462.8098219313752
 10
426.802837843521
 20
463.0517325465917
 10
426.4360869493539
 20
463.1430935746757
 10
426.4360869493539
 20
463.1430935746757
 10
418.521576494948
 20
464.8459297052596
 10
418.521576494948
 20
464.8459297052596
 10
418.521576494948
 20
464.8459297052596
 10
418.5148545205748
 20
464.8473752911859
 10
418.5148545205748
 20
464.8473752911859
 10
418.3009800885284
 20
464.8904455161119
 10
418.0803114028095
 20
464.8707855480434
 10
417.8777903490382
 20
464.7894713418764
 10
417.8777903490382
 20
464.7894713418764
 10
416.4342950320843
 20
464.2044427332303
 10
416.4342950320843
 20
464.2044427332303
 10
416.4342950320843
 20
464.2044427332303
 10
414.8155279553357
 20
464.5521784184521
 10
414.8155279553357
 20
464.5521784184521
 10
414.127429072917
 20
464.6554655301106
 10
413.5635782975241
 20
464.3696091433194
 10
413.229647957527
 20
463.7549378015328
 10
413.229647957527
 20
463.7549378015328
 10
409.2584066868631
 20
456.0620356636728
 10
409.2584066868631
 20
456.0620356636728
 10
408.9382094127959
 20
455.3268106813221
 10
408.9397995572745
 20
454.5248719102692
 10
409.2584066868631
 20
453.7834309086047
 97
        0
 97
        0
 75
     2
 76
     1
 98
        0
  0
SPLINE
  5
232
330
22C
100
AcDbEntity
  8
Layer 2
 62
    18
420
        0
370
     5
100
AcDbSpline
210
0.0
220
0.0
230
1.0
 70
     8
 71
     3
 72
     8
 73
     4
 74
     0
 42
0.0000000001
 43
0.0000000001
 12
1.0
 22
0.0
 32
0.0
 13
1.0
 23
0.0
 33
0.0
 40
0.0
 40
0.0
 40
0.0
 40
0.0
 40
1.0
 40
1.0
 40
1.0
 40
1.0
 10
421.3971359422339
 20
454.2437054551638
 30
0.0
 10
421.6609553666894
 20
454.607125747264
 30
0.0
 10
421.5521750286571
 20
455.2785281126844
 30
0.0
 10
421.3971359422339
 20
455.6575607323684
 30
0.0
  0
SPLINE
  5
233
330
22C
100
AcDbEntity
  8
Layer 2
 62
    18
420
        0
370
     5
100
AcDbSpline
210
0.0
220
0.0
230
1.0
 70
     8
 71
     3
 72
    11
 73
     7
 74
     0
 42
0.0000000001
 43
0.0000000001
 12
1.0
 22
0.0
 32
0.0
 13
1.0
 23
0.0
 33
0.0
 40
0.0
 40
0.0
 40
0.0
 40
0.0
 40
1.0
 40
1.0
 40
1.0
 40
2.0
 40
2.0
 40
2.0
 40
2.0
 10
421.7213808567831
 20
453.4755933938759
 30
0.0
 10
422.158236911966
 20
453.4860738915604
 30
0.0
 10
422.5525927420604
 20
452.9092851224741
 30
0.0
 10
422.7041624223566
 20
452.5606177305544
 30
0.0
 10
422.7352425189383
 20
452.4900652151191
 30
0.0
 10
422.7762971581396
 20
452.4266039946597
 30
0.0
 10
422.8272540606704
 20
452.3701538657542
 30
0.0
  0
SPLINE
  5
234
330
22C
100
AcDbEntity
  8
Layer 2
 62
    18
420
        0
370
     5
100
AcDbSpline
210
0.0
220
0.0
230
1.0
 70
     8
 71
     3
 72
    41
 73
    37
 74
     0
 42
0.0000000001
 43
0.0000000001
 12
1.0
 22
0.0
 32
0.0
 13
1.0
 23
0.0
 33
0.0
 40
0.0
 40
0.0
 40
0.0
 40
0.0
 40
1.0
 40
1.0
 40
1.0
 40
2.0
 40
2.0
 40
2.0
 40
3.0
 40
3.0
 40
3.0
 40
4.0
 40
4.0
 40
4.0
 40
5.0
 40
5.0
 40
5.0
 40
6.0
 40
6.0
 40
6.0
 40
7.0
 40
7.0
 40
7.0
 40
8.0
 40
8.0
 40
8.0
 40
9.0
 40
9.0
 40
9.0
 40
10.0
 40
10.0
 40
10.0
 40
11.0
 40
11.0
 40
11.0
 40
12.0
 40
12.0
 40
12.0
 40
12.0
 10
423.2651220259759
 20
452.2356420989299
 30
0.0
 10
423.3241742094779
 20
452.2820454059174
 30
0.0
 10
423.3531582065189
 20
452.3446392748419
 30
0.0
 10
423.3520017378105
 20
452.423495985001
 30
0.0
 10
423.3611812081945
 20
452.950412040972
 30
0.0
 10
423.9203395111599
 20
453.06793817362
 30
0.0
 10
424.3338436725535
 20
452.9218617196939
 30
0.0
 10
424.4858470286181
 20
452.868230483271
 30
0.0
 10
424.6886684297388
 20
452.9042978511634
 30
0.0
 10
424.7688984485212
 20
453.0604934062994
 30
0.0
 10
424.8508574651951
 20
453.2200860882713
 30
0.0
 10
424.7765543505811
 20
453.4344744215814
 30
0.0
 10
424.6575103527503
 20
453.5519926080269
 30
0.0
 10
424.2616366574766
 20
453.9429513112827
 30
0.0
 10
424.2254970102913
 20
454.5860924726021
 30
0.0
 10
424.6575103527503
 20
454.9644745786372
 30
0.0
 10
424.7967202737091
 20
455.0864097482427
 30
0.0
 10
424.8398710124511
 20
455.3121379845661
 30
0.0
 10
424.7688984485212
 20
455.4804041818634
 30
0.0
 10
424.6997214606636
 20
455.6444781800874
 30
0.0
 10
424.513819115542
 20
455.7633776193279
 30
0.0
 10
424.3338436725535
 20
455.7320806848647
 30
0.0
 10
423.7621867333673
 20
455.6326243758103
 30
0.0
 10
423.3592296672468
 20
456.1118360974942
 30
0.0
 10
423.3520017378105
 20
456.6474979480836
 30
0.0
 10
423.3499056382716
 20
456.80419945828
 30
0.0
 10
423.2597067439128
 20
457.0120024295984
 30
0.0
 10
423.0868812860535
 20
457.0487925904345
 30
0.0
 10
422.9145674482716
 20
457.0855104719758
 30
0.0
 10
422.7618412992651
 20
456.9277970516569
 30
0.0
 10
422.7041624223566
 20
456.7855514003331
 30
0.0
 10
422.5595315543178
 20
456.4291421997859
 30
0.0
 10
422.118700137944
 20
455.94660563056
 30
0.0
 10
421.7213808567831
 20
456.2879807378804
 30
0.0
 10
421.6738989853384
 20
456.330191845791
 30
0.0
 10
421.6212740340816
 20
456.3462378491422
 30
0.0
 10
421.5634505985818
 20
456.336263306518
 30
0.0
  0
POLYLINE
  5
235
330
22C
100
AcDbEntity
  8
Layer 2
 62
    18
420
        0
370
     5
100
AcDb2dPolyline
 66
     1
 10
0.0
 20
0.0
 30
0.0
  0
VERTEX
  5
236
330
235
100
AcDbEntity
  8
Layer 2
 62
    18
420
        0
370
     5
100
AcDbVertex
100
AcDb2dVertex
 10
424.6575103527503
 20
453.5519926080269
 30
0.0
  0
VERTEX
  5
237
330
235
100
AcDbEntity
  8
Layer 2
 62
    18
420
        0
370
     5
100
AcDbVertex
100
AcDb2dVertex
 10
423.4378695395244
 20
453.0672955968994
 30
0.0
  0
SEQEND
  5
238
330
235
100
AcDbEntity
  8
Layer 2
 62
    18
420
        0
370
     5
  0
POLYLINE
  5
239
330
22C
100
AcDbEntity
  8
Layer 2
 62
    18
420
        0
370
     5
100
AcDb2dPolyline
 66
     1
 10
0.0
 20
0.0
 30
0.0
  0
VERTEX
  5
23A
330
239
100
AcDbEntity
  8
Layer 2
 62
    18
420
        0
370
     5
100
AcDbVertex
100
AcDb2dVertex
 10
424.6575103527503
 20
454.9644745786372
 30
0.0
  0
VERTEX
  5
23B
330
239
100
AcDbEntity
  8
Layer 2
 62
    18
420
        0
370
     5
100
AcDbVertex
100
AcDb2dVertex
 10
423.4378695395244
 20
454.4788299997554
 30
0.0
  0
SEQEND
  5
23C
330
239
100
AcDbEntity
  8
Layer 2
 62
    18
420
        0
370
     5
  0
POLYLINE
  5
23D
330
22C
100
AcDbEntity
  8
Layer 2
 62
    18
420
        0
370
     5
100
AcDb2dPolyline
 66
     1
 10
0.0
 20
0.0
 30
0.0
  0
VERTEX
  5
23E
330
23D
100
AcDbEntity
  8
Layer 2
 62
    18
420
        0
370
     5
100
AcDbVertex
100
AcDb2dVertex
 10
424.3338436725535
 20
455.7320806848647
 30
0.0
  0
VERTEX
  5
23F
330
23D
100
AcDbEntity
  8
Layer 2
 62
    18
420
        0
370
     5
100
AcDbVertex
100
AcDb2dVertex
 10
423.1143474179153
 20
455.2458578716278
 30
0.0
  0
SEQEND
  5
240
330
23D
100
AcDbEntity
  8
Layer 2
 62
    18
420
        0
370
     5
  0
SPLINE
  5
241
330
22C
100
AcDbEntity
  8
Layer 2
 62
    18
420
        0
370
     5
100
AcDbSpline
210
0.0
220
0.0
230
1.0
 70
     8
 71
     3
 72
    20
 73
    16
 74
     0
 42
0.0000000001
 43
0.0000000001
 12
1.0
 22
0.0
 32
0.0
 13
1.0
 23
0.0
 33
0.0
 40
0.0
 40
0.0
 40
0.0
 40
0.0
 40
1.0
 40
1.0
 40
1.0
 40
2.0
 40
2.0
 40
2.0
 40
3.0
 40
3.0
 40
3.0
 40
4.0
 40
4.0
 40
4.0
 40
5.0
 40
5.0
 40
5.0
 40
5.0
 10
422.1327946003476
 20
456.1605523419003
 30
0.0
 10
422.1401670883715
 20
455.6224329953029
 30
0.0
 10
422.5476054707469
 20
455.1471966348099
 30
0.0
 10
423.1143474179153
 20
455.2458578716278
 30
0.0
 10
423.2941783023125
 20
455.27715480609
 30
0.0
 10
423.4800083681421
 20
455.158335635896
 30
0.0
 10
423.5491796528568
 20
454.9943982065088
 30
0.0
 10
423.6200856406358
 20
454.8262042885044
 30
0.0
 10
423.5770128542208
 20
454.6006928900651
 30
0.0
 10
423.4378695395244
 20
454.4788299997554
 30
0.0
 10
423.0037600975265
 20
454.0985686320664
 30
0.0
 10
423.0437305473133
 20
453.4564393808669
 30
0.0
 10
423.4378695395244
 20
453.0672955968994
 30
0.0
 10
423.4914284966526
 20
453.0143792164909
 30
0.0
 10
423.5311821085561
 20
452.953736888513
 30
0.0
 10
423.5571303752367
 20
452.8854329553305
 30
0.0
  0
POLYLINE
  5
242
330
22C
100
AcDbEntity
  8
Layer 2
 62
    18
420
        0
370
     5
100
AcDb2dPolyline
 66
     1
 10
0.0
 20
0.0
 30
0.0
  0
VERTEX
  5
243
330
242
100
AcDbEntity
  8
Layer 2
 62
    18
420
        0
370
     5
100
AcDbVertex
100
AcDb2dVertex
 10
423.68651031216
 20
452.9368235336296
 30
0.0
  0
VERTEX
  5
244
330
242
100
AcDbEntity
  8
Layer 2
 62
    18
420
        0
370
     5
100
AcDbVertex
100
AcDb2dVertex
 10
422.7095110901391
 20
452.5486837228536
 30
0.0
  0
SEQEND
  5
245
330
242
100
AcDbEntity
  8
Layer 2
 62
    18
420
        0
370
     5
  0
POLYLINE
  5
246
330
22C
100
AcDbEntity
  8
Layer 2
 62
    18
420
        0
370
     5
100
AcDb2dPolyline
 66
     1
 10
0.0
 20
0.0
 30
0.0
  0
VERTEX
  5
247
330
246
100
AcDbEntity
  8
Layer 2
 62
    18
420
        0
370
     5
100
AcDbVertex
100
AcDb2dVertex
 10
422.1940151626804
 20
456.202618891225
 30
0.0
  0
VERTEX
  5
248
330
246
100
AcDbEntity
  8
Layer 2
 62
    18
420
        0
370
     5
100
AcDbVertex
100
AcDb2dVertex
 10
421.3616524257632
 20
455.8701341371152
 30
0.0
  0
SEQEND
  5
249
330
246
100
AcDbEntity
  8
Layer 2
 62
    18
420
        0
370
     5
  0
SPLINE
  5
24A
330
22C
100
AcDbEntity
  8
Layer 2
 62
    18
420
        0
370
     5
100
AcDbSpline
210
0.0
220
0.0
230
1.0
 70
     8
 71
     3
 72
     8
 73
     4
 74
     0
 42
0.0000000001
 43
0.0000000001
 12
1.0
 22
0.0
 32
0.0
 13
1.0
 23
0.0
 33
0.0
 40
0.0
 40
0.0
 40
0.0
 40
0.0
 40
1.0
 40
1.0
 40
1.0
 40
1.0
 10
414.8155279553357
 20
464.5521784184521
 30
0.0
 10
414.7933382119654
 20
464.2140558793826
 30
0.0
 10
414.9154902194532
 20
463.9112056359654
 30
0.0
 10
415.1667330466862
 20
463.6968975281534
 30
0.0
  0
SPLINE
  5
24B
330
22C
100
AcDbEntity
  8
Layer 2
 62
    18
420
        0
370
     5
100
AcDbSpline
210
0.0
220
0.0
230
1.0
 70
     8
 71
     3
 72
     8
 73
     4
 74
     0
 42
0.0000000001
 43
0.0000000001
 12
1.0
 22
0.0
 32
0.0
 13
1.0
 23
0.0
 33
0.0
 40
0.0
 40
0.0
 40
0.0
 40
0.0
 40
1.0
 40
1.0
 40
1.0
 40
1.0
 10
423.9384759323439
 20
442.7802816471094
 30
0.0
 10
423.9208397845141
 20
442.529255657756
 30
0.0
 10
424.1068200953505
 20
442.2604489619889
 30
0.0
 10
424.291632564642
 20
442.106863121493
 30
0.0
  0
SPLINE
  5
24C
330
22C
100
AcDbEntity
  8
Layer 2
 62
    18
420
        0
370
     5
100
AcDbSpline
210
0.0
220
0.0
230
1.0
 70
     8
 71
     3
 72
    23
 73
    19
 74
     0
 42
0.0000000001
 43
0.0000000001
 12
1.0
 22
0.0
 32
0.0
 13
1.0
 23
0.0
 33
0.0
 40
0.0
 40
0.0
 40
0.0
 40
0.0
 40
1.0
 40
1.0
 40
1.0
 40
2.0
 40
2.0
 40
2.0
 40
3.0
 40
3.0
 40
3.0
 40
4.0
 40
4.0
 40
4.0
 40
5.0
 40
5.0
 40
5.0
 40
6.0
 40
6.0
 40
6.0
 40
6.0
 10
414.8155279553357
 20
442.9416090321474
 30
0.0
 10
414.7997710691634
 20
443.5144947193394
 30
0.0
 10
415.0376422269401
 20
444.0208834557043
 30
0.0
 10
415.4913393577117
 20
444.345489766728
 30
0.0
 10
415.4913393577117
 20
444.345489766728
 30
0.0
 10
418.2866687882406
 20
445.4475321680138
 30
0.0
 10
418.2866687882406
 20
445.4475321680138
 30
0.0
 10
418.741883784196
 20
445.772869024634
 30
0.0
 10
418.9806945728014
 20
446.2805510356484
 30
0.0
 10
418.9651545245079
 20
446.8551714259011
 30
0.0
 10
418.4836298654054
 20
446.61195160034
 30
0.0
 10
417.9923475015594
 20
446.3878135084942
 30
0.0
 10
417.4931866946299
 20
446.183624501894
 30
0.0
 10
417.4931866946299
 20
446.183624501894
 30
0.0
 10
414.6984354984543
 20
445.0801365147227
 30
0.0
 10
414.6984354984543
 20
445.0801365147227
 30
0.0
 10
414.2002866016437
 20
444.8763089045942
 30
0.0
 10
413.7100884272159
 20
444.6526767678079
 30
0.0
 10
413.229647957527
 20
444.4100351766019
 30
0.0
  0
SPLINE
  5
24D
330
22C
100
AcDbEntity
  8
Layer 2
 62
    18
420
        0
370
     5
100
AcDbSpline
210
0.0
220
0.0
230
1.0
 70
     8
 71
     3
 72
    17
 73
    13
 74
     0
 42
0.0000000001
 43
0.0000000001
 12
1.0
 22
0.0
 32
0.0
 13
1.0
 23
0.0
 33
0.0
 40
0.0
 40
0.0
 40
0.0
 40
0.0
 40
1.0
 40
1.0
 40
1.0
 40
2.0
 40
2.0
 40
2.0
 40
3.0
 40
3.0
 40
3.0
 40
4.0
 40
4.0
 40
4.0
 40
4.0
 10
422.7223045252431
 20
441.2942193548288
 30
0.0
 10
422.7069090355399
 20
441.8664545283682
 30
0.0
 10
422.9452918054521
 20
442.371405345576
 30
0.0
 10
423.3995615135063
 20
442.6941247282184
 30
0.0
 10
423.3995615135063
 20
442.6941247282184
 30
0.0
 10
426.2006732875852
 20
443.7909707228964
 30
0.0
 10
426.2006732875852
 20
443.7909707228964
 30
0.0
 10
426.6565387971877
 20
444.1144128626211
 30
0.0
 10
426.8957832615597
 20
444.6207370432448
 30
0.0
 10
426.8806046097397
 20
445.1945546377128
 30
0.0
 10
427.1414605831269
 20
444.986534828512
 30
0.0
 10
427.2605045809578
 20
444.6992969126777
 30
0.0
 10
427.2067287859445
 20
444.3820630896807
 30
0.0
  0
SPLINE
  5
24E
330
22C
100
AcDbEntity
  8
Layer 2
 62
    18
420
        0
370
     5
100
AcDbSpline
210
0.0
220
0.0
230
1.0
 70
     8
 71
     3
 72
    23
 73
    19
 74
     0
 42
0.0000000001
 43
0.0000000001
 12
1.0
 22
0.0
 32
0.0
 13
1.0
 23
0.0
 33
0.0
 40
0.0
 40
0.0
 40
0.0
 40
0.0
 40
1.0
 40
1.0
 40
1.0
 40
2.0
 40
2.0
 40
2.0
 40
3.0
 40
3.0
 40
3.0
 40
4.0
 40
4.0
 40
4.0
 40
5.0
 40
5.0
 40
5.0
 40
6.0
 40
6.0
 40
6.0
 40
6.0
 10
409.2584066868631
 20
456.0620356636728
 30
0.0
 10
409.6628093388736
 20
455.6738235736011
 30
0.0
 10
410.1874847367153
 20
455.503027601002
 30
0.0
 10
410.7283506964995
 20
455.5951837013263
 30
0.0
 10
410.7283506964995
 20
455.5951837013263
 30
0.0
 10
413.5201384416059
 20
456.7166772619166
 30
0.0
 10
413.5201384416059
 20
456.7166772619166
 30
0.0
 10
414.0622331493942
 20
456.8093312881811
 30
0.0
 10
414.5879927366514
 20
456.6383184776969
 30
0.0
 10
414.993262740194
 20
456.2490944775054
 30
0.0
 10
414.5105816123832
 20
456.0068142827722
 30
0.0
 10
414.0190101313601
 20
455.7820256772748
 30
0.0
 10
413.5201384416059
 20
455.5753871749557
 30
0.0
 10
413.5201384416059
 20
455.5753871749557
 30
0.0
 10
410.7283506964995
 20
454.4557006255545
 30
0.0
 10
410.7283506964995
 20
454.4557006255545
 30
0.0
 10
410.2304909168688
 20
454.2495600780067
 30
0.0
 10
409.740003625262
 20
454.0252051482794
 30
0.0
 10
409.2584066868631
 20
453.7834309086047
 30
0.0
  0
SPLINE
  5
24F
330
22C
100
AcDbEntity
  8
Layer 2
 62
    18
420
        0
370
     5
100
AcDbSpline
210
0.0
220
0.0
230
1.0
 70
     8
 71
     3
 72
    11
 73
     7
 74
     0
 42
0.0000000001
 43
0.0000000001
 12
1.0
 22
0.0
 32
0.0
 13
1.0
 23
0.0
 33
0.0
 40
0.0
 40
0.0
 40
0.0
 40
0.0
 40
1.0
 40
1.0
 40
1.0
 40
2.0
 40
2.0
 40
2.0
 40
2.0
 10
431.1450106983757
 20
452.0657857571559
 30
0.0
 10
431.2830641506262
 20
452.3426877338934
 30
0.0
 10
431.0381096220008
 20
452.7161548479116
 30
0.0
 10
430.8242351899553
 20
452.8873844962791
 30
0.0
 10
430.9477605040338
 20
452.9502674823834
 30
0.0
 10
431.0686837635185
 20
453.0141623786067
 30
0.0
 10
431.1823790935669
 20
453.0925933505678
 30
0.0
  0
SPLINE
  5
250
330
22C
100
AcDbEntity
  8
Layer 2
 62
    18
420
        0
370
     5
100
AcDbSpline
210
0.0
220
0.0
230
1.0
 70
     8
 71
     3
 72
    14
 73
    10
 74
     0
 42
0.0000000001
 43
0.0000000001
 12
1.0
 22
0.0
 32
0.0
 13
1.0
 23
0.0
 33
0.0
 40
0.0
 40
0.0
 40
0.0
 40
0.0
 40
1.0
 40
1.0
 40
1.0
 40
2.0
 40
2.0
 40
2.0
 40
3.0
 40
3.0
 40
3.0
 40
3.0
 10
427.2423624780713
 20
462.463162252523
 30
0.0
 10
427.1911887376536
 20
462.3773667301029
 30
0.0
 10
426.9759409990165
 20
462.2987268578281
 30
0.0
 10
426.8878325391779
 20
462.2586841287448
 30
0.0
 10
426.8878325391779
 20
462.2586841287448
 30
0.0
 10
426.8806046097397
 20
462.2549978847319
 30
0.0
 10
426.8806046097397
 20
462.2549978847319
 30
0.0
 10
426.9095163274906
 20
462.6355483695997
 30
0.0
 10
426.7586694401361
 20
462.9528544718905
 30
0.0
 10
426.444254509619
 20
463.1412865923176
 30
0.0
  0
SPLINE
  5
251
330
22C
100
AcDbEntity
  8
Layer 2
 62
    18
420
        0
370
     5
100
AcDbSpline
210
0.0
220
0.0
230
1.0
 70
     8
 71
     3
 72
    17
 73
    13
 74
     0
 42
0.0000000001
 43
0.0000000001
 12
1.0
 22
0.0
 32
0.0
 13
1.0
 23
0.0
 33
0.0
 40
0.0
 40
0.0
 40
0.0
 40
0.0
 40
1.0
 40
1.0
 40
1.0
 40
2.0
 40
2.0
 40
2.0
 40
3.0
 40
3.0
 40
3.0
 40
4.0
 40
4.0
 40
4.0
 40
4.0
 10
413.229647957527
 20
463.7549378015328
 30
0.0
 10
413.633550076318
 20
463.3661474771088
 30
0.0
 10
414.1578586558462
 20
463.1959297388621
 30
0.0
 10
414.6984354984543
 20
463.2897564581253
 30
0.0
 10
414.6984354984543
 20
463.2897564581253
 30
0.0
 10
417.4931866946299
 20
464.4220756885852
 30
0.0
 10
417.4931866946299
 20
464.4220756885852
 30
0.0
 10
418.0349922852383
 20
464.516544726328
 30
0.0
 10
418.5603904760274
 20
464.3459655916104
 30
0.0
 10
418.9651545245079
 20
463.9561715690679
 30
0.0
 10
418.988573015884
 20
464.2607483035454
 30
0.0
 10
418.8660596119253
 20
464.7676429949752
 30
0.0
 10
418.521576494948
 20
464.8459297052596
 30
0.0
  0
POLYLINE
  5
252
330
22C
100
AcDbEntity
  8
Layer 2
 62
    18
420
        0
370
     5
100
AcDb2dPolyline
 66
     1
 10
0.0
 20
0.0
 30
0.0
  0
VERTEX
  5
253
330
252
100
AcDbEntity
  8
Layer 2
 62
    18
420
        0
370
     5
100
AcDbVertex
100
AcDb2dVertex
 10
426.8806046097397
 20
462.2549978847319
 30
0.0
  0
VERTEX
  5
254
330
252
100
AcDbEntity
  8
Layer 2
 62
    18
420
        0
370
     5
100
AcDbVertex
100
AcDb2dVertex
 10
418.9651545245079
 20
463.9561715690679
 30
0.0
  0
VERTEX
  5
255
330
252
100
AcDbEntity
  8
Layer 2
 62
    18
420
        0
370
     5
100
AcDbVertex
100
AcDb2dVertex
 10
414.993262740194
 20
456.2490944775054
 30
0.0
  0
VERTEX
  5
256
330
252
100
AcDbEntity
  8
Layer 2
 62
    18
420
        0
370
     5
100
AcDbVertex
100
AcDb2dVertex
 10
418.9651545245079
 20
446.8551714259011
 30
0.0
  0
VERTEX
  5
257
330
252
100
AcDbEntity
  8
Layer 2
 62
    18
420
        0
370
     5
100
AcDbVertex
100
AcDb2dVertex
 10
426.8806046097397
 20
445.1945546377128
 30
0.0
  0
VERTEX
  5
258
330
252
100
AcDbEntity
  8
Layer 2
 62
    18
420
        0
370
     5
100
AcDbVertex
100
AcDb2dVertex
 10
430.8242351899553
 20
452.8873844962791
 30
0.0
  0
VERTEX
  5
259
330
252
100
AcDbEntity
  8
Layer 2
 62
    18
420
        0
370
     5
100
AcDbVertex
100
AcDb2dVertex
 10
426.8806046097397
 20
462.2549978847319
 30
0.0
  0
SEQEND
  5
25A
330
252
100
AcDbEntity
  8
Layer 2
 62
    18
420
        0
370
     5
  0
SPLINE
  5
25B
330
22C
100
AcDbEntity
  8
Layer 2
 62
    18
420
        0
370
     5
100
AcDbSpline
210
0.0
220
0.0
230
1.0
 70
     8
 71
     3
 72
    29
 73
    25
 74
     0
 42
0.0000000001
 43
0.0000000001
 12
1.0
 22
0.0
 32
0.0
 13
1.0
 23
0.0
 33
0.0
 40
0.0
 40
0.0
 40
0.0
 40
0.0
 40
1.0
 40
1.0
 40
1.0
 40
2.0
 40
2.0
 40
2.0
 40
3.0
 40
3.0
 40
3.0
 40
4.0
 40
4.0
 40
4.0
 40
5.0
 40
5.0
 40
5.0
 40
6.0
 40
6.0
 40
6.0
 40
7.0
 40
7.0
 40
7.0
 40
8.0
 40
8.0
 40
8.0
 40
8.0
 10
417.8727307983054
 20
464.7873834753418
 30
0.0
 10
417.7056155407872
 20
464.711987938309
 30
0.0
 10
417.5776089104547
 20
464.5845595423316
 30
0.0
 10
417.4931866946299
 20
464.4220756885852
 30
0.0
 10
417.4931866946299
 20
464.4220756885852
 30
0.0
 10
413.5201384416059
 20
456.7166772619166
 30
0.0
 10
413.5201384416059
 20
456.7166772619166
 30
0.0
 10
413.3598952459843
 20
456.3484062279731
 30
0.0
 10
413.3606903182226
 20
455.9467501891486
 30
0.0
 10
413.5201384416059
 20
455.5753871749557
 30
0.0
 10
413.5201384416059
 20
455.5753871749557
 30
0.0
 10
417.4931866946299
 20
446.183624501894
 30
0.0
 10
417.4931866946299
 20
446.183624501894
 30
0.0
 10
417.6379621212573
 20
445.8230231022744
 30
0.0
 10
417.9187671798891
 20
445.5602878672325
 30
0.0
 10
418.2866687882406
 20
445.4475321680138
 30
0.0
 10
418.2866687882406
 20
445.4475321680138
 30
0.0
 10
426.2006732875852
 20
443.7909707228964
 30
0.0
 10
426.2006732875852
 20
443.7909707228964
 30
0.0
 10
426.2006732875852
 20
443.7909707228964
 30
0.0
 10
426.209274523615
 20
443.7892283172432
 30
0.0
 10
426.209274523615
 20
443.7892283172432
 30
0.0
 10
426.3387267398357
 20
443.7632077712697
 30
0.0
 10
426.4730216687785
 20
443.77347143107
 30
0.0
 10
426.5963301449756
 20
443.8208143688844
 30
0.0
  0
SPLINE
  5
25C
330
22C
100
AcDbEntity
  8
Layer 2
 62
    18
420
        0
370
     5
100
AcDbSpline
210
0.0
220
0.0
230
1.0
 70
     8
 71
     3
 72
    38
 73
    34
 74
     0
 42
0.0000000001
 43
0.0000000001
 12
1.0
 22
0.0
 32
0.0
 13
1.0
 23
0.0
 33
0.0
 40
0.0
 40
0.0
 40
0.0
 40
0.0
 40
1.0
 40
1.0
 40
1.0
 40
2.0
 40
2.0
 40
2.0
 40
3.0
 40
3.0
 40
3.0
 40
4.0
 40
4.0
 40
4.0
 40
5.0
 40
5.0
 40
5.0
 40
6.0
 40
6.0
 40
6.0
 40
7.0
 40
7.0
 40
7.0
 40
8.0
 40
8.0
 40
8.0
 40
9.0
 40
9.0
 40
9.0
 40
10.0
 40
10.0
 40
10.0
 40
11.0
 40
11.0
 40
11.0
 40
11.0
 10
416.4802646633061
 20
464.2230907911789
 30
0.0
 10
416.4802646633061
 20
464.2230907911789
 30
0.0
 10
415.0828167859218
 20
463.6567102404824
 30
0.0
 10
415.0828167859218
 20
463.6567102404824
 30
0.0
 10
414.9165744088687
 20
463.5885508658894
 30
0.0
 10
414.7824240385144
 20
463.4544727748298
 30
0.0
 10
414.701254390935
 20
463.2951692100351
 30
0.0
 10
414.701254390935
 20
463.2951692100351
 30
0.0
 10
414.6984354984543
 20
463.2897564581253
 30
0.0
 10
414.6984354984543
 20
463.2897564581253
 30
0.0
 10
414.6984354984543
 20
463.2897564581253
 30
0.0
 10
410.7283506964995
 20
455.5951837013263
 30
0.0
 10
410.7283506964995
 20
455.5951837013263
 30
0.0
 10
410.5683243387612
 20
455.2274989308562
 30
0.0
 10
410.5691194110004
 20
454.8264934056824
 30
0.0
 10
410.7283506964995
 20
454.4557006255545
 30
0.0
 10
410.7283506964995
 20
454.4557006255545
 30
0.0
 10
414.6984354984543
 20
445.0801365147227
 30
0.0
 10
414.6984354984543
 20
445.0801365147227
 30
0.0
 10
414.8432109250798
 20
444.7201856287502
 30
0.0
 10
415.1240159837153
 20
444.4577395108863
 30
0.0
 10
415.4913393577117
 20
444.345489766728
 30
0.0
 10
415.4913393577117
 20
444.345489766728
 30
0.0
 10
423.3995615135063
 20
442.6941247282184
 30
0.0
 10
423.3995615135063
 20
442.6941247282184
 30
0.0
 10
423.5299533605503
 20
442.6676705064783
 30
0.0
 10
423.6619353520764
 20
442.6755489495654
 30
0.0
 10
423.7871230899254
 20
442.7210849050189
 30
0.0
 10
423.7871230899254
 20
442.7210849050189
 30
0.0
 10
423.7948569744221
 20
442.724048356089
 30
0.0
 10
423.7948569744221
 20
442.724048356089
 30
0.0
 10
423.7948569744221
 20
442.724048356089
 30
0.0
 10
424.8263547844017
 20
443.1278727737426
 30
0.0
 10
424.8263547844017
 20
443.1278727737426
 30
0.0
  0
SPLINE
  5
25D
330
22C
100
AcDbEntity
  8
Layer 2
 62
    18
420
        0
370
    13
100
AcDbSpline
210
0.0
220
0.0
230
1.0
 70
    11
 71
     3
 72
    17
 73
    13
 74
     0
 42
0.0000000001
 43
0.0000000001
 12
1.0
 22
0.0
 32
0.0
 13
1.0
 23
0.0
 33
0.0
 40
0.0
 40
0.0
 40
0.0
 40
0.0
 40
1.0
 40
1.0
 40
1.0
 40
2.0
 40
2.0
 40
2.0
 40
3.0
 40
3.0
 40
3.0
 40
4.0
 40
4.0
 40
4.0
 40
4.0
 10
428.5088402740512
 20
456.6428720732429
 30
0.0
 10
429.9431505915618
 20
452.7564144148773
 30
0.0
 10
428.7120896498236
 20
448.7222901581108
 30
0.0
 10
425.7591913575634
 20
447.6324629575738
 30
0.0
 10
422.8062207860094
 20
446.5426435291392
 30
0.0
 10
419.2495735478624
 20
448.8097481043005
 30
0.0
 10
417.8151909510543
 20
452.6962057626661
 30
0.0
 10
416.3808861247871
 20
456.5826634210307
 30
0.0
 10
417.6119415752828
 20
460.6167876777981
 30
0.0
 10
420.5648398675439
 20
461.7066148783351
 30
0.0
 10
423.517810439098
 20
462.7964420788703
 30
0.0
 10
427.0744576772449
 20
460.5293297316084
 30
0.0
 10
428.5088402740512
 20
456.6428720732429
 30
0.0
  0
SPLINE
  5
25E
330
22C
100
AcDbEntity
  8
Layer 2
 62
    18
420
        0
370
     5
100
AcDbSpline
210
0.0
220
0.0
230
1.0
 70
    11
 71
     3
 72
    17
 73
    13
 74
     0
 42
0.0000000001
 43
0.0000000001
 12
1.0
 22
0.0
 32
0.0
 13
1.0
 23
0.0
 33
0.0
 40
0.0
 40
0.0
 40
0.0
 40
0.0
 40
1.0
 40
1.0
 40
1.0
 40
2.0
 40
2.0
 40
2.0
 40
3.0
 40
3.0
 40
3.0
 40
4.0
 40
4.0
 40
4.0
 40
4.0
 10
424.8931408524022
 20
455.3084517405523
 30
0.0
 10
425.375099187273
 20
454.0025896896959
 30
0.0
 10
424.9905733412161
 20
452.6578254573542
 30
0.0
 10
424.0341737180897
 20
452.3048856629375
 30
0.0
 10
423.0778463742572
 20
451.9518735892261
 30
0.0
 10
421.9118367974552
 20
452.7243946874714
 30
0.0
 10
421.4298784625826
 20
454.0302646988848
 30
0.0
 10
420.9479201277127
 20
455.336142704542
 30
0.0
 10
421.3325182530625
 20
456.6808909820829
 30
0.0
 10
422.2888455968969
 20
457.0339030557934
 30
0.0
 10
423.2452508846727
 20
457.386842850211
 30
0.0
 10
424.4111825175332
 20
456.6143217519657
 30
0.0
 10
424.8931408524022
 20
455.3084517405523
 30
0.0
  0
MTEXT
  5
25F
330
22C
100
AcDbEntity
  8
Layer 2
 62
    18
420
        0
100
AcDbMText
 10
421.5884024854749
 20
458.5255498947809
 30
0.0
 40
1.296648032258867
 41
0.0
 46
0.0
 71
     7
 72
     1
  1
\fHelvetica Neue LT Std 77 Condensed|b1|i0|c0|p34;\W0.832371;WS22
 11
0.9751990169949105
 21
-0.2213297929610024
 31
0.0
 73
     1
 44
1.0
  0
MTEXT
  5
260
330
22C
100
AcDbEntity
  8
Layer 2
 62
    18
420
        0
100
AcDbMText
 10
422.3007555650547
 20
449.8394611824187
 30
0.0
 40
1.495073839296592
 41
0.0
 46
0.0
 71
     7
 72
     1
  1
\fHelvetica Neue LT Std 77 Condensed|b1|i0|c0|p34;\W0.832371;3.5
 11
0.9751990169949105
 21
-0.2213297929610024
 31
0.0
 73
     1
 44
1.0
  0
INSERT
  5
262
330
22C
100
AcDbEntity
  8
Layer 2
100
AcDbBlockReference
  2
block 34
 10
0.0
 20
0.0
 30
0.0
  0
ENDBLK
  5
22F
330
22C
100
AcDbEntity
  8
0
100
AcDbBlockEnd
  0
BLOCK
  5
263
330
261
100
AcDbEntity
  8
0
100
AcDbBlockBegin
  2
block 34
 70
     0
 10
0.0
 20
0.0
 30
0.0
  3
block 34
  1

  0
INSERT
  5
266
330
261
100
AcDbEntity
  8
Layer 2
100
AcDbBlockReference
  2
block 35
 10
0.0
 20
0.0
 30
0.0
  0
INSERT
  5
278
330
261
100
AcDbEntity
  8
Layer 2
100
AcDbBlockReference
  2
block 36
 10
0.0
 20
0.0
 30
0.0
  0
ENDBLK
  5
264
330
261
100
AcDbEntity
  8
0
100
AcDbBlockEnd
  0
BLOCK
  5
267
330
265
100
AcDbEntity
  8
0
100
AcDbBlockBegin
  2
block 35
 70
     0
 10
0.0
 20
0.0
 30
0.0
  3
block 35
  1

  0
POLYLINE
  5
269
330
265
100
AcDbEntity
  8
Layer 2
370
     0
100
AcDb2dPolyline
 66
     1
 10
0.0
 20
0.0
 30
0.0
  0
VERTEX
  5
26A
330
269
100
AcDbEntity
  8
Layer 2
370
     0
100
AcDbVertex
100
AcDb2dVertex
 10
427.9775151811264
 20
453.7536518393244
 30
0.0
  0
VERTEX
  5
26B
330
269
100
AcDbEntity
  8
Layer 2
370
     0
100
AcDbVertex
100
AcDb2dVertex
 10
426.0560424195482
 20
454.2223187501368
 30
0.0
  0
VERTEX
  5
26C
330
269
100
AcDbEntity
  8
Layer 2
370
     0
100
AcDbVertex
100
AcDb2dVertex
 10
426.0560424195482
 20
454.5104883306885
 30
0.0
  0
VERTEX
  5
26D
330
269
100
AcDbEntity
  8
Layer 2
370
     0
100
AcDbVertex
100
AcDb2dVertex
 10
427.9775151811264
 20
454.0418293859839
 30
0.0
  0
VERTEX
  5
26E
330
269
100
AcDbEntity
  8
Layer 2
370
     0
100
AcDbVertex
100
AcDb2dVertex
 10
427.9775151811264
 20
453.7536518393244
 30
0.0
  0
SEQEND
  5
26F
330
269
100
AcDbEntity
  8
Layer 2
370
     0
  0
POLYLINE
  5
270
330
265
100
AcDbEntity
  8
Layer 2
370
     0
100
AcDb2dPolyline
 66
     1
 10
0.0
 20
0.0
 30
0.0
  0
VERTEX
  5
271
330
270
100
AcDbEntity
  8
Layer 2
370
     0
100
AcDbVertex
100
AcDb2dVertex
 10
427.9775151811264
 20
453.164431031606
 30
0.0
  0
VERTEX
  5
272
330
270
100
AcDbEntity
  8
Layer 2
370
     0
100
AcDbVertex
100
AcDb2dVertex
 10
426.0560424195482
 20
453.6330899763134
 30
0.0
  0
VERTEX
  5
273
330
270
100
AcDbEntity
  8
Layer 2
370
     0
100
AcDbVertex
100
AcDb2dVertex
 10
426.0560424195482
 20
453.921267522971
 30
0.0
  0
VERTEX
  5
274
330
270
100
AcDbEntity
  8
Layer 2
370
     0
100
AcDbVertex
100
AcDb2dVertex
 10
427.9775151811264
 20
453.4526085782654
 30
0.0
  0
VERTEX
  5
275
330
270
100
AcDbEntity
  8
Layer 2
370
     0
100
AcDbVertex
100
AcDb2dVertex
 10
427.9775151811264
 20
453.164431031606
 30
0.0
  0
SEQEND
  5
276
330
270
100
AcDbEntity
  8
Layer 2
370
     0
  0
ENDBLK
  5
268
330
265
100
AcDbEntity
  8
0
100
AcDbBlockEnd
  0
BLOCK
  5
279
330
277
100
AcDbEntity
  8
0
100
AcDbBlockBegin
  2
block 36
 70
     0
 10
0.0
 20
0.0
 30
0.0
  3
block 36
  1

  0
POLYLINE
  5
27B
330
277
100
AcDbEntity
  8
Layer 2
370
     0
100
AcDb2dPolyline
 66
     1
 10
0.0
 20
0.0
 30
0.0
  0
VERTEX
  5
27C
330
27B
100
AcDbEntity
  8
Layer 2
370
     0
100
AcDbVertex
100
AcDb2dVertex
 10
426.4404237070157
 20
452.8800120082533
 30
0.0
  0
VERTEX
  5
27D
330
27B
100
AcDbEntity
  8
Layer 2
370
     0
100
AcDbVertex
100
AcDb2dVertex
 10
426.353983414132
 20
452.9774444970653
 30
0.0
  0
VERTEX
  5
27E
330
27B
100
AcDbEntity
  8
Layer 2
370
     0
100
AcDbVertex
100
AcDb2dVertex
 10
427.6765441993593
 20
454.7745325730857
 30
0.0
  0
VERTEX
  5
27F
330
27B
100
AcDbEntity
  8
Layer 2
370
     0
100
AcDbVertex
100
AcDb2dVertex
 10
427.7629902354311
 20
454.6770921042162
 30
0.0
  0
VERTEX
  5
280
330
27B
100
AcDbEntity
  8
Layer 2
370
     0
100
AcDbVertex
100
AcDb2dVertex
 10
426.4404237070157
 20
452.8800120082533
 30
0.0
  0
SEQEND
  5
281
330
27B
100
AcDbEntity
  8
Layer 2
370
     0
  0
ENDBLK
  5
27A
330
277
100
AcDbEntity
  8
0
100
AcDbBlockEnd
  0
ENDSEC
  0
SECTION
  2
ENTITIES
  0
INSERT
  5
42
330
1F
100
AcDbEntity
  8
Layer 3
100
AcDbBlockReference
  2
block 2
 10
0.0
 20
0.0
 30
0.0
  0
INSERT
  5
C6
330
1F
100
AcDbEntity
  8
Layer 3
100
AcDbBlockReference
  2
block 10
 10
0.0
 20
0.0
 30
0.0
  0
INSERT
  5
132
330
1F
100
AcDbEntity
  8
Layer 2
100
AcDbBlockReference
  2
block 17
 10
0.0
 20
0.0
 30
0.0
  0
INSERT
  5
15C
330
1F
100
AcDbEntity
  8
Layer 2
100
AcDbBlockReference
  2
block 18
 10
0.0
 20
0.0
 30
0.0
  0
MTEXT
  5
289
330
1F
100
AcDbEntity
  8
Layer 4
 62
   250
420
  2236191
100
AcDbMText
 10
364.6354293823242
 20
200.0010147094727
 30
0.0
 40
8.495999999999999
 41
0.0
 46
0.0
 71
     7
 72
     1
  1
\fHelvetica Neue LT Std 55 Roman|b0|i0|c0|p34;\W1;SIMPSON Strong-Tie\H4.248;®\H8.496; ^C
 73
     1
 44
1.0
  0
MTEXT
  5
28A
330
1F
100
AcDbEntity
  8
Layer 4
 62
   250
420
  2236191
100
AcDbMText
 10
319.5880661010742
 20
185.6016006469727
 30
0.0
 40
8.495999999999999
 41
0.0
 46
0.0
 71
     7
 72
     1
  1
\fHelvetica Neue LT Std 55 Roman|b0|i0|c0|p34;\W1;APL4 Post-to-Beam Corner Installation
 73
     1
 44
1.0
  0
POLYLINE
  5
28B
330
1F
100
AcDbEntity
  8
Layer 4
 62
   250
420
  2236191
370
    18
100
AcDb2dPolyline
 66
     1
 10
0.0
 20
0.0
 30
0.0
  0
VERTEX
  5
28C
330
28B
100
AcDbEntity
  8
Layer 4
 62
   250
420
  2236191
370
    18
100
AcDbVertex
100
AcDb2dVertex
 10
369.0431256962074
 20
334.5505310991193
 30
0.0
  0
VERTEX
  5
28D
330
28B
100
AcDbEntity
  8
Layer 4
 62
   250
420
  2236191
370
    18
100
AcDbVertex
100
AcDb2dVertex
 10
447.9062107732934
 20
419.2518941201361
 30
0.0
  0
SEQEND
  5
28E
330
28B
100
AcDbEntity
  8
Layer 4
 62
   250
420
  2236191
370
    18
  0
POLYLINE
  5
28F
330
1F
100
AcDbEntity
  8
Layer 4
 62
   250
420
  2236191
370
    18
100
AcDb2dPolyline
 66
     1
 10
0.0
 20
0.0
 30
0.0
  0
VERTEX
  5
290
330
28F
100
AcDbEntity
  8
Layer 4
 62
   250
420
  2236191
370
    18
100
AcDbVertex
100
AcDb2dVertex
 10
358.4118299743532
 20
368.7977332584978
 30
0.0
  0
VERTEX
  5
291
330
28F
100
AcDbEntity
  8
Layer 4
 62
   250
420
  2236191
370
    18
100
AcDbVertex
100
AcDb2dVertex
 10
379.6744214180617
 20
388.7758564032129
 30
0.0
  0
SEQEND
  5
292
330
28F
100
AcDbEntity
  8
Layer 4
 62
   250
420
  2236191
370
    18
  0
MTEXT
  5
293
330
1F
100
AcDbEntity
  8
Layer 4
 62
   250
420
  2236191
100
AcDbMText
 10
338.5672378540039
 20
328.2284622192383
 30
0.0
 40
8.495999999999999
 41
0.0
 46
0.0
 71
     7
 72
     1
  1
\fHelvetica Neue LT Std 57 Condensed|b0|i0|c0|p34;\W1;APL4
 73
     1
 44
1.0
  0
MTEXT
  5
294
330
1F
100
AcDbEntity
  8
Layer 4
 62
   250
420
  2236191
100
AcDbMText
 10
340.2425537109375
 20
358.0712432861328
 30
0.0
 40
8.495999999999999
 41
0.0
 46
0.0
 71
     7
 72
     1
  1
\fHelvetica Neue LT Std 57 Condensed|b0|i0|c0|p34;\W1;Beam
 73
     1
 44
1.0
  0
MTEXT
  5
295
330
1F
100
AcDbEntity
  8
Layer 4
 62
   250
420
  2236191
100
AcDbMText
 10
340.3535537719727
 20
302.4243226051331
 30
0.0
 40
8.495999999999999
 41
0.0
 46
0.0
 71
     7
 72
     1
  1
\fHelvetica Neue LT Std 57 Condensed|b0|i0|c0|p34;\W1;Post
 73
     1
 44
1.0
  0
POLYLINE
  5
296
330
1F
100
AcDbEntity
  8
Layer 4
 62
   250
420
  2236191
370
    18
100
AcDb2dPolyline
 66
     1
 10
0.0
 20
0.0
 30
0.0
  0
VERTEX
  5
297
330
296
100
AcDbEntity
  8
Layer 4
 62
   250
420
  2236191
370
    18
100
AcDbVertex
100
AcDb2dVertex
 10
369.0431256962074
 20
306.2903225806458
 30
0.0
  0
VERTEX
  5
298
330
296
100
AcDbEntity
  8
Layer 4
 62
   250
420
  2236191
370
    18
100
AcDbVertex
100
AcDb2dVertex
 10
429.1047447494857
 20
288.5292312988313
 30
0.0
  0
SEQEND
  5
299
330
296
100
AcDbEntity
  8
Layer 4
 62
   250
420
  2236191
370
    18
  0
ENDSEC
  0
SECTION
  2
OBJECTS
  0
DICTIONARY
  5
C
330
0
100
AcDbDictionary
281
     1
  3
ACAD_GROUP
350
D
  3
ACAD_LAYOUT
350
1A
  3
ACAD_MATERIAL
350
3B
  3
ACAD_MLEADERSTYLE
350
29B
  3
ACAD_MLINESTYLE
350
17
  3
ACAD_PLOTSETTINGS
350
19
  3
ACAD_PLOTSTYLENAME
350
E
  3
ACAD_TABLESTYLE
350
29A
  3
ACAD_VISUALSTYLE
350
2A
  0
SUN
  5
3F
330
29
100
AcDbSun
 90
        1
290
     0
 63
     7
421
 16777215
 40
1.0
291
     1
 91
  2455826
 92
 54000000
292
     0
 70
     2
 71
   256
280
     1
  0
DICTIONARY
  5
D
102
{ACAD_REACTORS
330
C
102
}
330
C
100
AcDbDictionary
281
     1
  0
DICTIONARY
  5
1A
102
{ACAD_REACTORS
330
C
102
}
330
C
100
AcDbDictionary
281
     1
  3
Layout1
350
1E
  3
Layout2
350
26
  3
Model
350
22
  0
DICTIONARY
  5
3B
102
{ACAD_REACTORS
330
C
102
}
330
C
100
AcDbDictionary
281
     1
  3
ByBlock
350
3D
  3
ByLayer
350
3C
  3
Global
350
3E
  0
DICTIONARY
  5
29B
102
{ACAD_REACTORS
330
C
102
}
330
C
100
AcDbDictionary
281
     1
  0
DICTIONARY
  5
17
102
{ACAD_REACTORS
330
C
102
}
330
C
100
AcDbDictionary
281
     1
  3
Standard
350
18
  0
DICTIONARY
  5
19
102
{ACAD_REACTORS
330
C
102
}
330
C
100
AcDbDictionary
281
     1
  0
ACDBDICTIONARYWDFLT
  5
E
102
{ACAD_REACTORS
330
C
102
}
330
C
100
AcDbDictionary
281
     1
  3
Normal
350
F
100
AcDbDictionaryWithDefault
340
F
  0
DICTIONARY
  5
29A
102
{ACAD_REACTORS
330
C
102
}
330
C
100
AcDbDictionary
281
     1
  0
DICTIONARY
  5
2A
102
{ACAD_REACTORS
330
C
102
}
330
C
100
AcDbDictionary
281
     1
  3
2dWireframe
350
2F
  3
3D Hidden
350
31
  3
3dWireframe
350
30
  3
Basic
350
32
  3
Brighten
350
36
  3
ColorChange
350
3A
  3
Conceptual
350
34
  3
Dim
350
35
  3
Facepattern
350
39
  3
Flat
350
2B
  3
FlatWithEdges
350
2C
  3
Gouraud
350
2D
  3
GouraudWithEdges
350
2E
  3
Linepattern
350
38
  3
Realistic
350
33
  3
Thicken
350
37
  0
LAYOUT
  5
1E
102
{ACAD_REACTORS
330
1A
102
}
330
1A
100
AcDbPlotSettings
  1

  2
none_device
  4

  6

 40
0.0
 41
0.0
 42
0.0
 43
0.0
 44
0.0
 45
0.0
 46
0.0
 47
0.0
 48
0.0
 49
0.0
140
0.0
141
0.0
142
1.0
143
1.0
 70
   688
 72
     0
 73
     0
 74
     5
  7

 75
    16
 76
     0
 77
     2
 78
   300
147
1.0
148
0.0
149
0.0
100
AcDbLayout
  1
Layout1
 70
     1
 71
     1
 10
0.0
 20
0.0
 11
12.0
 21
9.0
 12
0.0
 22
0.0
 32
0.0
 14
1.000000000000000E+20
 24
1.000000000000000E+20
 34
1.000000000000000E+20
 15
-1.000000000000000E+20
 25
-1.000000000000000E+20
 35
-1.000000000000000E+20
146
0.0
 13
0.0
 23
0.0
 33
0.0
 16
1.0
 26
0.0
 36
0.0
 17
0.0
 27
1.0
 37
0.0
 76
     0
330
1B
  0
LAYOUT
  5
26
102
{ACAD_REACTORS
330
1A
102
}
330
1A
100
AcDbPlotSettings
  1

  2
none_device
  4

  6

 40
0.0
 41
0.0
 42
0.0
 43
0.0
 44
0.0
 45
0.0
 46
0.0
 47
0.0
 48
0.0
 49
0.0
140
0.0
141
0.0
142
1.0
143
1.0
 70
   688
 72
     0
 73
     0
 74
     5
  7

 75
    16
 76
     0
 77
     2
 78
   300
147
1.0
148
0.0
149
0.0
100
AcDbLayout
  1
Layout2
 70
     1
 71
     2
 10
0.0
 20
0.0
 11
0.0
 21
0.0
 12
0.0
 22
0.0
 32
0.0
 14
0.0
 24
0.0
 34
0.0
 15
0.0
 25
0.0
 35
0.0
146
0.0
 13
0.0
 23
0.0
 33
0.0
 16
1.0
 26
0.0
 36
0.0
 17
0.0
 27
1.0
 37
0.0
 76
     0
330
23
  0
LAYOUT
  5
22
102
{ACAD_REACTORS
330
1A
102
}
330
1A
100
AcDbPlotSettings
  1

  2
none_device
  4

  6

 40
0.0
 41
0.0
 42
0.0
 43
0.0
 44
0.0
 45
0.0
 46
0.0
 47
0.0
 48
0.0
 49
0.0
140
0.0
141
0.0
142
1.0
143
1.0
 70
  1712
 72
     0
 73
     0
 74
     0
  7

 75
     0
 76
     0
 77
     2
 78
   300
147
1.0
148
0.0
149
0.0
100
AcDbLayout
  1
Model
 70
     1
 71
     0
 10
0.0
 20
0.0
 11
12.0
 21
9.0
 12
0.0
 22
0.0
 32
0.0
 14
1.000000000000000E+20
 24
1.000000000000000E+20
 34
1.000000000000000E+20
 15
-1.000000000000000E+20
 25
-1.000000000000000E+20
 35
-1.000000000000000E+20
146
0.0
 13
0.0
 23
0.0
 33
0.0
 16
1.0
 26
0.0
 36
0.0
 17
0.0
 27
1.0
 37
0.0
 76
     0
330
1F
331
29
  0
MATERIAL
  5
3D
102
{ACAD_REACTORS
330
3B
102
}
330
3B
100
AcDbMaterial
  1
ByBlock
 72
     1
 94
      127
  0
MATERIAL
  5
3C
102
{ACAD_REACTORS
330
3B
102
}
330
3B
100
AcDbMaterial
  1
ByLayer
 72
     1
 94
      127
  0
MATERIAL
  5
3E
102
{ACAD_REACTORS
330
3B
102
}
330
3B
100
AcDbMaterial
  1
Global
 72
     1
 94
      127
  0
MLINESTYLE
  5
18
102
{ACAD_REACTORS
330
17
102
}
330
17
100
AcDbMlineStyle
  2
Standard
 70
     0
  3

 62
   256
 51
90.0
 52
90.0
 71
     2
 49
0.5
 62
   256
  6
BYLAYER
 49
-0.5
 62
   256
  6
BYLAYER
  0
ACDBPLACEHOLDER
  5
F
102
{ACAD_REACTORS
330
E
102
}
330
E
  0
VISUALSTYLE
  5
2F
102
{ACAD_REACTORS
330
2A
102
}
330
2A
100
AcDbVisualStyle
  2
2dWireframe
 70
     4
177
     2
291
     0
 71
     0
176
     1
 72
     2
176
     1
 73
     0
176
     1
 90
        0
176
     1
 40
-0.6
176
     1
 41
-30.0
176
     1
 62
     5
 63
     7
421
 16777215
176
     1
 74
     1
176
     1
 91
        4
176
     1
 64
     7
176
     1
 65
   257
176
     1
 75
     1
176
     1
175
     1
176
     1
 42
1.0
176
     1
 92
        0
176
     1
 66
   257
176
     1
 43
1.0
176
     1
 76
     1
176
     1
 77
     6
176
     1
 78
     2
176
     1
 67
     7
176
     1
 79
     5
176
     1
170
     0
176
     1
171
     0
176
     1
290
     0
176
     1
 93
        1
176
     1
 44
0.0
176
     1
173
     0
176
     1
  0
VISUALSTYLE
  5
31
102
{ACAD_REACTORS
330
2A
102
}
330
2A
100
AcDbVisualStyle
  2
3D Hidden
 70
     6
177
     2
291
     0
 71
     1
176
     1
 72
     2
176
     1
 73
     2
176
     1
 90
        0
176
     1
 40
-0.6
176
     1
 41
-30.0
176
     1
 62
     5
 63
     7
421
 16777215
176
     1
 74
     2
176
     1
 91
        2
176
     1
 64
     7
176
     1
 65
   257
176
     1
 75
     2
176
     1
175
     1
176
     1
 42
40.0
176
     1
 92
        0
176
     1
 66
   257
176
     1
 43
1.0
176
     1
 76
     1
176
     1
 77
     6
176
     1
 78
     2
176
     1
 67
     7
176
     1
 79
     3
176
     1
170
     0
176
     1
171
     0
176
     1
290
     0
176
     1
 93
        1
176
     1
 44
0.0
176
     1
173
     0
176
     1
  0
VISUALSTYLE
  5
30
102
{ACAD_REACTORS
330
2A
102
}
330
2A
100
AcDbVisualStyle
  2
3dWireframe
 70
     5
177
     2
291
     0
 71
     0
176
     1
 72
     2
176
     1
 73
     0
176
     1
 90
        0
176
     1
 40
-0.6
176
     1
 41
-30.0
176
     1
 62
     5
 63
     7
421
 16777215
176
     1
 74
     1
176
     1
 91
        4
176
     1
 64
     7
176
     1
 65
   257
176
     1
 75
     1
176
     1
175
     1
176
     1
 42
1.0
176
     1
 92
        0
176
     1
 66
   257
176
     1
 43
1.0
176
     1
 76
     1
176
     1
 77
     6
176
     1
 78
     2
176
     1
 67
     7
176
     1
 79
     5
176
     1
170
     0
176
     1
171
     0
176
     1
290
     0
176
     1
 93
        1
176
     1
 44
0.0
176
     1
173
     0
176
     1
  0
VISUALSTYLE
  5
32
102
{ACAD_REACTORS
330
2A
102
}
330
2A
100
AcDbVisualStyle
  2
Basic
 70
     7
177
     2
291
     1
 71
     1
176
     1
 72
     0
176
     1
 73
     1
176
     1
 90
        0
176
     1
 40
-0.6
176
     1
 41
-30.0
176
     1
 62
     5
 63
     7
421
 16777215
176
     1
 74
     0
176
     1
 91
        4
176
     1
 64
     7
176
     1
 65
   257
176
     1
 75
     1
176
     1
175
     1
176
     1
 42
1.0
176
     1
 92
        8
176
     1
 66
     7
176
     1
 43
1.0
176
     1
 76
     1
176
     1
 77
     6
176
     1
 78
     2
176
     1
 67
     7
176
     1
 79
     5
176
     1
170
     0
176
     1
171
     0
176
     1
290
     0
176
     1
 93
        1
176
     1
 44
0.0
176
     1
173
     0
176
     1
  0
VISUALSTYLE
  5
36
102
{ACAD_REACTORS
330
2A
102
}
330
2A
100
AcDbVisualStyle
  2
Brighten
 70
    12
177
     2
291
     1
 71
     2
176
     1
 72
     2
176
     1
 73
     0
176
     1
 90
        0
176
     1
 40
-0.6
176
     1
 41
-30.0
176
     1
 62
     5
 63
     7
421
 16777215
176
     1
 74
     1
176
     1
 91
        4
176
     1
 64
     7
176
     1
 65
   257
176
     1
 75
     1
176
     1
175
     1
176
     1
 42
1.0
176
     1
 92
        8
176
     1
 66
     7
176
     1
 43
1.0
176
     1
 76
     1
176
     1
 77
     6
176
     1
 78
     2
176
     1
 67
     7
176
     1
 79
     5
176
     1
170
     0
176
     1
171
     0
176
     1
290
     0
176
     1
 93
        1
176
     1
 44
50.0
176
     1
173
     0
176
     1
  0
VISUALSTYLE
  5
3A
102
{ACAD_REACTORS
330
2A
102
}
330
2A
100
AcDbVisualStyle
  2
ColorChange
 70
    16
177
     2
291
     1
 71
     2
176
     1
 72
     2
176
     1
 73
     3
176
     1
 90
        0
176
     1
 40
-0.6
176
     1
 41
-30.0
176
     1
 62
     5
 63
     8
421
  8421504
176
     1
 74
     1
176
     1
 91
        4
176
     1
 64
     7
176
     1
 65
   257
176
     1
 75
     1
176
     1
175
     1
176
     1
 42
1.0
176
     1
 92
        8
176
     1
 66
     8
424
  8421504
176
     1
 43
1.0
176
     1
 76
     1
176
     1
 77
     6
176
     1
 78
     2
176
     1
 67
     7
176
     1
 79
     5
176
     1
170
     0
176
     1
171
     0
176
     1
290
     0
176
     1
 93
        1
176
     1
 44
0.0
176
     1
173
     0
176
     1
  0
VISUALSTYLE
  5
34
102
{ACAD_REACTORS
330
2A
102
}
330
2A
100
AcDbVisualStyle
  2
Conceptual
 70
     9
177
     2
291
     0
 71
     3
176
     1
 72
     2
176
     1
 73
     0
176
     1
 90
        0
176
     1
 40
-0.6
176
     1
 41
-30.0
176
     1
 62
     5
 63
     7
421
 16777215
176
     1
 74
     2
176
     1
 91
        2
176
     1
 64
     7
176
     1
 65
   257
176
     1
 75
     1
176
     1
175
     1
176
     1
 42
40.0
176
     1
 92
        8
176
     1
 66
     7
176
     1
 43
1.0
176
     1
 76
     1
176
     1
 77
     6
176
     1
 78
     2
176
     1
 67
     7
176
     1
 79
     3
176
     1
170
     0
176
     1
171
     0
176
     1
290
     0
176
     1
 93
        1
176
     1
 44
0.0
176
     1
173
     0
176
     1
  0
VISUALSTYLE
  5
35
102
{ACAD_REACTORS
330
2A
102
}
330
2A
100
AcDbVisualStyle
  2
Dim
 70
    11
177
     2
291
     1
 71
     2
176
     1
 72
     2
176
     1
 73
     0
176
     1
 90
        0
176
     1
 40
-0.6
176
     1
 41
-30.0
176
     1
 62
     5
 63
     7
421
 16777215
176
     1
 74
     1
176
     1
 91
        4
176
     1
 64
     7
176
     1
 65
   257
176
     1
 75
     1
176
     1
175
     1
176
     1
 42
1.0
176
     1
 92
        8
176
     1
 66
     7
176
     1
 43
1.0
176
     1
 76
     1
176
     1
 77
     6
176
     1
 78
     2
176
     1
 67
     7
176
     1
 79
     5
176
     1
170
     0
176
     1
171
     0
176
     1
290
     0
176
     1
 93
        1
176
     1
 44
-50.0
176
     1
173
     0
176
     1
  0
VISUALSTYLE
  5
39
102
{ACAD_REACTORS
330
2A
102
}
330
2A
100
AcDbVisualStyle
  2
Facepattern
 70
    15
177
     2
291
     1
 71
     2
176
     1
 72
     2
176
     1
 73
     0
176
     1
 90
        0
176
     1
 40
-0.6
176
     1
 41
-30.0
176
     1
 62
     5
 63
     7
421
 16777215
176
     1
 74
     1
176
     1
 91
        4
176
     1
 64
     7
176
     1
 65
   257
176
     1
 75
     1
176
     1
175
     1
176
     1
 42
1.0
176
     1
 92
        8
176
     1
 66
     7
176
     1
 43
1.0
176
     1
 76
     1
176
     1
 77
     6
176
     1
 78
     2
176
     1
 67
     7
176
     1
 79
     5
176
     1
170
     0
176
     1
171
     0
176
     1
290
     0
176
     1
 93
        1
176
     1
 44
0.0
176
     1
173
     0
176
     1
  0
VISUALSTYLE
  5
2B
102
{ACAD_REACTORS
330
2A
102
}
330
2A
100
AcDbVisualStyle
  2
Flat
 70
     0
177
     2
291
     1
 71
     2
176
     1
 72
     1
176
     1
 73
     1
176
     1
 90
        2
176
     1
 40
-0.6
176
     1
 41
30.0
176
     1
 62
     5
 63
     7
421
 16777215
176
     1
 74
     0
176
     1
 91
        4
176
     1
 64
     7
176
     1
 65
   257
176
     1
 75
     1
176
     1
175
     1
176
     1
 42
1.0
176
     1
 92
        8
176
     1
 66
     7
176
     1
 43
1.0
176
     1
 76
     1
176
     1
 77
     6
176
     1
 78
     2
176
     1
 67
     7
176
     1
 79
     5
176
     1
170
     0
176
     1
171
     0
176
     1
290
     0
176
     1
 93
       13
176
     1
 44
0.0
176
     1
173
     0
176
     1
  0
VISUALSTYLE
  5
2C
102
{ACAD_REACTORS
330
2A
102
}
330
2A
100
AcDbVisualStyle
  2
FlatWithEdges
 70
     1
177
     2
291
     1
 71
     2
176
     1
 72
     1
176
     1
 73
     1
176
     1
 90
        2
176
     1
 40
-0.6
176
     1
 41
30.0
176
     1
 62
     5
 63
     7
421
 16777215
176
     1
 74
     1
176
     1
 91
        4
176
     1
 64
     7
176
     1
 65
   257
176
     1
 75
     1
176
     1
175
     1
176
     1
 42
1.0
176
     1
 92
        0
176
     1
 66
   257
176
     1
 43
1.0
176
     1
 76
     1
176
     1
 77
     6
176
     1
 78
     2
176
     1
 67
     7
176
     1
 79
     5
176
     1
170
     0
176
     1
171
     0
176
     1
290
     0
176
     1
 93
       13
176
     1
 44
0.0
176
     1
173
     0
176
     1
  0
VISUALSTYLE
  5
2D
102
{ACAD_REACTORS
330
2A
102
}
330
2A
100
AcDbVisualStyle
  2
Gouraud
 70
     2
177
     2
291
     1
 71
     2
176
     1
 72
     2
176
     1
 73
     1
176
     1
 90
        2
176
     1
 40
-0.6
176
     1
 41
30.0
176
     1
 62
     5
 63
     7
421
 16777215
176
     1
 74
     0
176
     1
 91
        4
176
     1
 64
     7
176
     1
 65
   257
176
     1
 75
     1
176
     1
175
     1
176
     1
 42
1.0
176
     1
 92
        0
176
     1
 66
     7
176
     1
 43
1.0
176
     1
 76
     1
176
     1
 77
     6
176
     1
 78
     2
176
     1
 67
     7
176
     1
 79
     5
176
     1
170
     0
176
     1
171
     0
176
     1
290
     0
176
     1
 93
       13
176
     1
 44
0.0
176
     1
173
     0
176
     1
  0
VISUALSTYLE
  5
2E
102
{ACAD_REACTORS
330
2A
102
}
330
2A
100
AcDbVisualStyle
  2
GouraudWithEdges
 70
     3
177
     2
291
     1
 71
     2
176
     1
 72
     2
176
     1
 73
     1
176
     1
 90
        2
176
     1
 40
-0.6
176
     1
 41
30.0
176
     1
 62
     5
 63
     7
421
 16777215
176
     1
 74
     1
176
     1
 91
        4
176
     1
 64
     7
176
     1
 65
   257
176
     1
 75
     1
176
     1
175
     1
176
     1
 42
1.0
176
     1
 92
        0
176
     1
 66
   257
176
     1
 43
1.0
176
     1
 76
     1
176
     1
 77
     6
176
     1
 78
     2
176
     1
 67
     7
176
     1
 79
     5
176
     1
170
     0
176
     1
171
     0
176
     1
290
     0
176
     1
 93
       13
176
     1
 44
0.0
176
     1
173
     0
176
     1
  0
VISUALSTYLE
  5
38
102
{ACAD_REACTORS
330
2A
102
}
330
2A
100
AcDbVisualStyle
  2
Linepattern
 70
    14
177
     2
291
     1
 71
     2
176
     1
 72
     2
176
     1
 73
     0
176
     1
 90
        0
176
     1
 40
-0.6
176
     1
 41
-30.0
176
     1
 62
     5
 63
     7
421
 16777215
176
     1
 74
     1
176
     1
 91
        4
176
     1
 64
     7
176
     1
 65
   257
176
     1
 75
     7
176
     1
175
     7
176
     1
 42
1.0
176
     1
 92
        8
176
     1
 66
     7
176
     1
 43
1.0
176
     1
 76
     1
176
     1
 77
     6
176
     1
 78
     2
176
     1
 67
     7
176
     1
 79
     5
176
     1
170
     0
176
     1
171
     0
176
     1
290
     0
176
     1
 93
        1
176
     1
 44
0.0
176
     1
173
     0
176
     1
  0
VISUALSTYLE
  5
33
102
{ACAD_REACTORS
330
2A
102
}
330
2A
100
AcDbVisualStyle
  2
Realistic
 70
     8
177
     2
291
     0
 71
     2
176
     1
 72
     2
176
     1
 73
     0
176
     1
 90
        0
176
     1
 40
-0.6
176
     1
 41
-30.0
176
     1
 62
     5
 63
     7
421
 16777215
176
     1
 74
     1
176
     1
 91
        0
176
     1
 64
     7
176
     1
 65
   257
176
     1
 75
     1
176
     1
175
     1
176
     1
 42
1.0
176
     1
 92
        8
176
     1
 66
     8
424
  7895160
176
     1
 43
1.0
176
     1
 76
     1
176
     1
 77
     6
176
     1
 78
     2
176
     1
 67
     7
176
     1
 79
     5
176
     1
170
     0
176
     1
171
     0
176
     1
290
     0
176
     1
 93
       13
176
     1
 44
0.0
176
     1
173
     0
176
     1
  0
VISUALSTYLE
  5
37
102
{ACAD_REACTORS
330
2A
102
}
330
2A
100
AcDbVisualStyle
  2
Thicken
 70
    13
177
     2
291
     1
 71
     2
176
     1
 72
     2
176
     1
 73
     0
176
     1
 90
        0
176
     1
 40
-0.6
176
     1
 41
-30.0
176
     1
 62
     5
 63
     7
421
 16777215
176
     1
 74
     1
176
     1
 91
        4
176
     1
 64
     7
176
     1
 65
   257
176
     1
 75
     1
176
     1
175
     1
176
     1
 42
1.0
176
     1
 92
       12
176
     1
 66
     7
176
     1
 43
1.0
176
     1
 76
     1
176
     1
 77
     6
176
     1
 78
     2
176
     1
 67
     7
176
     1
 79
     5
176
     1
170
     0
176
     1
171
     0
176
     1
290
     0
176
     1
 93
        1
176
     1
 44
0.0
176
     1
173
     0
176
     1
  0
ENDSEC
  0
EOF
