  0
SECTION
  2
HEADER
  9
$ACADVER
  1
AC1024
  9
$ACADMAINTVER
 70
     6
  9
$DWGCODEPAGE
  3
ANSI_1252
  9
$INSBASE
 10
0.0
 20
0.0
 30
0.0
  9
$EXTMIN
 10
1.000000000000000E+20
 20
1.000000000000000E+20
 30
1.000000000000000E+20
  9
$EXTMAX
 10
-1.000000000000000E+20
 20
-1.000000000000000E+20
 30
-1.000000000000000E+20
  9
$LIMMIN
 10
0.0
 20
0.0
  9
$LIMMAX
 10
12.0
 20
9.0
  9
$ORTHOMODE
 70
     0
  9
$REGENMODE
 70
     1
  9
$FILLMODE
 70
     1
  9
$QTEXTMODE
 70
     0
  9
$MIRRTEXT
 70
     1
  9
$LTSCALE
 40
1.0
  9
$ATTMODE
 70
     1
  9
$TEXTSIZE
 40
0.2
  9
$TRACEWID
 40
0.05
  9
$TEXTSTYLE
  7
Standard
  9
$CLAYER
  8
0
  9
$CELTYPE
  6
ByLayer
  9
$CECOLOR
 62
   256
  9
$CELTSCALE
 40
1.0
  9
$DISPSILH
 70
     0
  9
$DIMSCALE
 40
1.0
  9
$DIMASZ
 40
0.18
  9
$DIMEXO
 40
0.0625
  9
$DIMDLI
 40
0.38
  9
$DIMRND
 40
0.0
  9
$DIMDLE
 40
0.0
  9
$DIMEXE
 40
0.18
  9
$DIMTP
 40
0.0
  9
$DIMTM
 40
0.0
  9
$DIMTXT
 40
0.18
  9
$DIMCEN
 40
0.09
  9
$DIMTSZ
 40
0.0
  9
$DIMTOL
 70
     0
  9
$DIMLIM
 70
     0
  9
$DIMTIH
 70
     1
  9
$DIMTOH
 70
     1
  9
$DIMSE1
 70
     0
  9
$DIMSE2
 70
     0
  9
$DIMTAD
 70
     0
  9
$DIMZIN
 70
     0
  9
$DIMBLK
  1

  9
$DIMASO
 70
     1
  9
$DIMSHO
 70
     1
  9
$DIMPOST
  1

  9
$DIMAPOST
  1

  9
$DIMALT
 70
     0
  9
$DIMALTD
 70
     2
  9
$DIMALTF
 40
25.4
  9
$DIMLFAC
 40
1.0
  9
$DIMTOFL
 70
     0
  9
$DIMTVP
 40
0.0
  9
$DIMTIX
 70
     0
  9
$DIMSOXD
 70
     0
  9
$DIMSAH
 70
     0
  9
$DIMBLK1
  1

  9
$DIMBLK2
  1

  9
$DIMSTYLE
  2
Standard
  9
$DIMCLRD
 70
     0
  9
$DIMCLRE
 70
     0
  9
$DIMCLRT
 70
     0
  9
$DIMTFAC
 40
1.0
  9
$DIMGAP
 40
0.09
  9
$DIMJUST
 70
     0
  9
$DIMSD1
 70
     0
  9
$DIMSD2
 70
     0
  9
$DIMTOLJ
 70
     1
  9
$DIMTZIN
 70
     0
  9
$DIMALTZ
 70
     0
  9
$DIMALTTZ
 70
     0
  9
$DIMUPT
 70
     0
  9
$DIMDEC
 70
     4
  9
$DIMTDEC
 70
     4
  9
$DIMALTU
 70
     2
  9
$DIMALTTD
 70
     2
  9
$DIMTXSTY
  7
Standard
  9
$DIMAUNIT
 70
     0
  9
$DIMADEC
 70
     0
  9
$DIMALTRND
 40
0.0
  9
$DIMAZIN
 70
     0
  9
$DIMDSEP
 70
    46
  9
$DIMATFIT
 70
     3
  9
$DIMFRAC
 70
     0
  9
$DIMLDRBLK
  1

  9
$DIMLUNIT
 70
     2
  9
$DIMLWD
 70
    -2
  9
$DIMLWE
 70
    -2
  9
$DIMTMOVE
 70
     0
  9
$DIMFXL
 40
1.0
  9
$DIMFXLON
 70
     0
  9
$DIMJOGANG
 40
0.7853981633974483
  9
$DIMTFILL
 70
     0
  9
$DIMTFILLCLR
 70
     0
  9
$DIMARCSYM
 70
     0
  9
$DIMLTYPE
  6

  9
$DIMLTEX1
  6

  9
$DIMLTEX2
  6

  9
$DIMTXTDIRECTION
 70
     0
  9
$LUNITS
 70
     2
  9
$LUPREC
 70
     4
  9
$SKETCHINC
 40
0.1
  9
$FILLETRAD
 40
0.5
  9
$AUNITS
 70
     0
  9
$AUPREC
 70
     0
  9
$MENU
  1
.
  9
$ELEVATION
 40
0.0
  9
$PELEVATION
 40
0.0
  9
$THICKNESS
 40
0.0
  9
$LIMCHECK
 70
     0
  9
$CHAMFERA
 40
0.5
  9
$CHAMFERB
 40
0.5
  9
$CHAMFERC
 40
1.0
  9
$CHAMFERD
 40
0.0
  9
$SKPOLY
 70
     0
  9
$TDCREATE
 40
2458857.904856088
  9
$TDUCREATE
 40
2458857.363189421
  9
$TDUPDATE
 40
2458857.904856354
  9
$TDUUPDATE
 40
2458857.363189687
  9
$TDINDWG
 40
0.0000000116
  9
$TDUSRTIMER
 40
0.0000000116
  9
$USRTIMER
 70
     1
  9
$ANGBASE
 50
0.0
  9
$ANGDIR
 70
     0
  9
$PDMODE
 70
     0
  9
$PDSIZE
 40
0.0
  9
$PLINEWID
 40
0.0
  9
$SPLFRAME
 70
     0
  9
$SPLINETYPE
 70
     6
  9
$SPLINESEGS
 70
     8
  9
$HANDSEED
  5
321
  9
$SURFTAB1
 70
     6
  9
$SURFTAB2
 70
     6
  9
$SURFTYPE
 70
     6
  9
$SURFU
 70
     6
  9
$SURFV
 70
     6
  9
$UCSBASE
  2

  9
$UCSNAME
  2

  9
$UCSORG
 10
0.0
 20
0.0
 30
0.0
  9
$UCSXDIR
 10
1.0
 20
0.0
 30
0.0
  9
$UCSYDIR
 10
0.0
 20
1.0
 30
0.0
  9
$UCSORTHOREF
  2

  9
$UCSORTHOVIEW
 70
     0
  9
$UCSORGTOP
 10
0.0
 20
0.0
 30
0.0
  9
$UCSORGBOTTOM
 10
0.0
 20
0.0
 30
0.0
  9
$UCSORGLEFT
 10
0.0
 20
0.0
 30
0.0
  9
$UCSORGRIGHT
 10
0.0
 20
0.0
 30
0.0
  9
$UCSORGFRONT
 10
0.0
 20
0.0
 30
0.0
  9
$UCSORGBACK
 10
0.0
 20
0.0
 30
0.0
  9
$PUCSBASE
  2

  9
$PUCSNAME
  2

  9
$PUCSORG
 10
0.0
 20
0.0
 30
0.0
  9
$PUCSXDIR
 10
1.0
 20
0.0
 30
0.0
  9
$PUCSYDIR
 10
0.0
 20
1.0
 30
0.0
  9
$PUCSORTHOREF
  2

  9
$PUCSORTHOVIEW
 70
     0
  9
$PUCSORGTOP
 10
0.0
 20
0.0
 30
0.0
  9
$PUCSORGBOTTOM
 10
0.0
 20
0.0
 30
0.0
  9
$PUCSORGLEFT
 10
0.0
 20
0.0
 30
0.0
  9
$PUCSORGRIGHT
 10
0.0
 20
0.0
 30
0.0
  9
$PUCSORGFRONT
 10
0.0
 20
0.0
 30
0.0
  9
$PUCSORGBACK
 10
0.0
 20
0.0
 30
0.0
  9
$USERI1
 70
     0
  9
$USERI2
 70
     0
  9
$USERI3
 70
     0
  9
$USERI4
 70
     0
  9
$USERI5
 70
     0
  9
$USERR1
 40
0.0
  9
$USERR2
 40
0.0
  9
$USERR3
 40
0.0
  9
$USERR4
 40
0.0
  9
$USERR5
 40
0.0
  9
$WORLDVIEW
 70
     1
  9
$SHADEDGE
 70
     3
  9
$SHADEDIF
 70
    70
  9
$TILEMODE
 70
     1
  9
$MAXACTVP
 70
    64
  9
$PINSBASE
 10
0.0
 20
0.0
 30
0.0
  9
$PLIMCHECK
 70
     0
  9
$PEXTMIN
 10
1.000000000000000E+20
 20
1.000000000000000E+20
 30
1.000000000000000E+20
  9
$PEXTMAX
 10
-1.000000000000000E+20
 20
-1.000000000000000E+20
 30
-1.000000000000000E+20
  9
$PLIMMIN
 10
0.0
 20
0.0
  9
$PLIMMAX
 10
12.0
 20
9.0
  9
$UNITMODE
 70
     0
  9
$VISRETAIN
 70
     1
  9
$PLINEGEN
 70
     0
  9
$PSLTSCALE
 70
     1
  9
$TREEDEPTH
 70
  3020
  9
$CMLSTYLE
  2
Standard
  9
$CMLJUST
 70
     0
  9
$CMLSCALE
 40
1.0
  9
$PROXYGRAPHICS
 70
     1
  9
$MEASUREMENT
 70
     0
  9
$CELWEIGHT
370
    -1
  9
$ENDCAPS
280
     0
  9
$JOINSTYLE
280
     0
  9
$LWDISPLAY
290
     1
  9
$INSUNITS
 70
     0
  9
$HYPERLINKBASE
  1

  9
$STYLESHEET
  1

  9
$XEDIT
290
     1
  9
$CEPSNTYPE
380
     0
  9
$PSTYLEMODE
290
     1
  9
$FINGERPRINTGUID
  2
{4D73B40D-C286-4EE6-831F-EDE3364C61D2}
  9
$VERSIONGUID
  2
{FAEB1C32-E019-11D5-929B-00C0DF256EC4}
  9
$EXTNAMES
290
     1
  9
$PSVPSCALE
 40
0.0
  9
$OLESTARTUP
290
     0
  9
$SORTENTS
280
   127
  9
$INDEXCTL
280
     0
  9
$HIDETEXT
280
     1
  9
$XCLIPFRAME
280
     2
  9
$HALOGAP
280
     0
  9
$OBSCOLOR
 70
   257
  9
$OBSLTYPE
280
     0
  9
$INTERSECTIONDISPLAY
280
     0
  9
$INTERSECTIONCOLOR
 70
   257
  9
$DIMASSOC
280
     2
  9
$PROJECTNAME
  1

  9
$CAMERADISPLAY
290
     0
  9
$LENSLENGTH
 40
50.0
  9
$CAMERAHEIGHT
 40
0.0
  9
$STEPSPERSEC
 40
2.0
  9
$STEPSIZE
 40
6.0
  9
$3DDWFPREC
 40
2.0
  9
$PSOLWIDTH
 40
0.25
  9
$PSOLHEIGHT
 40
4.0
  9
$LOFTANG1
 40
1.570796326794897
  9
$LOFTANG2
 40
1.570796326794897
  9
$LOFTMAG1
 40
0.0
  9
$LOFTMAG2
 40
0.0
  9
$LOFTPARAM
 70
     7
  9
$LOFTNORMALS
280
     1
  9
$LATITUDE
 40
37.795
  9
$LONGITUDE
 40
-122.394
  9
$NORTHDIRECTION
 40
0.0
  9
$TIMEZONE
 70
 -8000
  9
$LIGHTGLYPHDISPLAY
280
     1
  9
$TILEMODELIGHTSYNCH
280
     1
  9
$CMATERIAL
347
3C
  9
$SOLIDHIST
280
     1
  9
$SHOWHIST
280
     1
  9
$DWFFRAME
280
     2
  9
$DGNFRAME
280
     2
  9
$REALWORLDSCALE
290
     1
  9
$INTERFERECOLOR
 62
   256
  9
$CSHADOW
280
     0
  9
$SHADOWPLANELOCATION
 40
0.0
  0
ENDSEC
  0
SECTION
  2
CLASSES
  0
CLASS
  1
ACDBDICTIONARYWDFLT
  2
AcDbDictionaryWithDefault
  3
ObjectDBX Classes
 90
        0
 91
        4
280
     0
281
     0
  0
CLASS
  1
VISUALSTYLE
  2
AcDbVisualStyle
  3
ObjectDBX Classes
 90
     4095
 91
        4
280
     0
281
     0
  0
CLASS
  1
MATERIAL
  2
AcDbMaterial
  3
ObjectDBX Classes
 90
     1153
 91
        4
280
     0
281
     0
  0
CLASS
  1
SUN
  2
AcDbSun
  3
SCENEOE
 90
     1024
 91
        4
280
     0
281
     0
  0
ENDSEC
  0
SECTION
  2
TABLES
  0
TABLE
  2
VPORT
  5
8
330
0
100
AcDbSymbolTable
 70
     1
  0
VPORT
  5
29
330
8
100
AcDbSymbolTableRecord
100
AcDbViewportTableRecord
  2
*Active
 70
     0
 10
0.0
 20
0.0
 11
1.0
 21
1.0
 12
0.0
 22
0.0
 13
0.0
 23
0.0
 14
0.5
 24
0.5
 15
0.5
 25
0.5
 16
0.0
 26
0.0
 36
1.0
 17
305.9999922697898
 27
419.4380894041024
 37
0.0
 40
841.8897637795271
 41
0.7070707070707065
 42
50.0
 43
0.0
 44
0.0
 50
0.0
 51
0.0
 71
     0
 72
   100
 73
     1
 74
     3
 75
     0
 76
     0
 77
     0
 78
     0
281
     0
 65
     1
110
0.0
120
0.0
130
0.0
111
1.0
121
0.0
131
0.0
112
0.0
122
1.0
132
0.0
 79
     0
146
0.0
 60
     3
 61
     5
292
     1
282
     1
141
0.0
142
0.0
 63
   250
361
3F
  0
ENDTAB
  0
TABLE
  2
LTYPE
  5
5
330
0
100
AcDbSymbolTable
 70
     1
  0
LTYPE
  5
14
330
5
100
AcDbSymbolTableRecord
100
AcDbLinetypeTableRecord
  2
ByBlock
 70
     0
  3

 72
    65
 73
     0
 40
0.0
  0
LTYPE
  5
15
330
5
100
AcDbSymbolTableRecord
100
AcDbLinetypeTableRecord
  2
ByLayer
 70
     0
  3

 72
    65
 73
     0
 40
0.0
  0
LTYPE
  5
16
330
5
100
AcDbSymbolTableRecord
100
AcDbLinetypeTableRecord
  2
Continuous
 70
     0
  3
Solid line
 72
    65
 73
     0
 40
0.0
  0
ENDTAB
  0
TABLE
  2
LAYER
  5
2
330
0
100
AcDbSymbolTable
 70
     4
  0
LAYER
  5
10
330
2
100
AcDbSymbolTableRecord
100
AcDbLayerTableRecord
  2
0
 70
     0
 62
     7
  6
Continuous
370
    -3
390
F
347
3E
  0
LAYER
  5
40
330
2
100
AcDbSymbolTableRecord
100
AcDbLayerTableRecord
  2
Woods
 70
     0
 62
     7
  6
Continuous
370
    -3
390
F
347
3E
  0
LAYER
  5
1D3
330
2
100
AcDbSymbolTableRecord
100
AcDbLayerTableRecord
  2
APVA4
 70
     0
 62
     7
  6
Continuous
370
    -3
390
F
347
3E
  0
LAYER
  5
30D
330
2
100
AcDbSymbolTableRecord
100
AcDbLayerTableRecord
  2
Layer 3
 70
     0
 62
     7
  6
Continuous
370
    -3
390
F
347
3E
  0
ENDTAB
  0
TABLE
  2
STYLE
  5
3
330
0
100
AcDbSymbolTable
 70
     1
  0
STYLE
  5
11
330
3
100
AcDbSymbolTableRecord
100
AcDbTextStyleTableRecord
  2
Standard
 70
     0
 40
0.0
 41
1.0
 50
0.0
 71
     0
 42
0.2
  3
txt
  4

  0
ENDTAB
  0
TABLE
  2
VIEW
  5
6
330
0
100
AcDbSymbolTable
 70
     0
  0
ENDTAB
  0
TABLE
  2
UCS
  5
7
330
0
100
AcDbSymbolTable
 70
     0
  0
ENDTAB
  0
TABLE
  2
APPID
  5
9
330
0
100
AcDbSymbolTable
 70
     1
  0
APPID
  5
12
330
9
100
AcDbSymbolTableRecord
100
AcDbRegAppTableRecord
  2
ACAD
 70
     0
  0
ENDTAB
  0
TABLE
  2
DIMSTYLE
  5
A
330
0
100
AcDbSymbolTable
 70
     1
100
AcDbDimStyleTable
  0
DIMSTYLE
105
27
330
A
100
AcDbSymbolTableRecord
100
AcDbDimStyleTableRecord
  2
Standard
 70
     0
178
     0
340
11
  0
ENDTAB
  0
TABLE
  2
BLOCK_RECORD
  5
1
330
0
100
AcDbSymbolTable
 70
    32
  0
BLOCK_RECORD
  5
1F
330
1
100
AcDbSymbolTableRecord
100
AcDbBlockTableRecord
  2
*Model_Space
340
22
 70
     0
280
     1
281
     0
  0
BLOCK_RECORD
  5
1B
330
1
100
AcDbSymbolTableRecord
100
AcDbBlockTableRecord
  2
*Paper_Space
340
1E
 70
     0
280
     1
281
     0
  0
BLOCK_RECORD
  5
23
330
1
100
AcDbSymbolTableRecord
100
AcDbBlockTableRecord
  2
*Paper_Space0
340
26
 70
     0
280
     1
281
     0
  0
BLOCK_RECORD
  5
41
330
1
100
AcDbSymbolTableRecord
100
AcDbBlockTableRecord
  2
block 2
340
0
102
{BLKREFS
331
42
102
}
 70
     0
280
     1
281
     0
  0
BLOCK_RECORD
  5
45
330
1
100
AcDbSymbolTableRecord
100
AcDbBlockTableRecord
  2
block 3
340
0
102
{BLKREFS
331
46
102
}
 70
     0
280
     1
281
     0
  0
BLOCK_RECORD
  5
5B
330
1
100
AcDbSymbolTableRecord
100
AcDbBlockTableRecord
  2
block 4
340
0
102
{BLKREFS
331
5C
102
}
 70
     0
280
     1
281
     0
  0
BLOCK_RECORD
  5
63
330
1
100
AcDbSymbolTableRecord
100
AcDbBlockTableRecord
  2
block 5
340
0
102
{BLKREFS
331
64
102
}
 70
     0
280
     1
281
     0
  0
BLOCK_RECORD
  5
6B
330
1
100
AcDbSymbolTableRecord
100
AcDbBlockTableRecord
  2
block 6
340
0
102
{BLKREFS
331
6C
102
}
 70
     0
280
     1
281
     0
  0
BLOCK_RECORD
  5
73
330
1
100
AcDbSymbolTableRecord
100
AcDbBlockTableRecord
  2
block 7
340
0
102
{BLKREFS
331
74
102
}
 70
     0
280
     1
281
     0
  0
BLOCK_RECORD
  5
7B
330
1
100
AcDbSymbolTableRecord
100
AcDbBlockTableRecord
  2
block 8
340
0
102
{BLKREFS
331
7C
102
}
 70
     0
280
     1
281
     0
  0
BLOCK_RECORD
  5
83
330
1
100
AcDbSymbolTableRecord
100
AcDbBlockTableRecord
  2
block 9
340
0
102
{BLKREFS
331
84
102
}
 70
     0
280
     1
281
     0
  0
BLOCK_RECORD
  5
109
330
1
100
AcDbSymbolTableRecord
100
AcDbBlockTableRecord
  2
block 10
340
0
102
{BLKREFS
331
10A
102
}
 70
     0
280
     1
281
     0
  0
BLOCK_RECORD
  5
140
330
1
100
AcDbSymbolTableRecord
100
AcDbBlockTableRecord
  2
block 11
340
0
102
{BLKREFS
331
141
102
}
 70
     0
280
     1
281
     0
  0
BLOCK_RECORD
  5
1D4
330
1
100
AcDbSymbolTableRecord
100
AcDbBlockTableRecord
  2
block 12
340
0
102
{BLKREFS
331
1D5
102
}
 70
     0
280
     1
281
     0
  0
BLOCK_RECORD
  5
1ED
330
1
100
AcDbSymbolTableRecord
100
AcDbBlockTableRecord
  2
block 13
340
0
102
{BLKREFS
331
1EE
102
}
 70
     0
280
     1
281
     0
  0
BLOCK_RECORD
  5
1F1
330
1
100
AcDbSymbolTableRecord
100
AcDbBlockTableRecord
  2
block 14
340
0
102
{BLKREFS
331
1F2
102
}
 70
     0
280
     1
281
     0
  0
BLOCK_RECORD
  5
1F8
330
1
100
AcDbSymbolTableRecord
100
AcDbBlockTableRecord
  2
block 15
340
0
102
{BLKREFS
331
1F9
102
}
 70
     0
280
     1
281
     0
  0
BLOCK_RECORD
  5
220
330
1
100
AcDbSymbolTableRecord
100
AcDbBlockTableRecord
  2
block 16
340
0
102
{BLKREFS
331
221
102
}
 70
     0
280
     1
281
     0
  0
BLOCK_RECORD
  5
224
330
1
100
AcDbSymbolTableRecord
100
AcDbBlockTableRecord
  2
block 17
340
0
102
{BLKREFS
331
225
102
}
 70
     0
280
     1
281
     0
  0
BLOCK_RECORD
  5
236
330
1
100
AcDbSymbolTableRecord
100
AcDbBlockTableRecord
  2
block 18
340
0
102
{BLKREFS
331
237
102
}
 70
     0
280
     1
281
     0
  0
BLOCK_RECORD
  5
241
330
1
100
AcDbSymbolTableRecord
100
AcDbBlockTableRecord
  2
block 19
340
0
102
{BLKREFS
331
242
102
}
 70
     0
280
     1
281
     0
  0
BLOCK_RECORD
  5
245
330
1
100
AcDbSymbolTableRecord
100
AcDbBlockTableRecord
  2
block 20
340
0
102
{BLKREFS
331
246
102
}
 70
     0
280
     1
281
     0
  0
BLOCK_RECORD
  5
24C
330
1
100
AcDbSymbolTableRecord
100
AcDbBlockTableRecord
  2
block 21
340
0
102
{BLKREFS
331
24D
102
}
 70
     0
280
     1
281
     0
  0
BLOCK_RECORD
  5
250
330
1
100
AcDbSymbolTableRecord
100
AcDbBlockTableRecord
  2
block 22
340
0
102
{BLKREFS
331
251
102
}
 70
     0
280
     1
281
     0
  0
BLOCK_RECORD
  5
258
330
1
100
AcDbSymbolTableRecord
100
AcDbBlockTableRecord
  2
block 23
340
0
102
{BLKREFS
331
259
102
}
 70
     0
280
     1
281
     0
  0
BLOCK_RECORD
  5
284
330
1
100
AcDbSymbolTableRecord
100
AcDbBlockTableRecord
  2
block 24
340
0
102
{BLKREFS
331
285
102
}
 70
     0
280
     1
281
     0
  0
BLOCK_RECORD
  5
288
330
1
100
AcDbSymbolTableRecord
100
AcDbBlockTableRecord
  2
block 25
340
0
102
{BLKREFS
331
289
102
}
 70
     0
280
     1
281
     0
  0
BLOCK_RECORD
  5
29A
330
1
100
AcDbSymbolTableRecord
100
AcDbBlockTableRecord
  2
block 26
340
0
102
{BLKREFS
331
29B
102
}
 70
     0
280
     1
281
     0
  0
BLOCK_RECORD
  5
2AC
330
1
100
AcDbSymbolTableRecord
100
AcDbBlockTableRecord
  2
block 27
340
0
102
{BLKREFS
331
2AD
102
}
 70
     0
280
     1
281
     0
  0
BLOCK_RECORD
  5
2B0
330
1
100
AcDbSymbolTableRecord
100
AcDbBlockTableRecord
  2
block 28
340
0
102
{BLKREFS
331
2B1
102
}
 70
     0
280
     1
281
     0
  0
BLOCK_RECORD
  5
2B7
330
1
100
AcDbSymbolTableRecord
100
AcDbBlockTableRecord
  2
block 29
340
0
102
{BLKREFS
331
2B8
102
}
 70
     0
280
     1
281
     0
  0
BLOCK_RECORD
  5
2EC
330
1
100
AcDbSymbolTableRecord
100
AcDbBlockTableRecord
  2
block 30
340
0
102
{BLKREFS
331
2ED
102
}
 70
     0
280
     1
281
     0
  0
BLOCK_RECORD
  5
2F0
330
1
100
AcDbSymbolTableRecord
100
AcDbBlockTableRecord
  2
block 31
340
0
102
{BLKREFS
331
2F1
102
}
 70
     0
280
     1
281
     0
  0
BLOCK_RECORD
  5
302
330
1
100
AcDbSymbolTableRecord
100
AcDbBlockTableRecord
  2
block 32
340
0
102
{BLKREFS
331
303
102
}
 70
     0
280
     1
281
     0
  0
ENDTAB
  0
ENDSEC
  0
SECTION
  2
BLOCKS
  0
BLOCK
  5
20
330
1F
100
AcDbEntity
  8
0
100
AcDbBlockBegin
  2
*Model_Space
 70
     0
 10
0.0
 20
0.0
 30
0.0
  3
*Model_Space
  1

  0
ENDBLK
  5
21
330
1F
100
AcDbEntity
  8
0
100
AcDbBlockEnd
  0
BLOCK
  5
1C
330
1B
100
AcDbEntity
 67
     1
  8
0
100
AcDbBlockBegin
  2
*Paper_Space
 70
     0
 10
0.0
 20
0.0
 30
0.0
  3
*Paper_Space
  1

  0
ENDBLK
  5
1D
330
1B
100
AcDbEntity
 67
     1
  8
0
100
AcDbBlockEnd
  0
BLOCK
  5
24
330
23
100
AcDbEntity
  8
0
100
AcDbBlockBegin
  2
*Paper_Space0
 70
     0
 10
0.0
 20
0.0
 30
0.0
  3
*Paper_Space0
  1

  0
ENDBLK
  5
25
330
23
100
AcDbEntity
  8
0
100
AcDbBlockEnd
  0
BLOCK
  5
43
330
41
100
AcDbEntity
  8
0
100
AcDbBlockBegin
  2
block 2
 70
     0
 10
0.0
 20
0.0
 30
0.0
  3
block 2
  1

  0
INSERT
  5
46
330
41
100
AcDbEntity
  8
Woods
100
AcDbBlockReference
  2
block 3
 10
0.0
 20
0.0
 30
0.0
  0
INSERT
  5
5C
330
41
100
AcDbEntity
  8
Woods
100
AcDbBlockReference
  2
block 4
 10
0.0
 20
0.0
 30
0.0
  0
INSERT
  5
64
330
41
100
AcDbEntity
  8
Woods
100
AcDbBlockReference
  2
block 5
 10
0.0
 20
0.0
 30
0.0
  0
INSERT
  5
6C
330
41
100
AcDbEntity
  8
Woods
100
AcDbBlockReference
  2
block 6
 10
0.0
 20
0.0
 30
0.0
  0
INSERT
  5
74
330
41
100
AcDbEntity
  8
Woods
100
AcDbBlockReference
  2
block 7
 10
0.0
 20
0.0
 30
0.0
  0
INSERT
  5
7C
330
41
100
AcDbEntity
  8
Woods
100
AcDbBlockReference
  2
block 8
 10
0.0
 20
0.0
 30
0.0
  0
INSERT
  5
84
330
41
100
AcDbEntity
  8
Woods
100
AcDbBlockReference
  2
block 9
 10
0.0
 20
0.0
 30
0.0
  0
POLYLINE
  5
90
330
41
100
AcDbEntity
  8
Woods
 62
   250
420
  2301728
370
     9
100
AcDb2dPolyline
 66
     1
 10
0.0
 20
0.0
 30
0.0
  0
VERTEX
  5
91
330
90
100
AcDbEntity
  8
Woods
 62
   250
420
  2301728
370
     9
100
AcDbVertex
100
AcDb2dVertex
 10
389.9454720015274
 20
619.2165598500624
 30
0.0
  0
VERTEX
  5
92
330
90
100
AcDbEntity
  8
Woods
 62
   250
420
  2301728
370
     9
100
AcDbVertex
100
AcDb2dVertex
 10
394.871341822809
 20
623.8376547127418
 30
0.0
  0
VERTEX
  5
93
330
90
100
AcDbEntity
  8
Woods
 62
   250
420
  2301728
370
     9
100
AcDbVertex
100
AcDb2dVertex
 10
397.3425325011958
 20
629.7156982567321
 30
0.0
  0
SEQEND
  5
94
330
90
100
AcDbEntity
  8
Woods
 62
   250
420
  2301728
370
     9
  0
POLYLINE
  5
95
330
41
100
AcDbEntity
  8
Woods
 62
   250
420
  2301728
370
     9
100
AcDb2dPolyline
 66
     1
 10
0.0
 20
0.0
 30
0.0
  0
VERTEX
  5
96
330
95
100
AcDbEntity
  8
Woods
 62
   250
420
  2301728
370
     9
100
AcDbVertex
100
AcDb2dVertex
 10
389.9454720015274
 20
608.9988038470892
 30
0.0
  0
VERTEX
  5
97
330
95
100
AcDbEntity
  8
Woods
 62
   250
420
  2301728
370
     9
100
AcDbVertex
100
AcDb2dVertex
 10
398.8249054600292
 20
617.3167258215981
 30
0.0
  0
VERTEX
  5
98
330
95
100
AcDbEntity
  8
Woods
 62
   250
420
  2301728
370
     9
100
AcDbVertex
100
AcDb2dVertex
 10
404.5218873325393
 20
627.7822756590858
 30
0.0
  0
SEQEND
  5
99
330
95
100
AcDbEntity
  8
Woods
 62
   250
420
  2301728
370
     9
  0
POLYLINE
  5
9A
330
41
100
AcDbEntity
  8
Woods
 62
   250
420
  2301728
370
     9
100
AcDb2dPolyline
 66
     1
 10
0.0
 20
0.0
 30
0.0
  0
VERTEX
  5
9B
330
9A
100
AcDbEntity
  8
Woods
 62
   250
420
  2301728
370
     9
100
AcDbVertex
100
AcDb2dVertex
 10
389.9454720015274
 20
598.3702531440504
 30
0.0
  0
VERTEX
  5
9C
330
9A
100
AcDbEntity
  8
Woods
 62
   250
420
  2301728
370
     9
100
AcDbVertex
100
AcDb2dVertex
 10
404.5218873325393
 20
608.9988038470892
 30
0.0
  0
VERTEX
  5
9D
330
9A
100
AcDbEntity
  8
Woods
 62
   250
420
  2301728
370
     9
100
AcDbVertex
100
AcDb2dVertex
 10
407.7590601332322
 20
616.8546325947682
 30
0.0
  0
VERTEX
  5
9E
330
9A
100
AcDbEntity
  8
Woods
 62
   250
420
  2301728
370
     9
100
AcDbVertex
100
AcDb2dVertex
 10
412.7138799600452
 20
625.5761138194503
 30
0.0
  0
SEQEND
  5
9F
330
9A
100
AcDbEntity
  8
Woods
 62
   250
420
  2301728
370
     9
  0
POLYLINE
  5
A0
330
41
100
AcDbEntity
  8
Woods
 62
   250
420
  2301728
370
     9
100
AcDb2dPolyline
 66
     1
 10
0.0
 20
0.0
 30
0.0
  0
VERTEX
  5
A1
330
A0
100
AcDbEntity
  8
Woods
 62
   250
420
  2301728
370
     9
100
AcDbVertex
100
AcDb2dVertex
 10
389.9454720015274
 20
589.1279821215021
 30
0.0
  0
VERTEX
  5
A2
330
A0
100
AcDbEntity
  8
Woods
 62
   250
420
  2301728
370
     9
100
AcDbVertex
100
AcDb2dVertex
 10
408.5292697094083
 20
599.4484977723841
 30
0.0
  0
VERTEX
  5
A3
330
A0
100
AcDbEntity
  8
Woods
 62
   250
420
  2301728
370
     9
100
AcDbVertex
100
AcDb2dVertex
 10
418.5415877137548
 20
611.9731428331561
 30
0.0
  0
VERTEX
  5
A4
330
A0
100
AcDbEntity
  8
Woods
 62
   250
420
  2301728
370
     9
100
AcDbVertex
100
AcDb2dVertex
 10
422.2197164719291
 20
623.0161466098007
 30
0.0
  0
SEQEND
  5
A5
330
A0
100
AcDbEntity
  8
Woods
 62
   250
420
  2301728
370
     9
  0
POLYLINE
  5
A6
330
41
100
AcDbEntity
  8
Woods
 62
   250
420
  2301728
370
     9
100
AcDb2dPolyline
 66
     1
 10
0.0
 20
0.0
 30
0.0
  0
VERTEX
  5
A7
330
A6
100
AcDbEntity
  8
Woods
 62
   250
420
  2301728
370
     9
100
AcDbVertex
100
AcDb2dVertex
 10
431.7642504461601
 20
620.4456920626671
 30
0.0
  0
VERTEX
  5
A8
330
A6
100
AcDbEntity
  8
Woods
 62
   250
420
  2301728
370
     9
100
AcDbVertex
100
AcDb2dVertex
 10
429.2811182805381
 20
614.9035000395397
 30
0.0
  0
VERTEX
  5
A9
330
A6
100
AcDbEntity
  8
Woods
 62
   250
420
  2301728
370
     9
100
AcDbVertex
100
AcDb2dVertex
 10
423.1113840496691
 20
602.8886696560112
 30
0.0
  0
VERTEX
  5
AA
330
A6
100
AcDbEntity
  8
Woods
 62
   250
420
  2301728
370
     9
100
AcDbVertex
100
AcDb2dVertex
 10
405.2430747032649
 20
588.0934753812817
 30
0.0
  0
VERTEX
  5
AB
330
A6
100
AcDbEntity
  8
Woods
 62
   250
420
  2301728
370
     9
100
AcDbVertex
100
AcDb2dVertex
 10
399.2760235662372
 20
585.6832575952458
 30
0.0
  0
VERTEX
  5
AC
330
A6
100
AcDbEntity
  8
Woods
 62
   250
420
  2301728
370
     9
100
AcDbVertex
100
AcDb2dVertex
 10
402.2136975197027
 20
583.7367589798359
 30
0.0
  0
VERTEX
  5
AD
330
A6
100
AcDbEntity
  8
Woods
 62
   250
420
  2301728
370
     9
100
AcDbVertex
100
AcDb2dVertex
 10
403.0861789606497
 20
582.5255121489881
 30
0.0
  0
SEQEND
  5
AE
330
A6
100
AcDbEntity
  8
Woods
 62
   250
420
  2301728
370
     9
  0
POLYLINE
  5
AF
330
41
100
AcDbEntity
  8
Woods
 62
   250
420
  2301728
370
     9
100
AcDb2dPolyline
 66
     1
 10
0.0
 20
0.0
 30
0.0
  0
VERTEX
  5
B0
330
AF
100
AcDbEntity
  8
Woods
 62
   250
420
  2301728
370
     9
100
AcDbVertex
100
AcDb2dVertex
 10
412.7138799600452
 20
580.044240619065
 30
0.0
  0
VERTEX
  5
B1
330
AF
100
AcDbEntity
  8
Woods
 62
   250
420
  2301728
370
     9
100
AcDbVertex
100
AcDb2dVertex
 10
411.6870151556668
 20
581.7532701430664
 30
0.0
  0
VERTEX
  5
B2
330
AF
100
AcDbEntity
  8
Woods
 62
   250
420
  2301728
370
     9
100
AcDbVertex
100
AcDb2dVertex
 10
409.9560353904199
 20
582.9244374593418
 30
0.0
  0
VERTEX
  5
B3
330
AF
100
AcDbEntity
  8
Woods
 62
   250
420
  2301728
370
     9
100
AcDbVertex
100
AcDb2dVertex
 10
425.1651949556162
 20
591.5925877275149
 30
0.0
  0
VERTEX
  5
B4
330
AF
100
AcDbEntity
  8
Woods
 62
   250
420
  2301728
370
     9
100
AcDbVertex
100
AcDb2dVertex
 10
434.4073846809752
 20
608.023237569475
 30
0.0
  0
VERTEX
  5
B5
330
AF
100
AcDbEntity
  8
Woods
 62
   250
420
  2301728
370
     9
100
AcDbVertex
100
AcDb2dVertex
 10
441.3133370630185
 20
617.8740993548754
 30
0.0
  0
SEQEND
  5
B6
330
AF
100
AcDbEntity
  8
Woods
 62
   250
420
  2301728
370
     9
  0
POLYLINE
  5
B7
330
41
100
AcDbEntity
  8
Woods
 62
   250
420
  2301728
370
     9
100
AcDb2dPolyline
 66
     1
 10
0.0
 20
0.0
 30
0.0
  0
VERTEX
  5
B8
330
B7
100
AcDbEntity
  8
Woods
 62
   250
420
  2301728
370
     9
100
AcDbVertex
100
AcDb2dVertex
 10
421.915827576453
 20
577.672638998185
 30
0.0
  0
VERTEX
  5
B9
330
B7
100
AcDbEntity
  8
Woods
 62
   250
420
  2301728
370
     9
100
AcDbVertex
100
AcDb2dVertex
 10
421.9304610706167
 20
578.9616059424825
 30
0.0
  0
VERTEX
  5
BA
330
B7
100
AcDbEntity
  8
Woods
 62
   250
420
  2301728
370
     9
100
AcDbVertex
100
AcDb2dVertex
 10
420.6641760422735
 20
580.1583818735462
 30
0.0
  0
VERTEX
  5
BB
330
B7
100
AcDbEntity
  8
Woods
 62
   250
420
  2301728
370
     9
100
AcDbVertex
100
AcDb2dVertex
 10
436.3585172362054
 20
593.3383635813061
 30
0.0
  0
VERTEX
  5
BC
330
B7
100
AcDbEntity
  8
Woods
 62
   250
420
  2301728
370
     9
100
AcDbVertex
100
AcDb2dVertex
 10
446.0115016616292
 20
609.6662537753573
 30
0.0
  0
VERTEX
  5
BD
330
B7
100
AcDbEntity
  8
Woods
 62
   250
420
  2301728
370
     9
100
AcDbVertex
100
AcDb2dVertex
 10
448.6000854820886
 20
613.363162184376
 30
0.0
  0
SEQEND
  5
BE
330
B7
100
AcDbEntity
  8
Woods
 62
   250
420
  2301728
370
     9
  0
POLYLINE
  5
BF
330
41
100
AcDbEntity
  8
Woods
 62
   250
420
  2301728
370
     9
100
AcDb2dPolyline
 66
     1
 10
0.0
 20
0.0
 30
0.0
  0
VERTEX
  5
C0
330
BF
100
AcDbEntity
  8
Woods
 62
   250
420
  2301728
370
     9
100
AcDbVertex
100
AcDb2dVertex
 10
432.3986937153677
 20
574.970982233538
 30
0.0
  0
VERTEX
  5
C1
330
BF
100
AcDbEntity
  8
Woods
 62
   250
420
  2301728
370
     9
100
AcDbVertex
100
AcDb2dVertex
 10
432.6745350803631
 20
576.1504304163473
 30
0.0
  0
VERTEX
  5
C2
330
BF
100
AcDbEntity
  8
Woods
 62
   250
420
  2301728
370
     9
100
AcDbVertex
100
AcDb2dVertex
 10
431.7642504461601
 20
577.2910299892583
 30
0.0
  0
VERTEX
  5
C3
330
BF
100
AcDbEntity
  8
Woods
 62
   250
420
  2301728
370
     9
100
AcDbVertex
100
AcDb2dVertex
 10
442.1092365511722
 20
586.0473064111757
 30
0.0
  0
VERTEX
  5
C4
330
BF
100
AcDbEntity
  8
Woods
 62
   250
420
  2301728
370
     9
100
AcDbVertex
100
AcDb2dVertex
 10
448.6000854820886
 20
598.3702531440504
 30
0.0
  0
SEQEND
  5
C5
330
BF
100
AcDbEntity
  8
Woods
 62
   250
420
  2301728
370
     9
  0
POLYLINE
  5
C6
330
41
100
AcDbEntity
  8
Woods
 62
   250
420
  2301728
370
     9
100
AcDb2dPolyline
 66
     1
 10
0.0
 20
0.0
 30
0.0
  0
VERTEX
  5
C7
330
C6
100
AcDbEntity
  8
Woods
 62
   250
420
  2301728
370
     9
100
AcDbVertex
100
AcDb2dVertex
 10
441.79055156715
 20
572.5504282575712
 30
0.0
  0
VERTEX
  5
C8
330
C6
100
AcDbEntity
  8
Woods
 62
   250
420
  2301728
370
     9
100
AcDbVertex
100
AcDb2dVertex
 10
442.2119149018909
 20
573.570301503627
 30
0.0
  0
VERTEX
  5
C9
330
C6
100
AcDbEntity
  8
Woods
 62
   250
420
  2301728
370
     9
100
AcDbVertex
100
AcDb2dVertex
 10
441.9522516776651
 20
574.6593586582039
 30
0.0
  0
VERTEX
  5
CA
330
C6
100
AcDbEntity
  8
Woods
 62
   250
420
  2301728
370
     9
100
AcDbVertex
100
AcDb2dVertex
 10
446.5249747124126
 20
577.7293031394765
 30
0.0
  0
VERTEX
  5
CB
330
C6
100
AcDbEntity
  8
Woods
 62
   250
420
  2301728
370
     9
100
AcDbVertex
100
AcDb2dVertex
 10
448.6000854820886
 20
581.7532701430664
 30
0.0
  0
SEQEND
  5
CC
330
C6
100
AcDbEntity
  8
Woods
 62
   250
420
  2301728
370
     9
  0
POLYLINE
  5
CD
330
41
100
AcDbEntity
  8
Woods
 62
   250
420
  2301728
370
     9
100
AcDb2dPolyline
 66
     1
 10
0.0
 20
0.0
 30
0.0
  0
VERTEX
  5
CE
330
CD
100
AcDbEntity
  8
Woods
 62
   250
420
  2301728
370
     9
100
AcDbVertex
100
AcDb2dVertex
 10
450.8648625955702
 20
570.2117519985604
 30
0.0
  0
VERTEX
  5
CF
330
CD
100
AcDbEntity
  8
Woods
 62
   250
420
  2301728
370
     9
100
AcDbVertex
100
AcDb2dVertex
 10
450.8648625955702
 20
571.1056958976142
 30
0.0
  0
VERTEX
  5
D0
330
CD
100
AcDbEntity
  8
Woods
 62
   250
420
  2301728
370
     9
100
AcDbVertex
100
AcDb2dVertex
 10
449.9668538370261
 20
572.2984069691884
 30
0.0
  0
SEQEND
  5
D1
330
CD
100
AcDbEntity
  8
Woods
 62
   250
420
  2301728
370
     9
  0
POLYLINE
  5
D2
330
41
100
AcDbEntity
  8
Woods
 62
   250
420
  2301728
370
     9
100
AcDb2dPolyline
 66
     1
 10
0.0
 20
0.0
 30
0.0
  0
VERTEX
  5
D3
330
D2
100
AcDbEntity
  8
Woods
 62
   250
420
  2301728
370
     9
100
AcDbVertex
100
AcDb2dVertex
 10
387.862711090047
 20
570.8994449270886
 30
0.0
  0
VERTEX
  5
D4
330
D2
100
AcDbEntity
  8
Woods
 62
   250
420
  2301728
370
     9
100
AcDbVertex
100
AcDb2dVertex
 10
398.5168704078733
 20
574.4944879572868
 30
0.0
  0
VERTEX
  5
D5
330
D2
100
AcDbEntity
  8
Woods
 62
   250
420
  2301728
370
     9
100
AcDbVertex
100
AcDb2dVertex
 10
405.0634079138035
 20
581.7532701430664
 30
0.0
  0
SEQEND
  5
D6
330
D2
100
AcDbEntity
  8
Woods
 62
   250
420
  2301728
370
     9
  0
POLYLINE
  5
D7
330
41
100
AcDbEntity
  8
Woods
 62
   250
420
  2301728
370
     9
100
AcDb2dPolyline
 66
     1
 10
0.0
 20
0.0
 30
0.0
  0
VERTEX
  5
D8
330
D7
100
AcDbEntity
  8
Woods
 62
   250
420
  2301728
370
     9
100
AcDbVertex
100
AcDb2dVertex
 10
381.974193038368
 20
562.3916127172033
 30
0.0
  0
VERTEX
  5
D9
330
D7
100
AcDbEntity
  8
Woods
 62
   250
420
  2301728
370
     9
100
AcDbVertex
100
AcDb2dVertex
 10
397.3425325011958
 20
566.3305428602616
 30
0.0
  0
VERTEX
  5
DA
330
D7
100
AcDbEntity
  8
Woods
 62
   250
420
  2301728
370
     9
100
AcDbVertex
100
AcDb2dVertex
 10
409.3598018004177
 20
572.9420368208439
 30
0.0
  0
VERTEX
  5
DB
330
D7
100
AcDbEntity
  8
Woods
 62
   250
420
  2301728
370
     9
100
AcDbVertex
100
AcDb2dVertex
 10
414.0529259732612
 20
579.6991340483592
 30
0.0
  0
SEQEND
  5
DC
330
D7
100
AcDbEntity
  8
Woods
 62
   250
420
  2301728
370
     9
  0
POLYLINE
  5
DD
330
41
100
AcDbEntity
  8
Woods
 62
   250
420
  2301728
370
     9
100
AcDb2dPolyline
 66
     1
 10
0.0
 20
0.0
 30
0.0
  0
VERTEX
  5
DE
330
DD
100
AcDbEntity
  8
Woods
 62
   250
420
  2301728
370
     9
100
AcDbVertex
100
AcDb2dVertex
 10
388.1615595597559
 20
558.8645341376787
 30
0.0
  0
VERTEX
  5
DF
330
DD
100
AcDbEntity
  8
Woods
 62
   250
420
  2301728
370
     9
100
AcDbVertex
100
AcDb2dVertex
 10
389.6853940853907
 20
559.450280390196
 30
0.0
  0
VERTEX
  5
E0
330
DD
100
AcDbEntity
  8
Woods
 62
   250
420
  2301728
370
     9
100
AcDbVertex
100
AcDb2dVertex
 10
391.6905892718369
 20
559.9735091037564
 30
0.0
  0
VERTEX
  5
E1
330
DD
100
AcDbEntity
  8
Woods
 62
   250
420
  2301728
370
     9
100
AcDbVertex
100
AcDb2dVertex
 10
404.6013146869736
 20
562.859721936079
 30
0.0
  0
VERTEX
  5
E2
330
DD
100
AcDbEntity
  8
Woods
 62
   250
420
  2301728
370
     9
100
AcDbVertex
100
AcDb2dVertex
 10
417.38635464668
 20
568.2004595228782
 30
0.0
  0
VERTEX
  5
E3
330
DD
100
AcDbEntity
  8
Woods
 62
   250
420
  2301728
370
     9
100
AcDbVertex
100
AcDb2dVertex
 10
424.5574984618524
 20
576.9918563307892
 30
0.0
  0
SEQEND
  5
E4
330
DD
100
AcDbEntity
  8
Woods
 62
   250
420
  2301728
370
     9
  0
POLYLINE
  5
E5
330
41
100
AcDbEntity
  8
Woods
 62
   250
420
  2301728
370
     9
100
AcDb2dPolyline
 66
     1
 10
0.0
 20
0.0
 30
0.0
  0
VERTEX
  5
E6
330
E5
100
AcDbEntity
  8
Woods
 62
   250
420
  2301728
370
     9
100
AcDbVertex
100
AcDb2dVertex
 10
398.0135595058146
 20
555.978565196926
 30
0.0
  0
VERTEX
  5
E7
330
E5
100
AcDbEntity
  8
Woods
 62
   250
420
  2301728
370
     9
100
AcDbVertex
100
AcDb2dVertex
 10
400.8787163659781
 20
556.5748800841175
 30
0.0
  0
VERTEX
  5
E8
330
E5
100
AcDbEntity
  8
Woods
 62
   250
420
  2301728
370
     9
100
AcDbVertex
100
AcDb2dVertex
 10
401.3217860503937
 20
557.5766350642571
 30
0.0
  0
VERTEX
  5
E9
330
E5
100
AcDbEntity
  8
Woods
 62
   250
420
  2301728
370
     9
100
AcDbVertex
100
AcDb2dVertex
 10
422.4695427361894
 20
563.2498671499343
 30
0.0
  0
VERTEX
  5
EA
330
E5
100
AcDbEntity
  8
Woods
 62
   250
420
  2301728
370
     9
100
AcDbVertex
100
AcDb2dVertex
 10
431.7642504461601
 20
571.5469770438549
 30
0.0
  0
VERTEX
  5
EB
330
E5
100
AcDbEntity
  8
Woods
 62
   250
420
  2301728
370
     9
100
AcDbVertex
100
AcDb2dVertex
 10
434.022279892888
 20
574.4398562457409
 30
0.0
  0
SEQEND
  5
EC
330
E5
100
AcDbEntity
  8
Woods
 62
   250
420
  2301728
370
     9
  0
POLYLINE
  5
ED
330
41
100
AcDbEntity
  8
Woods
 62
   250
420
  2301728
370
     9
100
AcDb2dPolyline
 66
     1
 10
0.0
 20
0.0
 30
0.0
  0
VERTEX
  5
EE
330
ED
100
AcDbEntity
  8
Woods
 62
   250
420
  2301728
370
     9
100
AcDbVertex
100
AcDb2dVertex
 10
409.3598018004177
 20
553.1622679478332
 30
0.0
  0
VERTEX
  5
EF
330
ED
100
AcDbEntity
  8
Woods
 62
   250
420
  2301728
370
     9
100
AcDbVertex
100
AcDb2dVertex
 10
412.7138799600452
 20
553.5455029005561
 30
0.0
  0
VERTEX
  5
F0
330
ED
100
AcDbEntity
  8
Woods
 62
   250
420
  2301728
370
     9
100
AcDbVertex
100
AcDb2dVertex
 10
413.4966906006412
 20
554.5466887238235
 30
0.0
  0
VERTEX
  5
F1
330
ED
100
AcDbEntity
  8
Woods
 62
   250
420
  2301728
370
     9
100
AcDbVertex
100
AcDb2dVertex
 10
427.3435531563391
 20
557.0113646961609
 30
0.0
  0
VERTEX
  5
F2
330
ED
100
AcDbEntity
  8
Woods
 62
   250
420
  2301728
370
     9
100
AcDbVertex
100
AcDb2dVertex
 10
439.4135843317436
 20
567.1777408751805
 30
0.0
  0
VERTEX
  5
F3
330
ED
100
AcDbEntity
  8
Woods
 62
   250
420
  2301728
370
     9
100
AcDbVertex
100
AcDb2dVertex
 10
443.2448769955045
 20
572.1756482125884
 30
0.0
  0
SEQEND
  5
F4
330
ED
100
AcDbEntity
  8
Woods
 62
   250
420
  2301728
370
     9
  0
POLYLINE
  5
F5
330
41
100
AcDbEntity
  8
Woods
 62
   250
420
  2301728
370
     9
100
AcDb2dPolyline
 66
     1
 10
0.0
 20
0.0
 30
0.0
  0
VERTEX
  5
F6
330
F5
100
AcDbEntity
  8
Woods
 62
   250
420
  2301728
370
     9
100
AcDbVertex
100
AcDb2dVertex
 10
421.3957694532946
 20
550.1748401142086
 30
0.0
  0
VERTEX
  5
F7
330
F5
100
AcDbEntity
  8
Woods
 62
   250
420
  2301728
370
     9
100
AcDbVertex
100
AcDb2dVertex
 10
424.6261132900454
 20
550.7018084985002
 30
0.0
  0
VERTEX
  5
F8
330
F5
100
AcDbEntity
  8
Woods
 62
   250
420
  2301728
370
     9
100
AcDbVertex
100
AcDb2dVertex
 10
425.6778550345025
 20
551.5151164395529
 30
0.0
  0
VERTEX
  5
F9
330
F5
100
AcDbEntity
  8
Woods
 62
   250
420
  2301728
370
     9
100
AcDbVertex
100
AcDb2dVertex
 10
437.180106636335
 20
554.0846658633172
 30
0.0
  0
VERTEX
  5
FA
330
F5
100
AcDbEntity
  8
Woods
 62
   250
420
  2301728
370
     9
100
AcDbVertex
100
AcDb2dVertex
 10
446.0371915736068
 20
562.3916127172033
 30
0.0
  0
VERTEX
  5
FB
330
F5
100
AcDbEntity
  8
Woods
 62
   250
420
  2301728
370
     9
100
AcDbVertex
100
AcDb2dVertex
 10
452.921762794731
 20
569.681694321056
 30
0.0
  0
SEQEND
  5
FC
330
F5
100
AcDbEntity
  8
Woods
 62
   250
420
  2301728
370
     9
  0
POLYLINE
  5
FD
330
41
100
AcDbEntity
  8
Woods
 62
   250
420
  2301728
370
     9
100
AcDb2dPolyline
 66
     1
 10
0.0
 20
0.0
 30
0.0
  0
VERTEX
  5
FE
330
FD
100
AcDbEntity
  8
Woods
 62
   250
420
  2301728
370
     9
100
AcDbVertex
100
AcDb2dVertex
 10
432.1103325831427
 20
547.5153651442415
 30
0.0
  0
VERTEX
  5
FF
330
FD
100
AcDbEntity
  8
Woods
 62
   250
420
  2301728
370
     9
100
AcDbVertex
100
AcDb2dVertex
 10
435.1006058184103
 20
548.2926475759314
 30
0.0
  0
VERTEX
  5
100
330
FD
100
AcDbEntity
  8
Woods
 62
   250
420
  2301728
370
     9
100
AcDbVertex
100
AcDb2dVertex
 10
436.3911174093155
 20
548.8489642457407
 30
0.0
  0
VERTEX
  5
101
330
FD
100
AcDbEntity
  8
Woods
 62
   250
420
  2301728
370
     9
100
AcDbVertex
100
AcDb2dVertex
 10
438.6263836428989
 20
549.309523624529
 30
0.0
  0
VERTEX
  5
102
330
FD
100
AcDbEntity
  8
Woods
 62
   250
420
  2301728
370
     9
100
AcDbVertex
100
AcDb2dVertex
 10
442.8152213474059
 20
552.4533564527665
 30
0.0
  0
SEQEND
  5
103
330
FD
100
AcDbEntity
  8
Woods
 62
   250
420
  2301728
370
     9
  0
POLYLINE
  5
104
330
41
100
AcDbEntity
  8
Woods
 62
   250
420
  2301728
370
     9
100
AcDb2dPolyline
 66
     1
 10
0.0
 20
0.0
 30
0.0
  0
VERTEX
  5
105
330
104
100
AcDbEntity
  8
Woods
 62
   250
420
  2301728
370
     9
100
AcDbVertex
100
AcDb2dVertex
 10
440.1966388639084
 20
545.5082188252409
 30
0.0
  0
VERTEX
  5
106
330
104
100
AcDbEntity
  8
Woods
 62
   250
420
  2301728
370
     9
100
AcDbVertex
100
AcDb2dVertex
 10
441.3133370630185
 20
546.151767379707
 30
0.0
  0
VERTEX
  5
107
330
104
100
AcDbEntity
  8
Woods
 62
   250
420
  2301728
370
     9
100
AcDbVertex
100
AcDb2dVertex
 10
441.6667454596372
 20
546.8080090311523
 30
0.0
  0
SEQEND
  5
108
330
104
100
AcDbEntity
  8
Woods
 62
   250
420
  2301728
370
     9
  0
INSERT
  5
10A
330
41
100
AcDbEntity
  8
Woods
100
AcDbBlockReference
  2
block 10
 10
0.0
 20
0.0
 30
0.0
  0
ENDBLK
  5
44
330
41
100
AcDbEntity
  8
0
100
AcDbBlockEnd
  0
BLOCK
  5
47
330
45
100
AcDbEntity
  8
0
100
AcDbBlockBegin
  2
block 3
 70
     0
 10
0.0
 20
0.0
 30
0.0
  3
block 3
  1

  0
POLYLINE
  5
49
330
45
100
AcDbEntity
  8
Woods
 62
   250
420
  2301728
370
    30
100
AcDb2dPolyline
 66
     1
 10
0.0
 20
0.0
 30
0.0
  0
VERTEX
  5
4A
330
49
100
AcDbEntity
  8
Woods
 62
   250
420
  2301728
370
    30
100
AcDbVertex
100
AcDb2dVertex
 10
448.6000854820886
 20
499.373933448428
 30
0.0
  0
VERTEX
  5
4B
330
49
100
AcDbEntity
  8
Woods
 62
   250
420
  2301728
370
    30
100
AcDbVertex
100
AcDb2dVertex
 10
448.6000854820886
 20
543.422376826511
 30
0.0
  0
VERTEX
  5
4C
330
49
100
AcDbEntity
  8
Woods
 62
   250
420
  2301728
370
    30
100
AcDbVertex
100
AcDb2dVertex
 10
438.6263836428989
 20
548.2926475759314
 30
0.0
  0
VERTEX
  5
4D
330
49
100
AcDbEntity
  8
Woods
 62
   250
420
  2301728
370
    30
100
AcDbVertex
100
AcDb2dVertex
 10
458.6689863305364
 20
568.2004595228782
 30
0.0
  0
VERTEX
  5
4E
330
49
100
AcDbEntity
  8
Woods
 62
   250
420
  2301728
370
    30
100
AcDbVertex
100
AcDb2dVertex
 10
448.6000854820886
 20
572.9420368208439
 30
0.0
  0
VERTEX
  5
4F
330
49
100
AcDbEntity
  8
Woods
 62
   250
420
  2301728
370
    30
100
AcDbVertex
100
AcDb2dVertex
 10
448.6000854820886
 20
615.9116664902649
 30
0.0
  0
VERTEX
  5
50
330
49
100
AcDbEntity
  8
Woods
 62
   250
420
  2301728
370
    30
100
AcDbVertex
100
AcDb2dVertex
 10
389.9454720015274
 20
631.7077917658262
 30
0.0
  0
VERTEX
  5
51
330
49
100
AcDbEntity
  8
Woods
 62
   250
420
  2301728
370
    30
100
AcDbVertex
100
AcDb2dVertex
 10
177.0124333486056
 20
528.5362109963935
 30
0.0
  0
VERTEX
  5
52
330
49
100
AcDbEntity
  8
Woods
 62
   250
420
  2301728
370
    30
100
AcDbVertex
100
AcDb2dVertex
 10
177.0124333486056
 20
491.0603202249786
 30
0.0
  0
VERTEX
  5
53
330
49
100
AcDbEntity
  8
Woods
 62
   250
420
  2301728
370
    30
100
AcDbVertex
100
AcDb2dVertex
 10
184.9981750055867
 20
486.3800410081249
 30
0.0
  0
VERTEX
  5
54
330
49
100
AcDbEntity
  8
Woods
 62
   250
420
  2301728
370
    30
100
AcDbVertex
100
AcDb2dVertex
 10
169.0953878170058
 20
467.293664593597
 30
0.0
  0
VERTEX
  5
55
330
49
100
AcDbEntity
  8
Woods
 62
   250
420
  2301728
370
    30
100
AcDbVertex
100
AcDb2dVertex
 10
177.0124333486056
 20
462.5098040302664
 30
0.0
  0
VERTEX
  5
56
330
49
100
AcDbEntity
  8
Woods
 62
   250
420
  2301728
370
    30
100
AcDbVertex
100
AcDb2dVertex
 10
177.0124333486056
 20
422.4087457029809
 30
0.0
  0
VERTEX
  5
57
330
49
100
AcDbEntity
  8
Woods
 62
   250
420
  2301728
370
    30
100
AcDbVertex
100
AcDb2dVertex
 10
232.703203386548
 20
411.2148616520644
 30
0.0
  0
VERTEX
  5
58
330
49
100
AcDbEntity
  8
Woods
 62
   250
420
  2301728
370
    30
100
AcDbVertex
100
AcDb2dVertex
 10
448.6000854820886
 20
499.373933448428
 30
0.0
  0
SEQEND
  5
5A
330
49
100
AcDbEntity
  8
Woods
 62
   250
420
  2301728
370
    30
  0
HATCH
  5
59
330
45
100
AcDbEntity
  8
Woods
 62
    43
420
 15510365
100
AcDbHatch
 10
0.0
 20
0.0
 30
0.0
210
0.0
220
0.0
230
1.0
  2
SOLID
 70
     1
 71
     0
 91
        1
 92
        1
 93
       14
 72
     1
 10
448.6000854820886
 20
499.373933448428
 11
448.6000854820886
 21
543.422376826511
 72
     1
 10
448.6000854820886
 20
543.422376826511
 11
438.6263836428989
 21
548.2926475759314
 72
     1
 10
438.6263836428989
 20
548.2926475759314
 11
458.6689863305364
 21
568.2004595228782
 72
     1
 10
458.6689863305364
 20
568.2004595228782
 11
448.6000854820886
 21
572.9420368208439
 72
     1
 10
448.6000854820886
 20
572.9420368208439
 11
448.6000854820886
 21
615.9116664902649
 72
     1
 10
448.6000854820886
 20
615.9116664902649
 11
389.9454720015274
 21
631.7077917658262
 72
     1
 10
389.9454720015274
 20
631.7077917658262
 11
177.0124333486056
 21
528.5362109963935
 72
     1
 10
177.0124333486056
 20
528.5362109963935
 11
177.0124333486056
 21
491.0603202249786
 72
     1
 10
177.0124333486056
 20
491.0603202249786
 11
184.9981750055867
 21
486.3800410081249
 72
     1
 10
184.9981750055867
 20
486.3800410081249
 11
169.0953878170058
 21
467.293664593597
 72
     1
 10
169.0953878170058
 20
467.293664593597
 11
177.0124333486056
 21
462.5098040302664
 72
     1
 10
177.0124333486056
 20
462.5098040302664
 11
177.0124333486056
 21
422.4087457029809
 72
     1
 10
177.0124333486056
 20
422.4087457029809
 11
232.703203386548
 21
411.2148616520644
 72
     1
 10
232.703203386548
 20
411.2148616520644
 11
448.6000854820886
 21
499.373933448428
 97
        0
 75
     2
 76
     1
 98
        0
  0
ENDBLK
  5
48
330
45
100
AcDbEntity
  8
0
100
AcDbBlockEnd
  0
BLOCK
  5
5D
330
5B
100
AcDbEntity
  8
0
100
AcDbBlockBegin
  2
block 4
 70
     0
 10
0.0
 20
0.0
 30
0.0
  3
block 4
  1

  0
POLYLINE
  5
5F
330
5B
100
AcDbEntity
  8
Woods
 62
   250
420
  2301728
370
    20
100
AcDb2dPolyline
 66
     1
 10
0.0
 20
0.0
 30
0.0
  0
VERTEX
  5
60
330
5F
100
AcDbEntity
  8
Woods
 62
   250
420
  2301728
370
    20
100
AcDbVertex
100
AcDb2dVertex
 10
438.6263836428989
 20
548.2926475759314
 30
0.0
  0
VERTEX
  5
61
330
5F
100
AcDbEntity
  8
Woods
 62
   250
420
  2301728
370
    20
100
AcDbVertex
100
AcDb2dVertex
 10
380.0932199579365
 20
562.859721936079
 30
0.0
  0
SEQEND
  5
62
330
5F
100
AcDbEntity
  8
Woods
 62
   250
420
  2301728
370
    20
  0
ENDBLK
  5
5E
330
5B
100
AcDbEntity
  8
0
100
AcDbBlockEnd
  0
BLOCK
  5
65
330
63
100
AcDbEntity
  8
0
100
AcDbBlockBegin
  2
block 5
 70
     0
 10
0.0
 20
0.0
 30
0.0
  3
block 5
  1

  0
POLYLINE
  5
67
330
63
100
AcDbEntity
  8
Woods
 62
   250
420
  2301728
370
    20
100
AcDb2dPolyline
 66
     1
 10
0.0
 20
0.0
 30
0.0
  0
VERTEX
  5
68
330
67
100
AcDbEntity
  8
Woods
 62
   250
420
  2301728
370
    20
100
AcDbVertex
100
AcDb2dVertex
 10
448.6000854820886
 20
543.422376826511
 30
0.0
  0
VERTEX
  5
69
330
67
100
AcDbEntity
  8
Woods
 62
   250
420
  2301728
370
    20
100
AcDbVertex
100
AcDb2dVertex
 10
389.9454720015274
 20
557.9811588732991
 30
0.0
  0
SEQEND
  5
6A
330
67
100
AcDbEntity
  8
Woods
 62
   250
420
  2301728
370
    20
  0
ENDBLK
  5
66
330
63
100
AcDbEntity
  8
0
100
AcDbBlockEnd
  0
BLOCK
  5
6D
330
6B
100
AcDbEntity
  8
0
100
AcDbBlockBegin
  2
block 6
 70
     0
 10
0.0
 20
0.0
 30
0.0
  3
block 6
  1

  0
POLYLINE
  5
6F
330
6B
100
AcDbEntity
  8
Woods
 62
   250
420
  2301728
370
    20
100
AcDb2dPolyline
 66
     1
 10
0.0
 20
0.0
 30
0.0
  0
VERTEX
  5
70
330
6F
100
AcDbEntity
  8
Woods
 62
   250
420
  2301728
370
    20
100
AcDbVertex
100
AcDb2dVertex
 10
448.6000854820886
 20
499.373933448428
 30
0.0
  0
VERTEX
  5
71
330
6F
100
AcDbEntity
  8
Woods
 62
   250
420
  2301728
370
    20
100
AcDbVertex
100
AcDb2dVertex
 10
389.9454720015274
 20
513.2880287800926
 30
0.0
  0
SEQEND
  5
72
330
6F
100
AcDbEntity
  8
Woods
 62
   250
420
  2301728
370
    20
  0
ENDBLK
  5
6E
330
6B
100
AcDbEntity
  8
0
100
AcDbBlockEnd
  0
BLOCK
  5
75
330
73
100
AcDbEntity
  8
0
100
AcDbBlockBegin
  2
block 7
 70
     0
 10
0.0
 20
0.0
 30
0.0
  3
block 7
  1

  0
POLYLINE
  5
77
330
73
100
AcDbEntity
  8
Woods
 62
   250
420
  2301728
370
    20
100
AcDb2dPolyline
 66
     1
 10
0.0
 20
0.0
 30
0.0
  0
VERTEX
  5
78
330
77
100
AcDbEntity
  8
Woods
 62
   250
420
  2301728
370
    20
100
AcDbVertex
100
AcDb2dVertex
 10
458.6689863305364
 20
568.2004595228782
 30
0.0
  0
VERTEX
  5
79
330
77
100
AcDbEntity
  8
Woods
 62
   250
420
  2301728
370
    20
100
AcDbVertex
100
AcDb2dVertex
 10
399.8933131283975
 20
583.3484023041565
 30
0.0
  0
SEQEND
  5
7A
330
77
100
AcDbEntity
  8
Woods
 62
   250
420
  2301728
370
    20
  0
ENDBLK
  5
76
330
73
100
AcDbEntity
  8
0
100
AcDbBlockEnd
  0
BLOCK
  5
7D
330
7B
100
AcDbEntity
  8
0
100
AcDbBlockBegin
  2
block 8
 70
     0
 10
0.0
 20
0.0
 30
0.0
  3
block 8
  1

  0
POLYLINE
  5
7F
330
7B
100
AcDbEntity
  8
Woods
 62
   250
420
  2301728
370
    20
100
AcDb2dPolyline
 66
     1
 10
0.0
 20
0.0
 30
0.0
  0
VERTEX
  5
80
330
7F
100
AcDbEntity
  8
Woods
 62
   250
420
  2301728
370
    20
100
AcDbVertex
100
AcDb2dVertex
 10
448.6000854820886
 20
572.9420368208439
 30
0.0
  0
VERTEX
  5
81
330
7F
100
AcDbEntity
  8
Woods
 62
   250
420
  2301728
370
    20
100
AcDbVertex
100
AcDb2dVertex
 10
389.9454720015274
 20
588.0934753812817
 30
0.0
  0
SEQEND
  5
82
330
7F
100
AcDbEntity
  8
Woods
 62
   250
420
  2301728
370
    20
  0
ENDBLK
  5
7E
330
7B
100
AcDbEntity
  8
0
100
AcDbBlockEnd
  0
BLOCK
  5
85
330
83
100
AcDbEntity
  8
0
100
AcDbBlockBegin
  2
block 9
 70
     0
 10
0.0
 20
0.0
 30
0.0
  3
block 9
  1

  0
POLYLINE
  5
87
330
83
100
AcDbEntity
  8
Woods
 62
   250
420
  2301728
370
    20
100
AcDb2dPolyline
 66
     1
 10
0.0
 20
0.0
 30
0.0
  0
VERTEX
  5
88
330
87
100
AcDbEntity
  8
Woods
 62
   250
420
  2301728
370
    20
100
AcDbVertex
100
AcDb2dVertex
 10
177.0124333486056
 20
422.4087457029809
 30
0.0
  0
VERTEX
  5
89
330
87
100
AcDbEntity
  8
Woods
 62
   250
420
  2301728
370
    20
100
AcDbVertex
100
AcDb2dVertex
 10
389.9454720015274
 20
513.2880287800926
 30
0.0
  0
VERTEX
  5
8A
330
87
100
AcDbEntity
  8
Woods
 62
   250
420
  2301728
370
    20
100
AcDbVertex
100
AcDb2dVertex
 10
389.9454720015274
 20
557.9811588732991
 30
0.0
  0
VERTEX
  5
8B
330
87
100
AcDbEntity
  8
Woods
 62
   250
420
  2301728
370
    20
100
AcDbVertex
100
AcDb2dVertex
 10
380.0932199579365
 20
562.859721936079
 30
0.0
  0
VERTEX
  5
8C
330
87
100
AcDbEntity
  8
Woods
 62
   250
420
  2301728
370
    20
100
AcDbVertex
100
AcDb2dVertex
 10
399.8933131283975
 20
583.3484023041565
 30
0.0
  0
VERTEX
  5
8D
330
87
100
AcDbEntity
  8
Woods
 62
   250
420
  2301728
370
    20
100
AcDbVertex
100
AcDb2dVertex
 10
389.9454720015274
 20
588.0934753812817
 30
0.0
  0
VERTEX
  5
8E
330
87
100
AcDbEntity
  8
Woods
 62
   250
420
  2301728
370
    20
100
AcDbVertex
100
AcDb2dVertex
 10
389.9454720015274
 20
631.7077917658262
 30
0.0
  0
SEQEND
  5
8F
330
87
100
AcDbEntity
  8
Woods
 62
   250
420
  2301728
370
    20
  0
ENDBLK
  5
86
330
83
100
AcDbEntity
  8
0
100
AcDbBlockEnd
  0
BLOCK
  5
10B
330
109
100
AcDbEntity
  8
0
100
AcDbBlockBegin
  2
block 10
 70
     0
 10
0.0
 20
0.0
 30
0.0
  3
block 10
  1

  0
POLYLINE
  5
10D
330
109
100
AcDbEntity
  8
Woods
 62
   250
420
  2301728
370
     9
100
AcDb2dPolyline
 66
     1
 10
0.0
 20
0.0
 30
0.0
  0
VERTEX
  5
10E
330
10D
100
AcDbEntity
  8
Woods
 62
   250
420
  2301728
370
     9
100
AcDbVertex
100
AcDb2dVertex
 10
389.9454720015274
 20
545.4793583228611
 30
0.0
  0
VERTEX
  5
10F
330
10D
100
AcDbEntity
  8
Woods
 62
   250
420
  2301728
370
     9
100
AcDbVertex
100
AcDb2dVertex
 10
394.871341822809
 20
550.1004531855415
 30
0.0
  0
VERTEX
  5
110
330
10D
100
AcDbEntity
  8
Woods
 62
   250
420
  2301728
370
     9
100
AcDbVertex
100
AcDb2dVertex
 10
397.3425325011958
 20
555.978565196926
 30
0.0
  0
SEQEND
  5
111
330
10D
100
AcDbEntity
  8
Woods
 62
   250
420
  2301728
370
     9
  0
POLYLINE
  5
112
330
109
100
AcDbEntity
  8
Woods
 62
   250
420
  2301728
370
     9
100
AcDb2dPolyline
 66
     1
 10
0.0
 20
0.0
 30
0.0
  0
VERTEX
  5
113
330
112
100
AcDbEntity
  8
Woods
 62
   250
420
  2301728
370
     9
100
AcDbVertex
100
AcDb2dVertex
 10
389.9454720015274
 20
535.261602319888
 30
0.0
  0
VERTEX
  5
114
330
112
100
AcDbEntity
  8
Woods
 62
   250
420
  2301728
370
     9
100
AcDbVertex
100
AcDb2dVertex
 10
398.8249054600292
 20
543.5796055915871
 30
0.0
  0
VERTEX
  5
115
330
112
100
AcDbEntity
  8
Woods
 62
   250
420
  2301728
370
     9
100
AcDbVertex
100
AcDb2dVertex
 10
404.5218873325393
 20
554.0451554290739
 30
0.0
  0
SEQEND
  5
116
330
112
100
AcDbEntity
  8
Woods
 62
   250
420
  2301728
370
     9
  0
POLYLINE
  5
117
330
109
100
AcDbEntity
  8
Woods
 62
   250
420
  2301728
370
     9
100
AcDb2dPolyline
 66
     1
 10
0.0
 20
0.0
 30
0.0
  0
VERTEX
  5
118
330
117
100
AcDbEntity
  8
Woods
 62
   250
420
  2301728
370
     9
100
AcDbVertex
100
AcDb2dVertex
 10
389.9454720015274
 20
524.6330516168491
 30
0.0
  0
VERTEX
  5
119
330
117
100
AcDbEntity
  8
Woods
 62
   250
420
  2301728
370
     9
100
AcDbVertex
100
AcDb2dVertex
 10
404.5218873325393
 20
535.261602319888
 30
0.0
  0
VERTEX
  5
11A
330
117
100
AcDbEntity
  8
Woods
 62
   250
420
  2301728
370
     9
100
AcDbVertex
100
AcDb2dVertex
 10
407.7590601332322
 20
543.1175123647572
 30
0.0
  0
VERTEX
  5
11B
330
117
100
AcDbEntity
  8
Woods
 62
   250
420
  2301728
370
     9
100
AcDbVertex
100
AcDb2dVertex
 10
413.4670984235545
 20
552.142801187726
 30
0.0
  0
SEQEND
  5
11C
330
117
100
AcDbEntity
  8
Woods
 62
   250
420
  2301728
370
     9
  0
POLYLINE
  5
11D
330
109
100
AcDbEntity
  8
Woods
 62
   250
420
  2301728
370
     9
100
AcDb2dPolyline
 66
     1
 10
0.0
 20
0.0
 30
0.0
  0
VERTEX
  5
11E
330
11D
100
AcDbEntity
  8
Woods
 62
   250
420
  2301728
370
     9
100
AcDbVertex
100
AcDb2dVertex
 10
389.9454720015274
 20
515.3908618914902
 30
0.0
  0
VERTEX
  5
11F
330
11D
100
AcDbEntity
  8
Woods
 62
   250
420
  2301728
370
     9
100
AcDbVertex
100
AcDb2dVertex
 10
408.5292697094083
 20
525.7112962451829
 30
0.0
  0
VERTEX
  5
120
330
11D
100
AcDbEntity
  8
Woods
 62
   250
420
  2301728
370
     9
100
AcDbVertex
100
AcDb2dVertex
 10
418.5415877137548
 20
538.2360331219679
 30
0.0
  0
VERTEX
  5
121
330
11D
100
AcDbEntity
  8
Woods
 62
   250
420
  2301728
370
     9
100
AcDbVertex
100
AcDb2dVertex
 10
422.7979020857965
 20
549.8268068446705
 30
0.0
  0
SEQEND
  5
122
330
11D
100
AcDbEntity
  8
Woods
 62
   250
420
  2301728
370
     9
  0
POLYLINE
  5
123
330
109
100
AcDbEntity
  8
Woods
 62
   250
420
  2301728
370
     9
100
AcDb2dPolyline
 66
     1
 10
0.0
 20
0.0
 30
0.0
  0
VERTEX
  5
124
330
123
100
AcDbEntity
  8
Woods
 62
   250
420
  2301728
370
     9
100
AcDbVertex
100
AcDb2dVertex
 10
432.1103325831427
 20
547.5153651442415
 30
0.0
  0
VERTEX
  5
125
330
123
100
AcDbEntity
  8
Woods
 62
   250
420
  2301728
370
     9
100
AcDbVertex
100
AcDb2dVertex
 10
429.2811182805381
 20
541.1663798095278
 30
0.0
  0
VERTEX
  5
126
330
123
100
AcDbEntity
  8
Woods
 62
   250
420
  2301728
370
     9
100
AcDbVertex
100
AcDb2dVertex
 10
423.1113840496691
 20
529.1514681288099
 30
0.0
  0
VERTEX
  5
127
330
123
100
AcDbEntity
  8
Woods
 62
   250
420
  2301728
370
     9
100
AcDbVertex
100
AcDb2dVertex
 10
405.2430747032649
 20
514.3563551512698
 30
0.0
  0
VERTEX
  5
128
330
123
100
AcDbEntity
  8
Woods
 62
   250
420
  2301728
370
     9
100
AcDbVertex
100
AcDb2dVertex
 10
398.5925580915773
 20
511.2367380870292
 30
0.0
  0
SEQEND
  5
129
330
123
100
AcDbEntity
  8
Woods
 62
   250
420
  2301728
370
     9
  0
POLYLINE
  5
12A
330
109
100
AcDbEntity
  8
Woods
 62
   250
420
  2301728
370
     9
100
AcDb2dPolyline
 66
     1
 10
0.0
 20
0.0
 30
0.0
  0
VERTEX
  5
12B
330
12A
100
AcDbEntity
  8
Woods
 62
   250
420
  2301728
370
     9
100
AcDbVertex
100
AcDb2dVertex
 10
409.1554206652581
 20
508.7309961029769
 30
0.0
  0
VERTEX
  5
12C
330
12A
100
AcDbEntity
  8
Woods
 62
   250
420
  2301728
370
     9
100
AcDbVertex
100
AcDb2dVertex
 10
425.1651949556162
 20
517.855467497503
 30
0.0
  0
VERTEX
  5
12D
330
12A
100
AcDbEntity
  8
Woods
 62
   250
420
  2301728
370
     9
100
AcDbVertex
100
AcDb2dVertex
 10
434.4073846809752
 20
534.2860360422737
 30
0.0
  0
VERTEX
  5
12E
330
12A
100
AcDbEntity
  8
Woods
 62
   250
420
  2301728
370
     9
100
AcDbVertex
100
AcDb2dVertex
 10
441.9667320975805
 20
545.0688888115546
 30
0.0
  0
SEQEND
  5
12F
330
12A
100
AcDbEntity
  8
Woods
 62
   250
420
  2301728
370
     9
  0
POLYLINE
  5
130
330
109
100
AcDbEntity
  8
Woods
 62
   250
420
  2301728
370
     9
100
AcDb2dPolyline
 66
     1
 10
0.0
 20
0.0
 30
0.0
  0
VERTEX
  5
131
330
130
100
AcDbEntity
  8
Woods
 62
   250
420
  2301728
370
     9
100
AcDbVertex
100
AcDb2dVertex
 10
420.2738682340387
 20
506.0934713742563
 30
0.0
  0
VERTEX
  5
132
330
130
100
AcDbEntity
  8
Woods
 62
   250
420
  2301728
370
     9
100
AcDbVertex
100
AcDb2dVertex
 10
436.3585172362054
 20
519.601162054104
 30
0.0
  0
VERTEX
  5
133
330
130
100
AcDbEntity
  8
Woods
 62
   250
420
  2301728
370
     9
100
AcDbVertex
100
AcDb2dVertex
 10
446.0115016616292
 20
535.9291335453454
 30
0.0
  0
VERTEX
  5
134
330
130
100
AcDbEntity
  8
Woods
 62
   250
420
  2301728
370
     9
100
AcDbVertex
100
AcDb2dVertex
 10
448.6000854820886
 20
539.6259606571748
 30
0.0
  0
SEQEND
  5
135
330
130
100
AcDbEntity
  8
Woods
 62
   250
420
  2301728
370
     9
  0
POLYLINE
  5
136
330
109
100
AcDbEntity
  8
Woods
 62
   250
420
  2301728
370
     9
100
AcDb2dPolyline
 66
     1
 10
0.0
 20
0.0
 30
0.0
  0
VERTEX
  5
137
330
136
100
AcDbEntity
  8
Woods
 62
   250
420
  2301728
370
     9
100
AcDbVertex
100
AcDb2dVertex
 10
431.7642504461601
 20
503.5539097592464
 30
0.0
  0
VERTEX
  5
138
330
136
100
AcDbEntity
  8
Woods
 62
   250
420
  2301728
370
     9
100
AcDbVertex
100
AcDb2dVertex
 10
442.1092365511722
 20
512.3101048839744
 30
0.0
  0
VERTEX
  5
139
330
136
100
AcDbEntity
  8
Woods
 62
   250
420
  2301728
370
     9
100
AcDbVertex
100
AcDb2dVertex
 10
448.6000854820886
 20
524.6330516168491
 30
0.0
  0
SEQEND
  5
13A
330
136
100
AcDbEntity
  8
Woods
 62
   250
420
  2301728
370
     9
  0
POLYLINE
  5
13B
330
109
100
AcDbEntity
  8
Woods
 62
   250
420
  2301728
370
     9
100
AcDb2dPolyline
 66
     1
 10
0.0
 20
0.0
 30
0.0
  0
VERTEX
  5
13C
330
13B
100
AcDbEntity
  8
Woods
 62
   250
420
  2301728
370
     9
100
AcDbVertex
100
AcDb2dVertex
 10
441.9522516776651
 20
500.9221571310027
 30
0.0
  0
VERTEX
  5
13D
330
13B
100
AcDbEntity
  8
Woods
 62
   250
420
  2301728
370
     9
100
AcDbVertex
100
AcDb2dVertex
 10
446.5249747124126
 20
503.9921016122753
 30
0.0
  0
VERTEX
  5
13E
330
13B
100
AcDbEntity
  8
Woods
 62
   250
420
  2301728
370
     9
100
AcDbVertex
100
AcDb2dVertex
 10
448.6000854820886
 20
508.0161499130554
 30
0.0
  0
SEQEND
  5
13F
330
13B
100
AcDbEntity
  8
Woods
 62
   250
420
  2301728
370
     9
  0
ENDBLK
  5
10C
330
109
100
AcDbEntity
  8
0
100
AcDbBlockEnd
  0
BLOCK
  5
142
330
140
100
AcDbEntity
  8
0
100
AcDbBlockBegin
  2
block 11
 70
     0
 10
0.0
 20
0.0
 30
0.0
  3
block 11
  1

  0
POLYLINE
  5
144
330
140
100
AcDbEntity
  8
Woods
 62
   250
420
  2301728
370
    30
100
AcDb2dPolyline
 66
     1
 10
0.0
 20
0.0
 30
0.0
  0
VERTEX
  5
145
330
144
100
AcDbEntity
  8
Woods
 62
   250
420
  2301728
370
    30
100
AcDbVertex
100
AcDb2dVertex
 10
345.2422528508214
 20
310.2955309188856
 30
0.0
  0
VERTEX
  5
146
330
144
100
AcDbEntity
  8
Woods
 62
   250
420
  2301728
370
    30
100
AcDbVertex
100
AcDb2dVertex
 10
355.9817742179403
 20
313.7102616289303
 30
0.0
  0
VERTEX
  5
147
330
144
100
AcDbEntity
  8
Woods
 62
   250
420
  2301728
370
    30
100
AcDbVertex
100
AcDb2dVertex
 10
355.9817742179403
 20
461.0080010430693
 30
0.0
  0
VERTEX
  5
148
330
144
100
AcDbEntity
  8
Woods
 62
   250
420
  2301728
370
    30
100
AcDbVertex
100
AcDb2dVertex
 10
303.7593048912959
 20
473.1042099135893
 30
0.0
  0
VERTEX
  5
149
330
144
100
AcDbEntity
  8
Woods
 62
   250
420
  2301728
370
    30
100
AcDbVertex
100
AcDb2dVertex
 10
298.5125468559063
 20
474.2646460008109
 30
0.0
  0
VERTEX
  5
14A
330
144
100
AcDbEntity
  8
Woods
 62
   250
420
  2301728
370
    30
100
AcDbVertex
100
AcDb2dVertex
 10
257.2282892282537
 20
456.6446182720592
 30
0.0
  0
VERTEX
  5
14B
330
144
100
AcDbEntity
  8
Woods
 62
   250
420
  2301728
370
    30
100
AcDbVertex
100
AcDb2dVertex
 10
257.2282892282537
 20
309.8873377288928
 30
0.0
  0
VERTEX
  5
14C
330
144
100
AcDbEntity
  8
Woods
 62
   250
420
  2301728
370
    30
100
AcDbVertex
100
AcDb2dVertex
 10
271.1275884713741
 20
307.5693109560907
 30
0.0
  0
VERTEX
  5
14D
330
144
100
AcDbEntity
  8
Woods
 62
   250
420
  2301728
370
    30
100
AcDbVertex
100
AcDb2dVertex
 10
273.7858439834936
 20
303.3830793475991
 30
0.0
  0
VERTEX
  5
14E
330
144
100
AcDbEntity
  8
Woods
 62
   250
420
  2301728
370
    30
100
AcDbVertex
100
AcDb2dVertex
 10
330.8946809031386
 20
293.972762447791
 30
0.0
  0
VERTEX
  5
14F
330
144
100
AcDbEntity
  8
Woods
 62
   250
420
  2301728
370
    30
100
AcDbVertex
100
AcDb2dVertex
 10
336.3312678767143
 20
311.8175769063437
 30
0.0
  0
VERTEX
  5
150
330
144
100
AcDbEntity
  8
Woods
 62
   250
420
  2301728
370
    30
100
AcDbVertex
100
AcDb2dVertex
 10
345.2422528508214
 20
310.2955309188856
 30
0.0
  0
SEQEND
  5
152
330
144
100
AcDbEntity
  8
Woods
 62
   250
420
  2301728
370
    30
  0
HATCH
  5
151
330
140
100
AcDbEntity
  8
Woods
 62
    43
420
 15510365
100
AcDbHatch
 10
0.0
 20
0.0
 30
0.0
210
0.0
220
0.0
230
1.0
  2
SOLID
 70
     1
 71
     0
 91
        1
 92
        1
 93
       11
 72
     1
 10
345.2422528508214
 20
310.2955309188856
 11
355.9817742179403
 21
313.7102616289303
 72
     1
 10
355.9817742179403
 20
313.7102616289303
 11
355.9817742179403
 21
461.0080010430693
 72
     1
 10
355.9817742179403
 20
461.0080010430693
 11
303.7593048912959
 21
473.1042099135893
 72
     1
 10
303.7593048912959
 20
473.1042099135893
 11
298.5125468559063
 21
474.2646460008109
 72
     1
 10
298.5125468559063
 20
474.2646460008109
 11
257.2282892282537
 21
456.6446182720592
 72
     1
 10
257.2282892282537
 20
456.6446182720592
 11
257.2282892282537
 21
309.8873377288928
 72
     1
 10
257.2282892282537
 20
309.8873377288928
 11
271.1275884713741
 21
307.5693109560907
 72
     1
 10
271.1275884713741
 20
307.5693109560907
 11
273.7858439834936
 21
303.3830793475991
 72
     1
 10
273.7858439834936
 20
303.3830793475991
 11
330.8946809031386
 21
293.972762447791
 72
     1
 10
330.8946809031386
 20
293.972762447791
 11
336.3312678767143
 21
311.8175769063437
 72
     1
 10
336.3312678767143
 20
311.8175769063437
 11
345.2422528508214
 21
310.2955309188856
 97
        0
 75
     2
 76
     1
 98
        0
  0
POLYLINE
  5
153
330
140
100
AcDbEntity
  8
Woods
 62
   250
420
  2301728
370
    20
100
AcDb2dPolyline
 66
     1
 10
0.0
 20
0.0
 30
0.0
  0
VERTEX
  5
154
330
153
100
AcDbEntity
  8
Woods
 62
   250
420
  2301728
370
    20
100
AcDbVertex
100
AcDb2dVertex
 10
355.9817742179403
 20
313.7102616289303
 30
0.0
  0
VERTEX
  5
155
330
153
100
AcDbEntity
  8
Woods
 62
   250
420
  2301728
370
    20
100
AcDbVertex
100
AcDb2dVertex
 10
298.5125468559063
 20
323.6073817653505
 30
0.0
  0
VERTEX
  5
156
330
153
100
AcDbEntity
  8
Woods
 62
   250
420
  2301728
370
    20
100
AcDbVertex
100
AcDb2dVertex
 10
287.9188726472921
 20
320.0868018641613
 30
0.0
  0
SEQEND
  5
157
330
153
100
AcDbEntity
  8
Woods
 62
   250
420
  2301728
370
    20
  0
POLYLINE
  5
158
330
140
100
AcDbEntity
  8
Woods
 62
   250
420
  2301728
370
    20
100
AcDb2dPolyline
 66
     1
 10
0.0
 20
0.0
 30
0.0
  0
VERTEX
  5
159
330
158
100
AcDbEntity
  8
Woods
 62
   250
420
  2301728
370
    20
100
AcDbVertex
100
AcDb2dVertex
 10
273.7858439834936
 20
303.3830793475991
 30
0.0
  0
VERTEX
  5
15A
330
158
100
AcDbEntity
  8
Woods
 62
   250
420
  2301728
370
    20
100
AcDbVertex
100
AcDb2dVertex
 10
282.2931071130506
 20
332.0683816970613
 30
0.0
  0
VERTEX
  5
15B
330
158
100
AcDbEntity
  8
Woods
 62
   250
420
  2301728
370
    20
100
AcDbVertex
100
AcDb2dVertex
 10
287.9188726472921
 20
320.0868018641613
 30
0.0
  0
VERTEX
  5
15C
330
158
100
AcDbEntity
  8
Woods
 62
   250
420
  2301728
370
    20
100
AcDbVertex
100
AcDb2dVertex
 10
336.3312678767143
 20
311.8175769063437
 30
0.0
  0
SEQEND
  5
15D
330
158
100
AcDbEntity
  8
Woods
 62
   250
420
  2301728
370
    20
  0
POLYLINE
  5
15E
330
140
100
AcDbEntity
  8
Woods
 62
   250
420
  2301728
370
    20
100
AcDb2dPolyline
 66
     1
 10
0.0
 20
0.0
 30
0.0
  0
VERTEX
  5
15F
330
15E
100
AcDbEntity
  8
Woods
 62
   250
420
  2301728
370
    20
100
AcDbVertex
100
AcDb2dVertex
 10
257.2282892282537
 20
309.8873377288928
 30
0.0
  0
VERTEX
  5
160
330
15E
100
AcDbEntity
  8
Woods
 62
   250
420
  2301728
370
    20
100
AcDbVertex
100
AcDb2dVertex
 10
267.4901896052888
 20
313.2976735438642
 30
0.0
  0
VERTEX
  5
161
330
15E
100
AcDbEntity
  8
Woods
 62
   250
420
  2301728
370
    20
100
AcDbVertex
100
AcDb2dVertex
 10
273.7858439834936
 20
303.3830793475991
 30
0.0
  0
SEQEND
  5
162
330
15E
100
AcDbEntity
  8
Woods
 62
   250
420
  2301728
370
    20
  0
POLYLINE
  5
163
330
140
100
AcDbEntity
  8
Woods
 62
   250
420
  2301728
370
    20
100
AcDb2dPolyline
 66
     1
 10
0.0
 20
0.0
 30
0.0
  0
VERTEX
  5
164
330
163
100
AcDbEntity
  8
Woods
 62
   250
420
  2301728
370
    20
100
AcDbVertex
100
AcDb2dVertex
 10
298.5125468559063
 20
474.2646460008109
 30
0.0
  0
VERTEX
  5
165
330
163
100
AcDbEntity
  8
Woods
 62
   250
420
  2301728
370
    20
100
AcDbVertex
100
AcDb2dVertex
 10
298.5125468559063
 20
323.6073817653505
 30
0.0
  0
SEQEND
  5
166
330
163
100
AcDbEntity
  8
Woods
 62
   250
420
  2301728
370
    20
  0
POLYLINE
  5
167
330
140
100
AcDbEntity
  8
Woods
 62
   250
420
  2301728
370
     9
100
AcDb2dPolyline
 66
     1
 10
0.0
 20
0.0
 30
0.0
  0
VERTEX
  5
168
330
167
100
AcDbEntity
  8
Woods
 62
   250
420
  2301728
370
     9
100
AcDbVertex
100
AcDb2dVertex
 10
278.0394755482712
 20
317.7256875807652
 30
0.0
  0
VERTEX
  5
169
330
167
100
AcDbEntity
  8
Woods
 62
   250
420
  2301728
370
     9
100
AcDbVertex
100
AcDb2dVertex
 10
282.2190453731409
 20
321.0831802223638
 30
0.0
  0
VERTEX
  5
16A
330
167
100
AcDbEntity
  8
Woods
 62
   250
420
  2301728
370
     9
100
AcDbVertex
100
AcDb2dVertex
 10
285.1993190540634
 20
325.8788253057774
 30
0.0
  0
SEQEND
  5
16B
330
167
100
AcDbEntity
  8
Woods
 62
   250
420
  2301728
370
     9
  0
POLYLINE
  5
16C
330
140
100
AcDbEntity
  8
Woods
 62
   250
420
  2301728
370
     9
100
AcDb2dPolyline
 66
     1
 10
0.0
 20
0.0
 30
0.0
  0
VERTEX
  5
16D
330
16C
100
AcDbEntity
  8
Woods
 62
   250
420
  2301728
370
     9
100
AcDbVertex
100
AcDb2dVertex
 10
275.1148904423644
 20
307.8643384578809
 30
0.0
  0
VERTEX
  5
16E
330
16C
100
AcDbEntity
  8
Woods
 62
   250
420
  2301728
370
     9
100
AcDbVertex
100
AcDb2dVertex
 10
282.2961151090722
 20
311.9179789357477
 30
0.0
  0
VERTEX
  5
16F
330
16C
100
AcDbEntity
  8
Woods
 62
   250
420
  2301728
370
     9
100
AcDbVertex
100
AcDb2dVertex
 10
286.5321051836636
 20
317.2322949358622
 30
0.0
  0
VERTEX
  5
170
330
16C
100
AcDbEntity
  8
Woods
 62
   250
420
  2301728
370
     9
100
AcDbVertex
100
AcDb2dVertex
 10
289.4178302328455
 20
319.8307157162872
 30
0.0
  0
SEQEND
  5
171
330
16C
100
AcDbEntity
  8
Woods
 62
   250
420
  2301728
370
     9
  0
POLYLINE
  5
172
330
140
100
AcDbEntity
  8
Woods
 62
   250
420
  2301728
370
     9
100
AcDb2dPolyline
 66
     1
 10
0.0
 20
0.0
 30
0.0
  0
VERTEX
  5
173
330
172
100
AcDbEntity
  8
Woods
 62
   250
420
  2301728
370
     9
100
AcDbVertex
100
AcDb2dVertex
 10
278.0394755482712
 20
302.6822116883832
 30
0.0
  0
VERTEX
  5
174
330
172
100
AcDbEntity
  8
Woods
 62
   250
420
  2301728
370
     9
100
AcDbVertex
100
AcDb2dVertex
 10
289.4178302328455
 20
309.4534546269242
 30
0.0
  0
VERTEX
  5
175
330
172
100
AcDbEntity
  8
Woods
 62
   250
420
  2301728
370
     9
100
AcDbVertex
100
AcDb2dVertex
 10
294.5419921060156
 20
314.2286076642777
 30
0.0
  0
VERTEX
  5
176
330
172
100
AcDbEntity
  8
Woods
 62
   250
420
  2301728
370
     9
100
AcDbVertex
100
AcDb2dVertex
 10
296.7316506161205
 20
318.5815030978029
 30
0.0
  0
SEQEND
  5
177
330
172
100
AcDbEntity
  8
Woods
 62
   250
420
  2301728
370
     9
  0
POLYLINE
  5
178
330
140
100
AcDbEntity
  8
Woods
 62
   250
420
  2301728
370
     9
100
AcDb2dPolyline
 66
     1
 10
0.0
 20
0.0
 30
0.0
  0
VERTEX
  5
179
330
178
100
AcDbEntity
  8
Woods
 62
   250
420
  2301728
370
     9
100
AcDbVertex
100
AcDb2dVertex
 10
287.3855630821963
 20
301.5205606822019
 30
0.0
  0
VERTEX
  5
17A
330
178
100
AcDbEntity
  8
Woods
 62
   250
420
  2301728
370
     9
100
AcDbVertex
100
AcDb2dVertex
 10
298.0078539016204
 20
306.9118605821695
 30
0.0
  0
VERTEX
  5
17B
330
178
100
AcDbEntity
  8
Woods
 62
   250
420
  2301728
370
     9
100
AcDbVertex
100
AcDb2dVertex
 10
305.4929674638061
 20
317.0849844279419
 30
0.0
  0
SEQEND
  5
17C
330
178
100
AcDbEntity
  8
Woods
 62
   250
420
  2301728
370
     9
  0
POLYLINE
  5
17D
330
140
100
AcDbEntity
  8
Woods
 62
   250
420
  2301728
370
     9
100
AcDb2dPolyline
 66
     1
 10
0.0
 20
0.0
 30
0.0
  0
VERTEX
  5
17E
330
17D
100
AcDbEntity
  8
Woods
 62
   250
420
  2301728
370
     9
100
AcDbVertex
100
AcDb2dVertex
 10
295.1267627922562
 20
299.866564816808
 30
0.0
  0
VERTEX
  5
17F
330
17D
100
AcDbEntity
  8
Woods
 62
   250
420
  2301728
370
     9
100
AcDbVertex
100
AcDb2dVertex
 10
306.6050317230965
 20
306.5267557940806
 30
0.0
  0
VERTEX
  5
180
330
17D
100
AcDbEntity
  8
Woods
 62
   250
420
  2301728
370
     9
100
AcDbVertex
100
AcDb2dVertex
 10
313.1681538557459
 20
315.7739859452086
 30
0.0
  0
SEQEND
  5
181
330
17D
100
AcDbEntity
  8
Woods
 62
   250
420
  2301728
370
     9
  0
POLYLINE
  5
182
330
140
100
AcDbEntity
  8
Woods
 62
   250
420
  2301728
370
     9
100
AcDb2dPolyline
 66
     1
 10
0.0
 20
0.0
 30
0.0
  0
VERTEX
  5
183
330
182
100
AcDbEntity
  8
Woods
 62
   250
420
  2301728
370
     9
100
AcDbVertex
100
AcDb2dVertex
 10
305.0585965786986
 20
298.2299710889201
 30
0.0
  0
VERTEX
  5
184
330
182
100
AcDbEntity
  8
Woods
 62
   250
420
  2301728
370
     9
100
AcDbVertex
100
AcDb2dVertex
 10
313.8821933582149
 20
303.3830793475991
 30
0.0
  0
VERTEX
  5
185
330
182
100
AcDbEntity
  8
Woods
 62
   250
420
  2301728
370
     9
100
AcDbVertex
100
AcDb2dVertex
 10
319.1878855717659
 20
310.631857393093
 30
0.0
  0
VERTEX
  5
186
330
182
100
AcDbEntity
  8
Woods
 62
   250
420
  2301728
370
     9
100
AcDbVertex
100
AcDb2dVertex
 10
321.5059936417565
 20
314.3498217742708
 30
0.0
  0
SEQEND
  5
187
330
182
100
AcDbEntity
  8
Woods
 62
   250
420
  2301728
370
     9
  0
POLYLINE
  5
188
330
140
100
AcDbEntity
  8
Woods
 62
   250
420
  2301728
370
     9
100
AcDb2dPolyline
 66
     1
 10
0.0
 20
0.0
 30
0.0
  0
VERTEX
  5
189
330
188
100
AcDbEntity
  8
Woods
 62
   250
420
  2301728
370
     9
100
AcDbVertex
100
AcDb2dVertex
 10
313.8821933582149
 20
296.7760565655481
 30
0.0
  0
VERTEX
  5
18A
330
188
100
AcDbEntity
  8
Woods
 62
   250
420
  2301728
370
     9
100
AcDbVertex
100
AcDb2dVertex
 10
323.2698987688746
 20
303.8311035746538
 30
0.0
  0
VERTEX
  5
18B
330
188
100
AcDbEntity
  8
Woods
 62
   250
420
  2301728
370
     9
100
AcDbVertex
100
AcDb2dVertex
 10
329.356456774909
 20
313.0089059256898
 30
0.0
  0
SEQEND
  5
18C
330
188
100
AcDbEntity
  8
Woods
 62
   250
420
  2301728
370
     9
  0
POLYLINE
  5
18D
330
140
100
AcDbEntity
  8
Woods
 62
   250
420
  2301728
370
     9
100
AcDb2dPolyline
 66
     1
 10
0.0
 20
0.0
 30
0.0
  0
VERTEX
  5
18E
330
18D
100
AcDbEntity
  8
Woods
 62
   250
420
  2301728
370
     9
100
AcDbVertex
100
AcDb2dVertex
 10
322.4813973249911
 20
295.3590465115158
 30
0.0
  0
VERTEX
  5
18F
330
18D
100
AcDbEntity
  8
Woods
 62
   250
420
  2301728
370
     9
100
AcDbVertex
100
AcDb2dVertex
 10
330.8176924643958
 20
302.6822116883832
 30
0.0
  0
VERTEX
  5
190
330
18D
100
AcDbEntity
  8
Woods
 62
   250
420
  2301728
370
     9
100
AcDbVertex
100
AcDb2dVertex
 10
335.5651231600277
 20
309.3027296370328
 30
0.0
  0
SEQEND
  5
191
330
18D
100
AcDbEntity
  8
Woods
 62
   250
420
  2301728
370
     9
  0
POLYLINE
  5
192
330
140
100
AcDbEntity
  8
Woods
 62
   250
420
  2301728
370
     9
100
AcDb2dPolyline
 66
     1
 10
0.0
 20
0.0
 30
0.0
  0
VERTEX
  5
193
330
192
100
AcDbEntity
  8
Woods
 62
   250
420
  2301728
370
     9
100
AcDbVertex
100
AcDb2dVertex
 10
327.8962779488902
 20
294.4668054702124
 30
0.0
  0
VERTEX
  5
194
330
192
100
AcDbEntity
  8
Woods
 62
   250
420
  2301728
370
     9
100
AcDbVertex
100
AcDb2dVertex
 10
330.4325876763069
 20
295.7441469163696
 30
0.0
  0
VERTEX
  5
195
330
192
100
AcDbEntity
  8
Woods
 62
   250
420
  2301728
370
     9
100
AcDbVertex
100
AcDb2dVertex
 10
332.0962533683996
 20
297.9166561672719
 30
0.0
  0
SEQEND
  5
196
330
192
100
AcDbEntity
  8
Woods
 62
   250
420
  2301728
370
     9
  0
POLYLINE
  5
197
330
140
100
AcDbEntity
  8
Woods
 62
   250
420
  2301728
370
     9
100
AcDb2dPolyline
 66
     1
 10
0.0
 20
0.0
 30
0.0
  0
VERTEX
  5
198
330
197
100
AcDbEntity
  8
Woods
 62
   250
420
  2301728
370
     9
100
AcDbVertex
100
AcDb2dVertex
 10
293.2983076964374
 20
319.1678997278377
 30
0.0
  0
VERTEX
  5
199
330
197
100
AcDbEntity
  8
Woods
 62
   250
420
  2301728
370
     9
100
AcDbVertex
100
AcDb2dVertex
 10
296.1337097851338
 20
321.5966532731491
 30
0.0
  0
VERTEX
  5
19A
330
197
100
AcDbEntity
  8
Woods
 62
   250
420
  2301728
370
     9
100
AcDbVertex
100
AcDb2dVertex
 10
296.4392246244061
 20
322.9183829849371
 30
0.0
  0
SEQEND
  5
19B
330
197
100
AcDbEntity
  8
Woods
 62
   250
420
  2301728
370
     9
  0
POLYLINE
  5
19C
330
140
100
AcDbEntity
  8
Woods
 62
   250
420
  2301728
370
     9
100
AcDb2dPolyline
 66
     1
 10
0.0
 20
0.0
 30
0.0
  0
VERTEX
  5
19D
330
19C
100
AcDbEntity
  8
Woods
 62
   250
420
  2301728
370
     9
100
AcDbVertex
100
AcDb2dVertex
 10
299.5553459094863
 20
318.099166870712
 30
0.0
  0
VERTEX
  5
19E
330
19C
100
AcDbEntity
  8
Woods
 62
   250
420
  2301728
370
     9
100
AcDbVertex
100
AcDb2dVertex
 10
301.8844291001005
 20
320.4157302940966
 30
0.0
  0
VERTEX
  5
19F
330
19C
100
AcDbEntity
  8
Woods
 62
   250
420
  2301728
370
     9
100
AcDbVertex
100
AcDb2dVertex
 10
302.5135067547817
 20
322.9183829849371
 30
0.0
  0
SEQEND
  5
1A0
330
19C
100
AcDbEntity
  8
Woods
 62
   250
420
  2301728
370
     9
  0
POLYLINE
  5
1A1
330
140
100
AcDbEntity
  8
Woods
 62
   250
420
  2301728
370
     9
100
AcDb2dPolyline
 66
     1
 10
0.0
 20
0.0
 30
0.0
  0
VERTEX
  5
1A2
330
1A1
100
AcDbEntity
  8
Woods
 62
   250
420
  2301728
370
     9
100
AcDbVertex
100
AcDb2dVertex
 10
305.0585965786986
 20
317.0849844279419
 30
0.0
  0
VERTEX
  5
1A3
330
1A1
100
AcDbEntity
  8
Woods
 62
   250
420
  2301728
370
     9
100
AcDbVertex
100
AcDb2dVertex
 10
307.943183467225
 20
319.1678997278377
 30
0.0
  0
VERTEX
  5
1A4
330
1A1
100
AcDbEntity
  8
Woods
 62
   250
420
  2301728
370
     9
100
AcDbVertex
100
AcDb2dVertex
 10
308.7133930434011
 20
321.8022538661553
 30
0.0
  0
SEQEND
  5
1A5
330
1A1
100
AcDbEntity
  8
Woods
 62
   250
420
  2301728
370
     9
  0
POLYLINE
  5
1A6
330
140
100
AcDbEntity
  8
Woods
 62
   250
420
  2301728
370
     9
100
AcDb2dPolyline
 66
     1
 10
0.0
 20
0.0
 30
0.0
  0
VERTEX
  5
1A7
330
1A6
100
AcDbEntity
  8
Woods
 62
   250
420
  2301728
370
     9
100
AcDbVertex
100
AcDb2dVertex
 10
311.9945476237772
 20
315.9744648152573
 30
0.0
  0
VERTEX
  5
1A8
330
1A6
100
AcDbEntity
  8
Woods
 62
   250
420
  2301728
370
     9
100
AcDbVertex
100
AcDb2dVertex
 10
315.1059536718494
 20
319.1678997278377
 30
0.0
  0
VERTEX
  5
1A9
330
1A6
100
AcDbEntity
  8
Woods
 62
   250
420
  2301728
370
     9
100
AcDbVertex
100
AcDb2dVertex
 10
315.4266710856136
 20
320.694503381188
 30
0.0
  0
SEQEND
  5
1AA
330
1A6
100
AcDbEntity
  8
Woods
 62
   250
420
  2301728
370
     9
  0
POLYLINE
  5
1AB
330
140
100
AcDbEntity
  8
Woods
 62
   250
420
  2301728
370
     9
100
AcDb2dPolyline
 66
     1
 10
0.0
 20
0.0
 30
0.0
  0
VERTEX
  5
1AC
330
1AB
100
AcDbEntity
  8
Woods
 62
   250
420
  2301728
370
     9
100
AcDbVertex
100
AcDb2dVertex
 10
319.6953426305045
 20
314.6591575814637
 30
0.0
  0
VERTEX
  5
1AD
330
1AB
100
AcDbEntity
  8
Woods
 62
   250
420
  2301728
370
     9
100
AcDbVertex
100
AcDb2dVertex
 10
321.9503640812109
 20
317.0849844279419
 30
0.0
  0
VERTEX
  5
1AE
330
1AB
100
AcDbEntity
  8
Woods
 62
   250
420
  2301728
370
     9
100
AcDbVertex
100
AcDb2dVertex
 10
322.4813973249911
 20
319.4436597956446
 30
0.0
  0
SEQEND
  5
1AF
330
1AB
100
AcDbEntity
  8
Woods
 62
   250
420
  2301728
370
     9
  0
POLYLINE
  5
1B0
330
140
100
AcDbEntity
  8
Woods
 62
   250
420
  2301728
370
     9
100
AcDb2dPolyline
 66
     1
 10
0.0
 20
0.0
 30
0.0
  0
VERTEX
  5
1B1
330
1B0
100
AcDbEntity
  8
Woods
 62
   250
420
  2301728
370
     9
100
AcDbVertex
100
AcDb2dVertex
 10
328.5825888251929
 20
313.1410951563066
 30
0.0
  0
VERTEX
  5
1B2
330
1B0
100
AcDbEntity
  8
Woods
 62
   250
420
  2301728
370
     9
100
AcDbVertex
100
AcDb2dVertex
 10
329.9962656586449
 20
315.7739859452086
 30
0.0
  0
VERTEX
  5
1B3
330
1B0
100
AcDbEntity
  8
Woods
 62
   250
420
  2301728
370
     9
100
AcDbVertex
100
AcDb2dVertex
 10
329.9962656586449
 20
318.3345222351854
 30
0.0
  0
SEQEND
  5
1B4
330
1B0
100
AcDbEntity
  8
Woods
 62
   250
420
  2301728
370
     9
  0
POLYLINE
  5
1B5
330
140
100
AcDbEntity
  8
Woods
 62
   250
420
  2301728
370
     9
100
AcDb2dPolyline
 66
     1
 10
0.0
 20
0.0
 30
0.0
  0
VERTEX
  5
1B6
330
1B5
100
AcDbEntity
  8
Woods
 62
   250
420
  2301728
370
     9
100
AcDbVertex
100
AcDb2dVertex
 10
335.5651231600277
 20
311.9484653819236
 30
0.0
  0
VERTEX
  5
1B7
330
1B5
100
AcDbEntity
  8
Woods
 62
   250
420
  2301728
370
     9
100
AcDbVertex
100
AcDb2dVertex
 10
337.4412184090688
 20
314.3498217742708
 30
0.0
  0
VERTEX
  5
1B8
330
1B5
100
AcDbEntity
  8
Woods
 62
   250
420
  2301728
370
     9
100
AcDbVertex
100
AcDb2dVertex
 10
337.4412184090688
 20
316.9032852087366
 30
0.0
  0
SEQEND
  5
1B9
330
1B5
100
AcDbEntity
  8
Woods
 62
   250
420
  2301728
370
     9
  0
POLYLINE
  5
1BA
330
140
100
AcDbEntity
  8
Woods
 62
   250
420
  2301728
370
     9
100
AcDb2dPolyline
 66
     1
 10
0.0
 20
0.0
 30
0.0
  0
VERTEX
  5
1BB
330
1BA
100
AcDbEntity
  8
Woods
 62
   250
420
  2301728
370
     9
100
AcDbVertex
100
AcDb2dVertex
 10
343.2734788054076
 20
310.631857393093
 30
0.0
  0
VERTEX
  5
1BC
330
1BA
100
AcDbEntity
  8
Woods
 62
   250
420
  2301728
370
     9
100
AcDbVertex
100
AcDb2dVertex
 10
344.7579654911769
 20
313.0089059256898
 30
0.0
  0
VERTEX
  5
1BD
330
1BA
100
AcDbEntity
  8
Woods
 62
   250
420
  2301728
370
     9
100
AcDbVertex
100
AcDb2dVertex
 10
344.7579654911769
 20
315.7378135937925
 30
0.0
  0
SEQEND
  5
1BE
330
1BA
100
AcDbEntity
  8
Woods
 62
   250
420
  2301728
370
     9
  0
POLYLINE
  5
1BF
330
140
100
AcDbEntity
  8
Woods
 62
   250
420
  2301728
370
     9
100
AcDb2dPolyline
 66
     1
 10
0.0
 20
0.0
 30
0.0
  0
VERTEX
  5
1C0
330
1BF
100
AcDbEntity
  8
Woods
 62
   250
420
  2301728
370
     9
100
AcDbVertex
100
AcDb2dVertex
 10
351.073375086502
 20
312.1495946294908
 30
0.0
  0
VERTEX
  5
1C1
330
1BF
100
AcDbEntity
  8
Woods
 62
   250
420
  2301728
370
     9
100
AcDbVertex
100
AcDb2dVertex
 10
352.0747125732833
 20
313.7102616289303
 30
0.0
  0
VERTEX
  5
1C2
330
1BF
100
AcDbEntity
  8
Woods
 62
   250
420
  2301728
370
     9
100
AcDbVertex
100
AcDb2dVertex
 10
352.0747125732833
 20
314.3831536220896
 30
0.0
  0
SEQEND
  5
1C3
330
1BF
100
AcDbEntity
  8
Woods
 62
   250
420
  2301728
370
     9
  0
POLYLINE
  5
1C4
330
140
100
AcDbEntity
  8
Woods
 62
   250
420
  2301728
370
     9
100
AcDb2dPolyline
 66
     1
 10
0.0
 20
0.0
 30
0.0
  0
VERTEX
  5
1C5
330
1C4
100
AcDbEntity
  8
Woods
 62
   250
420
  2301728
370
     9
100
AcDbVertex
100
AcDb2dVertex
 10
260.7334175665319
 20
309.3027296370328
 30
0.0
  0
VERTEX
  5
1C6
330
1C4
100
AcDbEntity
  8
Woods
 62
   250
420
  2301728
370
     9
100
AcDbVertex
100
AcDb2dVertex
 10
262.1172583313282
 20
310.631857393093
 30
0.0
  0
VERTEX
  5
1C7
330
1C4
100
AcDbEntity
  8
Woods
 62
   250
420
  2301728
370
     9
100
AcDbVertex
100
AcDb2dVertex
 10
262.9787696501671
 20
311.7983907695507
 30
0.0
  0
SEQEND
  5
1C8
330
1C4
100
AcDbEntity
  8
Woods
 62
   250
420
  2301728
370
     9
  0
POLYLINE
  5
1C9
330
140
100
AcDbEntity
  8
Woods
 62
   250
420
  2301728
370
     9
100
AcDb2dPolyline
 66
     1
 10
0.0
 20
0.0
 30
0.0
  0
VERTEX
  5
1CA
330
1C9
100
AcDbEntity
  8
Woods
 62
   250
420
  2301728
370
     9
100
AcDbVertex
100
AcDb2dVertex
 10
264.8030786353911
 20
308.624060696573
 30
0.0
  0
VERTEX
  5
1CB
330
1C9
100
AcDbEntity
  8
Woods
 62
   250
420
  2301728
370
     9
100
AcDbVertex
100
AcDb2dVertex
 10
266.6228298873002
 20
310.5505602032918
 30
0.0
  0
VERTEX
  5
1CC
330
1C9
100
AcDbEntity
  8
Woods
 62
   250
420
  2301728
370
     9
100
AcDbVertex
100
AcDb2dVertex
 10
267.0696443443067
 20
313.1579236745947
 30
0.0
  0
SEQEND
  5
1CD
330
1C9
100
AcDbEntity
  8
Woods
 62
   250
420
  2301728
370
     9
  0
POLYLINE
  5
1CE
330
140
100
AcDbEntity
  8
Woods
 62
   250
420
  2301728
370
     9
100
AcDb2dPolyline
 66
     1
 10
0.0
 20
0.0
 30
0.0
  0
VERTEX
  5
1CF
330
1CE
100
AcDbEntity
  8
Woods
 62
   250
420
  2301728
370
     9
100
AcDbVertex
100
AcDb2dVertex
 10
269.3585616213004
 20
307.8643384578809
 30
0.0
  0
VERTEX
  5
1D0
330
1CE
100
AcDbEntity
  8
Woods
 62
   250
420
  2301728
370
     9
100
AcDbVertex
100
AcDb2dVertex
 10
269.8960986402653
 20
308.624060696573
 30
0.0
  0
VERTEX
  5
1D1
330
1CE
100
AcDbEntity
  8
Woods
 62
   250
420
  2301728
370
     9
100
AcDbVertex
100
AcDb2dVertex
 10
269.7659418393941
 20
309.7136916773434
 30
0.0
  0
SEQEND
  5
1D2
330
1CE
100
AcDbEntity
  8
Woods
 62
   250
420
  2301728
370
     9
  0
ENDBLK
  5
143
330
140
100
AcDbEntity
  8
0
100
AcDbBlockEnd
  0
BLOCK
  5
1D6
330
1D4
100
AcDbEntity
  8
0
100
AcDbBlockBegin
  2
block 12
 70
     0
 10
0.0
 20
0.0
 30
0.0
  3
block 12
  1

  0
SPLINE
  5
1D8
330
1D4
100
AcDbEntity
  8
APVA4
 62
    18
420
        0
370
    15
100
AcDbSpline
210
0.0
220
0.0
230
1.0
 70
    11
 71
     3
 72
    83
 73
    79
 74
     0
 42
0.0000000001
 43
0.0000000001
 12
1.0
 22
0.0
 32
0.0
 13
1.0
 23
0.0
 33
0.0
 40
0.0
 40
0.0
 40
0.0
 40
0.0
 40
1.0
 40
1.0
 40
1.0
 40
2.0
 40
2.0
 40
2.0
 40
3.0
 40
3.0
 40
3.0
 40
4.0
 40
4.0
 40
4.0
 40
5.0
 40
5.0
 40
5.0
 40
6.0
 40
6.0
 40
6.0
 40
7.0
 40
7.0
 40
7.0
 40
8.0
 40
8.0
 40
8.0
 40
9.0
 40
9.0
 40
9.0
 40
10.0
 40
10.0
 40
10.0
 40
11.0
 40
11.0
 40
11.0
 40
12.0
 40
12.0
 40
12.0
 40
13.0
 40
13.0
 40
13.0
 40
14.0
 40
14.0
 40
14.0
 40
15.0
 40
15.0
 40
15.0
 40
16.0
 40
16.0
 40
16.0
 40
17.0
 40
17.0
 40
17.0
 40
18.0
 40
18.0
 40
18.0
 40
19.0
 40
19.0
 40
19.0
 40
20.0
 40
20.0
 40
20.0
 40
21.0
 40
21.0
 40
21.0
 40
22.0
 40
22.0
 40
22.0
 40
23.0
 40
23.0
 40
23.0
 40
24.0
 40
24.0
 40
24.0
 40
25.0
 40
25.0
 40
25.0
 40
26.0
 40
26.0
 40
26.0
 40
26.0
 10
302.2077480239404
 20
469.0196765035971
 30
0.0
 10
302.2077480239404
 20
469.0196765035971
 30
0.0
 10
302.2077480239404
 20
415.6505103148065
 30
0.0
 10
302.2077480239404
 20
415.6505103148065
 30
0.0
 10
302.2157964457301
 20
414.9555819363868
 30
0.0
 10
302.4263561673151
 20
414.2842297430088
 30
0.0
 10
302.8167452727403
 20
413.7091334223551
 30
0.0
 10
302.8167452727403
 20
413.7091334223551
 30
0.0
 10
309.9011449863974
 20
403.5017834596765
 30
0.0
 10
309.9011449863974
 20
403.5017834596765
 30
0.0
 10
310.2494221475044
 20
402.9787173404957
 30
0.0
 10
310.7606188769751
 20
402.6114166369734
 30
0.0
 10
311.3650634831465
 20
402.4539439803284
 30
0.0
 10
311.3650634831465
 20
402.4539439803284
 30
0.0
 10
342.5030253376608
 20
396.134713417081
 30
0.0
 10
342.5030253376608
 20
396.134713417081
 30
0.0
 10
342.7884597710527
 20
396.0776427898418
 30
0.0
 10
343.0792668409958
 20
396.0962598463066
 30
0.0
 10
343.3533939429817
 20
396.1946294459649
 30
0.0
 10
343.3533939429817
 20
396.1946294459649
 30
0.0
 10
343.36184885072
 20
396.197800036367
 30
0.0
 10
343.36184885072
 20
396.197800036367
 30
0.0
 10
343.36184885072
 20
396.197800036367
 30
0.0
 10
344.6278899874942
 20
397.0414209749342
 30
0.0
 10
344.6278899874942
 20
397.041339677744
 30
0.0
 10
344.8665785367521
 20
397.1984871456298
 30
0.0
 10
344.9870609720365
 20
397.3534395893912
 30
0.0
 10
345.1729063479215
 20
397.5404231259345
 30
0.0
 10
345.1729063479215
 20
397.5404231259345
 30
0.0
 10
352.1060119913582
 20
404.3048371005334
 30
0.0
 10
352.1060119913582
 20
404.3048371005334
 30
0.0
 10
352.5056762365748
 20
404.7727024278383
 30
0.0
 10
352.7121711038872
 20
405.3574731140779
 30
0.0
 10
352.6995627740962
 20
405.9764699172247
 30
0.0
 10
352.6995627740962
 20
405.9764699172247
 30
0.0
 10
352.6995627740962
 20
458.6820071456677
 30
0.0
 10
352.6995627740962
 20
458.6820071456677
 30
0.0
 10
352.7021642841701
 20
459.3275881298787
 30
0.0
 10
352.6841976052237
 20
460.1634858354146
 30
0.0
 10
353.191329475203
 20
460.5200553098821
 30
0.0
 10
353.191329475203
 20
460.5200553098821
 30
0.0
 10
357.0482307537513
 20
462.5084219780401
 30
0.0
 10
357.0482307537513
 20
462.5084219780401
 30
0.0
 10
357.0482307537513
 20
462.5084219780401
 30
0.0
 10
383.0624372210459
 20
473.1374604642178
 30
0.0
 10
383.0624372210459
 20
473.1374604642178
 30
0.0
 10
383.3077108426769
 20
473.2526585821661
 30
0.0
 10
383.5991612681137
 20
473.4380161749123
 30
0.0
 10
383.5991612681137
 20
473.6266256552517
 30
0.0
 10
383.5991612681137
 20
473.6266256552517
 30
0.0
 10
383.5991612681137
 20
475.7083214973009
 30
0.0
 10
383.5991612681137
 20
475.7083214973009
 30
0.0
 10
383.5991612681137
 20
475.7083214973009
 30
0.0
 10
383.5780239987653
 20
475.8095454404011
 30
0.0
 10
383.5780239987653
 20
475.8095454404011
 30
0.0
 10
383.5780239987653
 20
475.8095454404011
 30
0.0
 10
381.9795586528944
 20
479.6107492021374
 30
0.0
 10
381.9795586528944
 20
479.6107492021374
 30
0.0
 10
381.8261508557389
 20
479.9401654152134
 30
0.0
 10
381.3898288380769
 20
480.0457704647642
 30
0.0
 10
380.9915539052399
 20
480.1320267831434
 30
0.0
 10
380.9915539052399
 20
480.1320267831434
 30
0.0
 10
349.577425496971
 20
487.2869111603559
 30
0.0
 10
349.577425496971
 20
487.2869111603559
 30
0.0
 10
348.9418440671052
 20
487.4191003909727
 30
0.0
 10
348.2891902273805
 20
487.4669031385765
 30
0.0
 10
347.6406012471471
 20
487.4290186481294
 30
0.0
 10
347.6406012471471
 20
487.4290186481294
 30
0.0
 10
335.1591249941594
 20
486.788559386875
 30
0.0
 10
335.1591249941594
 20
486.788559386875
 30
0.0
 10
334.5738665247809
 20
486.7722999489151
 30
0.0
 10
333.9926797073695
 20
486.6609227988865
 30
0.0
 10
333.4444859640626
 20
486.4593870653698
 30
0.0
 10
333.4444859640626
 20
486.4593870653698
 30
0.0
 10
304.6472327983047
 20
474.2083070482804
 30
0.0
 10
304.6472327983047
 20
474.2083070482804
 30
0.0
 10
302.7765844609794
 20
473.2634711084092
 30
0.0
 10
302.2043335419694
 20
471.2320982268466
 30
0.0
 10
302.2077480239404
 20
469.0196765035971
 30
0.0
  0
HATCH
  5
1D9
330
1D4
100
AcDbEntity
  8
APVA4
 62
   250
420
  2301728
100
AcDbHatch
 10
0.0
 20
0.0
 30
0.0
210
0.0
220
0.0
230
1.0
  2
SOLID
 70
     1
 71
     0
 91
        1
 92
        1
 93
        1
 72
     4
 94
        3
 73
     0
 74
     1
 95
       83
 96
       79
 40
0.0
 40
0.0
 40
0.0
 40
0.0
 40
1.0
 40
1.0
 40
1.0
 40
2.0
 40
2.0
 40
2.0
 40
3.0
 40
3.0
 40
3.0
 40
4.0
 40
4.0
 40
4.0
 40
5.0
 40
5.0
 40
5.0
 40
6.0
 40
6.0
 40
6.0
 40
7.0
 40
7.0
 40
7.0
 40
8.0
 40
8.0
 40
8.0
 40
9.0
 40
9.0
 40
9.0
 40
10.0
 40
10.0
 40
10.0
 40
11.0
 40
11.0
 40
11.0
 40
12.0
 40
12.0
 40
12.0
 40
13.0
 40
13.0
 40
13.0
 40
14.0
 40
14.0
 40
14.0
 40
15.0
 40
15.0
 40
15.0
 40
16.0
 40
16.0
 40
16.0
 40
17.0
 40
17.0
 40
17.0
 40
18.0
 40
18.0
 40
18.0
 40
19.0
 40
19.0
 40
19.0
 40
20.0
 40
20.0
 40
20.0
 40
21.0
 40
21.0
 40
21.0
 40
22.0
 40
22.0
 40
22.0
 40
23.0
 40
23.0
 40
23.0
 40
24.0
 40
24.0
 40
24.0
 40
25.0
 40
25.0
 40
25.0
 40
26.0
 40
26.0
 40
26.0
 40
26.0
 10
302.2077480239404
 20
469.0196765035971
 10
302.2077480239404
 20
469.0196765035971
 10
302.2077480239404
 20
415.6505103148065
 10
302.2077480239404
 20
415.6505103148065
 10
302.2157964457301
 20
414.9555819363868
 10
302.4263561673151
 20
414.2842297430088
 10
302.8167452727403
 20
413.7091334223551
 10
302.8167452727403
 20
413.7091334223551
 10
309.9011449863974
 20
403.5017834596765
 10
309.9011449863974
 20
403.5017834596765
 10
310.2494221475044
 20
402.9787173404957
 10
310.7606188769751
 20
402.6114166369734
 10
311.3650634831465
 20
402.4539439803284
 10
311.3650634831465
 20
402.4539439803284
 10
342.5030253376608
 20
396.134713417081
 10
342.5030253376608
 20
396.134713417081
 10
342.7884597710527
 20
396.0776427898418
 10
343.0792668409958
 20
396.0962598463066
 10
343.3533939429817
 20
396.1946294459649
 10
343.3533939429817
 20
396.1946294459649
 10
343.36184885072
 20
396.197800036367
 10
343.36184885072
 20
396.197800036367
 10
343.36184885072
 20
396.197800036367
 10
344.6278899874942
 20
397.0414209749342
 10
344.6278899874942
 20
397.041339677744
 10
344.8665785367521
 20
397.1984871456298
 10
344.9870609720365
 20
397.3534395893912
 10
345.1729063479215
 20
397.5404231259345
 10
345.1729063479215
 20
397.5404231259345
 10
352.1060119913582
 20
404.3048371005334
 10
352.1060119913582
 20
404.3048371005334
 10
352.5056762365748
 20
404.7727024278383
 10
352.7121711038872
 20
405.3574731140779
 10
352.6995627740962
 20
405.9764699172247
 10
352.6995627740962
 20
405.9764699172247
 10
352.6995627740962
 20
458.6820071456677
 10
352.6995627740962
 20
458.6820071456677
 10
352.7021642841701
 20
459.3275881298787
 10
352.6841976052237
 20
460.1634858354146
 10
353.191329475203
 20
460.5200553098821
 10
353.191329475203
 20
460.5200553098821
 10
357.0482307537513
 20
462.5084219780401
 10
357.0482307537513
 20
462.5084219780401
 10
357.0482307537513
 20
462.5084219780401
 10
383.0624372210459
 20
473.1374604642178
 10
383.0624372210459
 20
473.1374604642178
 10
383.3077108426769
 20
473.2526585821661
 10
383.5991612681137
 20
473.4380161749123
 10
383.5991612681137
 20
473.6266256552517
 10
383.5991612681137
 20
473.6266256552517
 10
383.5991612681137
 20
475.7083214973009
 10
383.5991612681137
 20
475.7083214973009
 10
383.5991612681137
 20
475.7083214973009
 10
383.5780239987653
 20
475.8095454404011
 10
383.5780239987653
 20
475.8095454404011
 10
383.5780239987653
 20
475.8095454404011
 10
381.9795586528944
 20
479.6107492021374
 10
381.9795586528944
 20
479.6107492021374
 10
381.8261508557389
 20
479.9401654152134
 10
381.3898288380769
 20
480.0457704647642
 10
380.9915539052399
 20
480.1320267831434
 10
380.9915539052399
 20
480.1320267831434
 10
349.577425496971
 20
487.2869111603559
 10
349.577425496971
 20
487.2869111603559
 10
348.9418440671052
 20
487.4191003909727
 10
348.2891902273805
 20
487.4669031385765
 10
347.6406012471471
 20
487.4290186481294
 10
347.6406012471471
 20
487.4290186481294
 10
335.1591249941594
 20
486.788559386875
 10
335.1591249941594
 20
486.788559386875
 10
334.5738665247809
 20
486.7722999489151
 10
333.9926797073695
 20
486.6609227988865
 10
333.4444859640626
 20
486.4593870653698
 10
333.4444859640626
 20
486.4593870653698
 10
304.6472327983047
 20
474.2083070482804
 10
304.6472327983047
 20
474.2083070482804
 10
302.7765844609794
 20
473.2634711084092
 10
302.2043335419694
 20
471.2320982268466
 10
302.2077480239404
 20
469.0196765035971
 97
        0
 97
        0
 75
     2
 76
     1
 98
        0
  0
POLYLINE
  5
1DA
330
1D4
100
AcDbEntity
  8
APVA4
 62
    18
420
        0
370
     9
100
AcDb2dPolyline
 66
     1
 10
0.0
 20
0.0
 30
0.0
  0
VERTEX
  5
1DB
330
1DA
100
AcDbEntity
  8
APVA4
 62
    18
420
        0
370
     9
100
AcDbVertex
100
AcDb2dVertex
 10
347.885874868778
 20
461.1471005348194
 30
0.0
  0
VERTEX
  5
1DC
330
1DA
100
AcDbEntity
  8
APVA4
 62
    18
420
        0
370
     9
100
AcDbVertex
100
AcDb2dVertex
 10
351.3032022420703
 20
460.3839638141553
 30
0.0
  0
SEQEND
  5
1DD
330
1DA
100
AcDbEntity
  8
APVA4
 62
    18
420
        0
370
     9
  0
POLYLINE
  5
1DE
330
1D4
100
AcDbEntity
  8
APVA4
 62
    18
420
        0
370
     9
100
AcDb2dPolyline
 66
     1
 10
0.0
 20
0.0
 30
0.0
  0
VERTEX
  5
1DF
330
1DE
100
AcDbEntity
  8
APVA4
 62
    18
420
        0
370
     9
100
AcDbVertex
100
AcDb2dVertex
 10
312.4517630192204
 20
469.0598373153589
 30
0.0
  0
VERTEX
  5
1E0
330
1DE
100
AcDbEntity
  8
APVA4
 62
    18
420
        0
370
     9
100
AcDbVertex
100
AcDb2dVertex
 10
345.5982532449616
 20
461.6578907783396
 30
0.0
  0
SEQEND
  5
1E1
330
1DE
100
AcDbEntity
  8
APVA4
 62
    18
420
        0
370
     9
  0
POLYLINE
  5
1E2
330
1D4
100
AcDbEntity
  8
APVA4
 62
    18
420
        0
370
     9
100
AcDb2dPolyline
 66
     1
 10
0.0
 20
0.0
 30
0.0
  0
VERTEX
  5
1E3
330
1E2
100
AcDbEntity
  8
APVA4
 62
    18
420
        0
370
     9
100
AcDbVertex
100
AcDb2dVertex
 10
306.5286123646838
 20
470.3824612962344
 30
0.0
  0
VERTEX
  5
1E4
330
1E2
100
AcDbEntity
  8
APVA4
 62
    18
420
        0
370
     9
100
AcDbVertex
100
AcDb2dVertex
 10
310.7885038130771
 20
469.4312028783706
 30
0.0
  0
SEQEND
  5
1E5
330
1E2
100
AcDbEntity
  8
APVA4
 62
    18
420
        0
370
     9
  0
SPLINE
  5
1E6
330
1D4
100
AcDbEntity
  8
APVA4
 62
    18
420
        0
370
     9
100
AcDbSpline
210
0.0
220
0.0
230
1.0
 70
     8
 71
     3
 72
    47
 73
    43
 74
     0
 42
0.0000000001
 43
0.0000000001
 12
1.0
 22
0.0
 32
0.0
 13
1.0
 23
0.0
 33
0.0
 40
0.0
 40
0.0
 40
0.0
 40
0.0
 40
1.0
 40
1.0
 40
1.0
 40
2.0
 40
2.0
 40
2.0
 40
3.0
 40
3.0
 40
3.0
 40
4.0
 40
4.0
 40
4.0
 40
5.0
 40
5.0
 40
5.0
 40
6.0
 40
6.0
 40
6.0
 40
7.0
 40
7.0
 40
7.0
 40
8.0
 40
8.0
 40
8.0
 40
9.0
 40
9.0
 40
9.0
 40
10.0
 40
10.0
 40
10.0
 40
11.0
 40
11.0
 40
11.0
 40
12.0
 40
12.0
 40
12.0
 40
13.0
 40
13.0
 40
13.0
 40
14.0
 40
14.0
 40
14.0
 40
14.0
 10
344.6873995304304
 20
397.1004427347307
 30
0.0
 10
344.435134350475
 20
397.0150806854381
 30
0.0
 10
344.1614067124156
 20
396.9962197374043
 30
0.0
 10
343.8784924919073
 20
397.0476808585499
 30
0.0
 10
343.8784924919073
 20
397.0476808585499
 30
0.0
 10
312.5867976514783
 20
403.4152832497284
 30
0.0
 10
312.5867976514783
 20
403.4152832497284
 30
0.0
 10
311.9820278565476
 20
403.5729997979415
 30
0.0
 10
311.4706685326983
 20
403.9405443930336
 30
0.0
 10
311.1223913715894
 20
404.4639428404298
 30
0.0
 10
311.1223913715894
 20
404.4639428404298
 30
0.0
 10
304.5236610698066
 20
414.1907379747372
 30
0.0
 10
304.5236610698066
 20
414.1907379747372
 30
0.0
 10
304.1331906671912
 20
414.7662407813405
 30
0.0
 10
303.922549648416
 20
415.4380807578573
 30
0.0
 10
303.9145012266263
 20
416.1334156222274
 30
0.0
 10
303.9145012266263
 20
416.1334156222274
 30
0.0
 10
303.9145012266263
 20
469.5356697672651
 30
0.0
 10
303.9145012266263
 20
469.5356697672651
 30
0.0
 10
303.8866162905242
 20
470.5840783269414
 30
0.0
 10
304.2399338774003
 20
471.9637729350579
 30
0.0
 10
305.2197276088846
 20
472.3732668800867
 30
0.0
 10
305.2197276088846
 20
472.3732668800867
 30
0.0
 10
333.4444859640626
 20
484.3509444478759
 30
0.0
 10
333.4444859640626
 20
484.3509444478759
 30
0.0
 10
333.9927542120822
 20
484.5520736954441
 30
0.0
 10
334.5739546291315
 20
484.6631256567134
 30
0.0
 10
335.1591249941594
 20
484.679303797483
 30
0.0
 10
335.1591249941594
 20
484.679303797483
 30
0.0
 10
347.6406012471471
 20
485.3182184121306
 30
0.0
 10
347.6406012471471
 20
485.3182184121306
 30
0.0
 10
348.289108930192
 20
485.3560216053884
 30
0.0
 10
348.9417627699149
 20
485.3083093367322
 30
0.0
 10
349.577425496971
 20
485.1765174103084
 30
0.0
 10
349.577425496971
 20
485.1765174103084
 30
0.0
 10
380.9915539052399
 20
478.0393558204705
 30
0.0
 10
380.9915539052399
 20
478.0393558204705
 30
0.0
 10
381.4294205695096
 20
477.9185481964259
 30
0.0
 10
381.8599704866956
 20
477.8090408817634
 30
0.0
 10
381.9795586528944
 20
477.5192976973121
 30
0.0
 10
381.9795586528944
 20
477.5192976973121
 30
0.0
 10
383.5780239987653
 20
473.7275967649848
 30
0.0
 10
383.5780239987653
 20
473.7275967649848
 30
0.0
  0
MTEXT
  5
1E7
330
1D4
100
AcDbEntity
  8
APVA4
 62
    18
420
        0
100
AcDbMText
 10
323.1199597638333
 20
457.1982213185984
 30
0.0
 40
3.918259700967897
 41
0.0
 46
0.0
 71
     7
 72
     1
  1
\fHelvetica Neue LT Std 57 Condensed|b0|i0|c0|p34;\W1.04635;APVA4
 11
0.9724933101874976
 21
-0.2329308086976981
 31
0.0
 73
     1
 44
1.0
  0
MTEXT
  5
1E8
330
1D4
100
AcDbEntity
  8
APVA4
 62
    18
420
        0
100
AcDbMText
 10
324.2909364358056
 20
452.8528085298603
 30
0.0
 40
2.798758711541118
 41
0.0
 46
0.0
 71
     7
 72
     1
  1
\fHelvetica Neue LT Std 57 Condensed|b0|i0|c0|p34;\W1.04635;ER-102
 11
0.9724933101874976
 21
-0.2329308086976981
 31
0.0
 73
     1
 44
1.0
  0
MTEXT
  5
1E9
330
1D4
100
AcDbEntity
  8
APVA4
 62
    18
420
        0
100
AcDbMText
 10
318.5196264312835
 20
411.7810464575305
 30
0.0
 40
2.798758711541118
 41
0.0
 46
0.0
 71
     7
 72
     1
  1
\fHelvetica Neue LT Std 57 Condensed|b0|i0|c0|p34;\W0.967867;Use & Warnings:
 11
0.9724933101874976
 21
-0.2329308086976981
 31
0.0
 73
     1
 44
1.0
  0
MTEXT
  5
1EA
330
1D4
100
AcDbEntity
  8
APVA4
 62
    18
420
        0
100
AcDbMText
 10
317.1748551680939
 20
408.0382035732619
 30
0.0
 40
2.798758711541118
 41
0.0
 46
0.0
 71
     7
 72
     1
  1
\fHelvetica Neue LT Std 57 Condensed|b0|i0|c0|p34;\W0.967867;strongtie.com/info
 11
0.9724933101874976
 21
-0.2329308086976981
 31
0.0
 73
     1
 44
1.0
  0
MTEXT
  5
1EB
330
1D4
100
AcDbEntity
  8
APVA4
 62
    18
420
        0
100
AcDbMText
 10
331.9292665768298
 20
469.1552272167464
 30
0.0
 40
2.014432489840709
 41
0.0
 46
0.0
 71
     7
 72
     1
  1
\fHelvetica Neue LT Std 57 Condensed|b0|i0|c0|p34;\W0.664002;SIMPSON
 11
0.9747865850259326
 21
-0.22313922482047
 31
0.0
 73
     1
 44
1.0
  0
MTEXT
  5
1EC
330
1D4
100
AcDbEntity
  8
APVA4
 62
    18
420
        0
100
AcDbMText
 10
326.4878072174615
 20
467.1050177636498
 30
0.0
 40
2.014432489840709
 41
0.0
 46
0.0
 71
     7
 72
     1
  1
\fHelvetica Neue LT Std 57 Condensed|b0|i0|c0|p34;\W0.664002;Strongtie\H1.00722;®
 11
0.9747865850259326
 21
-0.22313922482047
 31
0.0
 73
     1
 44
1.0
  0
ENDBLK
  5
1D7
330
1D4
100
AcDbEntity
  8
0
100
AcDbBlockEnd
  0
BLOCK
  5
1EF
330
1ED
100
AcDbEntity
  8
0
100
AcDbBlockBegin
  2
block 13
 70
     0
 10
0.0
 20
0.0
 30
0.0
  3
block 13
  1

  0
INSERT
  5
1F2
330
1ED
100
AcDbEntity
  8
APVA4
100
AcDbBlockReference
  2
block 14
 10
0.0
 20
0.0
 30
0.0
  0
INSERT
  5
1F9
330
1ED
100
AcDbEntity
  8
APVA4
100
AcDbBlockReference
  2
block 15
 10
0.0
 20
0.0
 30
0.0
  0
ENDBLK
  5
1F0
330
1ED
100
AcDbEntity
  8
0
100
AcDbBlockEnd
  0
BLOCK
  5
1F3
330
1F1
100
AcDbEntity
  8
0
100
AcDbBlockBegin
  2
block 14
 70
     0
 10
0.0
 20
0.0
 30
0.0
  3
block 14
  1

  0
SPLINE
  5
1F5
330
1F1
100
AcDbEntity
  8
APVA4
 62
    18
420
        0
370
     9
100
AcDbSpline
210
0.0
220
0.0
230
1.0
 70
    11
 71
     3
 72
    23
 73
    19
 74
     0
 42
0.0000000001
 43
0.0000000001
 12
1.0
 22
0.0
 32
0.0
 13
1.0
 23
0.0
 33
0.0
 40
0.0
 40
0.0
 40
0.0
 40
0.0
 40
1.0
 40
1.0
 40
1.0
 40
2.0
 40
2.0
 40
2.0
 40
3.0
 40
3.0
 40
3.0
 40
4.0
 40
4.0
 40
4.0
 40
5.0
 40
5.0
 40
5.0
 40
6.0
 40
6.0
 40
6.0
 40
6.0
 10
362.2295445513519
 20
474.0927024443818
 30
0.0
 10
362.2295445513519
 20
476.635759838553
 30
0.0
 10
355.4498467050707
 20
478.6973752747217
 30
0.0
 10
347.0866421958417
 20
478.6973752747217
 30
0.0
 10
338.7234376866145
 20
478.6973752747217
 30
0.0
 10
331.9437398403315
 20
476.635759838553
 30
0.0
 10
331.9437398403315
 20
474.0927024443818
 30
0.0
 10
331.9437398403315
 20
474.0927024443818
 30
0.0
 10
331.9437398403315
 20
471.0680404978293
 30
0.0
 10
331.9437398403315
 20
471.0680404978293
 30
0.0
 10
331.9437398403315
 20
468.5249831036572
 30
0.0
 10
338.7234376866145
 20
466.4633676674875
 30
0.0
 10
347.0866421958417
 20
466.4633676674875
 30
0.0
 10
355.4498467050707
 20
466.4633676674875
 30
0.0
 10
362.2295445513519
 20
468.5249831036572
 30
0.0
 10
362.2295445513519
 20
471.0680404978293
 30
0.0
 10
362.2295445513519
 20
471.0680404978293
 30
0.0
 10
362.2295445513519
 20
474.0927024443818
 30
0.0
 10
362.2295445513519
 20
474.0927024443818
 30
0.0
  0
HATCH
  5
1F6
330
1F1
100
AcDbEntity
  8
APVA4
 62
   250
420
  2301728
100
AcDbHatch
 10
0.0
 20
0.0
 30
0.0
210
0.0
220
0.0
230
1.0
  2
SOLID
 70
     1
 71
     0
 91
        1
 92
        1
 93
        1
 72
     4
 94
        3
 73
     0
 74
     1
 95
       23
 96
       19
 40
0.0
 40
0.0
 40
0.0
 40
0.0
 40
1.0
 40
1.0
 40
1.0
 40
2.0
 40
2.0
 40
2.0
 40
3.0
 40
3.0
 40
3.0
 40
4.0
 40
4.0
 40
4.0
 40
5.0
 40
5.0
 40
5.0
 40
6.0
 40
6.0
 40
6.0
 40
6.0
 10
362.2295445513519
 20
474.0927024443818
 10
362.2295445513519
 20
476.635759838553
 10
355.4498467050707
 20
478.6973752747217
 10
347.0866421958417
 20
478.6973752747217
 10
338.7234376866145
 20
478.6973752747217
 10
331.9437398403315
 20
476.635759838553
 10
331.9437398403315
 20
474.0927024443818
 10
331.9437398403315
 20
474.0927024443818
 10
331.9437398403315
 20
471.0680404978293
 10
331.9437398403315
 20
471.0680404978293
 10
331.9437398403315
 20
468.5249831036572
 10
338.7234376866145
 20
466.4633676674875
 10
347.0866421958417
 20
466.4633676674875
 10
355.4498467050707
 20
466.4633676674875
 10
362.2295445513519
 20
468.5249831036572
 10
362.2295445513519
 20
471.0680404978293
 10
362.2295445513519
 20
471.0680404978293
 10
362.2295445513519
 20
474.0927024443818
 10
362.2295445513519
 20
474.0927024443818
 97
        0
 97
        0
 75
     2
 76
     1
 98
        0
  0
SPLINE
  5
1F7
330
1F1
100
AcDbEntity
  8
APVA4
 62
    18
420
        0
370
     9
100
AcDbSpline
210
0.0
220
0.0
230
1.0
 70
     8
 71
     3
 72
    11
 73
     7
 74
     0
 42
0.0000000001
 43
0.0000000001
 12
1.0
 22
0.0
 32
0.0
 13
1.0
 23
0.0
 33
0.0
 40
0.0
 40
0.0
 40
0.0
 40
0.0
 40
1.0
 40
1.0
 40
1.0
 40
2.0
 40
2.0
 40
2.0
 40
2.0
 10
331.9437398403315
 20
471.3592470316962
 30
0.0
 10
331.9437398403315
 20
473.9023133194851
 30
0.0
 10
338.7234376866145
 20
475.9638385648459
 30
0.0
 10
347.0866421958417
 20
475.9638385648459
 30
0.0
 10
355.4498467050707
 20
475.9638385648459
 30
0.0
 10
362.2295445513519
 20
473.9023133194851
 30
0.0
 10
362.2295445513519
 20
471.3592470316962
 30
0.0
  0
ENDBLK
  5
1F4
330
1F1
100
AcDbEntity
  8
0
100
AcDbBlockEnd
  0
BLOCK
  5
1FA
330
1F8
100
AcDbEntity
  8
0
100
AcDbBlockBegin
  2
block 15
 70
     0
 10
0.0
 20
0.0
 30
0.0
  3
block 15
  1

  0
SPLINE
  5
1FC
330
1F8
100
AcDbEntity
  8
APVA4
 62
    18
420
        0
370
     9
100
AcDbSpline
210
0.0
220
0.0
230
1.0
 70
    11
 71
     3
 72
    68
 73
    64
 74
     0
 42
0.0000000001
 43
0.0000000001
 12
1.0
 22
0.0
 32
0.0
 13
1.0
 23
0.0
 33
0.0
 40
0.0
 40
0.0
 40
0.0
 40
0.0
 40
1.0
 40
1.0
 40
1.0
 40
2.0
 40
2.0
 40
2.0
 40
3.0
 40
3.0
 40
3.0
 40
4.0
 40
4.0
 40
4.0
 40
5.0
 40
5.0
 40
5.0
 40
6.0
 40
6.0
 40
6.0
 40
7.0
 40
7.0
 40
7.0
 40
8.0
 40
8.0
 40
8.0
 40
9.0
 40
9.0
 40
9.0
 40
10.0
 40
10.0
 40
10.0
 40
11.0
 40
11.0
 40
11.0
 40
12.0
 40
12.0
 40
12.0
 40
13.0
 40
13.0
 40
13.0
 40
14.0
 40
14.0
 40
14.0
 40
15.0
 40
15.0
 40
15.0
 40
16.0
 40
16.0
 40
16.0
 40
17.0
 40
17.0
 40
17.0
 40
18.0
 40
18.0
 40
18.0
 40
19.0
 40
19.0
 40
19.0
 40
20.0
 40
20.0
 40
20.0
 40
21.0
 40
21.0
 40
21.0
 40
21.0
 10
356.1477017823236
 20
461.0305289330927
 30
0.0
 10
356.1477017823236
 20
461.0305289330927
 30
0.0
 10
345.9112474256963
 20
459.643102523497
 30
0.0
 10
345.9112474256963
 20
459.643102523497
 30
0.0
 10
345.7710910704791
 20
459.6246480614118
 30
0.0
 10
345.6290648798968
 20
459.6296071899897
 30
0.0
 10
345.4906970628545
 20
459.6587115839393
 30
0.0
 10
345.4906970628545
 20
459.6587115839393
 30
0.0
 10
345.4818356691667
 20
459.6606712503371
 30
0.0
 10
345.4818356691667
 20
459.6606712503371
 30
0.0
 10
345.4818356691667
 20
459.6606712503371
 30
0.0
 10
336.5666232411877
 20
461.6223724897964
 30
0.0
 10
336.5666232411877
 20
461.6223724897964
 30
0.0
 10
335.947138654903
 20
461.8127619249117
 30
0.0
 10
335.5853661602887
 20
462.281277629736
 30
0.0
 10
335.5514652321399
 20
462.9308421762471
 30
0.0
 10
335.5514652321399
 20
462.9308421762471
 30
0.0
 10
335.5514652321399
 20
468.2404429393528
 30
0.0
 10
335.5514652321399
 20
468.2404429393528
 30
0.0
 10
335.5514652321399
 20
468.2404429393528
 30
0.0
 10
335.5600895663338
 20
468.2858880684516
 30
0.0
 10
335.5600895663338
 20
468.2858880684516
 30
0.0
 10
335.5374008183044
 20
468.5268529390223
 30
0.0
 10
335.4749645765369
 20
468.7393637931627
 30
0.0
 10
335.3760258965485
 20
468.9201687432815
 30
0.0
 10
334.7655652983321
 20
468.8724560594201
 30
0.0
 10
334.1820140699383
 20
469.2934854388477
 30
0.0
 10
334.2820977103729
 20
469.6109509650214
 30
0.0
 10
334.2820977103729
 20
469.6109509650214
 30
0.0
 10
335.5695945054649
 20
473.0162463542238
 30
0.0
 10
335.5695945054649
 20
473.0162463542238
 30
0.0
 10
335.7482857286486
 20
473.4670392716725
 30
0.0
 10
336.5789804140368
 20
473.5605310399433
 30
0.0
 10
337.1125338707025
 20
473.6615834468657
 30
0.0
 10
337.1125338707025
 20
473.6615834468657
 30
0.0
 10
347.4109366859593
 20
475.0832274049189
 30
0.0
 10
347.4109366859593
 20
475.0832274049189
 30
0.0
 10
348.2655327451484
 20
475.2006294734083
 30
0.0
 10
349.137119917008
 20
475.1741176631167
 30
0.0
 10
349.9822855021812
 20
475.0047756167605
 30
0.0
 10
349.9822855021812
 20
475.0047756167605
 30
0.0
 10
358.925057677503
 20
472.9978731893289
 30
0.0
 10
358.925057677503
 20
472.9978731893289
 30
0.0
 10
359.46942366041
 20
472.8682854687859
 30
0.0
 10
360.031187241937
 20
472.5965089632809
 30
0.0
 10
359.9285901884086
 20
472.2757102523246
 30
0.0
 10
359.9285901884086
 20
472.2757102523246
 30
0.0
 10
358.6575899230556
 20
469.1574752403103
 30
0.0
 10
358.6575899230556
 20
469.1574752403103
 30
0.0
 10
358.6575899230556
 20
469.1574752403103
 30
0.0
 10
358.6575899230556
 20
465.745350887164
 30
0.0
 10
358.6575899230556
 20
465.745350887164
 30
0.0
 10
358.6572647342964
 20
465.5647085314258
 30
0.0
 10
358.6224769517394
 20
465.3854482279148
 30
0.0
 10
358.5550741667175
 20
465.2178134225442
 30
0.0
 10
358.5550741667175
 20
465.2178134225442
 30
0.0
 10
358.5529604397816
 20
465.212529105208
 30
0.0
 10
358.5529604397816
 20
465.212529105208
 30
0.0
 10
358.5529604397816
 20
465.212529105208
 30
0.0
 10
357.1728593457174
 20
461.8417850216701
 30
0.0
 10
357.1728593457174
 20
461.8417850216701
 30
0.0
 10
356.9811605721661
 20
461.4026988995538
 30
0.0
 10
356.6182499168935
 20
461.1149881448473
 30
0.0
 10
356.1477017823236
 20
461.0305289330927
 30
0.0
  0
HATCH
  5
1FD
330
1F8
100
AcDbEntity
  8
APVA4
 62
   250
420
  2301728
100
AcDbHatch
 10
0.0
 20
0.0
 30
0.0
210
0.0
220
0.0
230
1.0
  2
SOLID
 70
     1
 71
     0
 91
        1
 92
        1
 93
        1
 72
     4
 94
        3
 73
     0
 74
     1
 95
       68
 96
       64
 40
0.0
 40
0.0
 40
0.0
 40
0.0
 40
1.0
 40
1.0
 40
1.0
 40
2.0
 40
2.0
 40
2.0
 40
3.0
 40
3.0
 40
3.0
 40
4.0
 40
4.0
 40
4.0
 40
5.0
 40
5.0
 40
5.0
 40
6.0
 40
6.0
 40
6.0
 40
7.0
 40
7.0
 40
7.0
 40
8.0
 40
8.0
 40
8.0
 40
9.0
 40
9.0
 40
9.0
 40
10.0
 40
10.0
 40
10.0
 40
11.0
 40
11.0
 40
11.0
 40
12.0
 40
12.0
 40
12.0
 40
13.0
 40
13.0
 40
13.0
 40
14.0
 40
14.0
 40
14.0
 40
15.0
 40
15.0
 40
15.0
 40
16.0
 40
16.0
 40
16.0
 40
17.0
 40
17.0
 40
17.0
 40
18.0
 40
18.0
 40
18.0
 40
19.0
 40
19.0
 40
19.0
 40
20.0
 40
20.0
 40
20.0
 40
21.0
 40
21.0
 40
21.0
 40
21.0
 10
356.1477017823236
 20
461.0305289330927
 10
356.1477017823236
 20
461.0305289330927
 10
345.9112474256963
 20
459.643102523497
 10
345.9112474256963
 20
459.643102523497
 10
345.7710910704791
 20
459.6246480614118
 10
345.6290648798968
 20
459.6296071899897
 10
345.4906970628545
 20
459.6587115839393
 10
345.4906970628545
 20
459.6587115839393
 10
345.4818356691667
 20
459.6606712503371
 10
345.4818356691667
 20
459.6606712503371
 10
345.4818356691667
 20
459.6606712503371
 10
336.5666232411877
 20
461.6223724897964
 10
336.5666232411877
 20
461.6223724897964
 10
335.947138654903
 20
461.8127619249117
 10
335.5853661602887
 20
462.281277629736
 10
335.5514652321399
 20
462.9308421762471
 10
335.5514652321399
 20
462.9308421762471
 10
335.5514652321399
 20
468.2404429393528
 10
335.5514652321399
 20
468.2404429393528
 10
335.5514652321399
 20
468.2404429393528
 10
335.5600895663338
 20
468.2858880684516
 10
335.5600895663338
 20
468.2858880684516
 10
335.5374008183044
 20
468.5268529390223
 10
335.4749645765369
 20
468.7393637931627
 10
335.3760258965485
 20
468.9201687432815
 10
334.7655652983321
 20
468.8724560594201
 10
334.1820140699383
 20
469.2934854388477
 10
334.2820977103729
 20
469.6109509650214
 10
334.2820977103729
 20
469.6109509650214
 10
335.5695945054649
 20
473.0162463542238
 10
335.5695945054649
 20
473.0162463542238
 10
335.7482857286486
 20
473.4670392716725
 10
336.5789804140368
 20
473.5605310399433
 10
337.1125338707025
 20
473.6615834468657
 10
337.1125338707025
 20
473.6615834468657
 10
347.4109366859593
 20
475.0832274049189
 10
347.4109366859593
 20
475.0832274049189
 10
348.2655327451484
 20
475.2006294734083
 10
349.137119917008
 20
475.1741176631167
 10
349.9822855021812
 20
475.0047756167605
 10
349.9822855021812
 20
475.0047756167605
 10
358.925057677503
 20
472.9978731893289
 10
358.925057677503
 20
472.9978731893289
 10
359.46942366041
 20
472.8682854687859
 10
360.031187241937
 20
472.5965089632809
 10
359.9285901884086
 20
472.2757102523246
 10
359.9285901884086
 20
472.2757102523246
 10
358.6575899230556
 20
469.1574752403103
 10
358.6575899230556
 20
469.1574752403103
 10
358.6575899230556
 20
469.1574752403103
 10
358.6575899230556
 20
465.745350887164
 10
358.6575899230556
 20
465.745350887164
 10
358.6572647342964
 20
465.5647085314258
 10
358.6224769517394
 20
465.3854482279148
 10
358.5550741667175
 20
465.2178134225442
 10
358.5550741667175
 20
465.2178134225442
 10
358.5529604397816
 20
465.212529105208
 10
358.5529604397816
 20
465.212529105208
 10
358.5529604397816
 20
465.212529105208
 10
357.1728593457174
 20
461.8417850216701
 10
357.1728593457174
 20
461.8417850216701
 10
356.9811605721661
 20
461.4026988995538
 10
356.6182499168935
 20
461.1149881448473
 10
356.1477017823236
 20
461.0305289330927
 97
        0
 97
        0
 75
     2
 76
     1
 98
        0
  0
SPLINE
  5
1FE
330
1F8
100
AcDbEntity
  8
APVA4
 62
    18
420
        0
370
     9
100
AcDbSpline
210
0.0
220
0.0
230
1.0
 70
    11
 71
     3
 72
    17
 73
    13
 74
     0
 42
0.0000000001
 43
0.0000000001
 12
1.0
 22
0.0
 32
0.0
 13
1.0
 23
0.0
 33
0.0
 40
0.0
 40
0.0
 40
0.0
 40
0.0
 40
1.0
 40
1.0
 40
1.0
 40
2.0
 40
2.0
 40
2.0
 40
3.0
 40
3.0
 40
3.0
 40
4.0
 40
4.0
 40
4.0
 40
4.0
 10
349.8461127092633
 20
462.5986618587194
 30
0.0
 10
349.8461127092633
 20
462.1467393772618
 30
0.0
 10
348.6108019102339
 20
461.7804056433706
 30
0.0
 10
347.0869673846009
 20
461.7804056433706
 30
0.0
 10
345.5631328589679
 20
461.7804056433706
 30
0.0
 10
344.3279033571271
 20
462.1467393772618
 30
0.0
 10
344.3279033571271
 20
462.5986618587194
 30
0.0
 10
344.3279033571271
 20
463.0505929368246
 30
0.0
 10
345.5631328589679
 20
463.4169180740682
 30
0.0
 10
347.0869673846009
 20
463.4169180740682
 30
0.0
 10
348.6108019102339
 20
463.4169180740682
 30
0.0
 10
349.8461127092633
 20
463.0505929368246
 30
0.0
 10
349.8461127092633
 20
462.5986618587194
 30
0.0
  0
SPLINE
  5
1FF
330
1F8
100
AcDbEntity
  8
APVA4
 62
    18
420
        0
370
     9
100
AcDbSpline
210
0.0
220
0.0
230
1.0
 70
     8
 71
     3
 72
    32
 73
    28
 74
     0
 42
0.0000000001
 43
0.0000000001
 12
1.0
 22
0.0
 32
0.0
 13
1.0
 23
0.0
 33
0.0
 40
0.0
 40
0.0
 40
0.0
 40
0.0
 40
1.0
 40
1.0
 40
1.0
 40
2.0
 40
2.0
 40
2.0
 40
3.0
 40
3.0
 40
3.0
 40
4.0
 40
4.0
 40
4.0
 40
5.0
 40
5.0
 40
5.0
 40
6.0
 40
6.0
 40
6.0
 40
7.0
 40
7.0
 40
7.0
 40
8.0
 40
8.0
 40
8.0
 40
9.0
 40
9.0
 40
9.0
 40
9.0
 10
344.4604177765032
 20
462.7627195877394
 30
0.0
 10
344.5267562833815
 20
462.762159119603
 30
0.0
 10
344.5923631155511
 20
462.7706867123388
 30
0.0
 10
344.6571569758235
 20
462.7883282025259
 30
0.0
 10
344.9903941568191
 20
462.8671864766329
 30
0.0
 10
345.5785793250288
 20
462.8305214440334
 30
0.0
 10
345.2860720361241
 20
462.3466405703357
 30
0.0
 10
345.2033114969072
 20
462.2096548055206
 30
0.0
 10
345.3068098978219
 20
462.0985215470628
 30
0.0
 10
345.442000046165
 20
462.0686940730802
 30
0.0
 10
345.6245122372675
 20
462.0284433694542
 30
0.0
 10
345.8622252202458
 20
462.0838880528981
 30
0.0
 10
346.016608583679
 20
462.1854282429604
 30
0.0
 10
346.4852055856936
 20
462.4937884838764
 30
0.0
 10
347.1688336547304
 20
462.5310225968051
 30
0.0
 10
347.6030419454601
 20
462.1377966861573
 30
0.0
 10
347.7412471681218
 20
462.0126717146322
 30
0.0
 10
347.9802609061371
 20
461.9627552400943
 30
0.0
 10
348.159765101218
 20
461.9871443970351
 30
0.0
 10
348.2818734802986
 20
462.0037290237542
 30
0.0
 10
348.4784500852384
 20
462.0892536674264
 30
0.0
 10
348.442598024536
 20
462.2519293442174
 30
0.0
 10
348.3192701876069
 20
462.8118230903783
 30
0.0
 10
349.0863904705711
 20
462.7343468684976
 30
0.0
 10
349.4027991332787
 20
462.6458142288038
 30
0.0
 10
349.4506831780709
 20
462.6324001924868
 30
0.0
 10
349.7579052583296
 20
462.5533793240002
 30
0.0
 10
349.8042446565159
 20
462.6606916145374
 30
0.0
  0
POLYLINE
  5
200
330
1F8
100
AcDbEntity
  8
APVA4
 62
    18
420
        0
370
     9
100
AcDb2dPolyline
 66
     1
 10
0.0
 20
0.0
 30
0.0
  0
VERTEX
  5
201
330
200
100
AcDbEntity
  8
APVA4
 62
    18
420
        0
370
     9
100
AcDbVertex
100
AcDb2dVertex
 10
347.6030419454601
 20
462.1377966861573
 30
0.0
  0
VERTEX
  5
202
330
200
100
AcDbEntity
  8
APVA4
 62
    18
420
        0
370
     9
100
AcDbVertex
100
AcDb2dVertex
 10
347.6030419454601
 20
463.3604165271563
 30
0.0
  0
SEQEND
  5
203
330
200
100
AcDbEntity
  8
APVA4
 62
    18
420
        0
370
     9
  0
POLYLINE
  5
204
330
1F8
100
AcDbEntity
  8
APVA4
 62
    18
420
        0
370
     9
100
AcDb2dPolyline
 66
     1
 10
0.0
 20
0.0
 30
0.0
  0
VERTEX
  5
205
330
204
100
AcDbEntity
  8
APVA4
 62
    18
420
        0
370
     9
100
AcDbVertex
100
AcDb2dVertex
 10
346.016608583679
 20
462.1854282429604
 30
0.0
  0
VERTEX
  5
206
330
204
100
AcDbEntity
  8
APVA4
 62
    18
420
        0
370
     9
100
AcDbVertex
100
AcDb2dVertex
 10
346.016608583679
 20
463.299362337616
 30
0.0
  0
SEQEND
  5
207
330
204
100
AcDbEntity
  8
APVA4
 62
    18
420
        0
370
     9
  0
POLYLINE
  5
208
330
1F8
100
AcDbEntity
  8
APVA4
 62
    18
420
        0
370
     9
100
AcDb2dPolyline
 66
     1
 10
0.0
 20
0.0
 30
0.0
  0
VERTEX
  5
209
330
208
100
AcDbEntity
  8
APVA4
 62
    18
420
        0
370
     9
100
AcDbVertex
100
AcDb2dVertex
 10
348.4317854982928
 20
462.3481852169416
 30
0.0
  0
VERTEX
  5
20A
330
208
100
AcDbEntity
  8
APVA4
 62
    18
420
        0
370
     9
100
AcDbVertex
100
AcDb2dVertex
 10
348.4317854982928
 20
463.273591128449
 30
0.0
  0
SEQEND
  5
20B
330
208
100
AcDbEntity
  8
APVA4
 62
    18
420
        0
370
     9
  0
POLYLINE
  5
20C
330
1F8
100
AcDbEntity
  8
APVA4
 62
    18
420
        0
370
     9
100
AcDb2dPolyline
 66
     1
 10
0.0
 20
0.0
 30
0.0
  0
VERTEX
  5
20D
330
20C
100
AcDbEntity
  8
APVA4
 62
    18
420
        0
370
     9
100
AcDbVertex
100
AcDb2dVertex
 10
345.3662310652689
 20
462.5926458666754
 30
0.0
  0
VERTEX
  5
20E
330
20C
100
AcDbEntity
  8
APVA4
 62
    18
420
        0
370
     9
100
AcDbVertex
100
AcDb2dVertex
 10
345.3662310652689
 20
463.1770913641549
 30
0.0
  0
SEQEND
  5
20F
330
20C
100
AcDbEntity
  8
APVA4
 62
    18
420
        0
370
     9
  0
SPLINE
  5
210
330
1F8
100
AcDbEntity
  8
APVA4
 62
    18
420
        0
370
     9
100
AcDbSpline
210
0.0
220
0.0
230
1.0
 70
     8
 71
     3
 72
     8
 73
     4
 74
     0
 42
0.0000000001
 43
0.0000000001
 12
1.0
 22
0.0
 32
0.0
 13
1.0
 23
0.0
 33
0.0
 40
0.0
 40
0.0
 40
0.0
 40
0.0
 40
1.0
 40
1.0
 40
1.0
 40
1.0
 10
334.2820977103729
 20
469.6109509650214
 30
0.0
 10
334.7910926159293
 20
469.5449376469032
 30
0.0
 10
335.1659539581033
 20
469.3039727763316
 30
0.0
 10
335.3760258965485
 20
468.9201687432815
 30
0.0
  0
SPLINE
  5
211
330
1F8
100
AcDbEntity
  8
APVA4
 62
    18
420
        0
370
     9
100
AcDbSpline
210
0.0
220
0.0
230
1.0
 70
     8
 71
     3
 72
    23
 73
    19
 74
     0
 42
0.0000000001
 43
0.0000000001
 12
1.0
 22
0.0
 32
0.0
 13
1.0
 23
0.0
 33
0.0
 40
0.0
 40
0.0
 40
0.0
 40
0.0
 40
1.0
 40
1.0
 40
1.0
 40
2.0
 40
2.0
 40
2.0
 40
3.0
 40
3.0
 40
3.0
 40
4.0
 40
4.0
 40
4.0
 40
5.0
 40
5.0
 40
5.0
 40
6.0
 40
6.0
 40
6.0
 40
6.0
 10
335.5600895663338
 20
468.2858880684516
 30
0.0
 10
335.5600895663338
 20
468.2858880684516
 30
0.0
 10
336.8527893492883
 20
471.6856552487479
 30
0.0
 10
336.8527893492883
 20
471.6856552487479
 30
0.0
 10
336.9457120372317
 20
471.9087347375626
 30
0.0
 10
337.4043907820887
 20
471.9975201143243
 30
0.0
 10
337.6243809776915
 20
472.00767341755
 30
0.0
 10
337.6243809776915
 20
472.00767341755
 30
0.0
 10
347.9191254194066
 20
473.4258215964428
 30
0.0
 10
347.9191254194066
 20
473.4258215964428
 30
0.0
 10
348.3462608546215
 20
473.48444575335
 30
0.0
 10
348.7818511975765
 20
473.4711854283514
 30
0.0
 10
349.2043526929738
 20
473.3867176481481
 30
0.0
 10
349.2043526929738
 20
473.3867176481481
 30
0.0
 10
358.1454989244976
 20
471.384449160535
 30
0.0
 10
358.1454989244976
 20
471.384449160535
 30
0.0
 10
358.3710986261958
 20
471.3333945253389
 30
0.0
 10
358.5428057037225
 20
471.2727468217481
 30
0.0
 10
358.6575086258654
 20
471.0769831887064
 30
0.0
  0
SPLINE
  5
212
330
1F8
100
AcDbEntity
  8
APVA4
 62
    18
420
        0
370
     9
100
AcDbSpline
210
0.0
220
0.0
230
1.0
 70
     8
 71
     3
 72
    23
 73
    19
 74
     0
 42
0.0000000001
 43
0.0000000001
 12
1.0
 22
0.0
 32
0.0
 13
1.0
 23
0.0
 33
0.0
 40
0.0
 40
0.0
 40
0.0
 40
0.0
 40
1.0
 40
1.0
 40
1.0
 40
2.0
 40
2.0
 40
2.0
 40
3.0
 40
3.0
 40
3.0
 40
4.0
 40
4.0
 40
4.0
 40
5.0
 40
5.0
 40
5.0
 40
6.0
 40
6.0
 40
6.0
 40
6.0
 10
349.9822855021812
 20
475.0047756167605
 30
0.0
 10
349.4628777565413
 20
474.6275566560844
 30
0.0
 10
349.1889875241013
 20
474.0448183995886
 30
0.0
 10
349.2043526929738
 20
473.3867176481481
 30
0.0
 10
349.2043526929738
 20
473.3867176481481
 30
0.0
 10
349.2043526929738
 20
468.0441915231731
 30
0.0
 10
349.2043526929738
 20
468.0441915231731
 30
0.0
 10
349.2199617534152
 20
467.3869037436298
 30
0.0
 10
348.9462341153539
 20
466.8052223506029
 30
0.0
 10
348.4269076669043
 20
466.4294754441789
 30
0.0
 10
348.0016420670545
 20
466.7393716268634
 30
0.0
 10
347.8949801540348
 20
467.6053492926258
 30
0.0
 10
347.9191254194066
 20
468.0830603265094
 30
0.0
 10
347.9191254194066
 20
468.0830603265094
 30
0.0
 10
347.9191254194066
 20
473.4258215964428
 30
0.0
 10
347.9191254194066
 20
473.4258215964428
 30
0.0
 10
347.9492866768232
 20
474.0284776644394
 30
0.0
 10
347.7718962086765
 20
474.6174758045481
 30
0.0
 10
347.4109366859593
 20
475.0832274049189
 30
0.0
  0
SPLINE
  5
213
330
1F8
100
AcDbEntity
  8
APVA4
 62
    18
420
        0
370
     9
100
AcDbSpline
210
0.0
220
0.0
230
1.0
 70
     8
 71
     3
 72
    23
 73
    19
 74
     0
 42
0.0000000001
 43
0.0000000001
 12
1.0
 22
0.0
 32
0.0
 13
1.0
 23
0.0
 33
0.0
 40
0.0
 40
0.0
 40
0.0
 40
0.0
 40
1.0
 40
1.0
 40
1.0
 40
2.0
 40
2.0
 40
2.0
 40
3.0
 40
3.0
 40
3.0
 40
4.0
 40
4.0
 40
4.0
 40
5.0
 40
5.0
 40
5.0
 40
6.0
 40
6.0
 40
6.0
 40
6.0
 10
335.5695945054649
 20
473.0162463542238
 30
0.0
 10
336.3215122139372
 20
472.9186897264626
 30
0.0
 10
336.781735605402
 20
472.4409874391904
 30
0.0
 10
336.8527893492883
 20
471.6856552487479
 30
0.0
 10
336.8527893492883
 20
471.6856552487479
 30
0.0
 10
336.8527893492883
 20
466.3539416500162
 30
0.0
 10
336.8527893492883
 20
466.3539416500162
 30
0.0
 10
336.9237617959843
 20
465.5986907567631
 30
0.0
 10
337.3839038902588
 20
465.1211510638695
 30
0.0
 10
338.1357403015409
 20
465.0236757333005
 30
0.0
 10
337.7725857546975
 20
465.4856876629392
 30
0.0
 10
337.5940571258943
 20
466.0725807719355
 30
0.0
 10
337.6243809776915
 20
466.6739273890744
 30
0.0
 10
337.6243809776915
 20
466.6739273890744
 30
0.0
 10
337.6243809776915
 20
472.00767341755
 30
0.0
 10
337.6243809776915
 20
472.00767341755
 30
0.0
 10
337.6483636486828
 20
472.487408134567
 30
0.0
 10
337.5394254143484
 20
473.3508655874457
 30
0.0
 10
337.1125338707025
 20
473.6615834468657
 30
0.0
  0
POLYLINE
  5
214
330
1F8
100
AcDbEntity
  8
APVA4
 62
    18
420
        0
370
     9
100
AcDb2dPolyline
 66
     1
 10
0.0
 20
0.0
 30
0.0
  0
VERTEX
  5
215
330
214
100
AcDbEntity
  8
APVA4
 62
    18
420
        0
370
     9
100
AcDbVertex
100
AcDb2dVertex
 10
336.8379119635538
 20
461.6513057059674
 30
0.0
  0
VERTEX
  5
216
330
214
100
AcDbEntity
  8
APVA4
 62
    18
420
        0
370
     9
100
AcDbVertex
100
AcDb2dVertex
 10
338.1357403015409
 20
465.0236757333005
 30
0.0
  0
VERTEX
  5
217
330
214
100
AcDbEntity
  8
APVA4
 62
    18
420
        0
370
     9
100
AcDbVertex
100
AcDb2dVertex
 10
348.4269076669043
 20
466.4294754441789
 30
0.0
  0
VERTEX
  5
218
330
214
100
AcDbEntity
  8
APVA4
 62
    18
420
        0
370
     9
100
AcDbVertex
100
AcDb2dVertex
 10
357.3665905490125
 20
464.4445958503456
 30
0.0
  0
VERTEX
  5
219
330
214
100
AcDbEntity
  8
APVA4
 62
    18
420
        0
370
     9
100
AcDbVertex
100
AcDb2dVertex
 10
355.9912859891465
 20
461.0769410600205
 30
0.0
  0
SEQEND
  5
21A
330
214
100
AcDbEntity
  8
APVA4
 62
    18
420
        0
370
     9
  0
SPLINE
  5
21B
330
1F8
100
AcDbEntity
  8
APVA4
 62
    18
420
        0
370
     9
100
AcDbSpline
210
0.0
220
0.0
230
1.0
 70
     8
 71
     3
 72
    23
 73
    19
 74
     0
 42
0.0000000001
 43
0.0000000001
 12
1.0
 22
0.0
 32
0.0
 13
1.0
 23
0.0
 33
0.0
 40
0.0
 40
0.0
 40
0.0
 40
0.0
 40
1.0
 40
1.0
 40
1.0
 40
2.0
 40
2.0
 40
2.0
 40
3.0
 40
3.0
 40
3.0
 40
4.0
 40
4.0
 40
4.0
 40
5.0
 40
5.0
 40
5.0
 40
6.0
 40
6.0
 40
6.0
 40
6.0
 10
335.5600895663338
 20
462.9759707341809
 30
0.0
 10
335.5600895663338
 20
462.9759707341809
 30
0.0
 10
336.8527893492883
 20
466.3539416500162
 30
0.0
 10
336.8527893492883
 20
466.3539416500162
 30
0.0
 10
336.9459559288007
 20
466.5761268697424
 30
0.0
 10
337.4049598624188
 20
466.6640091319186
 30
0.0
 10
337.6243809776915
 20
466.6739273890744
 30
0.0
 10
337.6243809776915
 20
466.6739273890744
 30
0.0
 10
347.9191254194066
 20
468.0830603265094
 30
0.0
 10
347.9191254194066
 20
468.0830603265094
 30
0.0
 10
348.3462608546215
 20
468.1412603677945
 30
0.0
 10
348.7818511975765
 20
468.1280902230474
 30
0.0
 10
349.2043526929738
 20
468.0441915231731
 30
0.0
 10
349.2043526929738
 20
468.0441915231731
 30
0.0
 10
358.1454989244976
 20
466.0546953897283
 30
0.0
 10
358.1454989244976
 20
466.0546953897283
 30
0.0
 10
358.3706921402481
 20
466.0041198423014
 30
0.0
 10
358.542310507919
 20
465.9440412190388
 30
0.0
 10
358.6575086258654
 20
465.7491718550864
 30
0.0
  0
SPLINE
  5
21C
330
1F8
100
AcDbEntity
  8
APVA4
 62
    18
420
        0
370
     9
100
AcDbSpline
210
0.0
220
0.0
230
1.0
 70
     8
 71
     3
 72
    29
 73
    25
 74
     0
 42
0.0000000001
 43
0.0000000001
 12
1.0
 22
0.0
 32
0.0
 13
1.0
 23
0.0
 33
0.0
 40
0.0
 40
0.0
 40
0.0
 40
0.0
 40
1.0
 40
1.0
 40
1.0
 40
2.0
 40
2.0
 40
2.0
 40
3.0
 40
3.0
 40
3.0
 40
4.0
 40
4.0
 40
4.0
 40
5.0
 40
5.0
 40
5.0
 40
6.0
 40
6.0
 40
6.0
 40
7.0
 40
7.0
 40
7.0
 40
8.0
 40
8.0
 40
8.0
 40
8.0
 10
358.6575899230556
 20
469.1574752403103
 30
0.0
 10
358.6575899230556
 20
469.1574752403103
 30
0.0
 10
358.6575899230556
 20
471.0731710429327
 30
0.0
 10
358.6575899230556
 20
471.0731710429327
 30
0.0
 10
358.6575899230556
 20
471.2204727287053
 30
0.0
 10
358.6854748591577
 20
471.3645313490333
 30
0.0
 10
358.7411708518484
 20
471.5052567845787
 30
0.0
 10
358.9678199993377
 20
471.992958626196
 30
0.0
 10
359.3907354147686
 20
472.2672553445846
 30
0.0
 10
359.9285901884086
 20
472.2757102523246
 30
0.0
 10
359.9285901884086
 20
472.2757102523246
 30
0.0
 10
358.925057677503
 20
472.9978731893289
 30
0.0
 10
358.925057677503
 20
472.9978731893289
 30
0.0
 10
358.4049995543446
 20
472.6228492527762
 30
0.0
 10
358.1305402415746
 20
472.0417369400784
 30
0.0
 10
358.1454989244976
 20
471.384449160535
 30
0.0
 10
358.1454989244976
 20
471.384449160535
 30
0.0
 10
358.1454989244976
 20
466.0546953897283
 30
0.0
 10
358.1454989244976
 20
466.0546953897283
 30
0.0
 10
358.1607827961816
 20
465.3982931839028
 30
0.0
 10
357.8864860777921
 20
464.818237734672
 30
0.0
 10
357.3665905490125
 20
464.4445958503456
 30
0.0
 10
357.9032332988918
 20
464.4530507580848
 30
0.0
 10
358.3257422014703
 20
464.7263719101966
 30
0.0
 10
358.5529604397816
 20
465.212529105208
 30
0.0
  0
SPLINE
  5
21D
330
1F8
100
AcDbEntity
  8
APVA4
 62
    18
420
        0
370
    15
100
AcDbSpline
210
0.0
220
0.0
230
1.0
 70
    11
 71
     3
 72
    17
 73
    13
 74
     0
 42
0.0000000001
 43
0.0000000001
 12
1.0
 22
0.0
 32
0.0
 13
1.0
 23
0.0
 33
0.0
 40
0.0
 40
0.0
 40
0.0
 40
0.0
 40
1.0
 40
1.0
 40
1.0
 40
2.0
 40
2.0
 40
2.0
 40
3.0
 40
3.0
 40
3.0
 40
4.0
 40
4.0
 40
4.0
 40
4.0
 10
355.0732781219103
 20
462.7216645068884
 30
0.0
 10
355.0732781219103
 20
461.3218894928914
 30
0.0
 10
351.4976651200759
 20
460.1871433176466
 30
0.0
 10
347.0869673846009
 20
460.1871433176466
 30
0.0
 10
342.6762696491278
 20
460.1871433176466
 30
0.0
 10
339.1007379444818
 20
461.3218894928914
 30
0.0
 10
339.1007379444818
 20
462.7216645068884
 30
0.0
 10
339.1007379444818
 20
464.1214481674178
 30
0.0
 10
342.6762696491278
 20
465.2561856961311
 30
0.0
 10
347.0869673846009
 20
465.2561856961311
 30
0.0
 10
351.4976651200759
 20
465.2561856961311
 30
0.0
 10
355.0732781219103
 20
464.1214481674178
 30
0.0
 10
355.0732781219103
 20
462.7216645068884
 30
0.0
  0
MTEXT
  5
21E
330
1F8
100
AcDbEntity
  8
APVA4
 62
    18
420
        0
100
AcDbMText
 10
347.9126069362974
 20
464.0735730619635
 30
0.0
 40
0.9522019261781004
 41
0.0
 46
0.0
 71
     7
 72
     1
  1
\fHelvetica Neue LT Std 57 Condensed|b0|i0|c0|p34;\W0.821907;WS22
 11
0.9693229133418285
 21
-0.2457907436632023
 31
0.0
 73
     1
 44
1.0
  0
MTEXT
  5
21F
330
1F8
100
AcDbEntity
  8
APVA4
 62
    18
420
        0
100
AcDbMText
 10
342.1636418281123
 20
461.3039930458181
 30
0.0
 40
1.044466082712761
 41
0.0
 46
0.0
 71
     7
 72
     1
  1
\fHelvetica Neue LT Std 57 Condensed|b0|i0|c0|p34;\W0.821907;3.5
 11
0.9693229133418285
 21
-0.2457907436632023
 31
0.0
 73
     1
 44
1.0
  0
INSERT
  5
221
330
1F8
100
AcDbEntity
  8
APVA4
100
AcDbBlockReference
  2
block 16
 10
0.0
 20
0.0
 30
0.0
  0
ENDBLK
  5
1FB
330
1F8
100
AcDbEntity
  8
0
100
AcDbBlockEnd
  0
BLOCK
  5
222
330
220
100
AcDbEntity
  8
0
100
AcDbBlockBegin
  2
block 16
 70
     0
 10
0.0
 20
0.0
 30
0.0
  3
block 16
  1

  0
INSERT
  5
225
330
220
100
AcDbEntity
  8
APVA4
100
AcDbBlockReference
  2
block 17
 10
0.0
 20
0.0
 30
0.0
  0
INSERT
  5
237
330
220
100
AcDbEntity
  8
APVA4
100
AcDbBlockReference
  2
block 18
 10
0.0
 20
0.0
 30
0.0
  0
ENDBLK
  5
223
330
220
100
AcDbEntity
  8
0
100
AcDbBlockEnd
  0
BLOCK
  5
226
330
224
100
AcDbEntity
  8
0
100
AcDbBlockBegin
  2
block 17
 70
     0
 10
0.0
 20
0.0
 30
0.0
  3
block 17
  1

  0
POLYLINE
  5
228
330
224
100
AcDbEntity
  8
APVA4
370
     0
100
AcDb2dPolyline
 66
     1
 10
0.0
 20
0.0
 30
0.0
  0
VERTEX
  5
229
330
228
100
AcDbEntity
  8
APVA4
370
     0
100
AcDbVertex
100
AcDb2dVertex
 10
351.99869970082
 20
461.6604922884144
 30
0.0
  0
VERTEX
  5
22A
330
228
100
AcDbEntity
  8
APVA4
370
     0
100
AcDbVertex
100
AcDb2dVertex
 10
349.9342460582029
 20
461.9964935738617
 30
0.0
  0
VERTEX
  5
22B
330
228
100
AcDbEntity
  8
APVA4
370
     0
100
AcDbVertex
100
AcDb2dVertex
 10
350.2030073724909
 20
462.1536410417484
 30
0.0
  0
VERTEX
  5
22C
330
228
100
AcDbEntity
  8
APVA4
370
     0
100
AcDbVertex
100
AcDb2dVertex
 10
352.2673869131122
 20
461.8175584591099
 30
0.0
  0
VERTEX
  5
22D
330
228
100
AcDbEntity
  8
APVA4
370
     0
100
AcDbVertex
100
AcDb2dVertex
 10
351.99869970082
 20
461.6604922884144
 30
0.0
  0
SEQEND
  5
22E
330
228
100
AcDbEntity
  8
APVA4
370
     0
  0
POLYLINE
  5
22F
330
224
100
AcDbEntity
  8
APVA4
370
     0
100
AcDb2dPolyline
 66
     1
 10
0.0
 20
0.0
 30
0.0
  0
VERTEX
  5
230
330
22F
100
AcDbEntity
  8
APVA4
370
     0
100
AcDbVertex
100
AcDb2dVertex
 10
351.4492119949537
 20
461.3392057943192
 30
0.0
  0
VERTEX
  5
231
330
22F
100
AcDbEntity
  8
APVA4
370
     0
100
AcDbVertex
100
AcDb2dVertex
 10
349.3847511571421
 20
461.6752156645034
 30
0.0
  0
VERTEX
  5
232
330
22F
100
AcDbEntity
  8
APVA4
370
     0
100
AcDbVertex
100
AcDb2dVertex
 10
349.6535196666246
 20
461.8323545476533
 30
0.0
  0
VERTEX
  5
233
330
22F
100
AcDbEntity
  8
APVA4
370
     0
100
AcDbVertex
100
AcDb2dVertex
 10
351.7179805044361
 20
461.4963618424217
 30
0.0
  0
VERTEX
  5
234
330
22F
100
AcDbEntity
  8
APVA4
370
     0
100
AcDbVertex
100
AcDb2dVertex
 10
351.4492119949537
 20
461.3392057943192
 30
0.0
  0
SEQEND
  5
235
330
22F
100
AcDbEntity
  8
APVA4
370
     0
  0
ENDBLK
  5
227
330
224
100
AcDbEntity
  8
0
100
AcDbBlockEnd
  0
BLOCK
  5
238
330
236
100
AcDbEntity
  8
0
100
AcDbBlockBegin
  2
block 18
 70
     0
 10
0.0
 20
0.0
 30
0.0
  3
block 18
  1

  0
POLYLINE
  5
23A
330
236
100
AcDbEntity
  8
APVA4
370
     0
100
AcDb2dPolyline
 66
     1
 10
0.0
 20
0.0
 30
0.0
  0
VERTEX
  5
23B
330
23A
100
AcDbEntity
  8
APVA4
370
     0
100
AcDbVertex
100
AcDb2dVertex
 10
349.1829715320564
 20
461.2485594276914
 30
0.0
  0
VERTEX
  5
23C
330
23A
100
AcDbEntity
  8
APVA4
370
     0
100
AcDbVertex
100
AcDb2dVertex
 10
349.161265182378
 20
461.3053134415632
 30
0.0
  0
VERTEX
  5
23D
330
23A
100
AcDbEntity
  8
APVA4
370
     0
100
AcDbVertex
100
AcDb2dVertex
 10
352.5589186357392
 20
462.2297352114019
 30
0.0
  0
VERTEX
  5
23E
330
23A
100
AcDbEntity
  8
APVA4
370
     0
100
AcDbVertex
100
AcDb2dVertex
 10
352.5806249854177
 20
462.172989772921
 30
0.0
  0
VERTEX
  5
23F
330
23A
100
AcDbEntity
  8
APVA4
370
     0
100
AcDbVertex
100
AcDb2dVertex
 10
349.1829715320564
 20
461.2485594276914
 30
0.0
  0
SEQEND
  5
240
330
23A
100
AcDbEntity
  8
APVA4
370
     0
  0
ENDBLK
  5
239
330
236
100
AcDbEntity
  8
0
100
AcDbBlockEnd
  0
BLOCK
  5
243
330
241
100
AcDbEntity
  8
0
100
AcDbBlockBegin
  2
block 19
 70
     0
 10
0.0
 20
0.0
 30
0.0
  3
block 19
  1

  0
INSERT
  5
246
330
241
100
AcDbEntity
  8
APVA4
100
AcDbBlockReference
  2
block 20
 10
0.0
 20
0.0
 30
0.0
  0
INSERT
  5
24D
330
241
100
AcDbEntity
  8
APVA4
100
AcDbBlockReference
  2
block 21
 10
0.0
 20
0.0
 30
0.0
  0
POLYLINE
  5
2A5
330
241
100
AcDbEntity
  8
APVA4
370
     0
100
AcDb2dPolyline
 66
     1
 10
0.0
 20
0.0
 30
0.0
  0
VERTEX
  5
2A6
330
2A5
100
AcDbEntity
  8
APVA4
370
     0
100
AcDbVertex
100
AcDb2dVertex
 10
256.9377330719044
 20
411.2148616520644
 30
0.0
  0
VERTEX
  5
2A7
330
2A5
100
AcDbEntity
  8
APVA4
370
     0
100
AcDbVertex
100
AcDb2dVertex
 10
238.3185628804958
 20
411.2148616520644
 30
0.0
  0
VERTEX
  5
2A8
330
2A5
100
AcDbEntity
  8
APVA4
370
     0
100
AcDbVertex
100
AcDb2dVertex
 10
219.8854819565422
 20
451.2137221017701
 30
0.0
  0
VERTEX
  5
2A9
330
2A5
100
AcDbEntity
  8
APVA4
370
     0
100
AcDbVertex
100
AcDb2dVertex
 10
256.9377330719044
 20
454.3458589332413
 30
0.0
  0
VERTEX
  5
2AA
330
2A5
100
AcDbEntity
  8
APVA4
370
     0
100
AcDbVertex
100
AcDb2dVertex
 10
256.9377330719044
 20
411.2148616520644
 30
0.0
  0
SEQEND
  5
2AB
330
2A5
100
AcDbEntity
  8
APVA4
370
     0
  0
ENDBLK
  5
244
330
241
100
AcDbEntity
  8
0
100
AcDbBlockEnd
  0
BLOCK
  5
247
330
245
100
AcDbEntity
  8
0
100
AcDbBlockBegin
  2
block 20
 70
     0
 10
0.0
 20
0.0
 30
0.0
  3
block 20
  1

  0
SPLINE
  5
249
330
245
100
AcDbEntity
  8
APVA4
 62
    18
420
        0
370
    15
100
AcDbSpline
210
0.0
220
0.0
230
1.0
 70
    11
 71
     3
 72
    32
 73
    28
 74
     0
 42
0.0000000001
 43
0.0000000001
 12
1.0
 22
0.0
 32
0.0
 13
1.0
 23
0.0
 33
0.0
 40
0.0
 40
0.0
 40
0.0
 40
0.0
 40
1.0
 40
1.0
 40
1.0
 40
2.0
 40
2.0
 40
2.0
 40
3.0
 40
3.0
 40
3.0
 40
4.0
 40
4.0
 40
4.0
 40
5.0
 40
5.0
 40
5.0
 40
6.0
 40
6.0
 40
6.0
 40
7.0
 40
7.0
 40
7.0
 40
8.0
 40
8.0
 40
8.0
 40
9.0
 40
9.0
 40
9.0
 40
9.0
 10
264.3347204803449
 20
457.0158212406914
 30
0.0
 10
264.3347204803449
 20
457.0158212406914
 30
0.0
 10
229.0498702712621
 20
442.0473826544958
 30
0.0
 10
229.0498702712621
 20
442.0473826544958
 30
0.0
 10
228.8524806944242
 20
441.9661667618848
 30
0.0
 10
228.6303767718873
 20
441.8360912582029
 30
0.0
 10
228.6262306152075
 20
441.6409780026797
 30
0.0
 10
228.6262306152075
 20
441.6409780026797
 30
0.0
 10
228.6262306152075
 20
439.6439125352135
 30
0.0
 10
228.6262306152075
 20
439.6439125352135
 30
0.0
 10
228.6262306152075
 20
439.6439125352135
 30
0.0
 10
228.6685051539043
 20
439.5095363052551
 30
0.0
 10
228.6685051539043
 20
439.5095363052551
 30
0.0
 10
228.6685051539043
 20
439.5095363052551
 30
0.0
 10
230.8558873426964
 20
436.052446581366
 30
0.0
 10
230.8558873426964
 20
436.052446581366
 30
0.0
 10
230.8558873426964
 20
436.052446581366
 30
0.0
 10
230.859708310616
 20
436.0465931837007
 30
0.0
 10
230.859708310616
 20
436.0465931837007
 30
0.0
 10
231.0779099680421
 20
435.7479152381275
 30
0.0
 10
231.4994358971617
 20
435.6578300220708
 30
0.0
 10
231.8828334442642
 20
435.5831179046436
 30
0.0
 10
231.8828334442642
 20
435.5831179046436
 30
0.0
 10
276.7764424075203
 20
426.1165479354331
 30
0.0
 10
276.7764424075203
 20
426.1165479354331
 30
0.0
 10
276.7764424075203
 20
426.1165479354331
 30
0.0
 10
264.3347204803449
 20
457.0158212406914
 30
0.0
 10
264.3347204803449
 20
457.0158212406914
 30
0.0
  0
HATCH
  5
24A
330
245
100
AcDbEntity
  8
APVA4
 62
   250
420
  2301728
100
AcDbHatch
 10
0.0
 20
0.0
 30
0.0
210
0.0
220
0.0
230
1.0
  2
SOLID
 70
     1
 71
     0
 91
        1
 92
        1
 93
        1
 72
     4
 94
        3
 73
     0
 74
     1
 95
       32
 96
       28
 40
0.0
 40
0.0
 40
0.0
 40
0.0
 40
1.0
 40
1.0
 40
1.0
 40
2.0
 40
2.0
 40
2.0
 40
3.0
 40
3.0
 40
3.0
 40
4.0
 40
4.0
 40
4.0
 40
5.0
 40
5.0
 40
5.0
 40
6.0
 40
6.0
 40
6.0
 40
7.0
 40
7.0
 40
7.0
 40
8.0
 40
8.0
 40
8.0
 40
9.0
 40
9.0
 40
9.0
 40
9.0
 10
264.3347204803449
 20
457.0158212406914
 10
264.3347204803449
 20
457.0158212406914
 10
229.0498702712621
 20
442.0473826544958
 10
229.0498702712621
 20
442.0473826544958
 10
228.8524806944242
 20
441.9661667618848
 10
228.6303767718873
 20
441.8360912582029
 10
228.6262306152075
 20
441.6409780026797
 10
228.6262306152075
 20
441.6409780026797
 10
228.6262306152075
 20
439.6439125352135
 10
228.6262306152075
 20
439.6439125352135
 10
228.6262306152075
 20
439.6439125352135
 10
228.6685051539043
 20
439.5095363052551
 10
228.6685051539043
 20
439.5095363052551
 10
228.6685051539043
 20
439.5095363052551
 10
230.8558873426964
 20
436.052446581366
 10
230.8558873426964
 20
436.052446581366
 10
230.8558873426964
 20
436.052446581366
 10
230.859708310616
 20
436.0465931837007
 10
230.859708310616
 20
436.0465931837007
 10
231.0779099680421
 20
435.7479152381275
 10
231.4994358971617
 20
435.6578300220708
 10
231.8828334442642
 20
435.5831179046436
 10
231.8828334442642
 20
435.5831179046436
 10
276.7764424075203
 20
426.1165479354331
 10
276.7764424075203
 20
426.1165479354331
 10
276.7764424075203
 20
426.1165479354331
 10
264.3347204803449
 20
457.0158212406914
 10
264.3347204803449
 20
457.0158212406914
 97
        0
 97
        0
 75
     2
 76
     1
 98
        0
  0
SPLINE
  5
24B
330
245
100
AcDbEntity
  8
APVA4
 62
    18
420
        0
370
     9
100
AcDbSpline
210
0.0
220
0.0
230
1.0
 70
     8
 71
     3
 72
    11
 73
     7
 74
     0
 42
0.0000000001
 43
0.0000000001
 12
1.0
 22
0.0
 32
0.0
 13
1.0
 23
0.0
 33
0.0
 40
0.0
 40
0.0
 40
0.0
 40
0.0
 40
1.0
 40
1.0
 40
1.0
 40
2.0
 40
2.0
 40
2.0
 40
2.0
 10
228.6685051539043
 20
439.5095363052551
 30
0.0
 10
228.5147721679914
 20
439.7581350868841
 30
0.0
 10
228.898413606662
 20
439.9679631337613
 30
0.0
 10
229.0586503677614
 20
440.0529999942928
 30
0.0
 10
229.0586503677614
 20
440.0529999942928
 30
0.0
 10
264.3494403048408
 20
455.0133088615075
 30
0.0
 10
264.3494403048408
 20
455.0133088615075
 30
0.0
  0
ENDBLK
  5
248
330
245
100
AcDbEntity
  8
0
100
AcDbBlockEnd
  0
BLOCK
  5
24E
330
24C
100
AcDbEntity
  8
0
100
AcDbBlockBegin
  2
block 21
 70
     0
 10
0.0
 20
0.0
 30
0.0
  3
block 21
  1

  0
INSERT
  5
251
330
24C
100
AcDbEntity
  8
APVA4
100
AcDbBlockReference
  2
block 22
 10
0.0
 20
0.0
 30
0.0
  0
INSERT
  5
259
330
24C
100
AcDbEntity
  8
APVA4
100
AcDbBlockReference
  2
block 23
 10
0.0
 20
0.0
 30
0.0
  0
ENDBLK
  5
24F
330
24C
100
AcDbEntity
  8
0
100
AcDbBlockEnd
  0
BLOCK
  5
252
330
250
100
AcDbEntity
  8
0
100
AcDbBlockBegin
  2
block 22
 70
     0
 10
0.0
 20
0.0
 30
0.0
  3
block 22
  1

  0
SPLINE
  5
254
330
250
100
AcDbEntity
  8
APVA4
 62
    18
420
        0
370
     9
100
AcDbSpline
210
0.0
220
0.0
230
1.0
 70
    11
 71
     3
 72
    23
 73
    19
 74
     0
 42
0.0000000001
 43
0.0000000001
 12
1.0
 22
0.0
 32
0.0
 13
1.0
 23
0.0
 33
0.0
 40
0.0
 40
0.0
 40
0.0
 40
0.0
 40
1.0
 40
1.0
 40
1.0
 40
2.0
 40
2.0
 40
2.0
 40
3.0
 40
3.0
 40
3.0
 40
4.0
 40
4.0
 40
4.0
 40
5.0
 40
5.0
 40
5.0
 40
6.0
 40
6.0
 40
6.0
 40
6.0
 10
278.5960361096504
 20
439.7351279821705
 30
0.0
 10
278.5960361096504
 20
442.1302244909039
 30
0.0
 10
272.2110361198547
 20
444.0717639777358
 30
0.0
 10
264.3347204803449
 20
444.0717639777358
 30
0.0
 10
256.458404840836
 20
444.0717639777358
 30
0.0
 10
250.0734048510403
 20
442.1302244909039
 30
0.0
 10
250.0734048510403
 20
439.7351279821705
 30
0.0
 10
250.0734048510403
 20
439.7351279821705
 30
0.0
 10
250.0734048510403
 20
436.8865557487261
 30
0.0
 10
250.0734048510403
 20
436.8865557487261
 30
0.0
 10
250.0734048510403
 20
434.491540537183
 30
0.0
 10
256.458404840836
 20
432.5500010503511
 30
0.0
 10
264.3347204803449
 20
432.5500010503511
 30
0.0
 10
272.2110361198547
 20
432.5500010503511
 30
0.0
 10
278.5960361096504
 20
434.491540537183
 30
0.0
 10
278.5960361096504
 20
436.8865557487261
 30
0.0
 10
278.5960361096504
 20
436.8865557487261
 30
0.0
 10
278.5960361096504
 20
439.7351279821705
 30
0.0
 10
278.5960361096504
 20
439.7351279821705
 30
0.0
  0
HATCH
  5
255
330
250
100
AcDbEntity
  8
APVA4
 62
   250
420
  2301728
100
AcDbHatch
 10
0.0
 20
0.0
 30
0.0
210
0.0
220
0.0
230
1.0
  2
SOLID
 70
     1
 71
     0
 91
        1
 92
        1
 93
        1
 72
     4
 94
        3
 73
     0
 74
     1
 95
       23
 96
       19
 40
0.0
 40
0.0
 40
0.0
 40
0.0
 40
1.0
 40
1.0
 40
1.0
 40
2.0
 40
2.0
 40
2.0
 40
3.0
 40
3.0
 40
3.0
 40
4.0
 40
4.0
 40
4.0
 40
5.0
 40
5.0
 40
5.0
 40
6.0
 40
6.0
 40
6.0
 40
6.0
 10
278.5960361096504
 20
439.7351279821705
 10
278.5960361096504
 20
442.1302244909039
 10
272.2110361198547
 20
444.0717639777358
 10
264.3347204803449
 20
444.0717639777358
 10
256.458404840836
 20
444.0717639777358
 10
250.0734048510403
 20
442.1302244909039
 10
250.0734048510403
 20
439.7351279821705
 10
250.0734048510403
 20
439.7351279821705
 10
250.0734048510403
 20
436.8865557487261
 10
250.0734048510403
 20
436.8865557487261
 10
250.0734048510403
 20
434.491540537183
 10
256.458404840836
 20
432.5500010503511
 10
264.3347204803449
 20
432.5500010503511
 10
272.2110361198547
 20
432.5500010503511
 10
278.5960361096504
 20
434.491540537183
 10
278.5960361096504
 20
436.8865557487261
 10
278.5960361096504
 20
436.8865557487261
 10
278.5960361096504
 20
439.7351279821705
 10
278.5960361096504
 20
439.7351279821705
 97
        0
 97
        0
 75
     2
 76
     1
 98
        0
  0
SPLINE
  5
256
330
250
100
AcDbEntity
  8
APVA4
 62
    18
420
        0
370
     9
100
AcDbSpline
210
0.0
220
0.0
230
1.0
 70
     8
 71
     3
 72
    11
 73
     7
 74
     0
 42
0.0000000001
 43
0.0000000001
 12
1.0
 22
0.0
 32
0.0
 13
1.0
 23
0.0
 33
0.0
 40
0.0
 40
0.0
 40
0.0
 40
0.0
 40
1.0
 40
1.0
 40
1.0
 40
2.0
 40
2.0
 40
2.0
 40
2.0
 10
250.0734048510403
 20
437.1608604325666
 30
0.0
 10
250.0734048510403
 20
439.5558757046128
 30
0.0
 10
256.458404840836
 20
441.4974071654906
 30
0.0
 10
264.3347204803449
 20
441.4974071654906
 30
0.0
 10
272.2110361198547
 20
441.4974071654906
 30
0.0
 10
278.5960361096504
 20
439.5558757046128
 30
0.0
 10
278.5960361096504
 20
437.1608604325666
 30
0.0
  0
HATCH
  5
257
330
250
100
AcDbEntity
  8
APVA4
 62
   250
420
  2301728
100
AcDbHatch
 10
0.0
 20
0.0
 30
0.0
210
0.0
220
0.0
230
1.0
  2
SOLID
 70
     1
 71
     0
 91
        1
 92
        1
 93
        2
 72
     4
 94
        3
 73
     0
 74
     0
 95
       11
 96
        7
 40
0.0
 40
0.0
 40
0.0
 40
0.0
 40
1.0
 40
1.0
 40
1.0
 40
2.0
 40
2.0
 40
2.0
 40
2.0
 10
250.0734048510403
 20
437.1608604325666
 10
250.0734048510403
 20
439.5558757046128
 10
256.458404840836
 20
441.4974071654906
 10
264.3347204803449
 20
441.4974071654906
 10
272.2110361198547
 20
441.4974071654906
 10
278.5960361096504
 20
439.5558757046128
 10
278.5960361096504
 20
437.1608604325666
 97
        0
 72
     1
 10
278.5960361096504
 20
437.1608604325666
 11
250.0734048510403
 21
437.1608604325666
 97
        0
 75
     2
 76
     1
 98
        0
  0
ENDBLK
  5
253
330
250
100
AcDbEntity
  8
0
100
AcDbBlockEnd
  0
BLOCK
  5
25A
330
258
100
AcDbEntity
  8
0
100
AcDbBlockBegin
  2
block 23
 70
     0
 10
0.0
 20
0.0
 30
0.0
  3
block 23
  1

  0
SPLINE
  5
25C
330
258
100
AcDbEntity
  8
APVA4
 62
    18
420
        0
370
     9
100
AcDbSpline
210
0.0
220
0.0
230
1.0
 70
    11
 71
     3
 72
    68
 73
    64
 74
     0
 42
0.0000000001
 43
0.0000000001
 12
1.0
 22
0.0
 32
0.0
 13
1.0
 23
0.0
 33
0.0
 40
0.0
 40
0.0
 40
0.0
 40
0.0
 40
1.0
 40
1.0
 40
1.0
 40
2.0
 40
2.0
 40
2.0
 40
3.0
 40
3.0
 40
3.0
 40
4.0
 40
4.0
 40
4.0
 40
5.0
 40
5.0
 40
5.0
 40
6.0
 40
6.0
 40
6.0
 40
7.0
 40
7.0
 40
7.0
 40
8.0
 40
8.0
 40
8.0
 40
9.0
 40
9.0
 40
9.0
 40
10.0
 40
10.0
 40
10.0
 40
11.0
 40
11.0
 40
11.0
 40
12.0
 40
12.0
 40
12.0
 40
13.0
 40
13.0
 40
13.0
 40
14.0
 40
14.0
 40
14.0
 40
15.0
 40
15.0
 40
15.0
 40
16.0
 40
16.0
 40
16.0
 40
17.0
 40
17.0
 40
17.0
 40
18.0
 40
18.0
 40
18.0
 40
19.0
 40
19.0
 40
19.0
 40
20.0
 40
20.0
 40
20.0
 40
21.0
 40
21.0
 40
21.0
 40
21.0
 10
272.8683238993972
 20
427.4333998158336
 30
0.0
 10
272.8683238993972
 20
427.4333998158336
 30
0.0
 10
263.2277779440119
 20
426.1267913813481
 30
0.0
 10
263.2277779440119
 20
426.1267913813481
 30
0.0
 10
263.0958376064373
 20
426.1093937827309
 30
0.0
 10
262.9620174305519
 20
426.1140277225504
 30
0.0
 10
262.8317793324895
 20
426.141506172703
 30
0.0
 10
262.8317793324895
 20
426.141506172703
 30
0.0
 10
262.8234057219415
 20
426.1432947108779
 30
0.0
 10
262.8234057219415
 20
426.1432947108779
 30
0.0
 10
262.8234057219415
 20
426.1432947108779
 30
0.0
 10
254.427118038946
 20
427.99077334911
 30
0.0
 10
254.427118038946
 20
427.99077334911
 30
0.0
 10
253.8438059196396
 20
428.1701149498122
 30
0.0
 10
253.5030080999932
 20
428.6113147988626
 30
0.0
 10
253.4711396015919
 20
429.2230761521168
 30
0.0
 10
253.4711396015919
 20
429.2230761521168
 30
0.0
 10
253.4711396015919
 20
434.2235928908467
 30
0.0
 10
253.4711396015919
 20
434.2235928908467
 30
0.0
 10
253.4711396015919
 20
434.2235928908467
 30
0.0
 10
253.4791927819178
 20
434.2664286186236
 30
0.0
 10
253.4791927819178
 20
434.2664286186236
 30
0.0
 10
253.4578881596544
 20
434.4933290753588
 30
0.0
 10
253.3991102914279
 20
434.6934906597689
 30
0.0
 10
253.3058624147252
 20
434.8638003692831
 30
0.0
 10
252.730928688452
 20
434.8187617261328
 30
0.0
 10
252.1813596853954
 20
435.2152481207931
 30
0.0
 10
252.2756644255651
 20
435.5142591848826
 30
0.0
 10
252.2756644255651
 20
435.5142591848826
 30
0.0
 10
253.4882120114498
 20
438.7213520253499
 30
0.0
 10
253.4882120114498
 20
438.7213520253499
 30
0.0
 10
253.6564206601606
 20
439.145885950491
 30
0.0
 10
254.4388200517951
 20
439.2340121042362
 30
0.0
 10
254.9413179819558
 20
439.3291298163031
 30
0.0
 10
254.9413179819558
 20
439.3291298163031
 30
0.0
 10
264.6401540224288
 20
440.6680212891888
 30
0.0
 10
264.6401540224288
 20
440.6680212891888
 30
0.0
 10
265.4449962014605
 20
440.7785854701106
 30
0.0
 10
266.2658539268832
 20
440.753619176
 30
0.0
 10
267.0618347122263
 20
440.5941953867996
 30
0.0
 10
267.0618347122263
 20
440.5941953867996
 30
0.0
 10
275.4839796840606
 20
438.7040357239221
 30
0.0
 10
275.4839796840606
 20
438.7040357239221
 30
0.0
 10
275.9966397629469
 20
438.5820086420299
 30
0.0
 10
276.5257218741735
 20
438.326003791346
 30
0.0
 10
276.4291408126892
 20
438.0239034340448
 30
0.0
 10
276.4291408126892
 20
438.0239034340448
 30
0.0
 10
275.2321209900574
 20
435.0872863440463
 30
0.0
 10
275.2321209900574
 20
435.0872863440463
 30
0.0
 10
275.2321209900574
 20
435.0872863440463
 30
0.0
 10
275.2321209900574
 20
431.8737710255846
 30
0.0
 10
275.2321209900574
 20
431.8737710255846
 30
0.0
 10
275.2317958012973
 20
431.7036160073312
 30
0.0
 10
275.1990330338076
 20
431.5348430413032
 30
0.0
 10
275.1355399285731
 20
431.3768826015203
 30
0.0
 10
275.1355399285731
 20
431.3768826015203
 30
0.0
 10
275.1335128043975
 20
431.3719234729424
 30
0.0
 10
275.1335128043975
 20
431.3719234729424
 30
0.0
 10
275.1335128043975
 20
431.3719234729424
 30
0.0
 10
273.8338093254761
 20
428.1974308055851
 30
0.0
 10
273.8338093254761
 20
428.1974308055851
 30
0.0
 10
273.6532482669272
 20
427.7839532982562
 30
0.0
 10
273.3114748810031
 20
427.5129897646484
 30
0.0
 10
272.8683238993972
 20
427.4333998158336
 30
0.0
  0
HATCH
  5
25D
330
258
100
AcDbEntity
  8
APVA4
 62
   250
420
  2301728
100
AcDbHatch
 10
0.0
 20
0.0
 30
0.0
210
0.0
220
0.0
230
1.0
  2
SOLID
 70
     1
 71
     0
 91
        1
 92
        1
 93
        1
 72
     4
 94
        3
 73
     0
 74
     1
 95
       68
 96
       64
 40
0.0
 40
0.0
 40
0.0
 40
0.0
 40
1.0
 40
1.0
 40
1.0
 40
2.0
 40
2.0
 40
2.0
 40
3.0
 40
3.0
 40
3.0
 40
4.0
 40
4.0
 40
4.0
 40
5.0
 40
5.0
 40
5.0
 40
6.0
 40
6.0
 40
6.0
 40
7.0
 40
7.0
 40
7.0
 40
8.0
 40
8.0
 40
8.0
 40
9.0
 40
9.0
 40
9.0
 40
10.0
 40
10.0
 40
10.0
 40
11.0
 40
11.0
 40
11.0
 40
12.0
 40
12.0
 40
12.0
 40
13.0
 40
13.0
 40
13.0
 40
14.0
 40
14.0
 40
14.0
 40
15.0
 40
15.0
 40
15.0
 40
16.0
 40
16.0
 40
16.0
 40
17.0
 40
17.0
 40
17.0
 40
18.0
 40
18.0
 40
18.0
 40
19.0
 40
19.0
 40
19.0
 40
20.0
 40
20.0
 40
20.0
 40
21.0
 40
21.0
 40
21.0
 40
21.0
 10
272.8683238993972
 20
427.4333998158336
 10
272.8683238993972
 20
427.4333998158336
 10
263.2277779440119
 20
426.1267913813481
 10
263.2277779440119
 20
426.1267913813481
 10
263.0958376064373
 20
426.1093937827309
 10
262.9620174305519
 20
426.1140277225504
 10
262.8317793324895
 20
426.141506172703
 10
262.8317793324895
 20
426.141506172703
 10
262.8234057219415
 20
426.1432947108779
 10
262.8234057219415
 20
426.1432947108779
 10
262.8234057219415
 20
426.1432947108779
 10
254.427118038946
 20
427.99077334911
 10
254.427118038946
 20
427.99077334911
 10
253.8438059196396
 20
428.1701149498122
 10
253.5030080999932
 20
428.6113147988626
 10
253.4711396015919
 20
429.2230761521168
 10
253.4711396015919
 20
429.2230761521168
 10
253.4711396015919
 20
434.2235928908467
 10
253.4711396015919
 20
434.2235928908467
 10
253.4711396015919
 20
434.2235928908467
 10
253.4791927819178
 20
434.2664286186236
 10
253.4791927819178
 20
434.2664286186236
 10
253.4578881596544
 20
434.4933290753588
 10
253.3991102914279
 20
434.6934906597689
 10
253.3058624147252
 20
434.8638003692831
 10
252.730928688452
 20
434.8187617261328
 10
252.1813596853954
 20
435.2152481207931
 10
252.2756644255651
 20
435.5142591848826
 10
252.2756644255651
 20
435.5142591848826
 10
253.4882120114498
 20
438.7213520253499
 10
253.4882120114498
 20
438.7213520253499
 10
253.6564206601606
 20
439.145885950491
 10
254.4388200517951
 20
439.2340121042362
 10
254.9413179819558
 20
439.3291298163031
 10
254.9413179819558
 20
439.3291298163031
 10
264.6401540224288
 20
440.6680212891888
 10
264.6401540224288
 20
440.6680212891888
 10
265.4449962014605
 20
440.7785854701106
 10
266.2658539268832
 20
440.753619176
 10
267.0618347122263
 20
440.5941953867996
 10
267.0618347122263
 20
440.5941953867996
 10
275.4839796840606
 20
438.7040357239221
 10
275.4839796840606
 20
438.7040357239221
 10
275.9966397629469
 20
438.5820086420299
 10
276.5257218741735
 20
438.326003791346
 10
276.4291408126892
 20
438.0239034340448
 10
276.4291408126892
 20
438.0239034340448
 10
275.2321209900574
 20
435.0872863440463
 10
275.2321209900574
 20
435.0872863440463
 10
275.2321209900574
 20
435.0872863440463
 10
275.2321209900574
 20
431.8737710255846
 10
275.2321209900574
 20
431.8737710255846
 10
275.2317958012973
 20
431.7036160073312
 10
275.1990330338076
 20
431.5348430413032
 10
275.1355399285731
 20
431.3768826015203
 10
275.1355399285731
 20
431.3768826015203
 10
275.1335128043975
 20
431.3719234729424
 10
275.1335128043975
 20
431.3719234729424
 10
275.1335128043975
 20
431.3719234729424
 10
273.8338093254761
 20
428.1974308055851
 10
273.8338093254761
 20
428.1974308055851
 10
273.6532482669272
 20
427.7839532982562
 10
273.3114748810031
 20
427.5129897646484
 10
272.8683238993972
 20
427.4333998158336
 97
        0
 97
        0
 75
     2
 76
     1
 98
        0
  0
SPLINE
  5
25E
330
258
100
AcDbEntity
  8
APVA4
 62
    18
420
        0
370
     9
100
AcDbSpline
210
0.0
220
0.0
230
1.0
 70
    11
 71
     3
 72
    17
 73
    13
 74
     0
 42
0.0000000001
 43
0.0000000001
 12
1.0
 22
0.0
 32
0.0
 13
1.0
 23
0.0
 33
0.0
 40
0.0
 40
0.0
 40
0.0
 40
0.0
 40
1.0
 40
1.0
 40
1.0
 40
2.0
 40
2.0
 40
2.0
 40
3.0
 40
3.0
 40
3.0
 40
4.0
 40
4.0
 40
4.0
 40
4.0
 10
266.9336290439096
 20
428.9102445657618
 30
0.0
 10
266.9336290439096
 20
428.4846537771527
 30
0.0
 10
265.7701849606647
 20
428.1396285036362
 30
0.0
 10
264.3351269662944
 20
428.1396285036362
 30
0.0
 10
262.8999876747339
 20
428.1396285036362
 30
0.0
 10
261.7365485586233
 20
428.4846537771527
 30
0.0
 10
261.7365485586233
 20
428.9102445657618
 30
0.0
 10
261.7365485586233
 20
429.3358353543708
 30
0.0
 10
262.8999876747339
 20
429.6808606278873
 30
0.0
 10
264.3351269662944
 20
429.6808606278873
 30
0.0
 10
265.7701849606647
 20
429.6808606278873
 30
0.0
 10
266.9336290439096
 20
429.3358353543708
 30
0.0
 10
266.9336290439096
 20
428.9102445657618
 30
0.0
  0
HATCH
  5
25F
330
258
100
AcDbEntity
  8
APVA4
 62
   250
420
  2301728
100
AcDbHatch
 10
0.0
 20
0.0
 30
0.0
210
0.0
220
0.0
230
1.0
  2
SOLID
 70
     1
 71
     0
 91
        1
 92
        1
 93
        1
 72
     4
 94
        3
 73
     0
 74
     1
 95
       17
 96
       13
 40
0.0
 40
0.0
 40
0.0
 40
0.0
 40
1.0
 40
1.0
 40
1.0
 40
2.0
 40
2.0
 40
2.0
 40
3.0
 40
3.0
 40
3.0
 40
4.0
 40
4.0
 40
4.0
 40
4.0
 10
266.9336290439096
 20
428.9102445657618
 10
266.9336290439096
 20
428.4846537771527
 10
265.7701849606647
 20
428.1396285036362
 10
264.3351269662944
 20
428.1396285036362
 10
262.8999876747339
 20
428.1396285036362
 10
261.7365485586233
 20
428.4846537771527
 10
261.7365485586233
 20
428.9102445657618
 10
261.7365485586233
 20
429.3358353543708
 10
262.8999876747339
 20
429.6808606278873
 10
264.3351269662944
 20
429.6808606278873
 10
265.7701849606647
 20
429.6808606278873
 10
266.9336290439096
 20
429.3358353543708
 10
266.9336290439096
 20
428.9102445657618
 97
        0
 97
        0
 75
     2
 76
     1
 98
        0
  0
SPLINE
  5
260
330
258
100
AcDbEntity
  8
APVA4
 62
    18
420
        0
370
     9
100
AcDbSpline
210
0.0
220
0.0
230
1.0
 70
     8
 71
     3
 72
    32
 73
    28
 74
     0
 42
0.0000000001
 43
0.0000000001
 12
1.0
 22
0.0
 32
0.0
 13
1.0
 23
0.0
 33
0.0
 40
0.0
 40
0.0
 40
0.0
 40
0.0
 40
1.0
 40
1.0
 40
1.0
 40
2.0
 40
2.0
 40
2.0
 40
3.0
 40
3.0
 40
3.0
 40
4.0
 40
4.0
 40
4.0
 40
5.0
 40
5.0
 40
5.0
 40
6.0
 40
6.0
 40
6.0
 40
7.0
 40
7.0
 40
7.0
 40
8.0
 40
8.0
 40
8.0
 40
9.0
 40
9.0
 40
9.0
 40
9.0
 10
261.861416075024
 20
429.0647905235737
 30
0.0
 10
261.9239336139808
 20
429.0642214432464
 30
0.0
 10
261.9857194782298
 20
429.0721885678458
 30
0.0
 10
262.0466923705817
 20
429.0888622532902
 30
0.0
 10
262.3605808204029
 20
429.163160123233
 30
0.0
 10
262.9144585745189
 20
429.1286088175684
 30
0.0
 10
262.639023695473
 20
428.672938068732
 30
0.0
 10
262.5610596904535
 20
428.5439194285173
 30
0.0
 10
262.6585350210244
 20
428.4392086480539
 30
0.0
 10
262.7858464202527
 20
428.4111611175722
 30
0.0
 10
262.9577899766828
 20
428.3731953299348
 30
0.0
 10
263.1816824373946
 20
428.4254771677533
 30
0.0
 10
263.3269605155701
 20
428.5210749181833
 30
0.0
 10
263.7683229590002
 20
428.8114684801531
 30
0.0
 10
264.4121967022256
 20
428.8465075689573
 30
0.0
 10
264.8211215669262
 20
428.4761988694136
 30
0.0
 10
264.9512783677974
 20
428.3583179442012
 30
0.0
 10
265.1763902863568
 20
428.3113281684964
 30
0.0
 10
265.3454071439537
 20
428.3343352732099
 30
0.0
 10
265.460361370333
 20
428.3499443336523
 30
0.0
 10
265.6455563686995
 20
428.4305098487448
 30
0.0
 10
265.6118180349331
 20
428.5836737543304
 30
0.0
 10
265.4956443507053
 20
429.1110486245707
 30
0.0
 10
266.2181324764697
 20
429.0379624509396
 30
0.0
 10
266.5160866770912
 20
428.9546328313936
 30
0.0
 10
266.5612066174308
 20
428.9420317669737
 30
0.0
 10
266.8505433159335
 20
428.8675635411164
 30
0.0
 10
266.8941186096663
 20
428.9686159480389
 30
0.0
  0
HATCH
  5
261
330
258
100
AcDbEntity
  8
APVA4
 62
   250
420
  2301728
100
AcDbHatch
 10
0.0
 20
0.0
 30
0.0
210
0.0
220
0.0
230
1.0
  2
SOLID
 70
     1
 71
     0
 91
        1
 92
        1
 93
        2
 72
     4
 94
        3
 73
     0
 74
     0
 95
       32
 96
       28
 40
0.0
 40
0.0
 40
0.0
 40
0.0
 40
1.0
 40
1.0
 40
1.0
 40
2.0
 40
2.0
 40
2.0
 40
3.0
 40
3.0
 40
3.0
 40
4.0
 40
4.0
 40
4.0
 40
5.0
 40
5.0
 40
5.0
 40
6.0
 40
6.0
 40
6.0
 40
7.0
 40
7.0
 40
7.0
 40
8.0
 40
8.0
 40
8.0
 40
9.0
 40
9.0
 40
9.0
 40
9.0
 10
261.861416075024
 20
429.0647905235737
 10
261.9239336139808
 20
429.0642214432464
 10
261.9857194782298
 20
429.0721885678458
 10
262.0466923705817
 20
429.0888622532902
 10
262.3605808204029
 20
429.163160123233
 10
262.9144585745189
 20
429.1286088175684
 10
262.639023695473
 20
428.672938068732
 10
262.5610596904535
 20
428.5439194285173
 10
262.6585350210244
 20
428.4392086480539
 10
262.7858464202527
 20
428.4111611175722
 10
262.9577899766828
 20
428.3731953299348
 10
263.1816824373946
 20
428.4254771677533
 10
263.3269605155701
 20
428.5210749181833
 10
263.7683229590002
 20
428.8114684801531
 10
264.4121967022256
 20
428.8465075689573
 10
264.8211215669262
 20
428.4761988694136
 10
264.9512783677974
 20
428.3583179442012
 10
265.1763902863568
 20
428.3113281684964
 10
265.3454071439537
 20
428.3343352732099
 10
265.460361370333
 20
428.3499443336523
 10
265.6455563686995
 20
428.4305098487448
 10
265.6118180349331
 20
428.5836737543304
 10
265.4956443507053
 20
429.1110486245707
 10
266.2181324764697
 20
429.0379624509396
 10
266.5160866770912
 20
428.9546328313936
 10
266.5612066174308
 20
428.9420317669737
 10
266.8505433159335
 20
428.8675635411164
 10
266.8941186096663
 20
428.9686159480389
 97
        0
 72
     1
 10
266.8941186096663
 20
428.9686159480389
 11
261.861416075024
 21
429.0647905235737
 97
        0
 75
     2
 76
     1
 98
        0
  0
POLYLINE
  5
262
330
258
100
AcDbEntity
  8
APVA4
 62
    18
420
        0
370
     9
100
AcDb2dPolyline
 66
     1
 10
0.0
 20
0.0
 30
0.0
  0
VERTEX
  5
263
330
262
100
AcDbEntity
  8
APVA4
 62
    18
420
        0
370
     9
100
AcDbVertex
100
AcDb2dVertex
 10
264.8211215669262
 20
428.4761988694136
 30
0.0
  0
VERTEX
  5
264
330
262
100
AcDbEntity
  8
APVA4
 62
    18
420
        0
370
     9
100
AcDbVertex
100
AcDb2dVertex
 10
264.8211215669262
 20
429.6276922657571
 30
0.0
  0
SEQEND
  5
265
330
262
100
AcDbEntity
  8
APVA4
 62
    18
420
        0
370
     9
  0
POLYLINE
  5
266
330
258
100
AcDbEntity
  8
APVA4
 62
    18
420
        0
370
     9
100
AcDb2dPolyline
 66
     1
 10
0.0
 20
0.0
 30
0.0
  0
VERTEX
  5
267
330
266
100
AcDbEntity
  8
APVA4
 62
    18
420
        0
370
     9
100
AcDbVertex
100
AcDb2dVertex
 10
263.3269605155701
 20
428.5210749181833
 30
0.0
  0
VERTEX
  5
268
330
266
100
AcDbEntity
  8
APVA4
 62
    18
420
        0
370
     9
100
AcDbVertex
100
AcDb2dVertex
 10
263.3269605155701
 20
429.5701416290703
 30
0.0
  0
SEQEND
  5
269
330
266
100
AcDbEntity
  8
APVA4
 62
    18
420
        0
370
     9
  0
POLYLINE
  5
26A
330
258
100
AcDbEntity
  8
APVA4
 62
    18
420
        0
370
     9
100
AcDb2dPolyline
 66
     1
 10
0.0
 20
0.0
 30
0.0
  0
VERTEX
  5
26B
330
26A
100
AcDbEntity
  8
APVA4
 62
    18
420
        0
370
     9
100
AcDbVertex
100
AcDb2dVertex
 10
265.6015745890172
 20
428.6743201209592
 30
0.0
  0
VERTEX
  5
26C
330
26A
100
AcDbEntity
  8
APVA4
 62
    18
420
        0
370
     9
100
AcDbVertex
100
AcDb2dVertex
 10
265.6015745890172
 20
429.5458259956276
 30
0.0
  0
SEQEND
  5
26D
330
26A
100
AcDbEntity
  8
APVA4
 62
    18
420
        0
370
     9
  0
POLYLINE
  5
26E
330
258
100
AcDbEntity
  8
APVA4
 62
    18
420
        0
370
     9
100
AcDb2dPolyline
 66
     1
 10
0.0
 20
0.0
 30
0.0
  0
VERTEX
  5
26F
330
26E
100
AcDbEntity
  8
APVA4
 62
    18
420
        0
370
     9
100
AcDbVertex
100
AcDb2dVertex
 10
262.7145537766373
 20
428.9045537624761
 30
0.0
  0
VERTEX
  5
270
330
26E
100
AcDbEntity
  8
APVA4
 62
    18
420
        0
370
     9
100
AcDbVertex
100
AcDb2dVertex
 10
262.7145537766373
 20
429.4550170346192
 30
0.0
  0
SEQEND
  5
271
330
26E
100
AcDbEntity
  8
APVA4
 62
    18
420
        0
370
     9
  0
SPLINE
  5
272
330
258
100
AcDbEntity
  8
APVA4
 62
    18
420
        0
370
     9
100
AcDbSpline
210
0.0
220
0.0
230
1.0
 70
     8
 71
     3
 72
     8
 73
     4
 74
     0
 42
0.0000000001
 43
0.0000000001
 12
1.0
 22
0.0
 32
0.0
 13
1.0
 23
0.0
 33
0.0
 40
0.0
 40
0.0
 40
0.0
 40
0.0
 40
1.0
 40
1.0
 40
1.0
 40
1.0
 10
252.2756644255651
 20
435.5142591848826
 30
0.0
 10
252.7550739538228
 20
435.4521481318743
 30
0.0
 10
253.1079850547494
 20
435.2252476751391
 30
0.0
 10
253.3058624147252
 20
434.8638003692831
 30
0.0
  0
HATCH
  5
273
330
258
100
AcDbEntity
  8
APVA4
 62
   250
420
  2301728
100
AcDbHatch
 10
0.0
 20
0.0
 30
0.0
210
0.0
220
0.0
230
1.0
  2
SOLID
 70
     1
 71
     0
 91
        1
 92
        1
 93
        2
 72
     4
 94
        3
 73
     0
 74
     0
 95
        8
 96
        4
 40
0.0
 40
0.0
 40
0.0
 40
0.0
 40
1.0
 40
1.0
 40
1.0
 40
1.0
 10
252.2756644255651
 20
435.5142591848826
 10
252.7550739538228
 20
435.4521481318743
 10
253.1079850547494
 20
435.2252476751391
 10
253.3058624147252
 20
434.8638003692831
 97
        0
 72
     1
 10
253.3058624147252
 20
434.8638003692831
 11
252.2756644255651
 21
435.5142591848826
 97
        0
 75
     2
 76
     1
 98
        0
  0
SPLINE
  5
274
330
258
100
AcDbEntity
  8
APVA4
 62
    18
420
        0
370
     9
100
AcDbSpline
210
0.0
220
0.0
230
1.0
 70
     8
 71
     3
 72
    23
 73
    19
 74
     0
 42
0.0000000001
 43
0.0000000001
 12
1.0
 22
0.0
 32
0.0
 13
1.0
 23
0.0
 33
0.0
 40
0.0
 40
0.0
 40
0.0
 40
0.0
 40
1.0
 40
1.0
 40
1.0
 40
2.0
 40
2.0
 40
2.0
 40
3.0
 40
3.0
 40
3.0
 40
4.0
 40
4.0
 40
4.0
 40
5.0
 40
5.0
 40
5.0
 40
6.0
 40
6.0
 40
6.0
 40
6.0
 10
253.4791927819178
 20
434.2664286186236
 30
0.0
 10
253.4791927819178
 20
434.2664286186236
 30
0.0
 10
254.6966134406548
 20
437.4682371417539
 30
0.0
 10
254.6966134406548
 20
437.4682371417539
 30
0.0
 10
254.7841705140709
 20
437.6783090802001
 30
0.0
 10
255.2161024834841
 20
437.7619638885053
 30
0.0
 10
255.4233290202874
 20
437.7714756597125
 30
0.0
 10
255.4233290202874
 20
437.7714756597125
 30
0.0
 10
265.1188318759778
 20
439.1071152055738
 30
0.0
 10
265.1188318759778
 20
439.1071152055738
 30
0.0
 10
265.5210090739247
 20
439.1623079828314
 30
0.0
 10
265.9313159908525
 20
439.1498695127921
 30
0.0
 10
266.3291844377381
 20
439.0702795639763
 30
0.0
 10
266.3291844377381
 20
439.0702795639763
 30
0.0
 10
274.7498660601559
 20
437.1845912465378
 30
0.0
 10
274.7498660601559
 20
437.1845912465378
 30
0.0
 10
274.9622956171061
 20
437.1365446073651
 30
0.0
 10
275.1239957276211
 20
437.0793926829347
 30
0.0
 10
275.2320396928671
 20
436.8950186151997
 30
0.0
  0
HATCH
  5
275
330
258
100
AcDbEntity
  8
APVA4
 62
   250
420
  2301728
100
AcDbHatch
 10
0.0
 20
0.0
 30
0.0
210
0.0
220
0.0
230
1.0
  2
SOLID
 70
     1
 71
     0
 91
        1
 92
        1
 93
        2
 72
     4
 94
        3
 73
     0
 74
     0
 95
       23
 96
       19
 40
0.0
 40
0.0
 40
0.0
 40
0.0
 40
1.0
 40
1.0
 40
1.0
 40
2.0
 40
2.0
 40
2.0
 40
3.0
 40
3.0
 40
3.0
 40
4.0
 40
4.0
 40
4.0
 40
5.0
 40
5.0
 40
5.0
 40
6.0
 40
6.0
 40
6.0
 40
6.0
 10
253.4791927819178
 20
434.2664286186236
 10
253.4791927819178
 20
434.2664286186236
 10
254.6966134406548
 20
437.4682371417539
 10
254.6966134406548
 20
437.4682371417539
 10
254.7841705140709
 20
437.6783090802001
 10
255.2161024834841
 20
437.7619638885053
 10
255.4233290202874
 20
437.7714756597125
 10
255.4233290202874
 20
437.7714756597125
 10
265.1188318759778
 20
439.1071152055738
 10
265.1188318759778
 20
439.1071152055738
 10
265.5210090739247
 20
439.1623079828314
 10
265.9313159908525
 20
439.1498695127921
 10
266.3291844377381
 20
439.0702795639763
 10
266.3291844377381
 20
439.0702795639763
 10
274.7498660601559
 20
437.1845912465378
 10
274.7498660601559
 20
437.1845912465378
 10
274.9622956171061
 20
437.1365446073651
 10
275.1239957276211
 20
437.0793926829347
 10
275.2320396928671
 20
436.8950186151997
 97
        0
 72
     1
 10
275.2320396928671
 20
436.8950186151997
 11
253.4791927819178
 21
434.2664286186236
 97
        0
 75
     2
 76
     1
 98
        0
  0
SPLINE
  5
276
330
258
100
AcDbEntity
  8
APVA4
 62
    18
420
        0
370
     9
100
AcDbSpline
210
0.0
220
0.0
230
1.0
 70
     8
 71
     3
 72
    23
 73
    19
 74
     0
 42
0.0000000001
 43
0.0000000001
 12
1.0
 22
0.0
 32
0.0
 13
1.0
 23
0.0
 33
0.0
 40
0.0
 40
0.0
 40
0.0
 40
0.0
 40
1.0
 40
1.0
 40
1.0
 40
2.0
 40
2.0
 40
2.0
 40
3.0
 40
3.0
 40
3.0
 40
4.0
 40
4.0
 40
4.0
 40
5.0
 40
5.0
 40
5.0
 40
6.0
 40
6.0
 40
6.0
 40
6.0
 10
267.0618347122263
 20
440.5941953867996
 30
0.0
 10
266.5726695211924
 20
440.2388453701788
 30
0.0
 10
266.3147135379531
 20
439.690016071173
 30
0.0
 10
266.3291844377381
 20
439.0702795639763
 30
0.0
 10
266.3291844377381
 20
439.0702795639763
 30
0.0
 10
266.3291844377381
 20
434.0387964871807
 30
0.0
 10
266.3291844377381
 20
434.0387964871807
 30
0.0
 10
266.3438992290921
 20
433.4197996840339
 30
0.0
 10
266.0861058402315
 20
432.8719379219638
 30
0.0
 10
265.5970219463888
 20
432.5180512547604
 30
0.0
 10
265.1964706922381
 20
432.8099081661458
 30
0.0
 10
265.0960686628332
 20
433.6254002770411
 30
0.0
 10
265.1188318759778
 20
434.0753802225909
 30
0.0
 10
265.1188318759778
 20
434.0753802225909
 30
0.0
 10
265.1188318759778
 20
439.1071152055738
 30
0.0
 10
265.1188318759778
 20
439.1071152055738
 30
0.0
 10
265.1472045952187
 20
439.6746428729584
 30
0.0
 10
264.9801388701771
 20
440.2294148961619
 30
0.0
 10
264.6401540224288
 20
440.6680212891888
 30
0.0
  0
SPLINE
  5
277
330
258
100
AcDbEntity
  8
APVA4
 62
    18
420
        0
370
     9
100
AcDbSpline
210
0.0
220
0.0
230
1.0
 70
     8
 71
     3
 72
    23
 73
    19
 74
     0
 42
0.0000000001
 43
0.0000000001
 12
1.0
 22
0.0
 32
0.0
 13
1.0
 23
0.0
 33
0.0
 40
0.0
 40
0.0
 40
0.0
 40
0.0
 40
1.0
 40
1.0
 40
1.0
 40
2.0
 40
2.0
 40
2.0
 40
3.0
 40
3.0
 40
3.0
 40
4.0
 40
4.0
 40
4.0
 40
5.0
 40
5.0
 40
5.0
 40
6.0
 40
6.0
 40
6.0
 40
6.0
 10
253.4882120114498
 20
438.7213520253499
 30
0.0
 10
254.1963105346176
 20
438.6294862008745
 30
0.0
 10
254.6297058534483
 20
438.179587552514
 30
0.0
 10
254.6966134406548
 20
437.4682371417539
 30
0.0
 10
254.6966134406548
 20
437.4682371417539
 30
0.0
 10
254.6966134406548
 20
432.4469162136829
 30
0.0
 10
254.6966134406548
 20
432.4469162136829
 30
0.0
 10
254.7635210278613
 20
431.7356471001121
 30
0.0
 10
255.1969163466911
 20
431.2858297489429
 30
0.0
 10
255.9049335726704
 20
431.194126518847
 30
0.0
 10
255.5629162951764
 20
431.6292290786623
 30
0.0
 10
255.3947937066669
 20
432.181968672121
 30
0.0
 10
255.4233290202874
 20
432.7482035990861
 30
0.0
 10
255.4233290202874
 20
432.7482035990861
 30
0.0
 10
255.4233290202874
 20
437.7714756597125
 30
0.0
 10
255.4233290202874
 20
437.7714756597125
 30
0.0
 10
255.4459296390523
 20
438.2233254406274
 30
0.0
 10
255.3433373911512
 20
439.036541230209
 30
0.0
 10
254.9413179819558
 20
439.3291298163031
 30
0.0
  0
POLYLINE
  5
278
330
258
100
AcDbEntity
  8
APVA4
 62
    18
420
        0
370
     9
100
AcDb2dPolyline
 66
     1
 10
0.0
 20
0.0
 30
0.0
  0
VERTEX
  5
279
330
278
100
AcDbEntity
  8
APVA4
 62
    18
420
        0
370
     9
100
AcDbVertex
100
AcDb2dVertex
 10
254.6826303240086
 20
428.0180079076945
 30
0.0
  0
VERTEX
  5
27A
330
278
100
AcDbEntity
  8
APVA4
 62
    18
420
        0
370
     9
100
AcDbVertex
100
AcDb2dVertex
 10
255.9049335726704
 20
431.194126518847
 30
0.0
  0
VERTEX
  5
27B
330
278
100
AcDbEntity
  8
APVA4
 62
    18
420
        0
370
     9
100
AcDbVertex
100
AcDb2dVertex
 10
265.5970219463888
 20
432.5180512547604
 30
0.0
  0
VERTEX
  5
27C
330
278
100
AcDbEntity
  8
APVA4
 62
    18
420
        0
370
     9
100
AcDbVertex
100
AcDb2dVertex
 10
274.0162402193901
 20
430.6487036724702
 30
0.0
  0
VERTEX
  5
27D
330
278
100
AcDbEntity
  8
APVA4
 62
    18
420
        0
370
     9
100
AcDbVertex
100
AcDb2dVertex
 10
272.7210133914778
 20
427.477137703946
 30
0.0
  0
SEQEND
  5
27E
330
278
100
AcDbEntity
  8
APVA4
 62
    18
420
        0
370
     9
  0
SPLINE
  5
27F
330
258
100
AcDbEntity
  8
APVA4
 62
    18
420
        0
370
     9
100
AcDbSpline
210
0.0
220
0.0
230
1.0
 70
     8
 71
     3
 72
    23
 73
    19
 74
     0
 42
0.0000000001
 43
0.0000000001
 12
1.0
 22
0.0
 32
0.0
 13
1.0
 23
0.0
 33
0.0
 40
0.0
 40
0.0
 40
0.0
 40
0.0
 40
1.0
 40
1.0
 40
1.0
 40
2.0
 40
2.0
 40
2.0
 40
3.0
 40
3.0
 40
3.0
 40
4.0
 40
4.0
 40
4.0
 40
5.0
 40
5.0
 40
5.0
 40
6.0
 40
6.0
 40
6.0
 40
6.0
 10
253.4791927819178
 20
429.2655945823826
 30
0.0
 10
253.4791927819178
 20
429.2655945823826
 30
0.0
 10
254.6966134406548
 20
432.4469162136829
 30
0.0
 10
254.6966134406548
 20
432.4469162136829
 30
0.0
 10
254.7844144056398
 20
432.6561830318833
 30
0.0
 10
255.2166715638132
 20
432.7389357194488
 30
0.0
 10
255.4233290202874
 20
432.7482035990861
 30
0.0
 10
255.4233290202874
 20
432.7482035990861
 30
0.0
 10
265.1188318759778
 20
434.0753802225909
 30
0.0
 10
265.1188318759778
 20
434.0753802225909
 30
0.0
 10
265.521090371114
 20
434.1301745285173
 30
0.0
 10
265.9312346936613
 20
434.1178173556673
 30
0.0
 10
266.3291844377381
 20
434.0387964871807
 30
0.0
 10
266.3291844377381
 20
434.0387964871807
 30
0.0
 10
274.7498660601559
 20
432.1651479930806
 30
0.0
 10
274.7498660601559
 20
432.1651479930806
 30
0.0
 10
274.9618891311566
 20
432.1174187034194
 30
0.0
 10
275.1235892416717
 20
432.0608358593172
 30
0.0
 10
275.2320396928671
 20
431.8773559339143
 30
0.0
  0
SPLINE
  5
280
330
258
100
AcDbEntity
  8
APVA4
 62
    18
420
        0
370
     9
100
AcDbSpline
210
0.0
220
0.0
230
1.0
 70
     8
 71
     3
 72
    29
 73
    25
 74
     0
 42
0.0000000001
 43
0.0000000001
 12
1.0
 22
0.0
 32
0.0
 13
1.0
 23
0.0
 33
0.0
 40
0.0
 40
0.0
 40
0.0
 40
0.0
 40
1.0
 40
1.0
 40
1.0
 40
2.0
 40
2.0
 40
2.0
 40
3.0
 40
3.0
 40
3.0
 40
4.0
 40
4.0
 40
4.0
 40
5.0
 40
5.0
 40
5.0
 40
6.0
 40
6.0
 40
6.0
 40
7.0
 40
7.0
 40
7.0
 40
8.0
 40
8.0
 40
8.0
 40
8.0
 10
275.2321209900574
 20
435.0872863440463
 30
0.0
 10
275.2321209900574
 20
435.0872863440463
 30
0.0
 10
275.2321209900574
 20
436.8913522829243
 30
0.0
 10
275.2321209900574
 20
436.8913522829243
 30
0.0
 10
275.2321209900574
 20
437.0301265859152
 30
0.0
 10
275.258298685173
 20
437.1658115956934
 30
0.0
 10
275.3108166697839
 20
437.2983260150704
 30
0.0
 10
275.5242217930127
 20
437.7576551374459
 30
0.0
 10
275.9224967258488
 20
438.0159363094444
 30
0.0
 10
276.4291408126892
 20
438.0239034340448
 30
0.0
 10
276.4291408126892
 20
438.0239034340448
 30
0.0
 10
275.4839796840606
 20
438.7040357239221
 30
0.0
 10
275.4839796840606
 20
438.7040357239221
 30
0.0
 10
274.9942454126995
 20
438.3507994342353
 30
0.0
 10
274.7357203491301
 20
437.8035880496836
 30
0.0
 10
274.7498660601559
 20
437.1845912465378
 30
0.0
 10
274.7498660601559
 20
437.1845912465378
 30
0.0
 10
274.7498660601559
 20
432.1651479930806
 30
0.0
 10
274.7498660601559
 20
432.1651479930806
 30
0.0
 10
274.7641743655613
 20
431.546875025394
 30
0.0
 10
274.5058984832776
 20
431.00063920712
 30
0.0
 10
274.0162402193901
 20
430.6487036724702
 30
0.0
 10
274.5216648483838
 20
430.6566707970705
 30
0.0
 10
274.9195332952713
 20
430.9140576999816
 30
0.0
 10
275.1335128043975
 20
431.3719234729424
 30
0.0
  0
SPLINE
  5
281
330
258
100
AcDbEntity
  8
APVA4
 62
    18
420
        0
370
    15
100
AcDbSpline
210
0.0
220
0.0
230
1.0
 70
    11
 71
     3
 72
    17
 73
    13
 74
     0
 42
0.0000000001
 43
0.0000000001
 12
1.0
 22
0.0
 32
0.0
 13
1.0
 23
0.0
 33
0.0
 40
0.0
 40
0.0
 40
0.0
 40
0.0
 40
1.0
 40
1.0
 40
1.0
 40
2.0
 40
2.0
 40
2.0
 40
3.0
 40
3.0
 40
3.0
 40
4.0
 40
4.0
 40
4.0
 40
4.0
 10
271.856423000725
 20
429.0260930612294
 30
0.0
 10
271.856423000725
 20
427.7077778314124
 30
0.0
 10
268.4890068791874
 20
426.639126271476
 30
0.0
 10
264.3351269662944
 20
426.639126271476
 30
0.0
 10
260.181165756213
 20
426.639126271476
 30
0.0
 10
256.8137548574578
 20
427.7077778314124
 30
0.0
 10
256.8137548574578
 20
429.0260930612294
 30
0.0
 10
256.8137548574578
 20
430.3443269938552
 30
0.0
 10
260.181165756213
 20
431.413059850981
 30
0.0
 10
264.3351269662944
 20
431.413059850981
 30
0.0
 10
268.4890068791874
 20
431.413059850981
 30
0.0
 10
271.856423000725
 20
430.3443269938552
 30
0.0
 10
271.856423000725
 20
429.0260930612294
 30
0.0
  0
MTEXT
  5
282
330
258
100
AcDbEntity
  8
APVA4
 62
    18
420
        0
100
AcDbMText
 10
265.1074991463684
 20
430.3035291176056
 30
0.0
 40
0.8967704490829078
 41
0.0
 46
0.0
 71
     7
 72
     1
  1
\fHelvetica Neue LT Std 57 Condensed|b0|i0|c0|p34;\W0.821907;WS22
 11
0.9693229133418285
 21
-0.2457907436632023
 31
0.0
 73
     1
 44
1.0
  0
MTEXT
  5
283
330
258
100
AcDbEntity
  8
APVA4
 62
    18
420
        0
100
AcDbMText
 10
259.6929152191151
 20
427.6945908940397
 30
0.0
 40
0.9836604088813071
 41
0.0
 46
0.0
 71
     7
 72
     1
  1
\fHelvetica Neue LT Std 57 Condensed|b0|i0|c0|p34;\W0.821907;3.5
 11
0.9693229133418285
 21
-0.2457907436632023
 31
0.0
 73
     1
 44
1.0
  0
INSERT
  5
285
330
258
100
AcDbEntity
  8
APVA4
100
AcDbBlockReference
  2
block 24
 10
0.0
 20
0.0
 30
0.0
  0
ENDBLK
  5
25B
330
258
100
AcDbEntity
  8
0
100
AcDbBlockEnd
  0
BLOCK
  5
286
330
284
100
AcDbEntity
  8
0
100
AcDbBlockBegin
  2
block 24
 70
     0
 10
0.0
 20
0.0
 30
0.0
  3
block 24
  1

  0
INSERT
  5
289
330
284
100
AcDbEntity
  8
APVA4
100
AcDbBlockReference
  2
block 25
 10
0.0
 20
0.0
 30
0.0
  0
INSERT
  5
29B
330
284
100
AcDbEntity
  8
APVA4
100
AcDbBlockReference
  2
block 26
 10
0.0
 20
0.0
 30
0.0
  0
ENDBLK
  5
287
330
284
100
AcDbEntity
  8
0
100
AcDbBlockEnd
  0
BLOCK
  5
28A
330
288
100
AcDbEntity
  8
0
100
AcDbBlockBegin
  2
block 25
 70
     0
 10
0.0
 20
0.0
 30
0.0
  3
block 25
  1

  0
POLYLINE
  5
28C
330
288
100
AcDbEntity
  8
APVA4
370
     0
100
AcDb2dPolyline
 66
     1
 10
0.0
 20
0.0
 30
0.0
  0
VERTEX
  5
28D
330
28C
100
AcDbEntity
  8
APVA4
370
     0
100
AcDbVertex
100
AcDb2dVertex
 10
268.9608557687934
 20
428.0267067070026
 30
0.0
  0
VERTEX
  5
28E
330
28C
100
AcDbEntity
  8
APVA4
370
     0
100
AcDbVertex
100
AcDb2dVertex
 10
267.016552177507
 20
428.3431153697084
 30
0.0
  0
VERTEX
  5
28F
330
28C
100
AcDbEntity
  8
APVA4
370
     0
100
AcDbVertex
100
AcDb2dVertex
 10
267.2697116265481
 20
428.4910762551472
 30
0.0
  0
VERTEX
  5
290
330
28C
100
AcDbEntity
  8
APVA4
370
     0
100
AcDbVertex
100
AcDb2dVertex
 10
269.2139339206433
 20
428.1746675924405
 30
0.0
  0
VERTEX
  5
291
330
28C
100
AcDbEntity
  8
APVA4
370
     0
100
AcDbVertex
100
AcDb2dVertex
 10
268.9608557687934
 20
428.0267067070026
 30
0.0
  0
SEQEND
  5
292
330
28C
100
AcDbEntity
  8
APVA4
370
     0
  0
POLYLINE
  5
293
330
288
100
AcDbEntity
  8
APVA4
370
     0
100
AcDb2dPolyline
 66
     1
 10
0.0
 20
0.0
 30
0.0
  0
VERTEX
  5
294
330
293
100
AcDbEntity
  8
APVA4
370
     0
100
AcDbVertex
100
AcDb2dVertex
 10
268.4433178585177
 20
427.7241185665625
 30
0.0
  0
VERTEX
  5
295
330
293
100
AcDbEntity
  8
APVA4
370
     0
100
AcDbVertex
100
AcDb2dVertex
 10
266.4990955644225
 20
428.0405272292683
 30
0.0
  0
VERTEX
  5
296
330
293
100
AcDbEntity
  8
APVA4
370
     0
100
AcDbVertex
100
AcDb2dVertex
 10
266.7522550134636
 20
428.1885694118964
 30
0.0
  0
VERTEX
  5
297
330
293
100
AcDbEntity
  8
APVA4
370
     0
100
AcDbVertex
100
AcDb2dVertex
 10
268.6964773075588
 20
427.8720794519995
 30
0.0
  0
VERTEX
  5
298
330
293
100
AcDbEntity
  8
APVA4
370
     0
100
AcDbVertex
100
AcDb2dVertex
 10
268.4433178585177
 20
427.7241185665625
 30
0.0
  0
SEQEND
  5
299
330
293
100
AcDbEntity
  8
APVA4
370
     0
  0
ENDBLK
  5
28B
330
288
100
AcDbEntity
  8
0
100
AcDbBlockEnd
  0
BLOCK
  5
29C
330
29A
100
AcDbEntity
  8
0
100
AcDbBlockBegin
  2
block 26
 70
     0
 10
0.0
 20
0.0
 30
0.0
  3
block 26
  1

  0
POLYLINE
  5
29E
330
29A
100
AcDbEntity
  8
APVA4
370
     0
100
AcDb2dPolyline
 66
     1
 10
0.0
 20
0.0
 30
0.0
  0
VERTEX
  5
29F
330
29E
100
AcDbEntity
  8
APVA4
370
     0
100
AcDbVertex
100
AcDb2dVertex
 10
266.3090227346675
 20
427.6386752200824
 30
0.0
  0
VERTEX
  5
2A0
330
29E
100
AcDbEntity
  8
APVA4
370
     0
100
AcDbVertex
100
AcDb2dVertex
 10
266.2886171400269
 20
427.6921764972212
 30
0.0
  0
VERTEX
  5
2A1
330
29E
100
AcDbEntity
  8
APVA4
370
     0
100
AcDbVertex
100
AcDb2dVertex
 10
269.4884745306026
 20
428.5627803765519
 30
0.0
  0
VERTEX
  5
2A2
330
29E
100
AcDbEntity
  8
APVA4
370
     0
100
AcDbVertex
100
AcDb2dVertex
 10
269.5088801252423
 20
428.5092868256615
 30
0.0
  0
VERTEX
  5
2A3
330
29E
100
AcDbEntity
  8
APVA4
370
     0
100
AcDbVertex
100
AcDb2dVertex
 10
266.3090227346675
 20
427.6386752200824
 30
0.0
  0
SEQEND
  5
2A4
330
29E
100
AcDbEntity
  8
APVA4
370
     0
  0
ENDBLK
  5
29D
330
29A
100
AcDbEntity
  8
0
100
AcDbBlockEnd
  0
BLOCK
  5
2AE
330
2AC
100
AcDbEntity
  8
0
100
AcDbBlockBegin
  2
block 27
 70
     0
 10
0.0
 20
0.0
 30
0.0
  3
block 27
  1

  0
INSERT
  5
2B1
330
2AC
100
AcDbEntity
  8
APVA4
100
AcDbBlockReference
  2
block 28
 10
0.0
 20
0.0
 30
0.0
  0
INSERT
  5
2B8
330
2AC
100
AcDbEntity
  8
APVA4
100
AcDbBlockReference
  2
block 29
 10
0.0
 20
0.0
 30
0.0
  0
ENDBLK
  5
2AF
330
2AC
100
AcDbEntity
  8
0
100
AcDbBlockEnd
  0
BLOCK
  5
2B2
330
2B0
100
AcDbEntity
  8
0
100
AcDbBlockBegin
  2
block 28
 70
     0
 10
0.0
 20
0.0
 30
0.0
  3
block 28
  1

  0
SPLINE
  5
2B4
330
2B0
100
AcDbEntity
  8
APVA4
 62
    18
420
        0
370
     9
100
AcDbSpline
210
0.0
220
0.0
230
1.0
 70
    11
 71
     3
 72
    23
 73
    19
 74
     0
 42
0.0000000001
 43
0.0000000001
 12
1.0
 22
0.0
 32
0.0
 13
1.0
 23
0.0
 33
0.0
 40
0.0
 40
0.0
 40
0.0
 40
0.0
 40
1.0
 40
1.0
 40
1.0
 40
2.0
 40
2.0
 40
2.0
 40
3.0
 40
3.0
 40
3.0
 40
4.0
 40
4.0
 40
4.0
 40
5.0
 40
5.0
 40
5.0
 40
6.0
 40
6.0
 40
6.0
 40
6.0
 10
331.6073320689356
 20
415.3858879620047
 30
0.0
 10
325.9034399352931
 20
414.749818749
 30
0.0
 10
319.8433035159433
 20
419.6587869607656
 30
0.0
 10
317.5179599960611
 20
427.1447134948494
 30
0.0
 10
315.0836782418428
 20
434.9814374029256
 30
0.0
 10
317.6221829933856
 20
442.8101128892104
 30
0.0
 10
323.1953492458269
 20
445.1655363693208
 30
0.0
 10
323.1953492458269
 20
445.1655363693208
 30
0.0
 10
325.7524710538328
 20
446.0998036745159
 30
0.0
 10
325.7524710538328
 20
446.0998036745159
 30
0.0
 10
331.8912218557216
 20
448.0066292613028
 30
0.0
 10
338.9352981632364
 20
442.8959627216409
 30
0.0
 10
341.4859161960594
 20
434.6847026601508
 30
0.0
 10
343.7938691574
 20
427.2546272954605
 30
0.0
 10
341.6317633545623
 20
419.8318686778521
 30
0.0
 10
336.6514162101503
 20
417.074105405416
 30
0.0
 10
336.6514162101503
 20
417.074105405416
 30
0.0
 10
331.6073320689356
 20
415.3858879620047
 30
0.0
 10
331.6073320689356
 20
415.3858879620047
 30
0.0
  0
HATCH
  5
2B5
330
2B0
100
AcDbEntity
  8
APVA4
 62
   250
420
  2301728
100
AcDbHatch
 10
0.0
 20
0.0
 30
0.0
210
0.0
220
0.0
230
1.0
  2
SOLID
 70
     1
 71
     0
 91
        1
 92
        1
 93
        1
 72
     4
 94
        3
 73
     0
 74
     1
 95
       23
 96
       19
 40
0.0
 40
0.0
 40
0.0
 40
0.0
 40
1.0
 40
1.0
 40
1.0
 40
2.0
 40
2.0
 40
2.0
 40
3.0
 40
3.0
 40
3.0
 40
4.0
 40
4.0
 40
4.0
 40
5.0
 40
5.0
 40
5.0
 40
6.0
 40
6.0
 40
6.0
 40
6.0
 10
331.6073320689356
 20
415.3858879620047
 10
325.9034399352931
 20
414.749818749
 10
319.8433035159433
 20
419.6587869607656
 10
317.5179599960611
 20
427.1447134948494
 10
315.0836782418428
 20
434.9814374029256
 10
317.6221829933856
 20
442.8101128892104
 10
323.1953492458269
 20
445.1655363693208
 10
323.1953492458269
 20
445.1655363693208
 10
325.7524710538328
 20
446.0998036745159
 10
325.7524710538328
 20
446.0998036745159
 10
331.8912218557216
 20
448.0066292613028
 10
338.9352981632364
 20
442.8959627216409
 10
341.4859161960594
 20
434.6847026601508
 10
343.7938691574
 20
427.2546272954605
 10
341.6317633545623
 20
419.8318686778521
 10
336.6514162101503
 20
417.074105405416
 10
336.6514162101503
 20
417.074105405416
 10
331.6073320689356
 20
415.3858879620047
 10
331.6073320689356
 20
415.3858879620047
 97
        0
 97
        0
 75
     2
 76
     1
 98
        0
  0
SPLINE
  5
2B6
330
2B0
100
AcDbEntity
  8
APVA4
 62
    18
420
        0
370
     9
100
AcDbSpline
210
0.0
220
0.0
230
1.0
 70
     8
 71
     3
 72
    14
 73
    10
 74
     0
 42
0.0000000001
 43
0.0000000001
 12
1.0
 22
0.0
 32
0.0
 13
1.0
 23
0.0
 33
0.0
 40
0.0
 40
0.0
 40
0.0
 40
0.0
 40
1.0
 40
1.0
 40
1.0
 40
2.0
 40
2.0
 40
2.0
 40
3.0
 40
3.0
 40
3.0
 40
3.0
 10
336.6514162101503
 20
417.074105405416
 30
0.0
 10
336.1277810106403
 20
416.7841183293949
 30
0.0
 10
335.5730089874378
 20
416.5457549688981
 30
0.0
 10
334.9890512730963
 20
416.3643809384521
 30
0.0
 10
328.8503004712074
 20
414.4574740544749
 30
0.0
 10
321.8062306483152
 20
419.5682218913271
 30
0.0
 10
319.2556061308715
 20
427.7794006556269
 30
0.0
 10
316.7049880980485
 20
435.990660717117
 30
0.0
 10
319.6137202519458
 20
444.192978087729
 30
0.0
 10
325.7524710538328
 20
446.0998036745159
 30
0.0
  0
ENDBLK
  5
2B3
330
2B0
100
AcDbEntity
  8
0
100
AcDbBlockEnd
  0
BLOCK
  5
2B9
330
2B7
100
AcDbEntity
  8
0
100
AcDbBlockBegin
  2
block 29
 70
     0
 10
0.0
 20
0.0
 30
0.0
  3
block 29
  1

  0
SPLINE
  5
2BB
330
2B7
100
AcDbEntity
  8
APVA4
 62
    18
420
        0
370
     9
100
AcDbSpline
210
0.0
220
0.0
230
1.0
 70
    11
 71
     3
 72
    65
 73
    61
 74
     0
 42
0.0000000001
 43
0.0000000001
 12
1.0
 22
0.0
 32
0.0
 13
1.0
 23
0.0
 33
0.0
 40
0.0
 40
0.0
 40
0.0
 40
0.0
 40
1.0
 40
1.0
 40
1.0
 40
2.0
 40
2.0
 40
2.0
 40
3.0
 40
3.0
 40
3.0
 40
4.0
 40
4.0
 40
4.0
 40
5.0
 40
5.0
 40
5.0
 40
6.0
 40
6.0
 40
6.0
 40
7.0
 40
7.0
 40
7.0
 40
8.0
 40
8.0
 40
8.0
 40
9.0
 40
9.0
 40
9.0
 40
10.0
 40
10.0
 40
10.0
 40
11.0
 40
11.0
 40
11.0
 40
12.0
 40
12.0
 40
12.0
 40
13.0
 40
13.0
 40
13.0
 40
14.0
 40
14.0
 40
14.0
 40
15.0
 40
15.0
 40
15.0
 40
16.0
 40
16.0
 40
16.0
 40
17.0
 40
17.0
 40
17.0
 40
18.0
 40
18.0
 40
18.0
 40
19.0
 40
19.0
 40
19.0
 40
20.0
 40
20.0
 40
20.0
 40
20.0
 10
319.7755016596493
 20
432.2574937614463
 30
0.0
 10
319.7755016596493
 20
432.2574937614463
 30
0.0
 10
324.2422131588974
 20
421.7145489992681
 30
0.0
 10
324.2422131588974
 20
421.7145489992681
 30
0.0
 10
324.5688652675162
 20
420.9023087759642
 30
0.0
 10
325.197373841871
 20
420.3159934431187
 30
0.0
 10
326.0259548003232
 20
420.0629965884573
 30
0.0
 10
326.0259548003232
 20
420.0629965884573
 30
0.0
 10
334.9192169870566
 20
418.2100710385075
 30
0.0
 10
334.9192169870566
 20
418.2100710385075
 30
0.0
 10
335.6911338042191
 20
418.1004824266565
 30
0.0
 10
336.3215935111275
 20
418.425508591481
 30
0.0
 10
336.6927964797596
 20
419.1162095160325
 30
0.0
 10
336.6927964797596
 20
419.1162095160325
 30
0.0
 10
337.2857781821695
 20
420.2724994465752
 30
0.0
 10
337.2857781821695
 20
420.2724994465752
 30
0.0
 10
337.2857781821695
 20
420.2724994465752
 30
0.0
 10
339.2765837660208
 20
421.0518956051992
 30
0.0
 10
339.2765837660208
 20
421.0518956051992
 30
0.0
 10
339.2765837660208
 20
421.0518956051992
 30
0.0
 10
339.2856890512776
 20
421.0554726815499
 30
0.0
 10
339.2856890512776
 20
421.0554726815499
 30
0.0
 10
339.5774646654754
 20
421.1778325138866
 30
0.0
 10
339.8137955962266
 20
421.3941567742622
 30
0.0
 10
339.9593988631605
 20
421.6756076453539
 30
0.0
 10
339.9593988631605
 20
421.6756076453539
 30
0.0
 10
344.3927785145897
 20
430.3255473430108
 30
0.0
 10
344.3927785145897
 20
430.3255473430108
 30
0.0
 10
344.5729330871891
 20
430.6957747453653
 30
0.0
 10
344.5885421476305
 20
431.1039679353571
 30
0.0
 10
344.4370041858419
 20
431.4867964021314
 30
0.0
 10
344.4370041858419
 20
431.4867964021314
 30
0.0
 10
340.0032180484632
 20
442.0201480959122
 30
0.0
 10
340.0032180484632
 20
442.0201480959122
 30
0.0
 10
339.8302989257572
 20
442.4099681210091
 30
0.0
 10
339.5088498372825
 20
442.6821511124635
 30
0.0
 10
339.0963478962312
 20
442.7849107603724
 30
0.0
 10
339.0963478962312
 20
442.7849107603724
 30
0.0
 10
330.1943869101906
 20
444.7001912548985
 30
0.0
 10
330.1943869101906
 20
444.7001912548985
 30
0.0
 10
330.1943869101906
 20
444.7001912548985
 30
0.0
 10
330.1868262715398
 20
444.7018171986947
 30
0.0
 10
330.1868262715398
 20
444.7018171986947
 30
0.0
 10
329.9462678869168
 20
444.7501890266267
 30
0.0
 10
329.6980675664545
 20
444.7281574881899
 30
0.0
 10
329.4702728406319
 20
444.636698149664
 30
0.0
 10
329.4702728406319
 20
444.636698149664
 30
0.0
 10
327.8466866631115
 20
443.9786786954128
 30
0.0
 10
327.8466866631115
 20
443.9786786954128
 30
0.0
 10
327.8466866631115
 20
443.9786786954128
 30
0.0
 10
326.0259548003232
 20
444.3697994755466
 30
0.0
 10
326.0259548003232
 20
444.3697994755466
 30
0.0
 10
325.2520055534169
 20
444.4859731597726
 30
0.0
 10
324.6178061757782
 20
444.1644427741085
 30
0.0
 10
324.2422131588974
 20
443.4730914720394
 30
0.0
 10
324.2422131588974
 20
443.4730914720394
 30
0.0
 10
319.7755016596493
 20
434.820387669929
 30
0.0
 10
319.7755016596493
 20
434.820387669929
 30
0.0
 10
319.4153551088311
 20
433.9933513580818
 30
0.0
 10
319.417143647006
 20
433.0914403344268
 30
0.0
 10
319.7755016596493
 20
432.2574937614463
 30
0.0
  0
HATCH
  5
2BC
330
2B7
100
AcDbEntity
  8
APVA4
 62
   250
420
  2301728
100
AcDbHatch
 10
0.0
 20
0.0
 30
0.0
210
0.0
220
0.0
230
1.0
  2
SOLID
 70
     1
 71
     0
 91
        1
 92
        1
 93
        1
 72
     4
 94
        3
 73
     0
 74
     1
 95
       65
 96
       61
 40
0.0
 40
0.0
 40
0.0
 40
0.0
 40
1.0
 40
1.0
 40
1.0
 40
2.0
 40
2.0
 40
2.0
 40
3.0
 40
3.0
 40
3.0
 40
4.0
 40
4.0
 40
4.0
 40
5.0
 40
5.0
 40
5.0
 40
6.0
 40
6.0
 40
6.0
 40
7.0
 40
7.0
 40
7.0
 40
8.0
 40
8.0
 40
8.0
 40
9.0
 40
9.0
 40
9.0
 40
10.0
 40
10.0
 40
10.0
 40
11.0
 40
11.0
 40
11.0
 40
12.0
 40
12.0
 40
12.0
 40
13.0
 40
13.0
 40
13.0
 40
14.0
 40
14.0
 40
14.0
 40
15.0
 40
15.0
 40
15.0
 40
16.0
 40
16.0
 40
16.0
 40
17.0
 40
17.0
 40
17.0
 40
18.0
 40
18.0
 40
18.0
 40
19.0
 40
19.0
 40
19.0
 40
20.0
 40
20.0
 40
20.0
 40
20.0
 10
319.7755016596493
 20
432.2574937614463
 10
319.7755016596493
 20
432.2574937614463
 10
324.2422131588974
 20
421.7145489992681
 10
324.2422131588974
 20
421.7145489992681
 10
324.5688652675162
 20
420.9023087759642
 10
325.197373841871
 20
420.3159934431187
 10
326.0259548003232
 20
420.0629965884573
 10
326.0259548003232
 20
420.0629965884573
 10
334.9192169870566
 20
418.2100710385075
 10
334.9192169870566
 20
418.2100710385075
 10
335.6911338042191
 20
418.1004824266565
 10
336.3215935111275
 20
418.425508591481
 10
336.6927964797596
 20
419.1162095160325
 10
336.6927964797596
 20
419.1162095160325
 10
337.2857781821695
 20
420.2724994465752
 10
337.2857781821695
 20
420.2724994465752
 10
337.2857781821695
 20
420.2724994465752
 10
339.2765837660208
 20
421.0518956051992
 10
339.2765837660208
 20
421.0518956051992
 10
339.2765837660208
 20
421.0518956051992
 10
339.2856890512776
 20
421.0554726815499
 10
339.2856890512776
 20
421.0554726815499
 10
339.5774646654754
 20
421.1778325138866
 10
339.8137955962266
 20
421.3941567742622
 10
339.9593988631605
 20
421.6756076453539
 10
339.9593988631605
 20
421.6756076453539
 10
344.3927785145897
 20
430.3255473430108
 10
344.3927785145897
 20
430.3255473430108
 10
344.5729330871891
 20
430.6957747453653
 10
344.5885421476305
 20
431.1039679353571
 10
344.4370041858419
 20
431.4867964021314
 10
344.4370041858419
 20
431.4867964021314
 10
340.0032180484632
 20
442.0201480959122
 10
340.0032180484632
 20
442.0201480959122
 10
339.8302989257572
 20
442.4099681210091
 10
339.5088498372825
 20
442.6821511124635
 10
339.0963478962312
 20
442.7849107603724
 10
339.0963478962312
 20
442.7849107603724
 10
330.1943869101906
 20
444.7001912548985
 10
330.1943869101906
 20
444.7001912548985
 10
330.1943869101906
 20
444.7001912548985
 10
330.1868262715398
 20
444.7018171986947
 10
330.1868262715398
 20
444.7018171986947
 10
329.9462678869168
 20
444.7501890266267
 10
329.6980675664545
 20
444.7281574881899
 10
329.4702728406319
 20
444.636698149664
 10
329.4702728406319
 20
444.636698149664
 10
327.8466866631115
 20
443.9786786954128
 10
327.8466866631115
 20
443.9786786954128
 10
327.8466866631115
 20
443.9786786954128
 10
326.0259548003232
 20
444.3697994755466
 10
326.0259548003232
 20
444.3697994755466
 10
325.2520055534169
 20
444.4859731597726
 10
324.6178061757782
 20
444.1644427741085
 10
324.2422131588974
 20
443.4730914720394
 10
324.2422131588974
 20
443.4730914720394
 10
319.7755016596493
 20
434.820387669929
 10
319.7755016596493
 20
434.820387669929
 10
319.4153551088311
 20
433.9933513580818
 10
319.417143647006
 20
433.0914403344268
 10
319.7755016596493
 20
432.2574937614463
 97
        0
 97
        0
 75
     2
 76
     1
 98
        0
  0
SPLINE
  5
2BD
330
2B7
100
AcDbEntity
  8
APVA4
 62
    18
420
        0
370
     9
100
AcDbSpline
210
0.0
220
0.0
230
1.0
 70
     8
 71
     3
 72
     8
 73
     4
 74
     0
 42
0.0000000001
 43
0.0000000001
 12
1.0
 22
0.0
 32
0.0
 13
1.0
 23
0.0
 33
0.0
 40
0.0
 40
0.0
 40
0.0
 40
0.0
 40
1.0
 40
1.0
 40
1.0
 40
1.0
 10
333.4287143092406
 20
432.7751942661007
 30
0.0
 10
333.7254490520154
 20
433.1838752392314
 30
0.0
 10
333.603096781364
 20
433.9391261324854
 30
0.0
 10
333.4287143092406
 20
434.3654485958014
 30
0.0
  0
SPLINE
  5
2BE
330
2B7
100
AcDbEntity
  8
APVA4
 62
    18
420
        0
370
     9
100
AcDbSpline
210
0.0
220
0.0
230
1.0
 70
     8
 71
     3
 72
    11
 73
     7
 74
     0
 42
0.0000000001
 43
0.0000000001
 12
1.0
 22
0.0
 32
0.0
 13
1.0
 23
0.0
 33
0.0
 40
0.0
 40
0.0
 40
0.0
 40
0.0
 40
1.0
 40
1.0
 40
1.0
 40
2.0
 40
2.0
 40
2.0
 40
2.0
 10
333.7934135026899
 20
431.9112490300831
 30
0.0
 10
334.284773717849
 20
431.9229558254146
 30
0.0
 10
334.7283311854044
 20
431.274285547991
 30
0.0
 10
334.898811392417
 20
430.8821079043901
 30
0.0
 10
334.9337691840301
 20
430.8027618471442
 30
0.0
 10
334.9799459878377
 20
430.7313016173084
 30
0.0
 10
335.0372605066477
 20
430.6678898092632
 30
0.0
  0
SPLINE
  5
2BF
330
2B7
100
AcDbEntity
  8
APVA4
 62
    18
420
        0
370
     9
100
AcDbSpline
210
0.0
220
0.0
230
1.0
 70
     8
 71
     3
 72
    41
 73
    37
 74
     0
 42
0.0000000001
 43
0.0000000001
 12
1.0
 22
0.0
 32
0.0
 13
1.0
 23
0.0
 33
0.0
 40
0.0
 40
0.0
 40
0.0
 40
0.0
 40
1.0
 40
1.0
 40
1.0
 40
2.0
 40
2.0
 40
2.0
 40
3.0
 40
3.0
 40
3.0
 40
4.0
 40
4.0
 40
4.0
 40
5.0
 40
5.0
 40
5.0
 40
6.0
 40
6.0
 40
6.0
 40
7.0
 40
7.0
 40
7.0
 40
8.0
 40
8.0
 40
8.0
 40
9.0
 40
9.0
 40
9.0
 40
10.0
 40
10.0
 40
10.0
 40
11.0
 40
11.0
 40
11.0
 40
12.0
 40
12.0
 40
12.0
 40
12.0
 10
335.5297588824633
 20
430.5165957390436
 30
0.0
 10
335.59617868653
 20
430.5687885348962
 30
0.0
 10
335.6287788596419
 20
430.6391997019628
 30
0.0
 10
335.627478104605
 20
430.727813641085
 30
0.0
 10
335.6378028477084
 20
431.320543648988
 30
0.0
 10
336.2667179080108
 20
431.4526515824145
 30
0.0
 10
336.7318191308641
 20
431.2884312590159
 30
0.0
 10
336.9027871210164
 20
431.2281087441834
 30
0.0
 10
337.1309070355983
 20
431.2686760418947
 30
0.0
 10
337.2211469162776
 20
431.444359269055
 30
0.0
 10
337.3133379295123
 20
431.6237821669456
 30
0.0
 10
337.2297644183964
 20
431.8649909290862
 30
0.0
 10
337.0958679467949
 20
431.997180159703
 30
0.0
 10
336.6506032382531
 20
432.4368353621476
 30
0.0
 10
336.6099546433506
 20
433.1602990541887
 30
0.0
 10
337.0958679467949
 20
433.5858898427978
 30
0.0
 10
337.2524463343507
 20
433.7230382019934
 30
0.0
 10
337.3009807566632
 20
433.9769293257414
 30
0.0
 10
337.2211469162776
 20
434.1661891835993
 30
0.0
 10
337.1433455056376
 20
434.3507338044474
 30
0.0
 10
336.9342491334683
 20
434.4844676816701
 30
0.0
 10
336.7318191308641
 20
434.4492659984862
 30
0.0
 10
336.0888396567261
 20
434.3374089594454
 30
0.0
 10
335.635607823584
 20
434.8763201365127
 30
0.0
 10
335.627478104605
 20
435.478894907319
 30
0.0
 10
335.6251273198177
 20
435.6551472148076
 30
0.0
 10
335.5236615932281
 20
435.8887953382964
 30
0.0
 10
335.3292800124145
 20
435.9302569050951
 30
0.0
 10
335.1354675119273
 20
435.9715558775142
 30
0.0
 10
334.9636865498778
 20
435.7941654093665
 30
0.0
 10
334.898811392417
 20
435.6340991695306
 30
0.0
 10
334.7361357156242
 20
435.2332147997404
 30
0.0
 10
334.2403041550278
 20
434.6905560578161
 30
0.0
 10
333.7934135026899
 20
435.0745226852478
 30
0.0
 10
333.7400012489888
 20
435.1219268608447
 30
0.0
 10
333.6808168948155
 20
435.1400482202271
 30
0.0
 10
333.6157791429741
 20
435.128747910845
 30
0.0
  0
POLYLINE
  5
2C0
330
2B7
100
AcDbEntity
  8
APVA4
 62
    18
420
        0
370
     9
100
AcDb2dPolyline
 66
     1
 10
0.0
 20
0.0
 30
0.0
  0
VERTEX
  5
2C1
330
2C0
100
AcDbEntity
  8
APVA4
 62
    18
420
        0
370
     9
100
AcDbVertex
100
AcDb2dVertex
 10
337.0958679467949
 20
431.997180159703
 30
0.0
  0
VERTEX
  5
2C2
330
2C0
100
AcDbEntity
  8
APVA4
 62
    18
420
        0
370
     9
100
AcDbVertex
100
AcDb2dVertex
 10
335.7240591660884
 20
431.4520012048961
 30
0.0
  0
SEQEND
  5
2C3
330
2C0
100
AcDbEntity
  8
APVA4
 62
    18
420
        0
370
     9
  0
POLYLINE
  5
2C4
330
2B7
100
AcDbEntity
  8
APVA4
 62
    18
420
        0
370
     9
100
AcDb2dPolyline
 66
     1
 10
0.0
 20
0.0
 30
0.0
  0
VERTEX
  5
2C5
330
2C4
100
AcDbEntity
  8
APVA4
 62
    18
420
        0
370
     9
100
AcDbVertex
100
AcDb2dVertex
 10
337.0958679467949
 20
433.5858898427978
 30
0.0
  0
VERTEX
  5
2C6
330
2C4
100
AcDbEntity
  8
APVA4
 62
    18
420
        0
370
     9
100
AcDbVertex
100
AcDb2dVertex
 10
335.7240591660884
 20
433.0396540245238
 30
0.0
  0
SEQEND
  5
2C7
330
2C4
100
AcDbEntity
  8
APVA4
 62
    18
420
        0
370
     9
  0
POLYLINE
  5
2C8
330
2B7
100
AcDbEntity
  8
APVA4
 62
    18
420
        0
370
     9
100
AcDb2dPolyline
 66
     1
 10
0.0
 20
0.0
 30
0.0
  0
VERTEX
  5
2C9
330
2C8
100
AcDbEntity
  8
APVA4
 62
    18
420
        0
370
     9
100
AcDbVertex
100
AcDb2dVertex
 10
336.7318191308641
 20
434.4492659984862
 30
0.0
  0
VERTEX
  5
2CA
330
2C8
100
AcDbEntity
  8
APVA4
 62
    18
420
        0
370
     9
100
AcDbVertex
100
AcDb2dVertex
 10
335.3601729445381
 20
433.9023798026938
 30
0.0
  0
SEQEND
  5
2CB
330
2C8
100
AcDbEntity
  8
APVA4
 62
    18
420
        0
370
     9
  0
SPLINE
  5
2CC
330
2B7
100
AcDbEntity
  8
APVA4
 62
    18
420
        0
370
     9
100
AcDbSpline
210
0.0
220
0.0
230
1.0
 70
     8
 71
     3
 72
    20
 73
    16
 74
     0
 42
0.0000000001
 43
0.0000000001
 12
1.0
 22
0.0
 32
0.0
 13
1.0
 23
0.0
 33
0.0
 40
0.0
 40
0.0
 40
0.0
 40
0.0
 40
1.0
 40
1.0
 40
1.0
 40
2.0
 40
2.0
 40
2.0
 40
3.0
 40
3.0
 40
3.0
 40
4.0
 40
4.0
 40
4.0
 40
5.0
 40
5.0
 40
5.0
 40
5.0
 10
334.2561571070382
 20
434.9311144424382
 30
0.0
 10
334.2644494203978
 20
434.3258568643687
 30
0.0
 10
334.7227284902274
 20
433.7914091386156
 30
0.0
 10
335.3601729445381
 20
433.9023798026938
 30
0.0
 10
335.5624403527636
 20
433.9375814858777
 30
0.0
 10
335.7714622651547
 20
433.8039289058452
 30
0.0
 10
335.8492568383808
 20
433.6194655821864
 30
0.0
 10
335.9290093815762
 20
433.4303683187081
 30
0.0
 10
335.8805562564557
 20
433.1767210865282
 30
0.0
 10
335.7240591660884
 20
433.0396540245238
 30
0.0
 10
335.2357882441429
 20
432.6119495089797
 30
0.0
 10
335.280745590102
 20
431.8896239775959
 30
0.0
 10
335.7240591660884
 20
431.4520012048961
 30
0.0
 10
335.7843003837297
 20
431.3924103647714
 30
0.0
 10
335.8290951353119
 20
431.3242833197182
 30
0.0
 10
335.8581995292607
 20
431.2473761781666
 30
0.0
  0
POLYLINE
  5
2CD
330
2B7
100
AcDbEntity
  8
APVA4
 62
    18
420
        0
370
     9
100
AcDb2dPolyline
 66
     1
 10
0.0
 20
0.0
 30
0.0
  0
VERTEX
  5
2CE
330
2CD
100
AcDbEntity
  8
APVA4
 62
    18
420
        0
370
     9
100
AcDbVertex
100
AcDb2dVertex
 10
336.0037214990043
 20
431.3052597773049
 30
0.0
  0
VERTEX
  5
2CF
330
2CD
100
AcDbEntity
  8
APVA4
 62
    18
420
        0
370
     9
100
AcDbVertex
100
AcDb2dVertex
 10
334.9048341999824
 20
430.8686125708828
 30
0.0
  0
SEQEND
  5
2D0
330
2CD
100
AcDbEntity
  8
APVA4
 62
    18
420
        0
370
     9
  0
POLYLINE
  5
2D1
330
2B7
100
AcDbEntity
  8
APVA4
 62
    18
420
        0
370
     9
100
AcDb2dPolyline
 66
     1
 10
0.0
 20
0.0
 30
0.0
  0
VERTEX
  5
2D2
330
2D1
100
AcDbEntity
  8
APVA4
 62
    18
420
        0
370
     9
100
AcDbVertex
100
AcDb2dVertex
 10
334.3250158267983
 20
434.9785107040934
 30
0.0
  0
VERTEX
  5
2D3
330
2D1
100
AcDbEntity
  8
APVA4
 62
    18
420
        0
370
     9
100
AcDbVertex
100
AcDb2dVertex
 10
333.3887973890487
 20
434.6045436310069
 30
0.0
  0
SEQEND
  5
2D4
330
2D1
100
AcDbEntity
  8
APVA4
 62
    18
420
        0
370
     9
  0
SPLINE
  5
2D5
330
2B7
100
AcDbEntity
  8
APVA4
 62
    18
420
        0
370
     9
100
AcDbSpline
210
0.0
220
0.0
230
1.0
 70
     8
 71
     3
 72
     8
 73
     4
 74
     0
 42
0.0000000001
 43
0.0000000001
 12
1.0
 22
0.0
 32
0.0
 13
1.0
 23
0.0
 33
0.0
 40
0.0
 40
0.0
 40
0.0
 40
0.0
 40
1.0
 40
1.0
 40
1.0
 40
1.0
 10
326.0259548003232
 20
444.3697994755466
 30
0.0
 10
326.0009965630561
 20
443.9894099244666
 30
0.0
 10
326.1383888138189
 20
443.64885599639
 30
0.0
 10
326.4209778455679
 20
443.407736654699
 30
0.0
  0
SPLINE
  5
2D6
330
2B7
100
AcDbEntity
  8
APVA4
 62
    18
420
        0
370
     9
100
AcDbSpline
210
0.0
220
0.0
230
1.0
 70
     8
 71
     3
 72
     8
 73
     4
 74
     0
 42
0.0000000001
 43
0.0000000001
 12
1.0
 22
0.0
 32
0.0
 13
1.0
 23
0.0
 33
0.0
 40
0.0
 40
0.0
 40
0.0
 40
0.0
 40
1.0
 40
1.0
 40
1.0
 40
1.0
 10
336.2871235026505
 20
419.881541260821
 30
0.0
 10
336.267286988339
 20
419.599196120641
 30
0.0
 10
336.4764646576987
 20
419.2968518717707
 30
0.0
 10
336.6843415720195
 20
419.1240953434444
 30
0.0
  0
SPLINE
  5
2D7
330
2B7
100
AcDbEntity
  8
APVA4
 62
    18
420
        0
370
     9
100
AcDbSpline
210
0.0
220
0.0
230
1.0
 70
     8
 71
     3
 72
    23
 73
    19
 74
     0
 42
0.0000000001
 43
0.0000000001
 12
1.0
 22
0.0
 32
0.0
 13
1.0
 23
0.0
 33
0.0
 40
0.0
 40
0.0
 40
0.0
 40
0.0
 40
1.0
 40
1.0
 40
1.0
 40
2.0
 40
2.0
 40
2.0
 40
3.0
 40
3.0
 40
3.0
 40
4.0
 40
4.0
 40
4.0
 40
5.0
 40
5.0
 40
5.0
 40
6.0
 40
6.0
 40
6.0
 40
6.0
 10
326.0259548003232
 20
420.0629965884573
 30
0.0
 10
326.0082320129477
 20
420.7073581148215
 30
0.0
 10
326.2757810645835
 20
421.2769262265683
 30
0.0
 10
326.7860835249667
 20
421.6420394793786
 30
0.0
 10
326.7860835249667
 20
421.6420394793786
 30
0.0
 10
329.9301710433356
 20
422.8815701588646
 30
0.0
 10
329.9301710433356
 20
422.8815701588646
 30
0.0
 10
330.4421807447052
 20
423.2474888101597
 30
0.0
 10
330.7107866598089
 20
423.818520271323
 30
0.0
 10
330.6933077640006
 20
424.4647516330533
 30
0.0
 10
330.1517058855461
 20
424.1911865893717
 30
0.0
 10
329.5991288864661
 20
423.939165300988
 30
0.0
 10
329.0376904937002
 20
423.7094270682492
 30
0.0
 10
329.0376904937002
 20
423.7094270682492
 30
0.0
 10
325.8942533528461
 20
422.4682552459153
 30
0.0
 10
325.8942533528461
 20
422.4682552459153
 30
0.0
 10
325.3339531207366
 20
422.2390784678664
 30
0.0
 10
324.7825955795051
 20
421.9874636654313
 30
0.0
 10
324.2422131588974
 20
421.7145489992681
 30
0.0
  0
SPLINE
  5
2D8
330
2B7
100
AcDbEntity
  8
APVA4
 62
    18
420
        0
370
     9
100
AcDbSpline
210
0.0
220
0.0
230
1.0
 70
     8
 71
     3
 72
    17
 73
    13
 74
     0
 42
0.0000000001
 43
0.0000000001
 12
1.0
 22
0.0
 32
0.0
 13
1.0
 23
0.0
 33
0.0
 40
0.0
 40
0.0
 40
0.0
 40
0.0
 40
1.0
 40
1.0
 40
1.0
 40
2.0
 40
2.0
 40
2.0
 40
3.0
 40
3.0
 40
3.0
 40
4.0
 40
4.0
 40
4.0
 40
4.0
 10
334.9192169870566
 20
418.2100710385075
 30
0.0
 10
334.9019006856288
 20
418.853700890164
 30
0.0
 10
335.1700188175928
 20
419.4216430581164
 30
0.0
 10
335.6809716554926
 20
419.7846350105774
 30
0.0
 10
335.6809716554926
 20
419.7846350105774
 30
0.0
 10
338.8315629490498
 20
421.0183198658106
 30
0.0
 10
338.8315629490498
 20
421.0183198658106
 30
0.0
 10
339.3443043251245
 20
421.3821247901724
 30
0.0
 10
339.6134793205565
 20
421.9516116047289
 30
0.0
 10
339.5963256135092
 20
422.5970299945602
 30
0.0
 10
339.8897271715014
 20
422.3629753851228
 30
0.0
 10
340.0236236431047
 20
422.0399003528528
 30
0.0
 10
339.9631454771952
 20
421.6830869868154
 30
0.0
  0
SPLINE
  5
2D9
330
2B7
100
AcDbEntity
  8
APVA4
 62
    18
420
        0
370
     9
100
AcDbSpline
210
0.0
220
0.0
230
1.0
 70
     8
 71
     3
 72
    23
 73
    19
 74
     0
 42
0.0000000001
 43
0.0000000001
 12
1.0
 22
0.0
 32
0.0
 13
1.0
 23
0.0
 33
0.0
 40
0.0
 40
0.0
 40
0.0
 40
0.0
 40
1.0
 40
1.0
 40
1.0
 40
2.0
 40
2.0
 40
2.0
 40
3.0
 40
3.0
 40
3.0
 40
4.0
 40
4.0
 40
4.0
 40
5.0
 40
5.0
 40
5.0
 40
6.0
 40
6.0
 40
6.0
 40
6.0
 10
319.7755016596493
 20
434.820387669929
 30
0.0
 10
320.2303594365876
 20
434.3837483588013
 30
0.0
 10
320.8204957373528
 20
434.1916352040062
 30
0.0
 10
321.428842608635
 20
434.2952891210034
 30
0.0
 10
321.428842608635
 20
434.2952891210034
 30
0.0
 10
324.5689465647083
 20
435.5566150207687
 30
0.0
 10
324.5689465647083
 20
435.5566150207687
 30
0.0
 10
325.178675488216
 20
435.6609272428423
 30
0.0
 10
325.7700312468296
 20
435.4684888670236
 30
0.0
 10
326.2258645900456
 20
435.030703499945
 30
0.0
 10
325.6829619565542
 20
434.7581953197314
 30
0.0
 10
325.130059768715
 20
434.5053610594496
 30
0.0
 10
324.5689465647083
 20
434.2730136909977
 30
0.0
 10
324.5689465647083
 20
434.2730136909977
 30
0.0
 10
321.428842608635
 20
433.0136389237869
 30
0.0
 10
321.428842608635
 20
433.0136389237869
 30
0.0
 10
320.868874026226
 20
432.7816980412854
 30
0.0
 10
320.317184835294
 20
432.5294328613318
 30
0.0
 10
319.7755016596493
 20
432.2574937614463
 30
0.0
  0
SPLINE
  5
2DA
330
2B7
100
AcDbEntity
  8
APVA4
 62
    18
420
        0
370
     9
100
AcDbSpline
210
0.0
220
0.0
230
1.0
 70
     8
 71
     3
 72
    11
 73
     7
 74
     0
 42
0.0000000001
 43
0.0000000001
 12
1.0
 22
0.0
 32
0.0
 13
1.0
 23
0.0
 33
0.0
 40
0.0
 40
0.0
 40
0.0
 40
0.0
 40
1.0
 40
1.0
 40
1.0
 40
2.0
 40
2.0
 40
2.0
 40
2.0
 10
344.3927785145897
 20
430.3255473430108
 30
0.0
 10
344.5480561471086
 20
430.6369155799493
 30
0.0
 10
344.2725399708725
 20
431.0570672680979
 30
0.0
 10
344.0319815862531
 20
431.249571202291
 30
0.0
 10
344.1709184836218
 20
431.3202997574181
 30
0.0
 10
344.3069286821592
 20
431.3922477703927
 30
0.0
 10
344.4348091617176
 20
431.4804552213263
 30
0.0
  0
SPLINE
  5
2DB
330
2B7
100
AcDbEntity
  8
APVA4
 62
    18
420
        0
370
     9
100
AcDbSpline
210
0.0
220
0.0
230
1.0
 70
     8
 71
     3
 72
    14
 73
    10
 74
     0
 42
0.0000000001
 43
0.0000000001
 12
1.0
 22
0.0
 32
0.0
 13
1.0
 23
0.0
 33
0.0
 40
0.0
 40
0.0
 40
0.0
 40
0.0
 40
1.0
 40
1.0
 40
1.0
 40
2.0
 40
2.0
 40
2.0
 40
3.0
 40
3.0
 40
3.0
 40
3.0
 10
340.0032180484632
 20
442.0201480959122
 30
0.0
 10
339.9456596380842
 20
441.9236483316181
 30
0.0
 10
339.7035566068571
 20
441.8351156919252
 30
0.0
 10
339.60445533249
 20
441.7901583459652
 30
0.0
 10
339.60445533249
 20
441.7901583459652
 30
0.0
 10
339.5963256135092
 20
441.7860121892845
 30
0.0
 10
339.5963256135092
 20
441.7860121892845
 30
0.0
 10
339.628844489429
 20
442.2140418935887
 30
0.0
 10
339.4591772543135
 20
442.5709365568146
 30
0.0
 10
339.1055344786801
 20
442.7827970334374
 30
0.0
  0
SPLINE
  5
2DC
330
2B7
100
AcDbEntity
  8
APVA4
 62
    18
420
        0
370
     9
100
AcDbSpline
210
0.0
220
0.0
230
1.0
 70
     8
 71
     3
 72
    17
 73
    13
 74
     0
 42
0.0000000001
 43
0.0000000001
 12
1.0
 22
0.0
 32
0.0
 13
1.0
 23
0.0
 33
0.0
 40
0.0
 40
0.0
 40
0.0
 40
0.0
 40
1.0
 40
1.0
 40
1.0
 40
2.0
 40
2.0
 40
2.0
 40
3.0
 40
3.0
 40
3.0
 40
4.0
 40
4.0
 40
4.0
 40
4.0
 10
324.2422131588974
 20
443.4730914720394
 30
0.0
 10
324.6965018555056
 20
443.0357938880989
 30
0.0
 10
325.2862316703231
 20
442.8442577089272
 30
0.0
 10
325.8942533528461
 20
442.949862758479
 30
0.0
 10
325.8942533528461
 20
442.949862758479
 30
0.0
 10
329.0376904937002
 20
444.2233832367147
 30
0.0
 10
329.0376904937002
 20
444.2233832367147
 30
0.0
 10
329.6470942284486
 20
444.3296468103345
 30
0.0
 10
330.2380435011146
 20
444.1378585930443
 30
0.0
 10
330.6933077640006
 20
443.6994228484464
 30
0.0
 10
330.7196547632884
 20
444.0419279090793
 30
0.0
 10
330.5818493167826
 20
444.6120651011543
 30
0.0
 10
330.1943869101906
 20
444.7001912548985
 30
0.0
  0
POLYLINE
  5
2DD
330
2B7
100
AcDbEntity
  8
APVA4
 62
    18
420
        0
370
     9
100
AcDb2dPolyline
 66
     1
 10
0.0
 20
0.0
 30
0.0
  0
VERTEX
  5
2DE
330
2DD
100
AcDbEntity
  8
APVA4
 62
    18
420
        0
370
     9
100
AcDbVertex
100
AcDb2dVertex
 10
339.5963256135092
 20
441.7860121892845
 30
0.0
  0
VERTEX
  5
2DF
330
2DD
100
AcDbEntity
  8
APVA4
 62
    18
420
        0
370
     9
100
AcDbVertex
100
AcDb2dVertex
 10
330.6933077640006
 20
443.6994228484464
 30
0.0
  0
VERTEX
  5
2E0
330
2DD
100
AcDbEntity
  8
APVA4
 62
    18
420
        0
370
     9
100
AcDbVertex
100
AcDb2dVertex
 10
326.2258645900456
 20
435.030703499945
 30
0.0
  0
VERTEX
  5
2E1
330
2DD
100
AcDbEntity
  8
APVA4
 62
    18
420
        0
370
     9
100
AcDbVertex
100
AcDb2dVertex
 10
330.6933077640006
 20
424.4647516330533
 30
0.0
  0
VERTEX
  5
2E2
330
2DD
100
AcDbEntity
  8
APVA4
 62
    18
420
        0
370
     9
100
AcDbVertex
100
AcDb2dVertex
 10
339.5963256135092
 20
422.5970299945602
 30
0.0
  0
VERTEX
  5
2E3
330
2DD
100
AcDbEntity
  8
APVA4
 62
    18
420
        0
370
     9
100
AcDbVertex
100
AcDb2dVertex
 10
344.0319815862531
 20
431.249571202291
 30
0.0
  0
VERTEX
  5
2E4
330
2DD
100
AcDbEntity
  8
APVA4
 62
    18
420
        0
370
     9
100
AcDbVertex
100
AcDb2dVertex
 10
339.5963256135092
 20
441.7860121892845
 30
0.0
  0
SEQEND
  5
2E5
330
2DD
100
AcDbEntity
  8
APVA4
 62
    18
420
        0
370
     9
  0
SPLINE
  5
2E6
330
2B7
100
AcDbEntity
  8
APVA4
 62
    18
420
        0
370
     9
100
AcDbSpline
210
0.0
220
0.0
230
1.0
 70
     8
 71
     3
 72
    29
 73
    25
 74
     0
 42
0.0000000001
 43
0.0000000001
 12
1.0
 22
0.0
 32
0.0
 13
1.0
 23
0.0
 33
0.0
 40
0.0
 40
0.0
 40
0.0
 40
0.0
 40
1.0
 40
1.0
 40
1.0
 40
2.0
 40
2.0
 40
2.0
 40
3.0
 40
3.0
 40
3.0
 40
4.0
 40
4.0
 40
4.0
 40
5.0
 40
5.0
 40
5.0
 40
6.0
 40
6.0
 40
6.0
 40
7.0
 40
7.0
 40
7.0
 40
8.0
 40
8.0
 40
8.0
 40
8.0
 10
329.4645820373444
 20
444.63434053116
 30
0.0
 10
329.2766296078644
 20
444.5494662650071
 30
0.0
 10
329.1326456113875
 20
444.4061393193879
 30
0.0
 10
329.0376904937002
 20
444.2233832367147
 30
0.0
 10
329.0376904937002
 20
444.2233832367147
 30
0.0
 10
324.5689465647083
 20
435.5566150207687
 30
0.0
 10
324.5689465647083
 20
435.5566150207687
 30
0.0
 10
324.3887106949187
 20
435.142405838732
 30
0.0
 10
324.3896049640061
 20
434.6907186521958
 30
0.0
 10
324.5689465647083
 20
434.2730136909977
 30
0.0
 10
324.5689465647083
 20
434.2730136909977
 30
0.0
 10
329.0376904937002
 20
423.7094270682492
 30
0.0
 10
329.0376904937002
 20
423.7094270682492
 30
0.0
 10
329.2005287648717
 20
423.303827762692
 30
0.0
 10
329.5164563238359
 20
423.0083124777648
 30
0.0
 10
329.9301710433356
 20
422.8815701588646
 30
0.0
 10
329.9301710433356
 20
422.8815701588646
 30
0.0
 10
338.8315629490498
 20
421.0183198658106
 30
0.0
 10
338.8315629490498
 20
421.0183198658106
 30
0.0
 10
338.8315629490498
 20
421.0183198658106
 30
0.0
 10
338.8412442295994
 20
421.0163687332561
 30
0.0
 10
338.8412442295994
 20
421.0163687332561
 30
0.0
 10
338.9868405815687
 20
420.9871017449277
 30
0.0
 10
339.1378907602193
 20
420.9986459458787
 30
0.0
 10
339.2765837660208
 20
421.0518956051992
 30
0.0
  0
SPLINE
  5
2E7
330
2B7
100
AcDbEntity
  8
APVA4
 62
    18
420
        0
370
     9
100
AcDbSpline
210
0.0
220
0.0
230
1.0
 70
     8
 71
     3
 72
    38
 73
    34
 74
     0
 42
0.0000000001
 43
0.0000000001
 12
1.0
 22
0.0
 32
0.0
 13
1.0
 23
0.0
 33
0.0
 40
0.0
 40
0.0
 40
0.0
 40
0.0
 40
1.0
 40
1.0
 40
1.0
 40
2.0
 40
2.0
 40
2.0
 40
3.0
 40
3.0
 40
3.0
 40
4.0
 40
4.0
 40
4.0
 40
5.0
 40
5.0
 40
5.0
 40
6.0
 40
6.0
 40
6.0
 40
7.0
 40
7.0
 40
7.0
 40
8.0
 40
8.0
 40
8.0
 40
9.0
 40
9.0
 40
9.0
 40
10.0
 40
10.0
 40
10.0
 40
11.0
 40
11.0
 40
11.0
 40
11.0
 10
327.8983916758261
 20
443.9996533703816
 30
0.0
 10
327.8983916758261
 20
443.9996533703816
 30
0.0
 10
326.3265918082088
 20
443.3626085911001
 30
0.0
 10
326.3265918082088
 20
443.3626085911001
 30
0.0
 10
326.1396082716674
 20
443.2859453411165
 30
0.0
 10
325.9887206873955
 20
443.1350577568464
 30
0.0
 10
325.8974239432482
 20
442.9559600477141
 30
0.0
 10
325.8974239432482
 20
442.9559600477141
 30
0.0
 10
325.8942533528461
 20
442.949862758479
 30
0.0
 10
325.8942533528461
 20
442.949862758479
 30
0.0
 10
325.8942533528461
 20
442.949862758479
 30
0.0
 10
321.428842608635
 20
434.2952891210034
 30
0.0
 10
321.428842608635
 20
434.2952891210034
 30
0.0
 10
321.2488506304162
 20
433.8817303164842
 30
0.0
 10
321.2497448995036
 20
433.4306935074674
 30
0.0
 10
321.428842608635
 20
433.0136389237869
 30
0.0
 10
321.428842608635
 20
433.0136389237869
 30
0.0
 10
325.8942533528461
 20
422.4682552459153
 30
0.0
 10
325.8942533528461
 20
422.4682552459153
 30
0.0
 10
326.0570916240176
 20
422.0634765378945
 30
0.0
 10
326.3729312063952
 20
421.7682864417275
 30
0.0
 10
326.7860835249667
 20
421.6420394793786
 30
0.0
 10
326.7860835249667
 20
421.6420394793786
 30
0.0
 10
335.6809716554926
 20
419.7846350105774
 30
0.0
 10
335.6809716554926
 20
419.7846350105774
 30
0.0
 10
335.8276317858945
 20
419.7548802391102
 30
0.0
 10
335.9760804544712
 20
419.7636603356095
 30
0.0
 10
336.1168871872069
 20
419.8148775651825
 30
0.0
 10
336.1168871872069
 20
419.8148775651825
 30
0.0
 10
336.1255859865159
 20
419.8182920471554
 30
0.0
 10
336.1255859865159
 20
419.8182920471554
 30
0.0
 10
336.1255859865159
 20
419.8182920471554
 30
0.0
 10
337.2857781821695
 20
420.2724994465752
 30
0.0
 10
337.2857781821695
 20
420.2724994465752
 30
0.0
  0
SPLINE
  5
2E8
330
2B7
100
AcDbEntity
  8
APVA4
 62
    18
420
        0
370
    15
100
AcDbSpline
210
0.0
220
0.0
230
1.0
 70
    11
 71
     3
 72
    17
 73
    13
 74
     0
 42
0.0000000001
 43
0.0000000001
 12
1.0
 22
0.0
 32
0.0
 13
1.0
 23
0.0
 33
0.0
 40
0.0
 40
0.0
 40
0.0
 40
0.0
 40
1.0
 40
1.0
 40
1.0
 40
2.0
 40
2.0
 40
2.0
 40
3.0
 40
3.0
 40
3.0
 40
4.0
 40
4.0
 40
4.0
 40
4.0
 10
341.4277074081601
 20
435.4736918871713
 30
0.0
 10
343.0409688425752
 20
431.1023419915609
 30
0.0
 10
341.6563151058817
 20
426.5649019371867
 30
0.0
 10
338.3349997137429
 20
425.3391029093655
 30
0.0
 10
335.0136030244157
 20
424.1133038815424
 30
0.0
 10
331.0132122058676
 20
426.6632715368469
 30
0.0
 10
329.3998694742641
 20
431.0346214324572
 30
0.0
 10
327.7866080398489
 20
435.4059713280667
 30
0.0
 10
329.1712617765425
 20
439.9434113824409
 30
0.0
 10
332.4925771686794
 20
441.1692104102631
 30
0.0
 10
335.8139738580085
 20
442.3950094380862
 30
0.0
 10
339.8143716161012
 20
439.8450417827817
 30
0.0
 10
341.4277074081601
 20
435.4736918871713
 30
0.0
  0
SPLINE
  5
2E9
330
2B7
100
AcDbEntity
  8
APVA4
 62
    18
420
        0
370
     9
100
AcDbSpline
210
0.0
220
0.0
230
1.0
 70
    11
 71
     3
 72
    17
 73
    13
 74
     0
 42
0.0000000001
 43
0.0000000001
 12
1.0
 22
0.0
 32
0.0
 13
1.0
 23
0.0
 33
0.0
 40
0.0
 40
0.0
 40
0.0
 40
0.0
 40
1.0
 40
1.0
 40
1.0
 40
2.0
 40
2.0
 40
2.0
 40
3.0
 40
3.0
 40
3.0
 40
4.0
 40
4.0
 40
4.0
 40
4.0
 10
337.3608967855453
 20
433.9727831690616
 30
0.0
 10
337.9029864471395
 20
432.503986840924
 30
0.0
 10
337.4704853973963
 20
430.9914526246721
 30
0.0
 10
336.3947609819479
 20
430.5943971496836
 30
0.0
 10
335.319117863688
 20
430.1974229718844
 30
0.0
 10
334.0076315978149
 20
431.0663273364789
 30
0.0
 10
333.4655419362207
 20
432.5351236646165
 30
0.0
 10
332.9234522746265
 20
434.003919992756
 30
0.0
 10
333.35603462156
 20
435.516454209007
 30
0.0
 10
334.4316845433859
 20
435.9134283868061
 30
0.0
 10
335.5074021552682
 20
436.3104918057634
 30
0.0
 10
336.818807123951
 20
435.4415794972001
 30
0.0
 10
337.3608967855453
 20
433.9727831690616
 30
0.0
  0
MTEXT
  5
2EA
330
2B7
100
AcDbEntity
  8
APVA4
 62
    18
420
        0
100
AcDbMText
 10
333.6291806660593
 20
437.5946479162667
 30
0.0
 40
1.458425179536033
 41
0.0
 46
0.0
 71
     7
 72
     1
  1
\fHelvetica Neue LT Std 57 Condensed|b0|i0|c0|p34;\W0.832371;WS22
 11
0.9751990169949105
 21
-0.2213297929610024
 31
0.0
 73
     1
 44
1.0
  0
MTEXT
  5
2EB
330
2B7
100
AcDbEntity
  8
APVA4
 62
    18
420
        0
100
AcDbMText
 10
334.4310540524311
 20
427.8242769576318
 30
0.0
 40
1.68161023995494
 41
0.0
 46
0.0
 71
     7
 72
     1
  1
\fHelvetica Neue LT Std 57 Condensed|b0|i0|c0|p34;\W0.832371;3.5
 11
0.9751990169949105
 21
-0.2213297929610024
 31
0.0
 73
     1
 44
1.0
  0
INSERT
  5
2ED
330
2B7
100
AcDbEntity
  8
APVA4
100
AcDbBlockReference
  2
block 30
 10
0.0
 20
0.0
 30
0.0
  0
ENDBLK
  5
2BA
330
2B7
100
AcDbEntity
  8
0
100
AcDbBlockEnd
  0
BLOCK
  5
2EE
330
2EC
100
AcDbEntity
  8
0
100
AcDbBlockBegin
  2
block 30
 70
     0
 10
0.0
 20
0.0
 30
0.0
  3
block 30
  1

  0
INSERT
  5
2F1
330
2EC
100
AcDbEntity
  8
APVA4
100
AcDbBlockReference
  2
block 31
 10
0.0
 20
0.0
 30
0.0
  0
INSERT
  5
303
330
2EC
100
AcDbEntity
  8
APVA4
100
AcDbBlockReference
  2
block 32
 10
0.0
 20
0.0
 30
0.0
  0
ENDBLK
  5
2EF
330
2EC
100
AcDbEntity
  8
0
100
AcDbBlockEnd
  0
BLOCK
  5
2F2
330
2F0
100
AcDbEntity
  8
0
100
AcDbBlockBegin
  2
block 31
 70
     0
 10
0.0
 20
0.0
 30
0.0
  3
block 31
  1

  0
POLYLINE
  5
2F4
330
2F0
100
AcDbEntity
  8
APVA4
370
     0
100
AcDb2dPolyline
 66
     1
 10
0.0
 20
0.0
 30
0.0
  0
VERTEX
  5
2F5
330
2F4
100
AcDbEntity
  8
APVA4
370
     0
100
AcDbVertex
100
AcDb2dVertex
 10
340.8300917659326
 20
432.2239180220586
 30
0.0
  0
VERTEX
  5
2F6
330
2F4
100
AcDbEntity
  8
APVA4
370
     0
100
AcDbVertex
100
AcDb2dVertex
 10
338.6688941828652
 20
432.7510490007298
 30
0.0
  0
VERTEX
  5
2F7
330
2F4
100
AcDbEntity
  8
APVA4
370
     0
100
AcDbVertex
100
AcDb2dVertex
 10
338.6688941828652
 20
433.0751808964669
 30
0.0
  0
VERTEX
  5
2F8
330
2F4
100
AcDbEntity
  8
APVA4
370
     0
100
AcDbVertex
100
AcDb2dVertex
 10
340.8300917659326
 20
432.5481312149859
 30
0.0
  0
VERTEX
  5
2F9
330
2F4
100
AcDbEntity
  8
APVA4
370
     0
100
AcDbVertex
100
AcDb2dVertex
 10
340.8300917659326
 20
432.2239180220586
 30
0.0
  0
SEQEND
  5
2FA
330
2F4
100
AcDbEntity
  8
APVA4
370
     0
  0
POLYLINE
  5
2FB
330
2F0
100
AcDbEntity
  8
APVA4
370
     0
100
AcDb2dPolyline
 66
     1
 10
0.0
 20
0.0
 30
0.0
  0
VERTEX
  5
2FC
330
2FB
100
AcDbEntity
  8
APVA4
370
     0
100
AcDbVertex
100
AcDb2dVertex
 10
340.8300917659326
 20
431.5612646279887
 30
0.0
  0
VERTEX
  5
2FD
330
2FB
100
AcDbEntity
  8
APVA4
370
     0
100
AcDbVertex
100
AcDb2dVertex
 10
338.6688941828652
 20
432.08839560666
 30
0.0
  0
VERTEX
  5
2FE
330
2FB
100
AcDbEntity
  8
APVA4
370
     0
100
AcDbVertex
100
AcDb2dVertex
 10
338.6688941828652
 20
432.4125275023971
 30
0.0
  0
VERTEX
  5
2FF
330
2FB
100
AcDbEntity
  8
APVA4
370
     0
100
AcDbVertex
100
AcDb2dVertex
 10
340.8300917659326
 20
431.8853965237267
 30
0.0
  0
VERTEX
  5
300
330
2FB
100
AcDbEntity
  8
APVA4
370
     0
100
AcDbVertex
100
AcDb2dVertex
 10
340.8300917659326
 20
431.5612646279887
 30
0.0
  0
SEQEND
  5
301
330
2FB
100
AcDbEntity
  8
APVA4
370
     0
  0
ENDBLK
  5
2F3
330
2F0
100
AcDbEntity
  8
0
100
AcDbBlockEnd
  0
BLOCK
  5
304
330
302
100
AcDbEntity
  8
0
100
AcDbBlockBegin
  2
block 32
 70
     0
 10
0.0
 20
0.0
 30
0.0
  3
block 32
  1

  0
POLYLINE
  5
306
330
302
100
AcDbEntity
  8
APVA4
370
     0
100
AcDb2dPolyline
 66
     1
 10
0.0
 20
0.0
 30
0.0
  0
VERTEX
  5
307
330
306
100
AcDbEntity
  8
APVA4
370
     0
100
AcDbVertex
100
AcDb2dVertex
 10
339.1012257276197
 20
431.2412788889305
 30
0.0
  0
VERTEX
  5
308
330
306
100
AcDbEntity
  8
APVA4
370
     0
100
AcDbVertex
100
AcDb2dVertex
 10
339.0039942886178
 20
431.3508675007834
 30
0.0
  0
VERTEX
  5
309
330
306
100
AcDbEntity
  8
APVA4
370
     0
100
AcDbVertex
100
AcDb2dVertex
 10
340.491577224253
 20
433.372240828
 30
0.0
  0
VERTEX
  5
30A
330
306
100
AcDbEntity
  8
APVA4
370
     0
100
AcDbVertex
100
AcDb2dVertex
 10
340.5888017066027
 20
433.2626600831227
 30
0.0
  0
VERTEX
  5
30B
330
306
100
AcDbEntity
  8
APVA4
370
     0
100
AcDbVertex
100
AcDb2dVertex
 10
339.1012257276197
 20
431.2412788889305
 30
0.0
  0
SEQEND
  5
30C
330
306
100
AcDbEntity
  8
APVA4
370
     0
  0
ENDBLK
  5
305
330
302
100
AcDbEntity
  8
0
100
AcDbBlockEnd
  0
ENDSEC
  0
SECTION
  2
ENTITIES
  0
INSERT
  5
42
330
1F
100
AcDbEntity
  8
Woods
100
AcDbBlockReference
  2
block 2
 10
0.0
 20
0.0
 30
0.0
  0
INSERT
  5
141
330
1F
100
AcDbEntity
  8
Woods
100
AcDbBlockReference
  2
block 11
 10
0.0
 20
0.0
 30
0.0
  0
INSERT
  5
1D5
330
1F
100
AcDbEntity
  8
APVA4
100
AcDbBlockReference
  2
block 12
 10
0.0
 20
0.0
 30
0.0
  0
INSERT
  5
1EE
330
1F
100
AcDbEntity
  8
APVA4
100
AcDbBlockReference
  2
block 13
 10
0.0
 20
0.0
 30
0.0
  0
INSERT
  5
242
330
1F
100
AcDbEntity
  8
APVA4
100
AcDbBlockReference
  2
block 19
 10
0.0
 20
0.0
 30
0.0
  0
INSERT
  5
2AD
330
1F
100
AcDbEntity
  8
APVA4
100
AcDbBlockReference
  2
block 27
 10
0.0
 20
0.0
 30
0.0
  0
MTEXT
  5
30E
330
1F
100
AcDbEntity
  8
Layer 3
 62
   250
420
  2236191
100
AcDbMText
 10
241.4075126647949
 20
256.6157073974609
 30
0.0
 40
8.495999999999999
 41
0.0
 46
0.0
 71
     7
 72
     1
  1
\fHelvetica Neue LT Std 55 Roman|b0|i0|c0|p34;\W1;SIMPSON Strong-Tie\H4.248;®\H8.496; ^C
 73
     1
 44
1.0
  0
MTEXT
  5
30F
330
1F
100
AcDbEntity
  8
Layer 3
 62
   250
420
  2236191
100
AcDbMText
 10
216.3577079772949
 20
242.2162933349609
 30
0.0
 40
8.495999999999999
 41
0.0
 46
0.0
 71
     7
 72
     1
  1
\fHelvetica Neue LT Std 55 Roman|b0|i0|c0|p34;\W1;APA4 Post-to-Beam Installation 
 73
     1
 44
1.0
  0
POLYLINE
  5
310
330
1F
100
AcDbEntity
  8
Layer 3
 62
   250
420
  2236191
370
    18
100
AcDb2dPolyline
 66
     1
 10
0.0
 20
0.0
 30
0.0
  0
VERTEX
  5
311
330
310
100
AcDbEntity
  8
Layer 3
 62
   250
420
  2236191
370
    18
100
AcDbVertex
100
AcDb2dVertex
 10
388.1615595597559
 20
427.8258993092459
 30
0.0
  0
VERTEX
  5
312
330
310
100
AcDbEntity
  8
Layer 3
 62
   250
420
  2236191
370
    18
100
AcDbVertex
100
AcDb2dVertex
 10
353.9955880307589
 20
444.6055740556849
 30
0.0
  0
SEQEND
  5
313
330
310
100
AcDbEntity
  8
Layer 3
 62
   250
420
  2236191
370
    18
  0
POLYLINE
  5
314
330
1F
100
AcDbEntity
  8
Layer 3
 62
   250
420
  2236191
370
    18
100
AcDb2dPolyline
 66
     1
 10
0.0
 20
0.0
 30
0.0
  0
VERTEX
  5
315
330
314
100
AcDbEntity
  8
Layer 3
 62
   250
420
  2236191
370
    18
100
AcDbVertex
100
AcDb2dVertex
 10
202.7026573638959
 20
392.8292337824168
 30
0.0
  0
VERTEX
  5
316
330
314
100
AcDbEntity
  8
Layer 3
 62
   250
420
  2236191
370
    18
100
AcDbVertex
100
AcDb2dVertex
 10
223.9652488076026
 20
412.8073569271328
 30
0.0
  0
SEQEND
  5
317
330
314
100
AcDbEntity
  8
Layer 3
 62
   250
420
  2236191
370
    18
  0
MTEXT
  5
318
330
1F
100
AcDbEntity
  8
Layer 3
 62
   250
420
  2236191
100
AcDbMText
 10
393.6439208984375
 20
421.0008316040039
 30
0.0
 40
8.495999999999999
 41
0.0
 46
0.0
 71
     7
 72
     1
  1
\fHelvetica Neue LT Std 57 Condensed|b0|i0|c0|p34;\W1;APA4
 73
     1
 44
1.0
  0
MTEXT
  5
319
330
1F
100
AcDbEntity
  8
Layer 3
 62
   250
420
  2236191
100
AcDbMText
 10
184.5332145690918
 20
378.3505220413208
 30
0.0
 40
8.495999999999999
 41
0.0
 46
0.0
 71
     7
 72
     1
  1
\fHelvetica Neue LT Std 57 Condensed|b0|i0|c0|p34;\W1;Beam
 73
     1
 44
1.0
  0
MTEXT
  5
31A
330
1F
100
AcDbEntity
  8
Layer 3
 62
   250
420
  2236191
100
AcDbMText
 10
394.2590789794922
 20
335.0640830993652
 30
0.0
 40
8.495999999999999
 41
0.0
 46
0.0
 71
     7
 72
     1
  1
\fHelvetica Neue LT Std 57 Condensed|b0|i0|c0|p34;\W1;Post
 73
     1
 44
1.0
  0
POLYLINE
  5
31B
330
1F
100
AcDbEntity
  8
Layer 3
 62
   250
420
  2236191
370
    18
100
AcDb2dPolyline
 66
     1
 10
0.0
 20
0.0
 30
0.0
  0
VERTEX
  5
31C
330
31B
100
AcDbEntity
  8
Layer 3
 62
   250
420
  2236191
370
    18
100
AcDbVertex
100
AcDb2dVertex
 10
389.3544316814787
 20
342.6230044531549
 30
0.0
  0
VERTEX
  5
31D
330
31B
100
AcDbEntity
  8
Layer 3
 62
   250
420
  2236191
370
    18
100
AcDbVertex
100
AcDb2dVertex
 10
355.5998860248801
 20
349.7890771863222
 30
0.0
  0
SEQEND
  5
31E
330
31B
100
AcDbEntity
  8
Layer 3
 62
   250
420
  2236191
370
    18
  0
ENDSEC
  0
SECTION
  2
OBJECTS
  0
DICTIONARY
  5
C
330
0
100
AcDbDictionary
281
     1
  3
ACAD_GROUP
350
D
  3
ACAD_LAYOUT
350
1A
  3
ACAD_MATERIAL
350
3B
  3
ACAD_MLEADERSTYLE
350
320
  3
ACAD_MLINESTYLE
350
17
  3
ACAD_PLOTSETTINGS
350
19
  3
ACAD_PLOTSTYLENAME
350
E
  3
ACAD_TABLESTYLE
350
31F
  3
ACAD_VISUALSTYLE
350
2A
  0
SUN
  5
3F
330
29
100
AcDbSun
 90
        1
290
     0
 63
     7
421
 16777215
 40
1.0
291
     1
 91
  2455826
 92
 54000000
292
     0
 70
     2
 71
   256
280
     1
  0
DICTIONARY
  5
D
102
{ACAD_REACTORS
330
C
102
}
330
C
100
AcDbDictionary
281
     1
  0
DICTIONARY
  5
1A
102
{ACAD_REACTORS
330
C
102
}
330
C
100
AcDbDictionary
281
     1
  3
Layout1
350
1E
  3
Layout2
350
26
  3
Model
350
22
  0
DICTIONARY
  5
3B
102
{ACAD_REACTORS
330
C
102
}
330
C
100
AcDbDictionary
281
     1
  3
ByBlock
350
3D
  3
ByLayer
350
3C
  3
Global
350
3E
  0
DICTIONARY
  5
320
102
{ACAD_REACTORS
330
C
102
}
330
C
100
AcDbDictionary
281
     1
  0
DICTIONARY
  5
17
102
{ACAD_REACTORS
330
C
102
}
330
C
100
AcDbDictionary
281
     1
  3
Standard
350
18
  0
DICTIONARY
  5
19
102
{ACAD_REACTORS
330
C
102
}
330
C
100
AcDbDictionary
281
     1
  0
ACDBDICTIONARYWDFLT
  5
E
102
{ACAD_REACTORS
330
C
102
}
330
C
100
AcDbDictionary
281
     1
  3
Normal
350
F
100
AcDbDictionaryWithDefault
340
F
  0
DICTIONARY
  5
31F
102
{ACAD_REACTORS
330
C
102
}
330
C
100
AcDbDictionary
281
     1
  0
DICTIONARY
  5
2A
102
{ACAD_REACTORS
330
C
102
}
330
C
100
AcDbDictionary
281
     1
  3
2dWireframe
350
2F
  3
3D Hidden
350
31
  3
3dWireframe
350
30
  3
Basic
350
32
  3
Brighten
350
36
  3
ColorChange
350
3A
  3
Conceptual
350
34
  3
Dim
350
35
  3
Facepattern
350
39
  3
Flat
350
2B
  3
FlatWithEdges
350
2C
  3
Gouraud
350
2D
  3
GouraudWithEdges
350
2E
  3
Linepattern
350
38
  3
Realistic
350
33
  3
Thicken
350
37
  0
LAYOUT
  5
1E
102
{ACAD_REACTORS
330
1A
102
}
330
1A
100
AcDbPlotSettings
  1

  2
none_device
  4

  6

 40
0.0
 41
0.0
 42
0.0
 43
0.0
 44
0.0
 45
0.0
 46
0.0
 47
0.0
 48
0.0
 49
0.0
140
0.0
141
0.0
142
1.0
143
1.0
 70
   688
 72
     0
 73
     0
 74
     5
  7

 75
    16
 76
     0
 77
     2
 78
   300
147
1.0
148
0.0
149
0.0
100
AcDbLayout
  1
Layout1
 70
     1
 71
     1
 10
0.0
 20
0.0
 11
12.0
 21
9.0
 12
0.0
 22
0.0
 32
0.0
 14
1.000000000000000E+20
 24
1.000000000000000E+20
 34
1.000000000000000E+20
 15
-1.000000000000000E+20
 25
-1.000000000000000E+20
 35
-1.000000000000000E+20
146
0.0
 13
0.0
 23
0.0
 33
0.0
 16
1.0
 26
0.0
 36
0.0
 17
0.0
 27
1.0
 37
0.0
 76
     0
330
1B
  0
LAYOUT
  5
26
102
{ACAD_REACTORS
330
1A
102
}
330
1A
100
AcDbPlotSettings
  1

  2
none_device
  4

  6

 40
0.0
 41
0.0
 42
0.0
 43
0.0
 44
0.0
 45
0.0
 46
0.0
 47
0.0
 48
0.0
 49
0.0
140
0.0
141
0.0
142
1.0
143
1.0
 70
   688
 72
     0
 73
     0
 74
     5
  7

 75
    16
 76
     0
 77
     2
 78
   300
147
1.0
148
0.0
149
0.0
100
AcDbLayout
  1
Layout2
 70
     1
 71
     2
 10
0.0
 20
0.0
 11
0.0
 21
0.0
 12
0.0
 22
0.0
 32
0.0
 14
0.0
 24
0.0
 34
0.0
 15
0.0
 25
0.0
 35
0.0
146
0.0
 13
0.0
 23
0.0
 33
0.0
 16
1.0
 26
0.0
 36
0.0
 17
0.0
 27
1.0
 37
0.0
 76
     0
330
23
  0
LAYOUT
  5
22
102
{ACAD_REACTORS
330
1A
102
}
330
1A
100
AcDbPlotSettings
  1

  2
none_device
  4

  6

 40
0.0
 41
0.0
 42
0.0
 43
0.0
 44
0.0
 45
0.0
 46
0.0
 47
0.0
 48
0.0
 49
0.0
140
0.0
141
0.0
142
1.0
143
1.0
 70
  1712
 72
     0
 73
     0
 74
     0
  7

 75
     0
 76
     0
 77
     2
 78
   300
147
1.0
148
0.0
149
0.0
100
AcDbLayout
  1
Model
 70
     1
 71
     0
 10
0.0
 20
0.0
 11
12.0
 21
9.0
 12
0.0
 22
0.0
 32
0.0
 14
1.000000000000000E+20
 24
1.000000000000000E+20
 34
1.000000000000000E+20
 15
-1.000000000000000E+20
 25
-1.000000000000000E+20
 35
-1.000000000000000E+20
146
0.0
 13
0.0
 23
0.0
 33
0.0
 16
1.0
 26
0.0
 36
0.0
 17
0.0
 27
1.0
 37
0.0
 76
     0
330
1F
331
29
  0
MATERIAL
  5
3D
102
{ACAD_REACTORS
330
3B
102
}
330
3B
100
AcDbMaterial
  1
ByBlock
 72
     1
 94
      127
  0
MATERIAL
  5
3C
102
{ACAD_REACTORS
330
3B
102
}
330
3B
100
AcDbMaterial
  1
ByLayer
 72
     1
 94
      127
  0
MATERIAL
  5
3E
102
{ACAD_REACTORS
330
3B
102
}
330
3B
100
AcDbMaterial
  1
Global
 72
     1
 94
      127
  0
MLINESTYLE
  5
18
102
{ACAD_REACTORS
330
17
102
}
330
17
100
AcDbMlineStyle
  2
Standard
 70
     0
  3

 62
   256
 51
90.0
 52
90.0
 71
     2
 49
0.5
 62
   256
  6
BYLAYER
 49
-0.5
 62
   256
  6
BYLAYER
  0
ACDBPLACEHOLDER
  5
F
102
{ACAD_REACTORS
330
E
102
}
330
E
  0
VISUALSTYLE
  5
2F
102
{ACAD_REACTORS
330
2A
102
}
330
2A
100
AcDbVisualStyle
  2
2dWireframe
 70
     4
177
     2
291
     0
 71
     0
176
     1
 72
     2
176
     1
 73
     0
176
     1
 90
        0
176
     1
 40
-0.6
176
     1
 41
-30.0
176
     1
 62
     5
 63
     7
421
 16777215
176
     1
 74
     1
176
     1
 91
        4
176
     1
 64
     7
176
     1
 65
   257
176
     1
 75
     1
176
     1
175
     1
176
     1
 42
1.0
176
     1
 92
        0
176
     1
 66
   257
176
     1
 43
1.0
176
     1
 76
     1
176
     1
 77
     6
176
     1
 78
     2
176
     1
 67
     7
176
     1
 79
     5
176
     1
170
     0
176
     1
171
     0
176
     1
290
     0
176
     1
 93
        1
176
     1
 44
0.0
176
     1
173
     0
176
     1
  0
VISUALSTYLE
  5
31
102
{ACAD_REACTORS
330
2A
102
}
330
2A
100
AcDbVisualStyle
  2
3D Hidden
 70
     6
177
     2
291
     0
 71
     1
176
     1
 72
     2
176
     1
 73
     2
176
     1
 90
        0
176
     1
 40
-0.6
176
     1
 41
-30.0
176
     1
 62
     5
 63
     7
421
 16777215
176
     1
 74
     2
176
     1
 91
        2
176
     1
 64
     7
176
     1
 65
   257
176
     1
 75
     2
176
     1
175
     1
176
     1
 42
40.0
176
     1
 92
        0
176
     1
 66
   257
176
     1
 43
1.0
176
     1
 76
     1
176
     1
 77
     6
176
     1
 78
     2
176
     1
 67
     7
176
     1
 79
     3
176
     1
170
     0
176
     1
171
     0
176
     1
290
     0
176
     1
 93
        1
176
     1
 44
0.0
176
     1
173
     0
176
     1
  0
VISUALSTYLE
  5
30
102
{ACAD_REACTORS
330
2A
102
}
330
2A
100
AcDbVisualStyle
  2
3dWireframe
 70
     5
177
     2
291
     0
 71
     0
176
     1
 72
     2
176
     1
 73
     0
176
     1
 90
        0
176
     1
 40
-0.6
176
     1
 41
-30.0
176
     1
 62
     5
 63
     7
421
 16777215
176
     1
 74
     1
176
     1
 91
        4
176
     1
 64
     7
176
     1
 65
   257
176
     1
 75
     1
176
     1
175
     1
176
     1
 42
1.0
176
     1
 92
        0
176
     1
 66
   257
176
     1
 43
1.0
176
     1
 76
     1
176
     1
 77
     6
176
     1
 78
     2
176
     1
 67
     7
176
     1
 79
     5
176
     1
170
     0
176
     1
171
     0
176
     1
290
     0
176
     1
 93
        1
176
     1
 44
0.0
176
     1
173
     0
176
     1
  0
VISUALSTYLE
  5
32
102
{ACAD_REACTORS
330
2A
102
}
330
2A
100
AcDbVisualStyle
  2
Basic
 70
     7
177
     2
291
     1
 71
     1
176
     1
 72
     0
176
     1
 73
     1
176
     1
 90
        0
176
     1
 40
-0.6
176
     1
 41
-30.0
176
     1
 62
     5
 63
     7
421
 16777215
176
     1
 74
     0
176
     1
 91
        4
176
     1
 64
     7
176
     1
 65
   257
176
     1
 75
     1
176
     1
175
     1
176
     1
 42
1.0
176
     1
 92
        8
176
     1
 66
     7
176
     1
 43
1.0
176
     1
 76
     1
176
     1
 77
     6
176
     1
 78
     2
176
     1
 67
     7
176
     1
 79
     5
176
     1
170
     0
176
     1
171
     0
176
     1
290
     0
176
     1
 93
        1
176
     1
 44
0.0
176
     1
173
     0
176
     1
  0
VISUALSTYLE
  5
36
102
{ACAD_REACTORS
330
2A
102
}
330
2A
100
AcDbVisualStyle
  2
Brighten
 70
    12
177
     2
291
     1
 71
     2
176
     1
 72
     2
176
     1
 73
     0
176
     1
 90
        0
176
     1
 40
-0.6
176
     1
 41
-30.0
176
     1
 62
     5
 63
     7
421
 16777215
176
     1
 74
     1
176
     1
 91
        4
176
     1
 64
     7
176
     1
 65
   257
176
     1
 75
     1
176
     1
175
     1
176
     1
 42
1.0
176
     1
 92
        8
176
     1
 66
     7
176
     1
 43
1.0
176
     1
 76
     1
176
     1
 77
     6
176
     1
 78
     2
176
     1
 67
     7
176
     1
 79
     5
176
     1
170
     0
176
     1
171
     0
176
     1
290
     0
176
     1
 93
        1
176
     1
 44
50.0
176
     1
173
     0
176
     1
  0
VISUALSTYLE
  5
3A
102
{ACAD_REACTORS
330
2A
102
}
330
2A
100
AcDbVisualStyle
  2
ColorChange
 70
    16
177
     2
291
     1
 71
     2
176
     1
 72
     2
176
     1
 73
     3
176
     1
 90
        0
176
     1
 40
-0.6
176
     1
 41
-30.0
176
     1
 62
     5
 63
     8
421
  8421504
176
     1
 74
     1
176
     1
 91
        4
176
     1
 64
     7
176
     1
 65
   257
176
     1
 75
     1
176
     1
175
     1
176
     1
 42
1.0
176
     1
 92
        8
176
     1
 66
     8
424
  8421504
176
     1
 43
1.0
176
     1
 76
     1
176
     1
 77
     6
176
     1
 78
     2
176
     1
 67
     7
176
     1
 79
     5
176
     1
170
     0
176
     1
171
     0
176
     1
290
     0
176
     1
 93
        1
176
     1
 44
0.0
176
     1
173
     0
176
     1
  0
VISUALSTYLE
  5
34
102
{ACAD_REACTORS
330
2A
102
}
330
2A
100
AcDbVisualStyle
  2
Conceptual
 70
     9
177
     2
291
     0
 71
     3
176
     1
 72
     2
176
     1
 73
     0
176
     1
 90
        0
176
     1
 40
-0.6
176
     1
 41
-30.0
176
     1
 62
     5
 63
     7
421
 16777215
176
     1
 74
     2
176
     1
 91
        2
176
     1
 64
     7
176
     1
 65
   257
176
     1
 75
     1
176
     1
175
     1
176
     1
 42
40.0
176
     1
 92
        8
176
     1
 66
     7
176
     1
 43
1.0
176
     1
 76
     1
176
     1
 77
     6
176
     1
 78
     2
176
     1
 67
     7
176
     1
 79
     3
176
     1
170
     0
176
     1
171
     0
176
     1
290
     0
176
     1
 93
        1
176
     1
 44
0.0
176
     1
173
     0
176
     1
  0
VISUALSTYLE
  5
35
102
{ACAD_REACTORS
330
2A
102
}
330
2A
100
AcDbVisualStyle
  2
Dim
 70
    11
177
     2
291
     1
 71
     2
176
     1
 72
     2
176
     1
 73
     0
176
     1
 90
        0
176
     1
 40
-0.6
176
     1
 41
-30.0
176
     1
 62
     5
 63
     7
421
 16777215
176
     1
 74
     1
176
     1
 91
        4
176
     1
 64
     7
176
     1
 65
   257
176
     1
 75
     1
176
     1
175
     1
176
     1
 42
1.0
176
     1
 92
        8
176
     1
 66
     7
176
     1
 43
1.0
176
     1
 76
     1
176
     1
 77
     6
176
     1
 78
     2
176
     1
 67
     7
176
     1
 79
     5
176
     1
170
     0
176
     1
171
     0
176
     1
290
     0
176
     1
 93
        1
176
     1
 44
-50.0
176
     1
173
     0
176
     1
  0
VISUALSTYLE
  5
39
102
{ACAD_REACTORS
330
2A
102
}
330
2A
100
AcDbVisualStyle
  2
Facepattern
 70
    15
177
     2
291
     1
 71
     2
176
     1
 72
     2
176
     1
 73
     0
176
     1
 90
        0
176
     1
 40
-0.6
176
     1
 41
-30.0
176
     1
 62
     5
 63
     7
421
 16777215
176
     1
 74
     1
176
     1
 91
        4
176
     1
 64
     7
176
     1
 65
   257
176
     1
 75
     1
176
     1
175
     1
176
     1
 42
1.0
176
     1
 92
        8
176
     1
 66
     7
176
     1
 43
1.0
176
     1
 76
     1
176
     1
 77
     6
176
     1
 78
     2
176
     1
 67
     7
176
     1
 79
     5
176
     1
170
     0
176
     1
171
     0
176
     1
290
     0
176
     1
 93
        1
176
     1
 44
0.0
176
     1
173
     0
176
     1
  0
VISUALSTYLE
  5
2B
102
{ACAD_REACTORS
330
2A
102
}
330
2A
100
AcDbVisualStyle
  2
Flat
 70
     0
177
     2
291
     1
 71
     2
176
     1
 72
     1
176
     1
 73
     1
176
     1
 90
        2
176
     1
 40
-0.6
176
     1
 41
30.0
176
     1
 62
     5
 63
     7
421
 16777215
176
     1
 74
     0
176
     1
 91
        4
176
     1
 64
     7
176
     1
 65
   257
176
     1
 75
     1
176
     1
175
     1
176
     1
 42
1.0
176
     1
 92
        8
176
     1
 66
     7
176
     1
 43
1.0
176
     1
 76
     1
176
     1
 77
     6
176
     1
 78
     2
176
     1
 67
     7
176
     1
 79
     5
176
     1
170
     0
176
     1
171
     0
176
     1
290
     0
176
     1
 93
       13
176
     1
 44
0.0
176
     1
173
     0
176
     1
  0
VISUALSTYLE
  5
2C
102
{ACAD_REACTORS
330
2A
102
}
330
2A
100
AcDbVisualStyle
  2
FlatWithEdges
 70
     1
177
     2
291
     1
 71
     2
176
     1
 72
     1
176
     1
 73
     1
176
     1
 90
        2
176
     1
 40
-0.6
176
     1
 41
30.0
176
     1
 62
     5
 63
     7
421
 16777215
176
     1
 74
     1
176
     1
 91
        4
176
     1
 64
     7
176
     1
 65
   257
176
     1
 75
     1
176
     1
175
     1
176
     1
 42
1.0
176
     1
 92
        0
176
     1
 66
   257
176
     1
 43
1.0
176
     1
 76
     1
176
     1
 77
     6
176
     1
 78
     2
176
     1
 67
     7
176
     1
 79
     5
176
     1
170
     0
176
     1
171
     0
176
     1
290
     0
176
     1
 93
       13
176
     1
 44
0.0
176
     1
173
     0
176
     1
  0
VISUALSTYLE
  5
2D
102
{ACAD_REACTORS
330
2A
102
}
330
2A
100
AcDbVisualStyle
  2
Gouraud
 70
     2
177
     2
291
     1
 71
     2
176
     1
 72
     2
176
     1
 73
     1
176
     1
 90
        2
176
     1
 40
-0.6
176
     1
 41
30.0
176
     1
 62
     5
 63
     7
421
 16777215
176
     1
 74
     0
176
     1
 91
        4
176
     1
 64
     7
176
     1
 65
   257
176
     1
 75
     1
176
     1
175
     1
176
     1
 42
1.0
176
     1
 92
        0
176
     1
 66
     7
176
     1
 43
1.0
176
     1
 76
     1
176
     1
 77
     6
176
     1
 78
     2
176
     1
 67
     7
176
     1
 79
     5
176
     1
170
     0
176
     1
171
     0
176
     1
290
     0
176
     1
 93
       13
176
     1
 44
0.0
176
     1
173
     0
176
     1
  0
VISUALSTYLE
  5
2E
102
{ACAD_REACTORS
330
2A
102
}
330
2A
100
AcDbVisualStyle
  2
GouraudWithEdges
 70
     3
177
     2
291
     1
 71
     2
176
     1
 72
     2
176
     1
 73
     1
176
     1
 90
        2
176
     1
 40
-0.6
176
     1
 41
30.0
176
     1
 62
     5
 63
     7
421
 16777215
176
     1
 74
     1
176
     1
 91
        4
176
     1
 64
     7
176
     1
 65
   257
176
     1
 75
     1
176
     1
175
     1
176
     1
 42
1.0
176
     1
 92
        0
176
     1
 66
   257
176
     1
 43
1.0
176
     1
 76
     1
176
     1
 77
     6
176
     1
 78
     2
176
     1
 67
     7
176
     1
 79
     5
176
     1
170
     0
176
     1
171
     0
176
     1
290
     0
176
     1
 93
       13
176
     1
 44
0.0
176
     1
173
     0
176
     1
  0
VISUALSTYLE
  5
38
102
{ACAD_REACTORS
330
2A
102
}
330
2A
100
AcDbVisualStyle
  2
Linepattern
 70
    14
177
     2
291
     1
 71
     2
176
     1
 72
     2
176
     1
 73
     0
176
     1
 90
        0
176
     1
 40
-0.6
176
     1
 41
-30.0
176
     1
 62
     5
 63
     7
421
 16777215
176
     1
 74
     1
176
     1
 91
        4
176
     1
 64
     7
176
     1
 65
   257
176
     1
 75
     7
176
     1
175
     7
176
     1
 42
1.0
176
     1
 92
        8
176
     1
 66
     7
176
     1
 43
1.0
176
     1
 76
     1
176
     1
 77
     6
176
     1
 78
     2
176
     1
 67
     7
176
     1
 79
     5
176
     1
170
     0
176
     1
171
     0
176
     1
290
     0
176
     1
 93
        1
176
     1
 44
0.0
176
     1
173
     0
176
     1
  0
VISUALSTYLE
  5
33
102
{ACAD_REACTORS
330
2A
102
}
330
2A
100
AcDbVisualStyle
  2
Realistic
 70
     8
177
     2
291
     0
 71
     2
176
     1
 72
     2
176
     1
 73
     0
176
     1
 90
        0
176
     1
 40
-0.6
176
     1
 41
-30.0
176
     1
 62
     5
 63
     7
421
 16777215
176
     1
 74
     1
176
     1
 91
        0
176
     1
 64
     7
176
     1
 65
   257
176
     1
 75
     1
176
     1
175
     1
176
     1
 42
1.0
176
     1
 92
        8
176
     1
 66
     8
424
  7895160
176
     1
 43
1.0
176
     1
 76
     1
176
     1
 77
     6
176
     1
 78
     2
176
     1
 67
     7
176
     1
 79
     5
176
     1
170
     0
176
     1
171
     0
176
     1
290
     0
176
     1
 93
       13
176
     1
 44
0.0
176
     1
173
     0
176
     1
  0
VISUALSTYLE
  5
37
102
{ACAD_REACTORS
330
2A
102
}
330
2A
100
AcDbVisualStyle
  2
Thicken
 70
    13
177
     2
291
     1
 71
     2
176
     1
 72
     2
176
     1
 73
     0
176
     1
 90
        0
176
     1
 40
-0.6
176
     1
 41
-30.0
176
     1
 62
     5
 63
     7
421
 16777215
176
     1
 74
     1
176
     1
 91
        4
176
     1
 64
     7
176
     1
 65
   257
176
     1
 75
     1
176
     1
175
     1
176
     1
 42
1.0
176
     1
 92
       12
176
     1
 66
     7
176
     1
 43
1.0
176
     1
 76
     1
176
     1
 77
     6
176
     1
 78
     2
176
     1
 67
     7
176
     1
 79
     5
176
     1
170
     0
176
     1
171
     0
176
     1
290
     0
176
     1
 93
        1
176
     1
 44
0.0
176
     1
173
     0
176
     1
  0
ENDSEC
  0
EOF
