  0
SECTION
  2
HEADER
  9
$ACADVER
  1
AC1024
  9
$ACADMAINTVER
 70
     6
  9
$DWGCODEPAGE
  3
ANSI_1252
  9
$INSBASE
 10
0.0
 20
0.0
 30
0.0
  9
$EXTMIN
 10
1.000000000000000E+20
 20
1.000000000000000E+20
 30
1.000000000000000E+20
  9
$EXTMAX
 10
-1.000000000000000E+20
 20
-1.000000000000000E+20
 30
-1.000000000000000E+20
  9
$LIMMIN
 10
0.0
 20
0.0
  9
$LIMMAX
 10
12.0
 20
9.0
  9
$ORTHOMODE
 70
     0
  9
$REGENMODE
 70
     1
  9
$FILLMODE
 70
     1
  9
$QTEXTMODE
 70
     0
  9
$MIRRTEXT
 70
     1
  9
$LTSCALE
 40
1.0
  9
$ATTMODE
 70
     1
  9
$TEXTSIZE
 40
0.2
  9
$TRACEWID
 40
0.05
  9
$TEXTSTYLE
  7
Standard
  9
$CLAYER
  8
0
  9
$CELTYPE
  6
ByLayer
  9
$CECOLOR
 62
   256
  9
$CELTSCALE
 40
1.0
  9
$DISPSILH
 70
     0
  9
$DIMSCALE
 40
1.0
  9
$DIMASZ
 40
0.18
  9
$DIMEXO
 40
0.0625
  9
$DIMDLI
 40
0.38
  9
$DIMRND
 40
0.0
  9
$DIMDLE
 40
0.0
  9
$DIMEXE
 40
0.18
  9
$DIMTP
 40
0.0
  9
$DIMTM
 40
0.0
  9
$DIMTXT
 40
0.18
  9
$DIMCEN
 40
0.09
  9
$DIMTSZ
 40
0.0
  9
$DIMTOL
 70
     0
  9
$DIMLIM
 70
     0
  9
$DIMTIH
 70
     1
  9
$DIMTOH
 70
     1
  9
$DIMSE1
 70
     0
  9
$DIMSE2
 70
     0
  9
$DIMTAD
 70
     0
  9
$DIMZIN
 70
     0
  9
$DIMBLK
  1

  9
$DIMASO
 70
     1
  9
$DIMSHO
 70
     1
  9
$DIMPOST
  1

  9
$DIMAPOST
  1

  9
$DIMALT
 70
     0
  9
$DIMALTD
 70
     2
  9
$DIMALTF
 40
25.4
  9
$DIMLFAC
 40
1.0
  9
$DIMTOFL
 70
     0
  9
$DIMTVP
 40
0.0
  9
$DIMTIX
 70
     0
  9
$DIMSOXD
 70
     0
  9
$DIMSAH
 70
     0
  9
$DIMBLK1
  1

  9
$DIMBLK2
  1

  9
$DIMSTYLE
  2
Standard
  9
$DIMCLRD
 70
     0
  9
$DIMCLRE
 70
     0
  9
$DIMCLRT
 70
     0
  9
$DIMTFAC
 40
1.0
  9
$DIMGAP
 40
0.09
  9
$DIMJUST
 70
     0
  9
$DIMSD1
 70
     0
  9
$DIMSD2
 70
     0
  9
$DIMTOLJ
 70
     1
  9
$DIMTZIN
 70
     0
  9
$DIMALTZ
 70
     0
  9
$DIMALTTZ
 70
     0
  9
$DIMUPT
 70
     0
  9
$DIMDEC
 70
     4
  9
$DIMTDEC
 70
     4
  9
$DIMALTU
 70
     2
  9
$DIMALTTD
 70
     2
  9
$DIMTXSTY
  7
Standard
  9
$DIMAUNIT
 70
     0
  9
$DIMADEC
 70
     0
  9
$DIMALTRND
 40
0.0
  9
$DIMAZIN
 70
     0
  9
$DIMDSEP
 70
    46
  9
$DIMATFIT
 70
     3
  9
$DIMFRAC
 70
     0
  9
$DIMLDRBLK
  1

  9
$DIMLUNIT
 70
     2
  9
$DIMLWD
 70
    -2
  9
$DIMLWE
 70
    -2
  9
$DIMTMOVE
 70
     0
  9
$DIMFXL
 40
1.0
  9
$DIMFXLON
 70
     0
  9
$DIMJOGANG
 40
0.7853981633974483
  9
$DIMTFILL
 70
     0
  9
$DIMTFILLCLR
 70
     0
  9
$DIMARCSYM
 70
     0
  9
$DIMLTYPE
  6

  9
$DIMLTEX1
  6

  9
$DIMLTEX2
  6

  9
$DIMTXTDIRECTION
 70
     0
  9
$LUNITS
 70
     2
  9
$LUPREC
 70
     4
  9
$SKETCHINC
 40
0.1
  9
$FILLETRAD
 40
0.5
  9
$AUNITS
 70
     0
  9
$AUPREC
 70
     0
  9
$MENU
  1
.
  9
$ELEVATION
 40
0.0
  9
$PELEVATION
 40
0.0
  9
$THICKNESS
 40
0.0
  9
$LIMCHECK
 70
     0
  9
$CHAMFERA
 40
0.5
  9
$CHAMFERB
 40
0.5
  9
$CHAMFERC
 40
1.0
  9
$CHAMFERD
 40
0.0
  9
$SKPOLY
 70
     0
  9
$TDCREATE
 40
2458850.912329977
  9
$TDUCREATE
 40
2458850.37066331
  9
$TDUPDATE
 40
2458850.912330151
  9
$TDUUPDATE
 40
2458850.370663484
  9
$TDINDWG
 40
0.0000000116
  9
$TDUSRTIMER
 40
0.0000000116
  9
$USRTIMER
 70
     1
  9
$ANGBASE
 50
0.0
  9
$ANGDIR
 70
     0
  9
$PDMODE
 70
     0
  9
$PDSIZE
 40
0.0
  9
$PLINEWID
 40
0.0
  9
$SPLFRAME
 70
     0
  9
$SPLINETYPE
 70
     6
  9
$SPLINESEGS
 70
     8
  9
$HANDSEED
  5
1A6
  9
$SURFTAB1
 70
     6
  9
$SURFTAB2
 70
     6
  9
$SURFTYPE
 70
     6
  9
$SURFU
 70
     6
  9
$SURFV
 70
     6
  9
$UCSBASE
  2

  9
$UCSNAME
  2

  9
$UCSORG
 10
0.0
 20
0.0
 30
0.0
  9
$UCSXDIR
 10
1.0
 20
0.0
 30
0.0
  9
$UCSYDIR
 10
0.0
 20
1.0
 30
0.0
  9
$UCSORTHOREF
  2

  9
$UCSORTHOVIEW
 70
     0
  9
$UCSORGTOP
 10
0.0
 20
0.0
 30
0.0
  9
$UCSORGBOTTOM
 10
0.0
 20
0.0
 30
0.0
  9
$UCSORGLEFT
 10
0.0
 20
0.0
 30
0.0
  9
$UCSORGRIGHT
 10
0.0
 20
0.0
 30
0.0
  9
$UCSORGFRONT
 10
0.0
 20
0.0
 30
0.0
  9
$UCSORGBACK
 10
0.0
 20
0.0
 30
0.0
  9
$PUCSBASE
  2

  9
$PUCSNAME
  2

  9
$PUCSORG
 10
0.0
 20
0.0
 30
0.0
  9
$PUCSXDIR
 10
1.0
 20
0.0
 30
0.0
  9
$PUCSYDIR
 10
0.0
 20
1.0
 30
0.0
  9
$PUCSORTHOREF
  2

  9
$PUCSORTHOVIEW
 70
     0
  9
$PUCSORGTOP
 10
0.0
 20
0.0
 30
0.0
  9
$PUCSORGBOTTOM
 10
0.0
 20
0.0
 30
0.0
  9
$PUCSORGLEFT
 10
0.0
 20
0.0
 30
0.0
  9
$PUCSORGRIGHT
 10
0.0
 20
0.0
 30
0.0
  9
$PUCSORGFRONT
 10
0.0
 20
0.0
 30
0.0
  9
$PUCSORGBACK
 10
0.0
 20
0.0
 30
0.0
  9
$USERI1
 70
     0
  9
$USERI2
 70
     0
  9
$USERI3
 70
     0
  9
$USERI4
 70
     0
  9
$USERI5
 70
     0
  9
$USERR1
 40
0.0
  9
$USERR2
 40
0.0
  9
$USERR3
 40
0.0
  9
$USERR4
 40
0.0
  9
$USERR5
 40
0.0
  9
$WORLDVIEW
 70
     1
  9
$SHADEDGE
 70
     3
  9
$SHADEDIF
 70
    70
  9
$TILEMODE
 70
     1
  9
$MAXACTVP
 70
    64
  9
$PINSBASE
 10
0.0
 20
0.0
 30
0.0
  9
$PLIMCHECK
 70
     0
  9
$PEXTMIN
 10
1.000000000000000E+20
 20
1.000000000000000E+20
 30
1.000000000000000E+20
  9
$PEXTMAX
 10
-1.000000000000000E+20
 20
-1.000000000000000E+20
 30
-1.000000000000000E+20
  9
$PLIMMIN
 10
0.0
 20
0.0
  9
$PLIMMAX
 10
12.0
 20
9.0
  9
$UNITMODE
 70
     0
  9
$VISRETAIN
 70
     1
  9
$PLINEGEN
 70
     0
  9
$PSLTSCALE
 70
     1
  9
$TREEDEPTH
 70
  3020
  9
$CMLSTYLE
  2
Standard
  9
$CMLJUST
 70
     0
  9
$CMLSCALE
 40
1.0
  9
$PROXYGRAPHICS
 70
     1
  9
$MEASUREMENT
 70
     0
  9
$CELWEIGHT
370
    -1
  9
$ENDCAPS
280
     0
  9
$JOINSTYLE
280
     0
  9
$LWDISPLAY
290
     1
  9
$INSUNITS
 70
     1
  9
$HYPERLINKBASE
  1

  9
$STYLESHEET
  1

  9
$XEDIT
290
     1
  9
$CEPSNTYPE
380
     0
  9
$PSTYLEMODE
290
     1
  9
$FINGERPRINTGUID
  2
{530CF115-FD9B-46A4-A53D-2CC13A9D1BD4}
  9
$VERSIONGUID
  2
{FAEB1C32-E019-11D5-929B-00C0DF256EC4}
  9
$EXTNAMES
290
     1
  9
$PSVPSCALE
 40
0.0
  9
$OLESTARTUP
290
     0
  9
$SORTENTS
280
   127
  9
$INDEXCTL
280
     0
  9
$HIDETEXT
280
     1
  9
$XCLIPFRAME
280
     2
  9
$HALOGAP
280
     0
  9
$OBSCOLOR
 70
   257
  9
$OBSLTYPE
280
     0
  9
$INTERSECTIONDISPLAY
280
     0
  9
$INTERSECTIONCOLOR
 70
   257
  9
$DIMASSOC
280
     2
  9
$PROJECTNAME
  1

  9
$CAMERADISPLAY
290
     0
  9
$LENSLENGTH
 40
50.0
  9
$CAMERAHEIGHT
 40
0.0
  9
$STEPSPERSEC
 40
2.0
  9
$STEPSIZE
 40
6.0
  9
$3DDWFPREC
 40
2.0
  9
$PSOLWIDTH
 40
0.25
  9
$PSOLHEIGHT
 40
4.0
  9
$LOFTANG1
 40
1.570796326794897
  9
$LOFTANG2
 40
1.570796326794897
  9
$LOFTMAG1
 40
0.0
  9
$LOFTMAG2
 40
0.0
  9
$LOFTPARAM
 70
     7
  9
$LOFTNORMALS
280
     1
  9
$LATITUDE
 40
37.795
  9
$LONGITUDE
 40
-122.394
  9
$NORTHDIRECTION
 40
0.0
  9
$TIMEZONE
 70
 -8000
  9
$LIGHTGLYPHDISPLAY
280
     1
  9
$TILEMODELIGHTSYNCH
280
     1
  9
$CMATERIAL
347
3C
  9
$SOLIDHIST
280
     1
  9
$SHOWHIST
280
     1
  9
$DWFFRAME
280
     2
  9
$DGNFRAME
280
     2
  9
$REALWORLDSCALE
290
     1
  9
$INTERFERECOLOR
 62
   256
  9
$CSHADOW
280
     0
  9
$SHADOWPLANELOCATION
 40
0.0
  0
ENDSEC
  0
SECTION
  2
CLASSES
  0
CLASS
  1
ACDBDICTIONARYWDFLT
  2
AcDbDictionaryWithDefault
  3
ObjectDBX Classes
 90
        0
 91
        4
280
     0
281
     0
  0
CLASS
  1
VISUALSTYLE
  2
AcDbVisualStyle
  3
ObjectDBX Classes
 90
     4095
 91
        4
280
     0
281
     0
  0
CLASS
  1
MATERIAL
  2
AcDbMaterial
  3
ObjectDBX Classes
 90
     1153
 91
        4
280
     0
281
     0
  0
CLASS
  1
SUN
  2
AcDbSun
  3
SCENEOE
 90
     1024
 91
        4
280
     0
281
     0
  0
ENDSEC
  0
SECTION
  2
TABLES
  0
TABLE
  2
VPORT
  5
8
330
0
100
AcDbSymbolTable
 70
     1
  0
VPORT
  5
29
330
8
100
AcDbSymbolTableRecord
100
AcDbViewportTableRecord
  2
*Active
 70
     0
 10
0.0
 20
0.0
 11
1.0
 21
1.0
 12
0.0
 22
0.0
 13
0.0
 23
0.0
 14
0.5
 24
0.5
 15
0.5
 25
0.5
 16
0.0
 26
0.0
 36
1.0
 17
2.528706880520076
 27
2.018968004508275
 37
0.0
 40
11.69291338582677
 41
0.7070707070707065
 42
50.0
 43
0.0
 44
0.0
 50
0.0
 51
0.0
 71
     0
 72
   100
 73
     1
 74
     3
 75
     0
 76
     0
 77
     0
 78
     0
281
     0
 65
     1
110
0.0
120
0.0
130
0.0
111
1.0
121
0.0
131
0.0
112
0.0
122
1.0
132
0.0
 79
     0
146
0.0
 60
     3
 61
     5
292
     1
282
     1
141
0.0
142
0.0
 63
   250
361
3F
  0
ENDTAB
  0
TABLE
  2
LTYPE
  5
5
330
0
100
AcDbSymbolTable
 70
     1
  0
LTYPE
  5
14
330
5
100
AcDbSymbolTableRecord
100
AcDbLinetypeTableRecord
  2
ByBlock
 70
     0
  3

 72
    65
 73
     0
 40
0.0
  0
LTYPE
  5
15
330
5
100
AcDbSymbolTableRecord
100
AcDbLinetypeTableRecord
  2
ByLayer
 70
     0
  3

 72
    65
 73
     0
 40
0.0
  0
LTYPE
  5
16
330
5
100
AcDbSymbolTableRecord
100
AcDbLinetypeTableRecord
  2
Continuous
 70
     0
  3
Solid line
 72
    65
 73
     0
 40
0.0
  0
ENDTAB
  0
TABLE
  2
LAYER
  5
2
330
0
100
AcDbSymbolTable
 70
     3
  0
LAYER
  5
10
330
2
100
AcDbSymbolTableRecord
100
AcDbLayerTableRecord
  2
0
 70
     0
 62
     7
  6
Continuous
370
    -3
390
F
347
3E
  0
LAYER
  5
40
330
2
100
AcDbSymbolTableRecord
100
AcDbLayerTableRecord
  2
Layer 1
 70
     0
 62
     7
  6
Continuous
370
    -3
390
F
347
3E
  0
LAYER
  5
149
330
2
100
AcDbSymbolTableRecord
100
AcDbLayerTableRecord
  2
callout
 70
     0
 62
     7
  6
Continuous
370
    -3
390
F
347
3E
  0
ENDTAB
  0
TABLE
  2
STYLE
  5
3
330
0
100
AcDbSymbolTable
 70
     1
  0
STYLE
  5
11
330
3
100
AcDbSymbolTableRecord
100
AcDbTextStyleTableRecord
  2
Standard
 70
     0
 40
0.0
 41
1.0
 50
0.0
 71
     0
 42
0.2
  3
txt
  4

  0
ENDTAB
  0
TABLE
  2
VIEW
  5
6
330
0
100
AcDbSymbolTable
 70
     0
  0
ENDTAB
  0
TABLE
  2
UCS
  5
7
330
0
100
AcDbSymbolTable
 70
     0
  0
ENDTAB
  0
TABLE
  2
APPID
  5
9
330
0
100
AcDbSymbolTable
 70
     1
  0
APPID
  5
12
330
9
100
AcDbSymbolTableRecord
100
AcDbRegAppTableRecord
  2
ACAD
 70
     0
  0
ENDTAB
  0
TABLE
  2
DIMSTYLE
  5
A
330
0
100
AcDbSymbolTable
 70
     1
100
AcDbDimStyleTable
  0
DIMSTYLE
105
27
330
A
100
AcDbSymbolTableRecord
100
AcDbDimStyleTableRecord
  2
Standard
 70
     0
178
     0
340
11
  0
ENDTAB
  0
TABLE
  2
BLOCK_RECORD
  5
1
330
0
100
AcDbSymbolTable
 70
     1
  0
BLOCK_RECORD
  5
1F
330
1
100
AcDbSymbolTableRecord
100
AcDbBlockTableRecord
  2
*Model_Space
340
22
 70
     0
280
     1
281
     0
  0
BLOCK_RECORD
  5
1B
330
1
100
AcDbSymbolTableRecord
100
AcDbBlockTableRecord
  2
*Paper_Space
340
1E
 70
     0
280
     1
281
     0
  0
BLOCK_RECORD
  5
23
330
1
100
AcDbSymbolTableRecord
100
AcDbBlockTableRecord
  2
*Paper_Space0
340
26
 70
     0
280
     1
281
     0
  0
ENDTAB
  0
ENDSEC
  0
SECTION
  2
BLOCKS
  0
BLOCK
  5
20
330
1F
100
AcDbEntity
  8
0
100
AcDbBlockBegin
  2
*Model_Space
 70
     0
 10
0.0
 20
0.0
 30
0.0
  3
*Model_Space
  1

  0
ENDBLK
  5
21
330
1F
100
AcDbEntity
  8
0
100
AcDbBlockEnd
  0
BLOCK
  5
1C
330
1B
100
AcDbEntity
 67
     1
  8
0
100
AcDbBlockBegin
  2
*Paper_Space
 70
     0
 10
0.0
 20
0.0
 30
0.0
  3
*Paper_Space
  1

  0
ENDBLK
  5
1D
330
1B
100
AcDbEntity
 67
     1
  8
0
100
AcDbBlockEnd
  0
BLOCK
  5
24
330
23
100
AcDbEntity
  8
0
100
AcDbBlockBegin
  2
*Paper_Space0
 70
     0
 10
0.0
 20
0.0
 30
0.0
  3
*Paper_Space0
  1

  0
ENDBLK
  5
25
330
23
100
AcDbEntity
  8
0
100
AcDbBlockEnd
  0
ENDSEC
  0
SECTION
  2
ENTITIES
  0
POLYLINE
  5
41
330
1F
100
AcDbEntity
  8
Layer 1
 62
     7
420
 16777215
370
    53
100
AcDb2dPolyline
 66
     1
 10
0.0
 20
0.0
 30
0.0
  0
VERTEX
  5
42
330
41
100
AcDbEntity
  8
Layer 1
 62
     7
420
 16777215
370
    53
100
AcDbVertex
100
AcDb2dVertex
 10
0.7366093774005549
 20
2.73653387082556
 30
0.0
  0
VERTEX
  5
43
330
41
100
AcDbEntity
  8
Layer 1
 62
     7
420
 16777215
370
    53
100
AcDbVertex
100
AcDb2dVertex
 10
1.237569037173292
 20
2.940455558639074
 30
0.0
  0
VERTEX
  5
44
330
41
100
AcDbEntity
  8
Layer 1
 62
     7
420
 16777215
370
    53
100
AcDbVertex
100
AcDb2dVertex
 10
1.300754508742481
 20
2.942427607857919
 30
0.0
  0
VERTEX
  5
45
330
41
100
AcDbEntity
  8
Layer 1
 62
     7
420
 16777215
370
    53
100
AcDbVertex
100
AcDb2dVertex
 10
1.300282565339684
 20
3.01084254614241
 30
0.0
  0
VERTEX
  5
46
330
41
100
AcDbEntity
  8
Layer 1
 62
     7
420
 16777215
370
    53
100
AcDbVertex
100
AcDb2dVertex
 10
1.43988510940014
 20
3.01697359659848
 30
0.0
  0
VERTEX
  5
47
330
41
100
AcDbEntity
  8
Layer 1
 62
     7
420
 16777215
370
    53
100
AcDbVertex
100
AcDb2dVertex
 10
1.472002543472867
 20
3.034380723357079
 30
0.0
  0
VERTEX
  5
48
330
41
100
AcDbEntity
  8
Layer 1
 62
     7
420
 16777215
370
    53
100
AcDbVertex
100
AcDb2dVertex
 10
2.859709444104384
 20
2.77695899856648
 30
0.0
  0
VERTEX
  5
49
330
41
100
AcDbEntity
  8
Layer 1
 62
     7
420
 16777215
370
    53
100
AcDbVertex
100
AcDb2dVertex
 10
2.919705249185376
 20
2.760580034221082
 30
0.0
  0
VERTEX
  5
4A
330
41
100
AcDbEntity
  8
Layer 1
 62
     7
420
 16777215
370
    53
100
AcDbVertex
100
AcDb2dVertex
 10
3.713948072074698
 20
2.502856944676978
 30
0.0
  0
VERTEX
  5
4B
330
41
100
AcDbEntity
  8
Layer 1
 62
     7
420
 16777215
370
    53
100
AcDbVertex
100
AcDb2dVertex
 10
3.719788371684343
 20
2.075489634604133
 30
0.0
  0
VERTEX
  5
4C
330
41
100
AcDbEntity
  8
Layer 1
 62
     7
420
 16777215
370
    53
100
AcDbVertex
100
AcDb2dVertex
 10
3.429353558845024
 20
1.874142566604102
 30
0.0
  0
VERTEX
  5
4D
330
41
100
AcDbEntity
  8
Layer 1
 62
     7
420
 16777215
370
    53
100
AcDbVertex
100
AcDb2dVertex
 10
3.383347504632765
 20
1.874264766235178
 30
0.0
  0
VERTEX
  5
4E
330
41
100
AcDbEntity
  8
Layer 1
 62
     7
420
 16777215
370
    53
100
AcDbVertex
100
AcDb2dVertex
 10
3.386802804546126
 20
1.733406515620876
 30
0.0
  0
VERTEX
  5
4F
330
41
100
AcDbEntity
  8
Layer 1
 62
     7
420
 16777215
370
    53
100
AcDbVertex
100
AcDb2dVertex
 10
3.23602974514074
 20
1.748673170836001
 30
0.0
  0
VERTEX
  5
50
330
41
100
AcDbEntity
  8
Layer 1
 62
     7
420
 16777215
370
    53
100
AcDbVertex
100
AcDb2dVertex
 10
2.808320328558466
 20
1.400686685396017
 30
0.0
  0
VERTEX
  5
51
330
41
100
AcDbEntity
  8
Layer 1
 62
     7
420
 16777215
370
    53
100
AcDbVertex
100
AcDb2dVertex
 10
0.7374521334769876
 20
2.344967522566738
 30
0.0
  0
VERTEX
  5
52
330
41
100
AcDbEntity
  8
Layer 1
 62
     7
420
 16777215
370
    53
100
AcDbVertex
100
AcDb2dVertex
 10
0.7366093774005549
 20
2.73653387082556
 30
0.0
  0
SEQEND
  5
54
330
41
100
AcDbEntity
  8
Layer 1
 62
     7
420
 16777215
370
    53
  0
HATCH
  5
53
330
1F
100
AcDbEntity
  8
Layer 1
 62
    43
420
 15510365
100
AcDbHatch
 10
0.0
 20
0.0
 30
0.0
210
0.0
220
0.0
230
1.0
  2
SOLID
 70
     1
 71
     0
 91
        1
 92
        1
 93
       16
 72
     1
 10
0.7366093774005549
 20
2.73653387082556
 11
1.237569037173292
 21
2.940455558639074
 72
     1
 10
1.237569037173292
 20
2.940455558639074
 11
1.300754508742481
 21
2.942427607857919
 72
     1
 10
1.300754508742481
 20
2.942427607857919
 11
1.300282565339684
 21
3.01084254614241
 72
     1
 10
1.300282565339684
 20
3.01084254614241
 11
1.43988510940014
 21
3.01697359659848
 72
     1
 10
1.43988510940014
 20
3.01697359659848
 11
1.472002543472867
 21
3.034380723357079
 72
     1
 10
1.472002543472867
 20
3.034380723357079
 11
2.859709444104384
 21
2.77695899856648
 72
     1
 10
2.859709444104384
 20
2.77695899856648
 11
2.919705249185376
 21
2.760580034221082
 72
     1
 10
2.919705249185376
 20
2.760580034221082
 11
3.713948072074698
 21
2.502856944676978
 72
     1
 10
3.713948072074698
 20
2.502856944676978
 11
3.719788371684343
 21
2.075489634604133
 72
     1
 10
3.719788371684343
 20
2.075489634604133
 11
3.429353558845024
 21
1.874142566604102
 72
     1
 10
3.429353558845024
 20
1.874142566604102
 11
3.383347504632765
 21
1.874264766235178
 72
     1
 10
3.383347504632765
 20
1.874264766235178
 11
3.386802804546126
 21
1.733406515620876
 72
     1
 10
3.386802804546126
 20
1.733406515620876
 11
3.23602974514074
 21
1.748673170836001
 72
     1
 10
3.23602974514074
 20
1.748673170836001
 11
2.808320328558466
 21
1.400686685396017
 72
     1
 10
2.808320328558466
 20
1.400686685396017
 11
0.7374521334769875
 21
2.344967522566738
 72
     1
 10
0.7374521334769876
 20
2.344967522566738
 11
0.7366093774005549
 21
2.73653387082556
 97
        0
 75
     2
 76
     1
 98
        0
  0
POLYLINE
  5
55
330
1F
100
AcDbEntity
  8
Layer 1
 62
     7
420
 16777215
370
    40
100
AcDb2dPolyline
 66
     1
 10
0.0
 20
0.0
 30
0.0
  0
VERTEX
  5
56
330
55
100
AcDbEntity
  8
Layer 1
 62
     7
420
 16777215
370
    40
100
AcDbVertex
100
AcDb2dVertex
 10
0.7366093774005549
 20
2.722644981936671
 30
0.0
  0
VERTEX
  5
57
330
55
100
AcDbEntity
  8
Layer 1
 62
     7
420
 16777215
370
    40
100
AcDbVertex
100
AcDb2dVertex
 10
2.801156901908826
 20
1.856306977993174
 30
0.0
  0
VERTEX
  5
58
330
55
100
AcDbEntity
  8
Layer 1
 62
     7
420
 16777215
370
    40
100
AcDbVertex
100
AcDb2dVertex
 10
2.807123614929929
 20
1.4046813491983
 30
0.0
  0
SEQEND
  5
59
330
55
100
AcDbEntity
  8
Layer 1
 62
     7
420
 16777215
370
    40
  0
POLYLINE
  5
5A
330
1F
100
AcDbEntity
  8
Layer 1
 62
     7
420
 16777215
370
    40
100
AcDb2dPolyline
 66
     1
 10
0.0
 20
0.0
 30
0.0
  0
VERTEX
  5
5B
330
5A
100
AcDbEntity
  8
Layer 1
 62
     7
420
 16777215
370
    40
100
AcDbVertex
100
AcDb2dVertex
 10
1.47702115590798
 20
3.93447765447695
 30
0.0
  0
VERTEX
  5
5C
330
5A
100
AcDbEntity
  8
Layer 1
 62
     7
420
 16777215
370
    40
100
AcDbVertex
100
AcDb2dVertex
 10
2.009672492673758
 20
4.100559594458787
 30
0.0
  0
VERTEX
  5
5D
330
5A
100
AcDbEntity
  8
Layer 1
 62
     7
420
 16777215
370
    40
100
AcDbVertex
100
AcDb2dVertex
 10
2.075142184891118
 20
4.216893643249048
 30
0.0
  0
VERTEX
  5
5E
330
5A
100
AcDbEntity
  8
Layer 1
 62
     7
420
 16777215
370
    40
100
AcDbVertex
100
AcDb2dVertex
 10
2.251981451019269
 20
4.175392120265302
 30
0.0
  0
VERTEX
  5
5F
330
5A
100
AcDbEntity
  8
Layer 1
 62
     7
420
 16777215
370
    40
100
AcDbVertex
100
AcDb2dVertex
 10
2.490833496955398
 20
4.252794514606231
 30
0.0
  0
VERTEX
  5
60
330
5A
100
AcDbEntity
  8
Layer 1
 62
     7
420
 16777215
370
    40
100
AcDbVertex
100
AcDb2dVertex
 10
2.909663810534716
 20
4.116995939233498
 30
0.0
  0
VERTEX
  5
61
330
5A
100
AcDbEntity
  8
Layer 1
 62
     7
420
 16777215
370
    40
100
AcDbVertex
100
AcDb2dVertex
 10
2.914395885903862
 20
2.759471809980583
 30
0.0
  0
VERTEX
  5
62
330
5A
100
AcDbEntity
  8
Layer 1
 62
     7
420
 16777215
370
    40
100
AcDbVertex
100
AcDb2dVertex
 10
1.929102410482806
 20
2.204045258998639
 30
0.0
  0
VERTEX
  5
63
330
5A
100
AcDbEntity
  8
Layer 1
 62
     7
420
 16777215
370
    40
100
AcDbVertex
100
AcDb2dVertex
 10
1.475727525330664
 20
2.413256316189126
 30
0.0
  0
VERTEX
  5
64
330
5A
100
AcDbEntity
  8
Layer 1
 62
     7
420
 16777215
370
    40
100
AcDbVertex
100
AcDb2dVertex
 10
1.47702115590798
 20
3.93447765447695
 30
0.0
  0
SEQEND
  5
66
330
5A
100
AcDbEntity
  8
Layer 1
 62
     7
420
 16777215
370
    40
  0
HATCH
  5
65
330
1F
100
AcDbEntity
  8
Layer 1
 62
    43
420
 15510365
100
AcDbHatch
 10
0.0
 20
0.0
 30
0.0
210
0.0
220
0.0
230
1.0
  2
SOLID
 70
     1
 71
     0
 91
        1
 92
        1
 93
        9
 72
     1
 10
1.47702115590798
 20
3.93447765447695
 11
2.009672492673758
 21
4.100559594458787
 72
     1
 10
2.009672492673758
 20
4.100559594458787
 11
2.075142184891118
 21
4.216893643249048
 72
     1
 10
2.075142184891118
 20
4.216893643249048
 11
2.251981451019269
 21
4.175392120265302
 72
     1
 10
2.251981451019269
 20
4.175392120265302
 11
2.490833496955398
 21
4.252794514606231
 72
     1
 10
2.490833496955398
 20
4.252794514606231
 11
2.909663810534716
 21
4.116995939233498
 72
     1
 10
2.909663810534716
 20
4.116995939233498
 11
2.914395885903862
 21
2.759471809980583
 72
     1
 10
2.914395885903862
 20
2.759471809980583
 11
1.929102410482806
 21
2.204045258998639
 72
     1
 10
1.929102410482806
 20
2.204045258998639
 11
1.475727525330664
 21
2.413256316189126
 72
     1
 10
1.475727525330664
 20
2.413256316189126
 11
1.47702115590798
 21
3.93447765447695
 97
        0
 75
     2
 76
     1
 98
        0
  0
POLYLINE
  5
67
330
1F
100
AcDbEntity
  8
Layer 1
 62
     7
420
 16777215
370
    40
100
AcDb2dPolyline
 66
     1
 10
0.0
 20
0.0
 30
0.0
  0
VERTEX
  5
68
330
67
100
AcDbEntity
  8
Layer 1
 62
     7
420
 16777215
370
    40
100
AcDbVertex
100
AcDb2dVertex
 10
1.721253654727939
 20
3.040527016438609
 30
0.0
  0
VERTEX
  5
69
330
67
100
AcDbEntity
  8
Layer 1
 62
     7
420
 16777215
370
    40
100
AcDbVertex
100
AcDb2dVertex
 10
1.937352992471056
 20
2.969297272858828
 30
0.0
  0
VERTEX
  5
6A
330
67
100
AcDbEntity
  8
Layer 1
 62
     7
420
 16777215
370
    40
100
AcDbVertex
100
AcDb2dVertex
 10
2.226599519242591
 20
3.091737089422799
 30
0.0
  0
SEQEND
  5
6B
330
67
100
AcDbEntity
  8
Layer 1
 62
     7
420
 16777215
370
    40
  0
POLYLINE
  5
6C
330
1F
100
AcDbEntity
  8
Layer 1
 62
     7
420
 16777215
370
    40
100
AcDb2dPolyline
 66
     1
 10
0.0
 20
0.0
 30
0.0
  0
VERTEX
  5
6D
330
6C
100
AcDbEntity
  8
Layer 1
 62
     7
420
 16777215
370
    40
100
AcDbVertex
100
AcDb2dVertex
 10
1.935747542145464
 20
3.002236394106047
 30
0.0
  0
VERTEX
  5
6E
330
6C
100
AcDbEntity
  8
Layer 1
 62
     7
420
 16777215
370
    40
100
AcDbVertex
100
AcDb2dVertex
 10
1.932127904797198
 20
3.766540307380246
 30
0.0
  0
VERTEX
  5
6F
330
6C
100
AcDbEntity
  8
Layer 1
 62
     7
420
 16777215
370
    40
100
AcDbVertex
100
AcDb2dVertex
 10
2.454632458402759
 20
3.94478321754496
 30
0.0
  0
VERTEX
  5
70
330
6C
100
AcDbEntity
  8
Layer 1
 62
     7
420
 16777215
370
    40
100
AcDbVertex
100
AcDb2dVertex
 10
2.522857776570062
 20
4.064981302945638
 30
0.0
  0
VERTEX
  5
71
330
6C
100
AcDbEntity
  8
Layer 1
 62
     7
420
 16777215
370
    40
100
AcDbVertex
100
AcDb2dVertex
 10
2.612607084929373
 20
3.949043349511309
 30
0.0
  0
VERTEX
  5
72
330
6C
100
AcDbEntity
  8
Layer 1
 62
     7
420
 16777215
370
    40
100
AcDbVertex
100
AcDb2dVertex
 10
2.65404540120739
 20
4.012186848537769
 30
0.0
  0
VERTEX
  5
73
330
6C
100
AcDbEntity
  8
Layer 1
 62
     7
420
 16777215
370
    40
100
AcDbVertex
100
AcDb2dVertex
 10
2.90439658505703
 20
4.115841363408789
 30
0.0
  0
SEQEND
  5
74
330
6C
100
AcDbEntity
  8
Layer 1
 62
     7
420
 16777215
370
    40
  0
POLYLINE
  5
75
330
1F
100
AcDbEntity
  8
Layer 1
 62
     7
420
 16777215
370
    40
100
AcDb2dPolyline
 66
     1
 10
0.0
 20
0.0
 30
0.0
  0
VERTEX
  5
76
330
75
100
AcDbEntity
  8
Layer 1
 62
     7
420
 16777215
370
    40
100
AcDbVertex
100
AcDb2dVertex
 10
2.801199039712654
 20
1.871510566361293
 30
0.0
  0
VERTEX
  5
77
330
75
100
AcDbEntity
  8
Layer 1
 62
     7
420
 16777215
370
    40
100
AcDbVertex
100
AcDb2dVertex
 10
3.229485527759127
 20
2.195794408261071
 30
0.0
  0
VERTEX
  5
78
330
75
100
AcDbEntity
  8
Layer 1
 62
     7
420
 16777215
370
    40
100
AcDbVertex
100
AcDb2dVertex
 10
3.379394978634309
 20
2.1950527829138
 30
0.0
  0
VERTEX
  5
79
330
75
100
AcDbEntity
  8
Layer 1
 62
     7
420
 16777215
370
    40
100
AcDbVertex
100
AcDb2dVertex
 10
3.326516248618772
 20
2.312457131921128
 30
0.0
  0
VERTEX
  5
7A
330
75
100
AcDbEntity
  8
Layer 1
 62
     7
420
 16777215
370
    40
100
AcDbVertex
100
AcDb2dVertex
 10
3.421161969782133
 20
2.310809543791707
 30
0.0
  0
VERTEX
  5
7B
330
75
100
AcDbEntity
  8
Layer 1
 62
     7
420
 16777215
370
    40
100
AcDbVertex
100
AcDb2dVertex
 10
3.711272321532028
 20
2.501622160836367
 30
0.0
  0
SEQEND
  5
7C
330
75
100
AcDbEntity
  8
Layer 1
 62
     7
420
 16777215
370
    40
  0
POLYLINE
  5
7D
330
1F
100
AcDbEntity
  8
Layer 1
 62
     7
420
 16777215
370
    40
100
AcDb2dPolyline
 66
     1
 10
0.0
 20
0.0
 30
0.0
  0
VERTEX
  5
7E
330
7D
100
AcDbEntity
  8
Layer 1
 62
     7
420
 16777215
370
    40
100
AcDbVertex
100
AcDb2dVertex
 10
2.258032708397372
 20
4.176934550259337
 30
0.0
  0
VERTEX
  5
7F
330
7D
100
AcDbEntity
  8
Layer 1
 62
     7
420
 16777215
370
    40
100
AcDbVertex
100
AcDb2dVertex
 10
2.521543077090832
 20
4.065023440749479
 30
0.0
  0
SEQEND
  5
80
330
7D
100
AcDbEntity
  8
Layer 1
 62
     7
420
 16777215
370
    40
  0
POLYLINE
  5
81
330
1F
100
AcDbEntity
  8
Layer 1
 62
     7
420
 16777215
370
    40
100
AcDb2dPolyline
 66
     1
 10
0.0
 20
0.0
 30
0.0
  0
VERTEX
  5
82
330
81
100
AcDbEntity
  8
Layer 1
 62
     7
420
 16777215
370
    40
100
AcDbVertex
100
AcDb2dVertex
 10
2.450764208011959
 20
3.946224330435661
 30
0.0
  0
VERTEX
  5
83
330
81
100
AcDbEntity
  8
Layer 1
 62
     7
420
 16777215
370
    40
100
AcDbVertex
100
AcDb2dVertex
 10
2.009672492673758
 20
4.100559594458787
 30
0.0
  0
SEQEND
  5
84
330
81
100
AcDbEntity
  8
Layer 1
 62
     7
420
 16777215
370
    40
  0
POLYLINE
  5
85
330
1F
100
AcDbEntity
  8
Layer 1
 62
     7
420
 16777215
370
    40
100
AcDb2dPolyline
 66
     1
 10
0.0
 20
0.0
 30
0.0
  0
VERTEX
  5
86
330
85
100
AcDbEntity
  8
Layer 1
 62
     7
420
 16777215
370
    40
100
AcDbVertex
100
AcDb2dVertex
 10
2.545658542217855
 20
4.036630988534575
 30
0.0
  0
VERTEX
  5
87
330
85
100
AcDbEntity
  8
Layer 1
 62
     7
420
 16777215
370
    40
100
AcDbVertex
100
AcDb2dVertex
 10
2.650055150023768
 20
4.010994532626088
 30
0.0
  0
SEQEND
  5
88
330
85
100
AcDbEntity
  8
Layer 1
 62
     7
420
 16777215
370
    40
  0
POLYLINE
  5
89
330
1F
100
AcDbEntity
  8
Layer 1
 62
     7
420
 16777215
370
    40
100
AcDb2dPolyline
 66
     1
 10
0.0
 20
0.0
 30
0.0
  0
VERTEX
  5
8A
330
89
100
AcDbEntity
  8
Layer 1
 62
     7
420
 16777215
370
    40
100
AcDbVertex
100
AcDb2dVertex
 10
1.47702115590798
 20
3.93447765447695
 30
0.0
  0
VERTEX
  5
8B
330
89
100
AcDbEntity
  8
Layer 1
 62
     7
420
 16777215
370
    40
100
AcDbVertex
100
AcDb2dVertex
 10
1.932170042601001
 20
3.767855006859476
 30
0.0
  0
SEQEND
  5
8C
330
89
100
AcDbEntity
  8
Layer 1
 62
     7
420
 16777215
370
    40
  0
SPLINE
  5
8D
330
1F
100
AcDbEntity
  8
Layer 1
 62
     7
420
 16777215
370
     9
100
AcDbSpline
210
0.0
220
0.0
230
1.0
 70
     8
 71
     3
 72
     8
 73
     4
 74
     0
 42
0.0000000001
 43
0.0000000001
 12
1.0
 22
0.0
 32
0.0
 13
1.0
 23
0.0
 33
0.0
 40
0.0
 40
0.0
 40
0.0
 40
0.0
 40
1.0
 40
1.0
 40
1.0
 40
1.0
 10
2.589894808669619
 20
4.020787174297703
 30
0.0
 10
2.585693669628603
 20
4.013029604614202
 30
0.0
 10
2.577341956911191
 20
3.998812309604823
 30
0.0
 10
2.577341956911191
 20
3.998812309604823
 30
0.0
  0
SPLINE
  5
8E
330
1F
100
AcDbEntity
  8
Layer 1
 62
     7
420
 16777215
370
     9
100
AcDbSpline
210
0.0
220
0.0
230
1.0
 70
     8
 71
     3
 72
    23
 73
    19
 74
     0
 42
0.0000000001
 43
0.0000000001
 12
1.0
 22
0.0
 32
0.0
 13
1.0
 23
0.0
 33
0.0
 40
0.0
 40
0.0
 40
0.0
 40
0.0
 40
1.0
 40
1.0
 40
1.0
 40
2.0
 40
2.0
 40
2.0
 40
3.0
 40
3.0
 40
3.0
 40
4.0
 40
4.0
 40
4.0
 40
5.0
 40
5.0
 40
5.0
 40
6.0
 40
6.0
 40
6.0
 40
6.0
 10
2.600096370974774
 20
3.970478850315279
 30
0.0
 10
2.613597323319178
 20
3.980583495671668
 30
0.0
 10
2.620221584164584
 20
3.981674864790635
 30
0.0
 10
2.627338461145352
 20
3.999882609821889
 30
0.0
 10
2.634501887794992
 20
4.018069285951242
 30
0.0
 10
2.644909925338905
 20
4.015106998342579
 30
0.0
 10
2.652975100990311
 20
4.020108755656186
 30
0.0
 10
2.661040276641744
 20
4.025127368091325
 30
0.0
 10
2.698037268396976
 20
4.030537862101988
 30
0.0
 10
2.718200207525544
 20
4.044367674095775
 30
0.0
 10
2.738363146654112
 20
4.058213971651917
 30
0.0
 10
2.758155273109044
 20
4.060207089772677
 30
0.0
 10
2.788936938800614
 20
4.076341654855911
 30
0.0
 10
2.819676466688356
 20
4.09247200615875
 30
0.0
 10
2.872841733769873
 20
4.110536482657014
 30
0.0
 10
2.890248860528522
 20
4.120514714601932
 30
0.0
 10
2.907698125090974
 20
4.13049294654685
 30
0.0
 10
2.863477370014051
 20
4.125018977081102
 30
0.0
 10
2.869073270361544
 20
4.135368021699643
 30
0.0
  0
SPLINE
  5
8F
330
1F
100
AcDbEntity
  8
Layer 1
 62
     7
420
 16777215
370
     9
100
AcDbSpline
210
0.0
220
0.0
230
1.0
 70
     8
 71
     3
 72
    17
 73
    13
 74
     0
 42
0.0000000001
 43
0.0000000001
 12
1.0
 22
0.0
 32
0.0
 13
1.0
 23
0.0
 33
0.0
 40
0.0
 40
0.0
 40
0.0
 40
0.0
 40
1.0
 40
1.0
 40
1.0
 40
2.0
 40
2.0
 40
2.0
 40
3.0
 40
3.0
 40
3.0
 40
4.0
 40
4.0
 40
4.0
 40
4.0
 10
2.596641071061438
 20
4.02714576889438
 30
0.0
 10
2.625901562035046
 20
4.03806788764488
 30
0.0
 10
2.659232564857803
 20
4.051484564381629
 30
0.0
 10
2.675405053964469
 20
4.064117477967303
 30
0.0
 10
2.691573329290754
 20
4.076771646053063
 30
0.0
 10
2.724988607721166
 20
4.094136449409714
 30
0.0
 10
2.739597985406388
 20
4.097633887126878
 30
0.0
 10
2.754164823087144
 20
4.101110255942154
 30
0.0
 10
2.795438801930257
 20
4.116911932375197
 30
0.0
 10
2.806217854931067
 20
4.125781940079605
 30
0.0
 10
2.817042853949513
 20
4.134647734003642
 30
0.0
 10
2.821053566625298
 20
4.137015341079733
 30
0.0
 10
2.834179492515684
 20
4.136602390602282
 30
0.0
  0
SPLINE
  5
90
330
1F
100
AcDbEntity
  8
Layer 1
 62
     7
420
 16777215
370
     9
100
AcDbSpline
210
0.0
220
0.0
230
1.0
 70
     8
 71
     3
 72
    17
 73
    13
 74
     0
 42
0.0000000001
 43
0.0000000001
 12
1.0
 22
0.0
 32
0.0
 13
1.0
 23
0.0
 33
0.0
 40
0.0
 40
0.0
 40
0.0
 40
0.0
 40
1.0
 40
1.0
 40
1.0
 40
2.0
 40
2.0
 40
2.0
 40
3.0
 40
3.0
 40
3.0
 40
4.0
 40
4.0
 40
4.0
 40
4.0
 10
2.541870353654303
 20
4.042020413643336
 30
0.0
 10
2.555367092218325
 20
4.053439758478943
 30
0.0
 10
2.600757934494772
 20
4.074365391856682
 30
0.0
 10
2.623390148927279
 20
4.082860373107084
 30
0.0
 10
2.645980225555958
 20
4.091359568137881
 30
0.0
 10
2.686268179789648
 20
4.116397851168573
 30
0.0
 10
2.707581480962542
 20
4.126253883482415
 30
0.0
 10
2.728979258575211
 20
4.136109915796244
 30
0.0
 10
2.778154076877071
 20
4.152981892446355
 30
0.0
 10
2.786261188257943
 20
4.159298349239192
 30
0.0
 10
2.794326363909375
 20
4.165614806032029
 30
0.0
 10
2.782805350845895
 20
4.165694599109947
 30
0.0
 10
2.782805350845895
 20
4.165694599109947
 30
0.0
  0
SPLINE
  5
91
330
1F
100
AcDbEntity
  8
Layer 1
 62
     7
420
 16777215
370
     9
100
AcDbSpline
210
0.0
220
0.0
230
1.0
 70
     8
 71
     3
 72
    17
 73
    13
 74
     0
 42
0.0000000001
 43
0.0000000001
 12
1.0
 22
0.0
 32
0.0
 13
1.0
 23
0.0
 33
0.0
 40
0.0
 40
0.0
 40
0.0
 40
0.0
 40
1.0
 40
1.0
 40
1.0
 40
2.0
 40
2.0
 40
2.0
 40
3.0
 40
3.0
 40
3.0
 40
4.0
 40
4.0
 40
4.0
 40
4.0
 10
2.512449739026174
 20
4.067922707027025
 30
0.0
 10
2.527181310976403
 20
4.076670329725718
 30
0.0
 10
2.544339628958242
 20
4.078768792356022
 30
0.0
 10
2.564460430282982
 20
4.091296361432139
 30
0.0
 10
2.584585445388105
 20
4.103807075386726
 30
0.0
 10
2.633840324274994
 20
4.123312664775628
 30
0.0
 10
2.646064501163614
 20
4.134753265576086
 30
0.0
 10
2.658242326467997
 20
4.146214748505106
 30
0.0
 10
2.698365943266784
 20
4.166006687607566
 30
0.0
 10
2.711614068788246
 20
4.170839893705887
 30
0.0
 10
2.724946469917363
 20
4.175698382486504
 30
0.0
 10
2.726635658351925
 20
4.179296682183513
 30
0.0
 10
2.726635658351925
 20
4.179296682183513
 30
0.0
  0
SPLINE
  5
92
330
1F
100
AcDbEntity
  8
Layer 1
 62
     7
420
 16777215
370
     9
100
AcDbSpline
210
0.0
220
0.0
230
1.0
 70
     8
 71
     3
 72
    38
 73
    34
 74
     0
 42
0.0000000001
 43
0.0000000001
 12
1.0
 22
0.0
 32
0.0
 13
1.0
 23
0.0
 33
0.0
 40
0.0
 40
0.0
 40
0.0
 40
0.0
 40
1.0
 40
1.0
 40
1.0
 40
2.0
 40
2.0
 40
2.0
 40
3.0
 40
3.0
 40
3.0
 40
4.0
 40
4.0
 40
4.0
 40
5.0
 40
5.0
 40
5.0
 40
6.0
 40
6.0
 40
6.0
 40
7.0
 40
7.0
 40
7.0
 40
8.0
 40
8.0
 40
8.0
 40
9.0
 40
9.0
 40
9.0
 40
10.0
 40
10.0
 40
10.0
 40
11.0
 40
11.0
 40
11.0
 40
11.0
 10
2.206145829267686
 20
3.86447699102204
 30
0.0
 10
2.219790050145068
 20
3.879827792954201
 30
0.0
 10
2.243821239664435
 20
3.890897394018098
 30
0.0
 10
2.262627341509945
 20
3.903467100898031
 30
0.0
 10
2.281429229575072
 20
3.916041021558347
 30
0.0
 10
2.346776535741381
 20
3.945541698013749
 30
0.0
 10
2.352170174630525
 20
3.949329886577301
 30
0.0
 10
2.357559599739286
 20
3.953092792458556
 30
0.0
 10
2.363033300455704
 20
3.959514593760938
 30
0.0
 10
2.369779562847523
 20
3.965873188357591
 30
0.0
 10
2.376572176823528
 20
3.972227752131023
 30
0.0
 10
2.387886177149577
 20
3.9968783679893
 30
0.0
 10
2.387886177149577
 20
3.9968783679893
 30
0.0
 10
2.387886177149577
 20
3.9968783679893
 30
0.0
 10
2.417311005558102
 20
4.055146339533723
 30
0.0
 10
2.422742568470691
 20
4.060228158674578
 30
0.0
 10
2.42817413138328
 20
4.065310163124094
 30
0.0
 10
2.439408263398971
 20
4.087326980312152
 30
0.0
 10
2.439408263398971
 20
4.087326980312152
 30
0.0
 10
2.439408263398971
 20
4.087326980312152
 30
0.0
 10
2.472203922596312
 20
4.084979904639302
 30
0.0
 10
2.47882798535703
 20
4.087407042139413
 30
0.0
 10
2.485494185921602
 20
4.089817324518005
 30
0.0
 10
2.501750950635899
 20
4.132861628620288
 30
0.0
 10
2.517754888527305
 20
4.13895054127253
 30
0.0
 10
2.533725116175623
 20
4.145022598803166
 30
0.0
 10
2.587341257758024
 20
4.149749922893256
 30
0.0
 10
2.600673658887141
 20
4.155923111153091
 30
0.0
 10
2.614048197820062
 20
4.162075230511024
 30
0.0
 10
2.672809564662228
 20
4.19048875162783
 30
0.0
 10
2.672809564662228
 20
4.19048875162783
 30
0.0
 10
2.672809564662228
 20
4.19048875162783
 30
0.0
 10
2.675219378878334
 20
4.193185302323059
 30
0.0
 10
2.689617866444122
 20
4.191415514562575
 30
0.0
  0
SPLINE
  5
93
330
1F
100
AcDbEntity
  8
Layer 1
 62
     7
420
 16777215
370
     9
100
AcDbSpline
210
0.0
220
0.0
230
1.0
 70
     8
 71
     3
 72
    26
 73
    22
 74
     0
 42
0.0000000001
 43
0.0000000001
 12
1.0
 22
0.0
 32
0.0
 13
1.0
 23
0.0
 33
0.0
 40
0.0
 40
0.0
 40
0.0
 40
0.0
 40
1.0
 40
1.0
 40
1.0
 40
2.0
 40
2.0
 40
2.0
 40
3.0
 40
3.0
 40
3.0
 40
4.0
 40
4.0
 40
4.0
 40
5.0
 40
5.0
 40
5.0
 40
6.0
 40
6.0
 40
6.0
 40
7.0
 40
7.0
 40
7.0
 40
7.0
 10
2.030557600743704
 20
3.801598960159683
 30
0.0
 10
2.050762677676099
 20
3.816743286853112
 30
0.0
 10
2.08707703700942
 20
3.841907983295275
 30
0.0
 10
2.104484163768095
 20
3.851886215240193
 30
0.0
 10
2.121891290526694
 20
3.861864447185111
 30
0.0
 10
2.172937026076005
 20
3.895772737920235
 30
0.0
 10
2.172937026076005
 20
3.895772737920235
 30
0.0
 10
2.172937026076005
 20
3.895772737920235
 30
0.0
 10
2.215774317440883
 20
3.919412045864065
 30
0.0
 10
2.242624714581653
 20
3.936983510057606
 30
0.0
 10
2.269495803532853
 20
3.954554974251146
 30
0.0
 10
2.307933908178787
 20
3.963875856456462
 30
0.0
 10
2.318898164733127
 20
3.97799202073664
 30
0.0
 10
2.320933420657739
 20
3.977970951834739
 30
0.0
 10
2.326900324353523
 20
3.981695933692562
 30
0.0
 10
2.33247917890478
 20
3.992023909409188
 30
0.0
 10
2.338075079252247
 20
4.002372954027729
 30
0.0
 10
2.349494424087879
 20
4.030950812579476
 30
0.0
 10
2.359329387499782
 20
4.050372126360748
 30
0.0
 10
2.369122404849248
 20
4.06979765392244
 30
0.0
 10
2.377764676671682
 20
4.093209417725638
 30
0.0
 10
2.381839402301213
 20
4.098333374670321
 30
0.0
  0
SPLINE
  5
94
330
1F
100
AcDbEntity
  8
Layer 1
 62
     7
420
 16777215
370
     9
100
AcDbSpline
210
0.0
220
0.0
230
1.0
 70
     8
 71
     3
 72
    35
 73
    31
 74
     0
 42
0.0000000001
 43
0.0000000001
 12
1.0
 22
0.0
 32
0.0
 13
1.0
 23
0.0
 33
0.0
 40
0.0
 40
0.0
 40
0.0
 40
0.0
 40
1.0
 40
1.0
 40
1.0
 40
2.0
 40
2.0
 40
2.0
 40
3.0
 40
3.0
 40
3.0
 40
4.0
 40
4.0
 40
4.0
 40
5.0
 40
5.0
 40
5.0
 40
6.0
 40
6.0
 40
6.0
 40
7.0
 40
7.0
 40
7.0
 40
8.0
 40
8.0
 40
8.0
 40
9.0
 40
9.0
 40
9.0
 40
10.0
 40
10.0
 40
10.0
 40
10.0
 10
2.349203673241492
 20
4.133725453598635
 30
0.0
 10
2.342352066340128
 20
4.12475450131674
 30
0.0
 10
2.327747103535608
 20
4.092143331288942
 30
0.0
 10
2.319349039234011
 20
4.07662819192189
 30
0.0
 10
2.310976257614685
 20
4.061113052554838
 30
0.0
 10
2.296801100409172
 20
4.028666943612317
 30
0.0
 10
2.295317849714643
 20
4.023462924840373
 30
0.0
 10
2.293859881702398
 20
4.018233623386132
 30
0.0
 10
2.279764786324158
 20
3.988421127182455
 30
0.0
 10
2.279764786324158
 20
3.988421127182455
 30
0.0
 10
2.279764786324158
 20
3.988421127182455
 30
0.0
 10
2.274413285238805
 20
3.98597292078043
 30
0.0
 10
2.26624697885821
 20
3.977022851248749
 30
0.0
 10
2.258076458697234
 20
3.968072781717082
 30
0.0
 10
2.251330196305452
 20
3.963012031478115
 30
0.0
 10
2.24075360754624
 20
3.960707093609054
 30
0.0
 10
2.230139094763621
 20
3.958423224641958
 30
0.0
 10
2.211497330353015
 20
3.951120743239711
 30
0.0
 10
2.20071426635511
 20
3.942250735535291
 30
0.0
 10
2.189914347235673
 20
3.933384941611255
 30
0.0
 10
2.164606382260545
 20
3.9236511089285
 30
0.0
 10
2.155243362251364
 20
3.91867463429719
 30
0.0
 10
2.145880342242259
 20
3.91371501478741
 30
0.0
 10
2.127242791612048
 20
3.906408500899197
 30
0.0
 10
2.115081821429158
 20
3.896265750224946
 30
0.0
 10
2.10292085124628
 20
3.886123180845124
 30
0.0
 10
2.060125881620681
 20
3.863798572380523
 30
0.0
 10
2.037388138743179
 20
3.851351065131666
 30
0.0
 10
2.014633724679596
 20
3.838924626784723
 30
0.0
 10
1.927459036133769
 20
3.785097796183196
 30
0.0
 10
1.915256108422808
 20
3.773640527324144
 30
0.0
  0
SPLINE
  5
95
330
1F
100
AcDbEntity
  8
Layer 1
 62
     7
420
 16777215
370
     9
100
AcDbSpline
210
0.0
220
0.0
230
1.0
 70
     8
 71
     3
 72
    29
 73
    25
 74
     0
 42
0.0000000001
 43
0.0000000001
 12
1.0
 22
0.0
 32
0.0
 13
1.0
 23
0.0
 33
0.0
 40
0.0
 40
0.0
 40
0.0
 40
0.0
 40
1.0
 40
1.0
 40
1.0
 40
2.0
 40
2.0
 40
2.0
 40
3.0
 40
3.0
 40
3.0
 40
4.0
 40
4.0
 40
4.0
 40
5.0
 40
5.0
 40
5.0
 40
6.0
 40
6.0
 40
6.0
 40
7.0
 40
7.0
 40
7.0
 40
8.0
 40
8.0
 40
8.0
 40
8.0
 10
1.870956454989583
 20
3.786867583943704
 30
0.0
 10
1.893959482095726
 20
3.807194860507163
 30
0.0
 10
1.915340384032561
 20
3.818369806080631
 30
0.0
 10
1.927374760526138
 20
3.824564063242355
 30
0.0
 10
1.939409317297532
 20
3.830754106623746
 30
0.0
 10
1.987370565607155
 20
3.850301833816514
 30
0.0
 10
2.000972648680671
 20
3.864333722489088
 30
0.0
 10
2.014570517973867
 20
3.878386860650052
 30
0.0
 10
2.069341235380964
 20
3.905586632430249
 30
0.0
 10
2.080061092673152
 20
3.911839882517357
 30
0.0
 10
2.090780949965316
 20
3.918076277482934
 30
0.0
 10
2.133538179502946
 20
3.939081972687922
 30
0.0
 10
2.152344281348456
 20
3.951655893348238
 30
0.0
 10
2.171150383193978
 20
3.964225600228183
 30
0.0
 10
2.222111843135634
 20
3.995500278224451
 30
0.0
 10
2.230118025861707
 20
3.99920419118036
 30
0.0
 10
2.23143272534095
 20
3.999162053376545
 30
0.0
 10
2.242316920068005
 20
4.010644604917868
 30
0.0
 10
2.247976215802181
 20
4.023627262275277
 30
0.0
 10
2.253656203076364
 20
4.036609919632661
 30
0.0
 10
2.266761060064886
 20
4.076956866791698
 30
0.0
 10
2.272420167118046
 20
4.089939524149082
 30
0.0
 10
2.278096129292812
 20
4.102901112604564
 30
0.0
 10
2.28778782417175
 20
4.160061849736368
 30
0.0
 10
2.28778782417175
 20
4.160061849736368
 30
0.0
  0
SPLINE
  5
96
330
1F
100
AcDbEntity
  8
Layer 1
 62
     7
420
 16777215
370
     9
100
AcDbSpline
210
0.0
220
0.0
230
1.0
 70
     8
 71
     3
 72
    23
 73
    19
 74
     0
 42
0.0000000001
 43
0.0000000001
 12
1.0
 22
0.0
 32
0.0
 13
1.0
 23
0.0
 33
0.0
 40
0.0
 40
0.0
 40
0.0
 40
0.0
 40
1.0
 40
1.0
 40
1.0
 40
2.0
 40
2.0
 40
2.0
 40
3.0
 40
3.0
 40
3.0
 40
4.0
 40
4.0
 40
4.0
 40
5.0
 40
5.0
 40
5.0
 40
6.0
 40
6.0
 40
6.0
 40
6.0
 10
1.81310151909204
 20
3.820118793688544
 30
0.0
 10
1.832114096176332
 20
3.839253570403861
 30
0.0
 10
1.879249174781661
 20
3.841865845491459
 30
0.0
 10
1.896841887687666
 20
3.857090234012149
 30
0.0
 10
1.914413352325078
 20
3.872319016746498
 30
0.0
 10
1.990910141128148
 20
3.921202902526475
 30
0.0
 10
2.021548538286677
 20
3.933406010513168
 30
0.0
 10
2.052182721664874
 20
3.945583835817565
 30
0.0
 10
2.157733706457217
 20
3.997514465247125
 30
0.0
 10
2.167467539139984
 20
4.014306380069974
 30
0.0
 10
2.168803307521128
 20
4.015583155525759
 30
0.0
 10
2.172713695715755
 20
4.01414204263507
 30
0.0
 10
2.179687502248195
 20
4.027082562188639
 30
0.0
 10
2.186682377682561
 20
4.040023081742194
 30
0.0
 10
2.199235229440976
 20
4.063295790792785
 30
0.0
 10
2.203596492136487
 20
4.076320585953996
 30
0.0
 10
2.207957754831998
 20
4.089324312213295
 30
0.0
 10
2.226144430961338
 20
4.165944287149866
 30
0.0
 10
2.22902665674274
 20
4.173743994637195
 30
0.0
  0
SPLINE
  5
97
330
1F
100
AcDbEntity
  8
Layer 1
 62
     7
420
 16777215
370
     9
100
AcDbSpline
210
0.0
220
0.0
230
1.0
 70
     8
 71
     3
 72
    17
 73
    13
 74
     0
 42
0.0000000001
 43
0.0000000001
 12
1.0
 22
0.0
 32
0.0
 13
1.0
 23
0.0
 33
0.0
 40
0.0
 40
0.0
 40
0.0
 40
0.0
 40
1.0
 40
1.0
 40
1.0
 40
2.0
 40
2.0
 40
2.0
 40
3.0
 40
3.0
 40
3.0
 40
4.0
 40
4.0
 40
4.0
 40
4.0
 10
1.683227518936633
 20
3.868636798507244
 30
0.0
 10
1.695552826554427
 20
3.884046593364739
 30
0.0
 10
1.779934584954895
 20
3.917626477979398
 30
0.0
 10
1.794581685563218
 20
3.923736459533504
 30
0.0
 10
1.809254068853887
 20
3.929867509989524
 30
0.0
 10
1.873303530662446
 20
3.945525649140235
 30
0.0
 10
1.890811788150257
 20
3.958137493823996
 30
0.0
 10
1.908303370616649
 20
3.970728269605843
 30
0.0
 10
1.964308545575603
 20
3.981388865223329
 30
0.0
 10
1.985870459791057
 20
3.997805753592211
 30
0.0
 10
2.007432374006511
 20
4.014243710862918
 30
0.0
 10
2.084506093477633
 20
4.081811595915913
 30
0.0
 10
2.136422201538052
 20
4.197145804592651
 30
0.0
  0
SPLINE
  5
98
330
1F
100
AcDbEntity
  8
Layer 1
 62
     7
420
 16777215
370
     9
100
AcDbSpline
210
0.0
220
0.0
230
1.0
 70
     8
 71
     3
 72
     8
 73
     4
 74
     0
 42
0.0000000001
 43
0.0000000001
 12
1.0
 22
0.0
 32
0.0
 13
1.0
 23
0.0
 33
0.0
 40
0.0
 40
0.0
 40
0.0
 40
0.0
 40
1.0
 40
1.0
 40
1.0
 40
1.0
 10
1.600991380998696
 20
3.888327794233002
 30
0.0
 10
1.615887094649578
 20
3.902317545101722
 30
0.0
 10
2.020963984019974
 20
4.073302530412067
 30
0.0
 10
2.035986287390718
 20
4.091244807279256
 30
0.0
  0
SPLINE
  5
99
330
1F
100
AcDbEntity
  8
Layer 1
 62
     7
420
 16777215
370
     9
100
AcDbSpline
210
0.0
220
0.0
230
1.0
 70
     8
 71
     3
 72
    11
 73
     7
 74
     0
 42
0.0000000001
 43
0.0000000001
 12
1.0
 22
0.0
 32
0.0
 13
1.0
 23
0.0
 33
0.0
 40
0.0
 40
0.0
 40
0.0
 40
0.0
 40
1.0
 40
1.0
 40
1.0
 40
2.0
 40
2.0
 40
2.0
 40
2.0
 10
2.391054939996972
 20
4.125824615382107
 30
0.0
 10
2.414715509735843
 20
4.125082990034849
 30
0.0
 10
2.423935068318845
 20
4.152574230746646
 30
0.0
 10
2.450764208011959
 20
4.170145694940199
 30
0.0
 10
2.477593347705073
 20
4.18771715913374
 30
0.0
 10
2.558869818713245
 20
4.223146893336144
 30
0.0
 10
2.581417757538095
 20
4.230348244009241
 30
0.0
  0
SPLINE
  5
9A
330
1F
100
AcDbEntity
  8
Layer 1
 62
     7
420
 16777215
370
     9
100
AcDbSpline
210
0.0
220
0.0
230
1.0
 70
     8
 71
     3
 72
    11
 73
     7
 74
     0
 42
0.0000000001
 43
0.0000000001
 12
1.0
 22
0.0
 32
0.0
 13
1.0
 23
0.0
 33
0.0
 40
0.0
 40
0.0
 40
0.0
 40
0.0
 40
1.0
 40
1.0
 40
1.0
 40
2.0
 40
2.0
 40
2.0
 40
2.0
 10
2.189809002726103
 20
4.181543702124549
 30
0.0
 10
2.183905496410716
 20
4.160677061672168
 30
0.0
 10
2.154484881782587
 20
4.062082222042742
 30
0.0
 10
2.150304811643511
 20
4.054324652359203
 30
0.0
 10
2.146107886382879
 20
4.046546013773764
 30
0.0
 10
1.753372084754447
 20
3.831631024232858
 30
0.0
 10
1.753372084754447
 20
3.831631024232858
 30
0.0
  0
POLYLINE
  5
9B
330
1F
100
AcDbEntity
  8
Layer 1
 62
     7
420
 16777215
370
    40
100
AcDb2dPolyline
 66
     1
 10
0.0
 20
0.0
 30
0.0
  0
VERTEX
  5
9C
330
9B
100
AcDbEntity
  8
Layer 1
 62
     7
420
 16777215
370
    40
100
AcDbVertex
100
AcDb2dVertex
 10
1.300754508742481
 20
2.942427607857919
 30
0.0
  0
VERTEX
  5
9D
330
9B
100
AcDbEntity
  8
Layer 1
 62
     7
420
 16777215
370
    40
100
AcDbVertex
100
AcDb2dVertex
 10
1.369085171419341
 20
2.940270152302244
 30
0.0
  0
VERTEX
  5
9E
330
9B
100
AcDbEntity
  8
Layer 1
 62
     7
420
 16777215
370
    40
100
AcDbVertex
100
AcDb2dVertex
 10
1.305528721915455
 20
3.010678208707519
 30
0.0
  0
SEQEND
  5
9F
330
9B
100
AcDbEntity
  8
Layer 1
 62
     7
420
 16777215
370
    40
  0
POLYLINE
  5
A0
330
1F
100
AcDbEntity
  8
Layer 1
 62
     7
420
 16777215
370
    40
100
AcDb2dPolyline
 66
     1
 10
0.0
 20
0.0
 30
0.0
  0
VERTEX
  5
A1
330
A0
100
AcDbEntity
  8
Layer 1
 62
     7
420
 16777215
370
    40
100
AcDbVertex
100
AcDb2dVertex
 10
2.801199039712654
 20
1.871510566361293
 30
0.0
  0
VERTEX
  5
A2
330
A0
100
AcDbEntity
  8
Layer 1
 62
     7
420
 16777215
370
    40
100
AcDbVertex
100
AcDb2dVertex
 10
3.229485527759127
 20
2.195794408261071
 30
0.0
  0
VERTEX
  5
A3
330
A0
100
AcDbEntity
  8
Layer 1
 62
     7
420
 16777215
370
    40
100
AcDbVertex
100
AcDb2dVertex
 10
3.379394978634309
 20
2.1950527829138
 30
0.0
  0
VERTEX
  5
A4
330
A0
100
AcDbEntity
  8
Layer 1
 62
     7
420
 16777215
370
    40
100
AcDbVertex
100
AcDb2dVertex
 10
3.326516248618772
 20
2.312457131921128
 30
0.0
  0
VERTEX
  5
A5
330
A0
100
AcDbEntity
  8
Layer 1
 62
     7
420
 16777215
370
    40
100
AcDbVertex
100
AcDb2dVertex
 10
3.421161969782133
 20
2.310809543791707
 30
0.0
  0
VERTEX
  5
A6
330
A0
100
AcDbEntity
  8
Layer 1
 62
     7
420
 16777215
370
    40
100
AcDbVertex
100
AcDb2dVertex
 10
3.711272321532028
 20
2.501622160836367
 30
0.0
  0
SEQEND
  5
A7
330
A0
100
AcDbEntity
  8
Layer 1
 62
     7
420
 16777215
370
    40
  0
POLYLINE
  5
A8
330
1F
100
AcDbEntity
  8
Layer 1
 62
     7
420
 16777215
370
    40
100
AcDb2dPolyline
 66
     1
 10
0.0
 20
0.0
 30
0.0
  0
VERTEX
  5
A9
330
A8
100
AcDbEntity
  8
Layer 1
 62
     7
420
 16777215
370
    40
100
AcDbVertex
100
AcDb2dVertex
 10
3.23076251952999
 20
2.195752270457256
 30
0.0
  0
VERTEX
  5
AA
330
A8
100
AcDbEntity
  8
Layer 1
 62
     7
420
 16777215
370
    40
100
AcDbVertex
100
AcDb2dVertex
 10
3.23866314143144
 20
1.818037424562539
 30
0.0
  0
SEQEND
  5
AB
330
A8
100
AcDbEntity
  8
Layer 1
 62
     7
420
 16777215
370
    40
  0
POLYLINE
  5
AC
330
1F
100
AcDbEntity
  8
Layer 1
 62
     7
420
 16777215
370
    40
100
AcDb2dPolyline
 66
     1
 10
0.0
 20
0.0
 30
0.0
  0
VERTEX
  5
AD
330
AC
100
AcDbEntity
  8
Layer 1
 62
     7
420
 16777215
370
    40
100
AcDbVertex
100
AcDb2dVertex
 10
3.428118921193042
 20
1.876814235494142
 30
0.0
  0
VERTEX
  5
AE
330
AC
100
AcDbEntity
  8
Layer 1
 62
     7
420
 16777215
370
    40
100
AcDbVertex
100
AcDb2dVertex
 10
3.421204107585961
 20
2.31212845705132
 30
0.0
  0
SEQEND
  5
AF
330
AC
100
AcDbEntity
  8
Layer 1
 62
     7
420
 16777215
370
    40
  0
SPLINE
  5
B0
330
1F
100
AcDbEntity
  8
Layer 1
 62
     7
420
 16777215
370
     9
100
AcDbSpline
210
0.0
220
0.0
230
1.0
 70
     8
 71
     3
 72
    11
 73
     7
 74
     0
 42
0.0000000001
 43
0.0000000001
 12
1.0
 22
0.0
 32
0.0
 13
1.0
 23
0.0
 33
0.0
 40
0.0
 40
0.0
 40
0.0
 40
0.0
 40
1.0
 40
1.0
 40
1.0
 40
2.0
 40
2.0
 40
2.0
 40
2.0
 10
3.563499257310594
 20
2.403643339390745
 30
0.0
 10
3.593867972524726
 20
2.406647764803223
 30
0.0
 10
3.612429675108059
 20
2.411341916148937
 30
0.0
 10
3.641399415235305
 20
2.413069566105592
 30
0.0
 10
3.670411293166378
 20
2.414797216062286
 30
0.0
 10
3.694278373275311
 20
2.420599591648485
 30
0.0
 10
3.711681286693217
 20
2.430598892495317
 30
0.0
  0
SPLINE
  5
B1
330
1F
100
AcDbEntity
  8
Layer 1
 62
     7
420
 16777215
370
     9
100
AcDbSpline
210
0.0
220
0.0
230
1.0
 70
     8
 71
     3
 72
    14
 73
    10
 74
     0
 42
0.0000000001
 43
0.0000000001
 12
1.0
 22
0.0
 32
0.0
 13
1.0
 23
0.0
 33
0.0
 40
0.0
 40
0.0
 40
0.0
 40
0.0
 40
1.0
 40
1.0
 40
1.0
 40
2.0
 40
2.0
 40
2.0
 40
3.0
 40
3.0
 40
3.0
 40
3.0
 10
3.44931002273486
 20
2.327024170702202
 30
0.0
 10
3.47589054938544
 20
2.335375883419614
 30
0.0
 10
3.533998580855192
 20
2.344102622591044
 30
0.0
 10
3.548603543659712
 20
2.348872621983635
 30
0.0
 10
3.563254858048443
 20
2.353689115380714
 30
0.0
 10
3.604238086045168
 20
2.360270897917328
 30
0.0
 10
3.632141739735744
 20
2.368626824415123
 30
0.0
 10
3.659999041842108
 20
2.376940613109089
 30
0.0
 10
3.703864495620236
 20
2.391339100674877
 30
0.0
 10
3.712957833684893
 20
2.388461088673883
 30
0.0
  0
SPLINE
  5
B2
330
1F
100
AcDbEntity
  8
Layer 1
 62
     7
420
 16777215
370
     9
100
AcDbSpline
210
0.0
220
0.0
230
1.0
 70
     8
 71
     3
 72
    20
 73
    16
 74
     0
 42
0.0000000001
 43
0.0000000001
 12
1.0
 22
0.0
 32
0.0
 13
1.0
 23
0.0
 33
0.0
 40
0.0
 40
0.0
 40
0.0
 40
0.0
 40
1.0
 40
1.0
 40
1.0
 40
2.0
 40
2.0
 40
2.0
 40
3.0
 40
3.0
 40
3.0
 40
4.0
 40
4.0
 40
4.0
 40
5.0
 40
5.0
 40
5.0
 40
5.0
 10
3.341167563007502
 20
2.276492656829658
 30
0.0
 10
3.350547438138139
 20
2.281426853187023
 30
0.0
 10
3.413551882411967
 20
2.276863329033163
 30
0.0
 10
3.419969469933979
 20
2.272704327795976
 30
0.0
 10
3.426387057455991
 20
2.268549540339172
 30
0.0
 10
3.438362621302051
 20
2.272127039883634
 30
0.0
 10
3.451695022431143
 20
2.278262444634897
 30
0.0
 10
3.465069561364089
 20
2.284431278599476
 30
0.0
 10
3.498156164924669
 20
2.291261816598964
 30
0.0
 10
3.517906153575798
 20
2.291961304142369
 30
0.0
 10
3.537660356007286
 20
2.292665005466195
 30
0.0
 10
3.606421050088177
 20
2.30496503040168
 30
0.0
 10
3.627738339236405
 20
2.313527432138206
 30
0.0
 10
3.649051640409299
 20
2.322043623911352
 30
0.0
 10
3.699503461081248
 20
2.336239708397961
 30
0.0
 10
3.71382165866324
 20
2.331836307898622
 30
0.0
  0
SPLINE
  5
B3
330
1F
100
AcDbEntity
  8
Layer 1
 62
     7
420
 16777215
370
     9
100
AcDbSpline
210
0.0
220
0.0
230
1.0
 70
     8
 71
     3
 72
    20
 73
    16
 74
     0
 42
0.0000000001
 43
0.0000000001
 12
1.0
 22
0.0
 32
0.0
 13
1.0
 23
0.0
 33
0.0
 40
0.0
 40
0.0
 40
0.0
 40
0.0
 40
1.0
 40
1.0
 40
1.0
 40
2.0
 40
2.0
 40
2.0
 40
3.0
 40
3.0
 40
3.0
 40
4.0
 40
4.0
 40
4.0
 40
5.0
 40
5.0
 40
5.0
 40
5.0
 10
3.36597830189756
 20
2.228387999516978
 30
0.0
 10
3.383014615982574
 20
2.226491798344985
 30
0.0
 10
3.410421043588055
 20
2.220360747888978
 30
0.0
 10
3.418321881804559
 20
2.220154411697182
 30
0.0
 10
3.426184795997642
 20
2.219909873388095
 30
0.0
 10
3.439352859691856
 20
2.219454785106803
 30
0.0
 10
3.456591435235193
 20
2.224191074256332
 30
0.0
 10
3.473834224558939
 20
2.228923149625504
 30
0.0
 10
3.522760428576021
 20
2.236617512603276
 30
0.0
 10
3.549138693768251
 20
2.239701999843027
 30
0.0
 10
3.57555909676431
 20
2.242828624886581
 30
0.0
 10
3.620537214724916
 20
2.251926316581211
 30
0.0
 10
3.63790197751814
 20
2.259291864839611
 30
0.0
 10
3.655224828669134
 20
2.266615415143772
 30
0.0
 10
3.701643833358831
 20
2.278300228143469
 30
0.0
 10
3.714647559618141
 20
2.273981103251761
 30
0.0
  0
SPLINE
  5
B4
330
1F
100
AcDbEntity
  8
Layer 1
 62
     7
420
 16777215
370
     9
100
AcDbSpline
210
0.0
220
0.0
230
1.0
 70
     8
 71
     3
 72
    11
 73
     7
 74
     0
 42
0.0000000001
 43
0.0000000001
 12
1.0
 22
0.0
 32
0.0
 13
1.0
 23
0.0
 33
0.0
 40
0.0
 40
0.0
 40
0.0
 40
0.0
 40
1.0
 40
1.0
 40
1.0
 40
2.0
 40
2.0
 40
2.0
 40
2.0
 10
3.428654071301581
 20
2.046171494451869
 30
0.0
 10
3.452230172539682
 20
2.044115169625393
 30
0.0
 10
3.511695264704612
 20
2.051480857733395
 30
0.0
 10
3.518276966249434
 20
2.052593295754264
 30
0.0
 10
3.524901029010152
 20
2.053705733775145
 30
0.0
 10
3.673645143964854
 20
2.061273683341483
 30
0.0
 10
3.689527107673636
 20
2.063414283775614
 30
0.0
  0
SPLINE
  5
B5
330
1F
100
AcDbEntity
  8
Layer 1
 62
     7
420
 16777215
370
     9
100
AcDbSpline
210
0.0
220
0.0
230
1.0
 70
     8
 71
     3
 72
    17
 73
    13
 74
     0
 42
0.0000000001
 43
0.0000000001
 12
1.0
 22
0.0
 32
0.0
 13
1.0
 23
0.0
 33
0.0
 40
0.0
 40
0.0
 40
0.0
 40
0.0
 40
1.0
 40
1.0
 40
1.0
 40
2.0
 40
2.0
 40
2.0
 40
3.0
 40
3.0
 40
3.0
 40
4.0
 40
4.0
 40
4.0
 40
4.0
 10
3.42729324151805
 20
2.087036736597901
 30
0.0
 10
3.436592833541555
 20
2.090656373946167
 30
0.0
 10
3.485603313166267
 20
2.100942211858978
 30
0.0
 10
3.497456677381251
 20
2.100575612965751
 30
0.0
 10
3.509263690012024
 20
2.100242724315561
 30
0.0
 10
3.559757420331253
 20
2.117034639138397
 30
0.0
 10
3.578272996424377
 20
2.120409877224486
 30
0.0
 10
3.596834473913759
 20
2.123780901530217
 30
0.0
 10
3.621851688042549
 20
2.125592827094541
 30
0.0
 10
3.640329115018251
 20
2.127649151921017
 30
0.0
 10
3.658806541993954
 20
2.1297096905279
 30
0.0
 10
3.703864495620236
 20
2.140117728071787
 30
0.0
 10
3.713164308923625
 20
2.143779503223881
 30
0.0
  0
SPLINE
  5
B6
330
1F
100
AcDbEntity
  8
Layer 1
 62
     7
420
 16777215
370
     9
100
AcDbSpline
210
0.0
220
0.0
230
1.0
 70
     8
 71
     3
 72
    23
 73
    19
 74
     0
 42
0.0000000001
 43
0.0000000001
 12
1.0
 22
0.0
 32
0.0
 13
1.0
 23
0.0
 33
0.0
 40
0.0
 40
0.0
 40
0.0
 40
0.0
 40
1.0
 40
1.0
 40
1.0
 40
2.0
 40
2.0
 40
2.0
 40
3.0
 40
3.0
 40
3.0
 40
4.0
 40
4.0
 40
4.0
 40
5.0
 40
5.0
 40
5.0
 40
6.0
 40
6.0
 40
6.0
 40
6.0
 10
3.381286966025906
 20
2.130531377702419
 30
0.0
 10
3.393346805479597
 20
2.136746703766082
 30
0.0
 10
3.404989480675466
 20
2.131108665614761
 30
0.0
 10
3.415443869803564
 20
2.128146378006111
 30
0.0
 10
3.425851907347452
 20
2.125179876617077
 30
0.0
 10
3.457661735452272
 20
2.133413603483796
 30
0.0
 10
3.464327936016818
 20
2.135840740983907
 30
0.0
 10
3.470994136581364
 20
2.138267878484018
 30
0.0
 10
3.509305827815827
 20
2.143615165788977
 30
0.0
 10
3.51979814096737
 20
2.14328649091917
 30
0.0
 10
3.530332591922742
 20
2.142957953146113
 30
0.0
 10
3.580535571395608
 20
2.150614255003714
 30
0.0
 10
3.603252061435746
 20
2.161721780091044
 30
0.0
 10
3.625968551475908
 20
2.172833656810288
 30
0.0
 10
3.653741804975071
 20
2.178551618937314
 30
0.0
 10
3.670820029863459
 20
2.178016606811235
 30
0.0
 10
3.687940619556103
 20
2.177485532500655
 30
0.0
 10
3.718431534401311
 20
2.185715045586992
 30
0.0
 10
3.718431534401311
 20
2.185715045586992
 30
0.0
  0
SPLINE
  5
B7
330
1F
100
AcDbEntity
  8
Layer 1
 62
     7
420
 16777215
370
     9
100
AcDbSpline
210
0.0
220
0.0
230
1.0
 70
     8
 71
     3
 72
    20
 73
    16
 74
     0
 42
0.0000000001
 43
0.0000000001
 12
1.0
 22
0.0
 32
0.0
 13
1.0
 23
0.0
 33
0.0
 40
0.0
 40
0.0
 40
0.0
 40
0.0
 40
1.0
 40
1.0
 40
1.0
 40
2.0
 40
2.0
 40
2.0
 40
3.0
 40
3.0
 40
3.0
 40
4.0
 40
4.0
 40
4.0
 40
5.0
 40
5.0
 40
5.0
 40
5.0
 10
3.380343079220286
 20
2.183161494675397
 30
0.0
 10
3.400013006044143
 20
2.181227369479997
 30
0.0
 10
3.411782094651471
 20
2.179583995130959
 30
0.0
 10
3.420917570519956
 20
2.177978544805367
 30
0.0
 10
3.430090970411887
 20
2.176373232420739
 30
0.0
 10
3.469637299298332
 20
2.17904884502242
 30
0.0
 10
3.480293949884778
 20
2.183983181849915
 30
0.0
 10
3.490992738275029
 20
2.188921732457794
 30
0.0
 10
3.551979006175568
 20
2.204108196955038
 30
0.0
 10
3.573169883287619
 20
2.208718072693109
 30
0.0
 10
3.59436519860982
 20
2.21328594950075
 30
0.0
 10
3.663247866516738
 20
2.229538361561291
 30
0.0
 10
3.673946654906988
 20
2.234476912169169
 30
0.0
 10
3.684607519273817
 20
2.239415462777022
 30
0.0
 10
3.708432233554479
 20
2.243898925103634
 30
0.0
 10
3.714976234487949
 20
2.242419888189501
 30
0.0
  0
SPLINE
  5
B8
330
1F
100
AcDbEntity
  8
Layer 1
 62
     7
420
 16777215
370
     9
100
AcDbSpline
210
0.0
220
0.0
230
1.0
 70
     8
 71
     3
 72
     8
 73
     4
 74
     0
 42
0.0000000001
 43
0.0000000001
 12
1.0
 22
0.0
 32
0.0
 13
1.0
 23
0.0
 33
0.0
 40
0.0
 40
0.0
 40
0.0
 40
0.0
 40
1.0
 40
1.0
 40
1.0
 40
1.0
 10
2.807494427603564
 20
1.528032686071533
 30
0.0
 10
2.83025305544753
 20
1.540459124418501
 30
0.0
 10
2.980825682338744
 20
1.544904662721668
 30
0.0
 10
3.004650396619404
 20
1.549430384604218
 30
0.0
  0
SPLINE
  5
B9
330
1F
100
AcDbEntity
  8
Layer 1
 62
     7
420
 16777215
370
     9
100
AcDbSpline
210
0.0
220
0.0
230
1.0
 70
     8
 71
     3
 72
    17
 73
    13
 74
     0
 42
0.0000000001
 43
0.0000000001
 12
1.0
 22
0.0
 32
0.0
 13
1.0
 23
0.0
 33
0.0
 40
0.0
 40
0.0
 40
0.0
 40
0.0
 40
1.0
 40
1.0
 40
1.0
 40
2.0
 40
2.0
 40
2.0
 40
3.0
 40
3.0
 40
3.0
 40
4.0
 40
4.0
 40
4.0
 40
4.0
 10
2.806302130540871
 20
1.572804102631835
 30
0.0
 10
2.806302130540871
 20
1.572804102631835
 30
0.0
 10
2.822188082982873
 20
1.576217264741343
 30
0.0
 10
2.834121305838355
 20
1.579798978066163
 30
0.0
 10
2.846092655904006
 20
1.583376477610626
 30
0.0
 10
2.921481400720975
 20
1.596751139491112
 30
0.0
 10
2.942714640066596
 20
1.602675591760847
 30
0.0
 10
2.963947879412217
 20
1.608604380758505
 30
0.0
 10
2.989171568779739
 20
1.615679318020132
 30
0.0
 10
3.009005833038499
 20
1.620331331562031
 30
0.0
 10
3.028882235101087
 20
1.624979131323521
 30
0.0
 10
3.097812329589563
 20
1.645003284448851
 30
0.0
 10
3.109867955262871
 20
1.652533309991718
 30
0.0
  0
SPLINE
  5
BA
330
1F
100
AcDbEntity
  8
Layer 1
 62
     7
420
 16777215
370
     9
100
AcDbSpline
210
0.0
220
0.0
230
1.0
 70
     8
 71
     3
 72
    17
 73
    13
 74
     0
 42
0.0000000001
 43
0.0000000001
 12
1.0
 22
0.0
 32
0.0
 13
1.0
 23
0.0
 33
0.0
 40
0.0
 40
0.0
 40
0.0
 40
0.0
 40
1.0
 40
1.0
 40
1.0
 40
2.0
 40
2.0
 40
2.0
 40
3.0
 40
3.0
 40
3.0
 40
4.0
 40
4.0
 40
4.0
 40
4.0
 10
2.806508402994142
 20
1.621443893154265
 30
0.0
 10
2.825023753993289
 20
1.624814917545235
 30
0.0
 10
2.901853611700946
 20
1.642141858820044
 30
0.0
 10
2.923128988850395
 20
1.649343209493104
 30
0.0
 10
2.944400152219461
 20
1.656582484189635
 30
0.0
 10
2.895387730442861
 20
1.651255997037272
 30
0.0
 10
2.911560011706696
 20
1.663888910622922
 30
0.0
 10
2.927732500813363
 20
1.6765639620124
 30
0.0
 10
2.98357351843755
 20
1.695820938358843
 30
0.0
 10
2.992789056133283
 20
1.695534401292813
 30
0.0
 10
3.002008807609425
 20
1.695243776233029
 30
0.0
 10
3.198095551405534
 20
1.729708428941346
 30
0.0
 10
3.208587864557078
 20
1.729379754071589
 30
0.0
  0
SPLINE
  5
BB
330
1F
100
AcDbEntity
  8
Layer 1
 62
     7
420
 16777215
370
     9
100
AcDbSpline
210
0.0
220
0.0
230
1.0
 70
     8
 71
     3
 72
    23
 73
    19
 74
     0
 42
0.0000000001
 43
0.0000000001
 12
1.0
 22
0.0
 32
0.0
 13
1.0
 23
0.0
 33
0.0
 40
0.0
 40
0.0
 40
0.0
 40
0.0
 40
1.0
 40
1.0
 40
1.0
 40
2.0
 40
2.0
 40
2.0
 40
3.0
 40
3.0
 40
3.0
 40
4.0
 40
4.0
 40
4.0
 40
5.0
 40
5.0
 40
5.0
 40
6.0
 40
6.0
 40
6.0
 40
6.0
 10
2.804452078167666
 20
1.680697949316659
 30
0.0
 10
2.830868470789381
 20
1.685143487619825
 30
0.0
 10
2.880207421877862
 20
1.707240551943768
 30
0.0
 10
2.896051236114721
 20
1.708062239118286
 30
0.0
 10
2.911852912547778
 20
1.708888140073213
 30
0.0
 10
2.897608184861408
 20
1.722199203551049
 30
0.0
 10
2.902959685946724
 20
1.724668478854962
 30
0.0
 10
2.908264835447855
 20
1.727137754158927
 30
0.0
 10
2.954768115745209
 20
1.741456179897442
 30
0.0
 10
2.962668953961712
 20
1.741207566854882
 30
0.0
 10
2.97056979217824
 20
1.740963294534291
 30
0.0
 10
3.046118660649704
 20
1.760919631482567
 30
0.0
 10
3.055502749560749
 20
1.765942457698101
 30
0.0
 10
3.064844700667966
 20
1.770876794525571
 30
0.0
 10
3.120559304880695
 20
1.786227596457744
 30
0.0
 10
3.120559304880695
 20
1.786227596457744
 30
0.0
 10
3.120559304880695
 20
1.786227596457744
 30
0.0
 10
3.194755549849484
 20
1.802315938448222
 30
0.0
 10
3.203928949741415
 20
1.800710359631163
 30
0.0
  0
SPLINE
  5
BC
330
1F
100
AcDbEntity
  8
Layer 1
 62
     7
420
 16777215
370
     9
100
AcDbSpline
210
0.0
220
0.0
230
1.0
 70
     8
 71
     3
 72
    32
 73
    28
 74
     0
 42
0.0000000001
 43
0.0000000001
 12
1.0
 22
0.0
 32
0.0
 13
1.0
 23
0.0
 33
0.0
 40
0.0
 40
0.0
 40
0.0
 40
0.0
 40
1.0
 40
1.0
 40
1.0
 40
2.0
 40
2.0
 40
2.0
 40
3.0
 40
3.0
 40
3.0
 40
4.0
 40
4.0
 40
4.0
 40
5.0
 40
5.0
 40
5.0
 40
6.0
 40
6.0
 40
6.0
 40
7.0
 40
7.0
 40
7.0
 40
8.0
 40
8.0
 40
8.0
 40
9.0
 40
9.0
 40
9.0
 40
9.0
 10
2.806053314712876
 20
1.733248004462388
 30
0.0
 10
2.82062035349395
 20
1.735426655370803
 30
0.0
 10
2.910740474526872
 20
1.757565731047736
 30
0.0
 10
2.930696938416708
 20
1.764851357328451
 30
0.0
 10
2.950699753890755
 20
1.77209484580539
 30
0.0
 10
2.91402928701061
 20
1.784828749420537
 30
0.0
 10
2.937605388248711
 20
1.78145338328477
 30
0.0
 10
2.961185703267195
 20
1.778078145198682
 30
0.0
 10
3.032908459151688
 20
1.800836773042647
 30
0.0
 10
3.050113324451988
 20
1.802935235672925
 30
0.0
 10
3.067271838168077
 20
1.805033698303254
 30
0.0
 10
3.103358653360778
 20
1.823591187106204
 30
0.0
 10
3.117761354706949
 20
1.821821399345734
 30
0.0
 10
3.13216405605312
 20
1.820051611585212
 30
0.0
 10
3.165372859244801
 20
1.830876813386971
 30
0.0
 10
3.178747398177721
 20
1.837007863842953
 30
0.0
 10
3.192122152449605
 20
1.843181052102813
 30
0.0
 10
3.229198990693147
 20
1.852518789429622
 30
0.0
 10
3.234381940563177
 20
1.849720968944894
 30
0.0
 10
3.239564890433207
 20
1.846922889082129
 30
0.0
 10
3.264379843103673
 20
1.842190813712983
 30
0.0
 10
3.276191069514829
 20
1.840547439363945
 30
0.0
 10
3.28800229592596
 20
1.838815575626894
 30
0.0
 10
3.308864722597971
 20
1.834247837692651
 30
0.0
 10
3.325736699248081
 20
1.825811849367609
 30
0.0
 10
3.342566538094363
 20
1.817380074822924
 30
0.0
 10
3.348941987812547
 20
1.811944298129977
 30
0.0
 10
3.36198785187566
 20
1.808901948694054
 30
0.0
  0
SPLINE
  5
BD
330
1F
100
AcDbEntity
  8
Layer 1
 62
     7
420
 16777215
370
     9
100
AcDbSpline
210
0.0
220
0.0
230
1.0
 70
     8
 71
     3
 72
    29
 73
    25
 74
     0
 42
0.0000000001
 43
0.0000000001
 12
1.0
 22
0.0
 32
0.0
 13
1.0
 23
0.0
 33
0.0
 40
0.0
 40
0.0
 40
0.0
 40
0.0
 40
1.0
 40
1.0
 40
1.0
 40
2.0
 40
2.0
 40
2.0
 40
3.0
 40
3.0
 40
3.0
 40
4.0
 40
4.0
 40
4.0
 40
5.0
 40
5.0
 40
5.0
 40
6.0
 40
6.0
 40
6.0
 40
7.0
 40
7.0
 40
7.0
 40
8.0
 40
8.0
 40
8.0
 40
8.0
 10
2.8039969898864
 20
1.79250218419611
 30
0.0
 10
2.830417392882433
 20
1.795633023020047
 30
0.0
 10
2.825021603998569
 20
1.798118884696174
 30
0.0
 10
2.847611680627248
 20
1.805320235369234
 30
0.0
 10
2.870201757255927
 20
1.812479448238516
 30
0.0
 10
2.931187800726724
 20
1.827708050539564
 30
0.0
 10
2.945754839507799
 20
1.831205488256779
 30
0.0
 10
2.960322087772056
 20
1.834660788170115
 30
0.0
 10
3.012172445891161
 20
1.851448618945192
 30
0.0
 10
3.030607946321778
 20
1.853509027819453
 30
0.0
 10
3.049123086062183
 20
1.855565352645954
 30
0.0
 10
3.115418492814468
 20
1.871860041383671
 30
0.0
 10
3.125868668162184
 20
1.871531366513864
 30
0.0
 10
3.136403119117555
 20
1.871244829447884
 30
0.0
 10
3.235616578215159
 20
1.889187106315047
 30
0.0
 10
3.235616578215159
 20
1.889187106315047
 30
0.0
 10
3.235616578215159
 20
1.889187106315047
 30
0.0
 10
3.249977358557999
 20
1.88605626749111
 30
0.0
 10
3.272116343885298
 20
1.87881699279463
 30
0.0
 10
3.294255546013068
 20
1.871531366513864
 30
0.0
 10
3.321577698010894
 20
1.862808841122842
 30
0.0
 10
3.339810725724444
 20
1.856922189928961
 30
0.0
 10
3.358077463681032
 20
1.851119814342787
 30
0.0
 10
3.382728078916595
 20
1.841120513495955
 30
0.0
 10
3.382728078916595
 20
1.841120513495955
 30
0.0
  0
SPLINE
  5
BE
330
1F
100
AcDbEntity
  8
Layer 1
 62
     7
420
 16777215
370
     9
100
AcDbSpline
210
0.0
220
0.0
230
1.0
 70
     8
 71
     3
 72
    26
 73
    22
 74
     0
 42
0.0000000001
 43
0.0000000001
 12
1.0
 22
0.0
 32
0.0
 13
1.0
 23
0.0
 33
0.0
 40
0.0
 40
0.0
 40
0.0
 40
0.0
 40
1.0
 40
1.0
 40
1.0
 40
2.0
 40
2.0
 40
2.0
 40
3.0
 40
3.0
 40
3.0
 40
4.0
 40
4.0
 40
4.0
 40
5.0
 40
5.0
 40
5.0
 40
6.0
 40
6.0
 40
6.0
 40
7.0
 40
7.0
 40
7.0
 40
7.0
 10
2.80436780256001
 20
1.846409076624847
 30
0.0
 10
2.842759555621746
 20
1.854436328252834
 30
0.0
 10
2.923457663720203
 20
1.869003496859174
 30
0.0
 10
2.945967678521609
 20
1.873571104968202
 30
0.0
 10
2.968435555519211
 20
1.878096705098617
 30
0.0
 10
2.940858426703749
 20
1.883957804860832
 30
0.0
 10
2.972584188993904
 20
1.889553705208325
 30
0.0
 10
3.004309531698077
 20
1.895111681532348
 30
0.0
 10
3.065253437365022
 20
1.90897923276998
 30
0.0
 10
3.103485066772237
 20
1.911692907336096
 30
0.0
 10
3.141712482399043
 20
1.914490857509867
 30
0.0
 10
3.223889627411634
 20
1.934245059941329
 30
0.0
 10
3.234297664955546
 20
1.931282772332704
 30
0.0
 10
3.244752270752138
 20
1.928320484724029
 30
0.0
 10
3.256479004887145
 20
1.925358328715194
 30
0.0
 10
3.273435257144885
 20
1.919555821529179
 30
0.0
 10
3.290303237833844
 20
1.913753445942954
 30
0.0
 10
3.34804023881078
 20
1.9079889943802
 30
0.0
 10
3.361001827266237
 20
1.902313032205459
 30
0.0
 10
3.37396341572172
 20
1.89663285625031
 30
0.0
 10
3.382812354524225
 20
1.885854006032787
 30
0.0
 10
3.382812354524225
 20
1.885854006032787
 30
0.0
  0
SPLINE
  5
BF
330
1F
100
AcDbEntity
  8
Layer 1
 62
     7
420
 16777215
370
     9
100
AcDbSpline
210
0.0
220
0.0
230
1.0
 70
     8
 71
     3
 72
    35
 73
    31
 74
     0
 42
0.0000000001
 43
0.0000000001
 12
1.0
 22
0.0
 32
0.0
 13
1.0
 23
0.0
 33
0.0
 40
0.0
 40
0.0
 40
0.0
 40
0.0
 40
1.0
 40
1.0
 40
1.0
 40
2.0
 40
2.0
 40
2.0
 40
3.0
 40
3.0
 40
3.0
 40
4.0
 40
4.0
 40
4.0
 40
5.0
 40
5.0
 40
5.0
 40
6.0
 40
6.0
 40
6.0
 40
7.0
 40
7.0
 40
7.0
 40
8.0
 40
8.0
 40
8.0
 40
9.0
 40
9.0
 40
9.0
 40
10.0
 40
10.0
 40
10.0
 40
10.0
 10
2.853500481815824
 20
1.902743106553771
 30
0.0
 10
2.865147370792076
 20
1.897109412718136
 30
0.0
 10
2.920866188785188
 20
1.911141301745071
 30
0.0
 10
2.940700453043923
 20
1.914474271137654
 30
0.0
 10
2.960492579498855
 20
1.917807371419915
 30
0.0
 10
2.885139608710637
 20
1.912021582205903
 30
0.0
 10
2.897115380443135
 20
1.915561157726895
 30
0.0
 10
2.909048598598929
 20
1.919142871051715
 30
0.0
 10
2.971062804482952
 20
1.925067446269016
 30
0.0
 10
2.980569093025072
 20
1.935315360158408
 30
0.0
 10
2.990113515826427
 20
1.945521136243971
 30
0.0
 10
3.032415446846976
 20
1.952103061200887
 30
0.0
 10
3.050892873822679
 20
1.954159386027337
 30
0.0
 10
3.069370300798381
 20
1.956219924634246
 30
0.0
 10
3.103729466034388
 20
1.961693625350613
 30
0.0
 10
3.126197343031991
 20
1.964942450025268
 30
0.0
 10
3.148665220029594
 20
1.968195488480281
 30
0.0
 10
3.168006471983643
 20
1.979673959213111
 30
0.0
 10
3.187183386502763
 20
1.980128914522538
 30
0.0
 10
3.212200600631579
 20
1.980664064631027
 30
0.0
 10
3.228128690476069
 20
1.985396140000173
 30
0.0
 10
3.233353778149926
 20
1.98395502710951
 30
0.0
 10
3.238536728019981
 20
1.982429638611191
 30
0.0
 10
3.250347954431138
 20
1.980744126458325
 30
0.0
 10
3.268618906168108
 20
1.976260797017352
 30
0.0
 10
3.286890075638085
 20
1.971730850220916
 30
0.0
 10
3.309071197836702
 20
1.967083050459375
 30
0.0
 10
3.329975762312516
 20
1.962473174721304
 30
0.0
 10
3.350876113007947
 20
1.957863298983284
 30
0.0
 10
3.383385648826915
 20
1.94502812393926
 30
0.0
 10
3.383385648826915
 20
1.94502812393926
 30
0.0
  0
SPLINE
  5
C0
330
1F
100
AcDbEntity
  8
Layer 1
 62
     7
420
 16777215
370
     9
100
AcDbSpline
210
0.0
220
0.0
230
1.0
 70
     8
 71
     3
 72
    32
 73
    28
 74
     0
 42
0.0000000001
 43
0.0000000001
 12
1.0
 22
0.0
 32
0.0
 13
1.0
 23
0.0
 33
0.0
 40
0.0
 40
0.0
 40
0.0
 40
0.0
 40
1.0
 40
1.0
 40
1.0
 40
2.0
 40
2.0
 40
2.0
 40
3.0
 40
3.0
 40
3.0
 40
4.0
 40
4.0
 40
4.0
 40
5.0
 40
5.0
 40
5.0
 40
6.0
 40
6.0
 40
6.0
 40
7.0
 40
7.0
 40
7.0
 40
8.0
 40
8.0
 40
8.0
 40
9.0
 40
9.0
 40
9.0
 40
9.0
 10
2.963969217063474
 20
1.962823187242369
 30
0.0
 10
2.986314894430001
 20
1.962123699698926
 30
0.0
 10
2.921454444943795
 20
1.954694536135877
 30
0.0
 10
2.953348340505752
 20
1.965561875741463
 30
0.0
 10
2.98523823043782
 20
1.976382863762764
 30
0.0
 10
3.03819702228063
 20
1.987865415304138
 30
0.0
 10
3.056674660822738
 20
1.989921740130638
 30
0.0
 10
3.075194014035863
 20
1.99193606043496
 30
0.0
 10
3.125477055335978
 20
2.002225978846506
 30
0.0
 10
3.153254509621294
 20
2.007901941021234
 30
0.0
 10
3.181073673698013
 20
2.013624254780186
 30
0.0
 10
3.235473578431487
 20
2.027698281256562
 30
0.0
 10
3.245923753779203
 20
2.026092830930957
 30
0.0
 10
3.256420280711129
 20
2.024403104997709
 30
0.0
 10
3.269588344405343
 20
2.026627981039496
 30
0.0
 10
3.291765470556558
 20
2.020699192041826
 30
0.0
 10
3.31398894829201
 20
2.01473261287822
 30
0.0
 10
3.333494537680938
 20
2.008850041607212
 30
0.0
 10
3.355633739808733
 20
2.001564415326496
 30
0.0
 10
3.377768728156146
 20
1.994325140629952
 30
0.0
 10
3.38550522893777
 20
1.99012821536932
 30
0.0
 10
3.394682842610084
 20
1.988522898239201
 30
0.0
 10
3.403860456282372
 20
1.986875176914307
 30
0.0
 10
3.433980558453944
 20
1.983335601393315
 30
0.0
 10
3.441839258866644
 20
1.981772288871576
 30
0.0
 10
3.449660035255925
 20
1.980208976349786
 30
0.0
 10
3.581633573039021
 20
1.988173290021374
 30
0.0
 10
3.601590036928858
 20
1.995416911516966
 30
0.0
  0
SPLINE
  5
C1
330
1F
100
AcDbEntity
  8
Layer 1
 62
     7
420
 16777215
370
     9
100
AcDbSpline
210
0.0
220
0.0
230
1.0
 70
     8
 71
     3
 72
    32
 73
    28
 74
     0
 42
0.0000000001
 43
0.0000000001
 12
1.0
 22
0.0
 32
0.0
 13
1.0
 23
0.0
 33
0.0
 40
0.0
 40
0.0
 40
0.0
 40
0.0
 40
1.0
 40
1.0
 40
1.0
 40
2.0
 40
2.0
 40
2.0
 40
3.0
 40
3.0
 40
3.0
 40
4.0
 40
4.0
 40
4.0
 40
5.0
 40
5.0
 40
5.0
 40
6.0
 40
6.0
 40
6.0
 40
7.0
 40
7.0
 40
7.0
 40
8.0
 40
8.0
 40
8.0
 40
9.0
 40
9.0
 40
9.0
 40
9.0
 10
2.991989244108709
 20
2.01777904223699
 30
0.0
 10
3.015813958389344
 20
2.023665827514012
 30
0.0
 10
3.043506923060805
 20
2.025393477514386
 30
0.0
 10
3.067415912949097
 20
2.033867255736002
 30
0.0
 10
3.091409178445019
 20
2.042303244061069
 30
0.0
 10
3.180725811171669
 20
2.088621924269609
 30
0.0
 10
3.199161100343543
 20
2.08936354961688
 30
0.0
 10
3.217596389515443
 20
2.090105174964126
 30
0.0
 10
3.22111355238783
 20
2.068475034014568
 30
0.0
 10
3.237037428451938
 20
2.073249247187543
 30
0.0
 10
3.252961520339365
 20
2.07798145801203
 30
0.0
 10
3.258355159364807
 20
2.081807435143661
 30
0.0
 10
3.272673369143755
 20
2.077408248424705
 30
0.0
 10
3.287033932686098
 20
2.073004847925366
 30
0.0
 10
3.284400319947256
 20
2.074403823012251
 30
0.0
 10
3.307938497161912
 20
2.069709671666525
 30
0.0
 10
3.331476674376568
 20
2.065019734101207
 30
0.0
 10
3.356333764850862
 20
2.06028765873206
 30
0.0
 10
3.37328580332822
 20
2.055804196405448
 30
0.0
 10
3.390242055585961
 20
2.051358658102282
 30
0.0
 10
3.41254559514866
 20
2.049302333275806
 30
0.0
 10
3.421681291102711
 20
2.046378104347582
 30
0.0
 10
3.430774409081828
 20
2.043499957689581
 30
0.0
 10
3.430896608712904
 20
2.047406132103851
 30
0.0
 10
3.443942472776017
 20
2.044401706691373
 30
0.0
 10
3.456984123058772
 20
2.041359357255474
 30
0.0
 10
3.593588874231197
 20
1.991421039698657
 30
0.0
 10
3.593588874231197
 20
1.991421039698657
 30
0.0
  0
SPLINE
  5
C2
330
1F
100
AcDbEntity
  8
Layer 1
 62
     7
420
 16777215
370
     9
100
AcDbSpline
210
0.0
220
0.0
230
1.0
 70
     8
 71
     3
 72
    26
 73
    22
 74
     0
 42
0.0000000001
 43
0.0000000001
 12
1.0
 22
0.0
 32
0.0
 13
1.0
 23
0.0
 33
0.0
 40
0.0
 40
0.0
 40
0.0
 40
0.0
 40
1.0
 40
1.0
 40
1.0
 40
2.0
 40
2.0
 40
2.0
 40
3.0
 40
3.0
 40
3.0
 40
4.0
 40
4.0
 40
4.0
 40
5.0
 40
5.0
 40
5.0
 40
6.0
 40
6.0
 40
6.0
 40
7.0
 40
7.0
 40
7.0
 40
7.0
 10
3.105069716945258
 20
2.105472025769801
 30
0.0
 10
3.12773985540121
 20
2.116579687287589
 30
0.0
 10
3.152845558918013
 20
2.119748313704513
 30
0.0
 10
3.173914460828731
 20
2.120409877224486
 30
0.0
 10
3.194983362739473
 20
2.121067226964101
 30
0.0
 10
3.228107890323498
 20
2.129212464442806
 30
0.0
 10
3.244031766387631
 20
2.133944539811953
 30
0.0
 10
3.257157692278017
 20
2.132216889855259
 30
0.0
 10
3.260988018645371
 20
2.128184302029556
 30
0.0
 10
3.2806158076654
 20
2.124935477354926
 30
0.0
 10
3.300201458881626
 20
2.121682438899913
 30
0.0
 10
3.326166773596393
 20
2.110368438573851
 30
0.0
 10
3.336785500159395
 20
2.112673376442886
 30
0.0
 10
3.347362088918594
 20
2.114978450701895
 30
0.0
 10
3.382707278764024
 20
2.10987542626914
 30
0.0
 10
3.390237524299866
 20
2.097815586815449
 30
0.0
 10
3.397729405826365
 20
2.085717823338288
 30
0.0
 10
3.402790156065318
 20
2.079009484969914
 30
0.0
 10
3.41332460702069
 20
2.078680810100107
 30
0.0
 10
3.423816920172233
 20
2.078352135230312
 30
0.0
 10
3.715997399296182
 20
2.104360125247581
 30
0.0
 10
3.715997399296182
 20
2.104360125247581
 30
0.0
  0
SPLINE
  5
C3
330
1F
100
AcDbEntity
  8
Layer 1
 62
     7
420
 16777215
370
     9
100
AcDbSpline
210
0.0
220
0.0
230
1.0
 70
     8
 71
     3
 72
    11
 73
     7
 74
     0
 42
0.0000000001
 43
0.0000000001
 12
1.0
 22
0.0
 32
0.0
 13
1.0
 23
0.0
 33
0.0
 40
0.0
 40
0.0
 40
0.0
 40
0.0
 40
1.0
 40
1.0
 40
1.0
 40
2.0
 40
2.0
 40
2.0
 40
2.0
 10
3.257056509778876
 20
2.194972721086553
 30
0.0
 10
3.287260670578714
 20
2.192667783217517
 30
0.0
 10
3.296438284251028
 20
2.192419170174983
 30
0.0
 10
3.314624960380367
 20
2.185217819501898
 30
0.0
 10
3.332811636509708
 20
2.178100882421012
 30
0.0
 10
3.361288364332242
 20
2.162749942504294
 30
0.0
 10
3.377090040765274
 20
2.163575843459196
 30
0.0
  0
POLYLINE
  5
C4
330
1F
100
AcDbEntity
  8
Layer 1
 62
     7
420
 16777215
370
    40
100
AcDb2dPolyline
 66
     1
 10
0.0
 20
0.0
 30
0.0
  0
VERTEX
  5
C5
330
C4
100
AcDbEntity
  8
Layer 1
 62
     7
420
 16777215
370
    40
100
AcDbVertex
100
AcDb2dVertex
 10
3.23076251952999
 20
2.195752270457256
 30
0.0
  0
VERTEX
  5
C6
330
C4
100
AcDbEntity
  8
Layer 1
 62
     7
420
 16777215
370
    40
100
AcDbVertex
100
AcDb2dVertex
 10
3.23866314143144
 20
1.748592980118095
 30
0.0
  0
SEQEND
  5
C7
330
C4
100
AcDbEntity
  8
Layer 1
 62
     7
420
 16777215
370
    40
  0
POLYLINE
  5
C8
330
1F
100
AcDbEntity
  8
Layer 1
 62
     7
420
 16777215
370
    40
100
AcDb2dPolyline
 66
     1
 10
0.0
 20
0.0
 30
0.0
  0
VERTEX
  5
C9
330
C8
100
AcDbEntity
  8
Layer 1
 62
     7
420
 16777215
370
    40
100
AcDbVertex
100
AcDb2dVertex
 10
3.383385648826915
 20
1.875583679494816
 30
0.0
  0
VERTEX
  5
CA
330
C8
100
AcDbEntity
  8
Layer 1
 62
     7
420
 16777215
370
    40
100
AcDbVertex
100
AcDb2dVertex
 10
3.378038141351251
 20
2.193780221238399
 30
0.0
  0
SEQEND
  5
CB
330
C8
100
AcDbEntity
  8
Layer 1
 62
     7
420
 16777215
370
    40
  0
POLYLINE
  5
CC
330
1F
100
AcDbEntity
  8
Layer 1
 62
     7
420
 16777215
370
    40
100
AcDb2dPolyline
 66
     1
 10
0.0
 20
0.0
 30
0.0
  0
VERTEX
  5
CD
330
CC
100
AcDbEntity
  8
Layer 1
 62
     7
420
 16777215
370
    40
100
AcDbVertex
100
AcDb2dVertex
 10
1.578730785487841
 20
2.858230604361463
 30
0.0
  0
VERTEX
  5
CE
330
CC
100
AcDbEntity
  8
Layer 1
 62
     7
420
 16777215
370
    40
100
AcDbVertex
100
AcDb2dVertex
 10
1.720575060711591
 20
2.935325775417962
 30
0.0
  0
VERTEX
  5
CF
330
CC
100
AcDbEntity
  8
Layer 1
 62
     7
420
 16777215
370
    40
100
AcDbVertex
100
AcDb2dVertex
 10
1.719938779873903
 20
3.040569154242411
 30
0.0
  0
VERTEX
  5
D0
330
CC
100
AcDbEntity
  8
Layer 1
 62
     7
420
 16777215
370
    40
100
AcDbVertex
100
AcDb2dVertex
 10
1.745347875578242
 20
3.05425129914325
 30
0.0
  0
VERTEX
  5
D1
330
CC
100
AcDbEntity
  8
Layer 1
 62
     7
420
 16777215
370
    40
100
AcDbVertex
100
AcDb2dVertex
 10
1.935503142883287
 20
2.994356624791445
 30
0.0
  0
VERTEX
  5
D2
330
CC
100
AcDbEntity
  8
Layer 1
 62
     7
420
 16777215
370
    40
100
AcDbVertex
100
AcDb2dVertex
 10
2.208615104571613
 20
3.105461372127454
 30
0.0
  0
VERTEX
  5
D3
330
CC
100
AcDbEntity
  8
Layer 1
 62
     7
420
 16777215
370
    40
100
AcDbVertex
100
AcDb2dVertex
 10
2.228120693960566
 20
3.098281090356282
 30
0.0
  0
VERTEX
  5
D4
330
CC
100
AcDbEntity
  8
Layer 1
 62
     7
420
 16777215
370
    40
100
AcDbVertex
100
AcDb2dVertex
 10
2.225529219025601
 20
2.97338885360989
 30
0.0
  0
VERTEX
  5
D5
330
CC
100
AcDbEntity
  8
Layer 1
 62
     7
420
 16777215
370
    40
100
AcDbVertex
100
AcDb2dVertex
 10
2.134010122905756
 20
2.823706946875328
 30
0.0
  0
VERTEX
  5
D6
330
CC
100
AcDbEntity
  8
Layer 1
 62
     7
420
 16777215
370
    40
100
AcDbVertex
100
AcDb2dVertex
 10
2.131646192111399
 20
2.706694479443551
 30
0.0
  0
VERTEX
  5
D7
330
CC
100
AcDbEntity
  8
Layer 1
 62
     7
420
 16777215
370
    40
100
AcDbVertex
100
AcDb2dVertex
 10
2.2278552257965
 20
2.628718473471976
 30
0.0
  0
VERTEX
  5
D8
330
CC
100
AcDbEntity
  8
Layer 1
 62
     7
420
 16777215
370
    40
100
AcDbVertex
100
AcDb2dVertex
 10
2.228719238969284
 20
2.362967986111231
 30
0.0
  0
VERTEX
  5
D9
330
CC
100
AcDbEntity
  8
Layer 1
 62
     7
420
 16777215
370
    40
100
AcDbVertex
100
AcDb2dVertex
 10
2.149710854808164
 20
2.318154431747125
 30
0.0
  0
VERTEX
  5
DA
330
CC
100
AcDbEntity
  8
Layer 1
 62
     7
420
 16777215
370
    40
100
AcDbVertex
100
AcDb2dVertex
 10
2.293775606094767
 20
2.257046188645278
 30
0.0
  0
VERTEX
  5
DB
330
CC
100
AcDbEntity
  8
Layer 1
 62
     7
420
 16777215
370
    40
100
AcDbVertex
100
AcDb2dVertex
 10
2.46158519603331
 20
2.282025478750623
 30
0.0
  0
VERTEX
  5
DC
330
CC
100
AcDbEntity
  8
Layer 1
 62
     7
420
 16777215
370
    40
100
AcDbVertex
100
AcDb2dVertex
 10
2.553968117131439
 20
2.250177726622357
 30
0.0
  0
VERTEX
  5
DD
330
CC
100
AcDbEntity
  8
Layer 1
 62
     7
420
 16777215
370
    40
100
AcDbVertex
100
AcDb2dVertex
 10
2.555822180499591
 20
2.223841599233954
 30
0.0
  0
VERTEX
  5
DE
330
CC
100
AcDbEntity
  8
Layer 1
 62
     7
420
 16777215
370
    40
100
AcDbVertex
100
AcDb2dVertex
 10
2.287994299410457
 20
2.073064109600068
 30
0.0
  0
VERTEX
  5
DF
330
CC
100
AcDbEntity
  8
Layer 1
 62
     7
420
 16777215
370
    40
100
AcDbVertex
100
AcDb2dVertex
 10
1.950171312393523
 20
2.204706822518637
 30
0.0
  0
VERTEX
  5
E0
330
CC
100
AcDbEntity
  8
Layer 1
 62
     7
420
 16777215
370
    40
100
AcDbVertex
100
AcDb2dVertex
 10
1.950028043860534
 20
1.823241840753073
 30
0.0
  0
VERTEX
  5
E1
330
CC
100
AcDbEntity
  8
Layer 1
 62
     7
420
 16777215
370
    40
100
AcDbVertex
100
AcDb2dVertex
 10
1.928466129645105
 20
1.80686696151881
 30
0.0
  0
VERTEX
  5
E2
330
CC
100
AcDbEntity
  8
Layer 1
 62
     7
420
 16777215
370
    40
100
AcDbVertex
100
AcDb2dVertex
 10
1.731088442765061
 20
1.888011730337793
 30
0.0
  0
VERTEX
  5
E3
330
CC
100
AcDbEntity
  8
Layer 1
 62
     7
420
 16777215
370
    40
100
AcDbVertex
100
AcDb2dVertex
 10
1.727940748819593
 20
2.039362294103676
 30
0.0
  0
VERTEX
  5
E4
330
CC
100
AcDbEntity
  8
Layer 1
 62
     7
420
 16777215
370
    40
100
AcDbVertex
100
AcDb2dVertex
 10
1.594203787051078
 20
2.219809011408251
 30
0.0
  0
VERTEX
  5
E5
330
CC
100
AcDbEntity
  8
Layer 1
 62
     7
420
 16777215
370
    40
100
AcDbVertex
100
AcDb2dVertex
 10
1.596795261986131
 20
2.344697176216553
 30
0.0
  0
VERTEX
  5
E6
330
CC
100
AcDbEntity
  8
Layer 1
 62
     7
420
 16777215
370
    40
100
AcDbVertex
100
AcDb2dVertex
 10
1.616958201114661
 20
2.358522447808064
 30
0.0
  0
VERTEX
  5
E7
330
CC
100
AcDbEntity
  8
Layer 1
 62
     7
420
 16777215
370
    40
100
AcDbVertex
100
AcDb2dVertex
 10
1.727405774241283
 20
2.315605094615939
 30
0.0
  0
VERTEX
  5
E8
330
CC
100
AcDbEntity
  8
Layer 1
 62
     7
420
 16777215
370
    40
100
AcDbVertex
100
AcDb2dVertex
 10
1.725264998276947
 20
2.540574615438244
 30
0.0
  0
VERTEX
  5
E9
330
CC
100
AcDbEntity
  8
Layer 1
 62
     7
420
 16777215
370
    40
100
AcDbVertex
100
AcDb2dVertex
 10
1.577681554172689
 20
2.741180058091042
 30
0.0
  0
VERTEX
  5
EA
330
CC
100
AcDbEntity
  8
Layer 1
 62
     7
420
 16777215
370
    40
100
AcDbVertex
100
AcDb2dVertex
 10
1.578730785487841
 20
2.858230604361463
 30
0.0
  0
SEQEND
  5
EC
330
CC
100
AcDbEntity
  8
Layer 1
 62
     7
420
 16777215
370
    40
  0
HATCH
  5
EB
330
1F
100
AcDbEntity
  8
Layer 1
 62
   254
420
 13358815
100
AcDbHatch
 10
0.0
 20
0.0
 30
0.0
210
0.0
220
0.0
230
1.0
  2
SOLID
 70
     1
 71
     0
 91
        1
 92
        1
 93
       29
 72
     1
 10
1.578730785487841
 20
2.858230604361463
 11
1.720575060711591
 21
2.935325775417962
 72
     1
 10
1.720575060711591
 20
2.935325775417962
 11
1.719938779873903
 21
3.040569154242411
 72
     1
 10
1.719938779873903
 20
3.040569154242411
 11
1.745347875578242
 21
3.05425129914325
 72
     1
 10
1.745347875578242
 20
3.05425129914325
 11
1.935503142883287
 21
2.994356624791445
 72
     1
 10
1.935503142883287
 20
2.994356624791445
 11
2.208615104571613
 21
3.105461372127454
 72
     1
 10
2.208615104571613
 20
3.105461372127454
 11
2.228120693960566
 21
3.098281090356282
 72
     1
 10
2.228120693960566
 20
3.098281090356282
 11
2.225529219025601
 21
2.97338885360989
 72
     1
 10
2.225529219025601
 20
2.97338885360989
 11
2.134010122905756
 21
2.823706946875328
 72
     1
 10
2.134010122905756
 20
2.823706946875328
 11
2.131646192111399
 21
2.706694479443551
 72
     1
 10
2.131646192111399
 20
2.706694479443551
 11
2.2278552257965
 21
2.628718473471976
 72
     1
 10
2.2278552257965
 20
2.628718473471976
 11
2.228719238969284
 21
2.362967986111231
 72
     1
 10
2.228719238969284
 20
2.362967986111231
 11
2.149710854808164
 21
2.318154431747125
 72
     1
 10
2.149710854808164
 20
2.318154431747125
 11
2.293775606094767
 21
2.257046188645278
 72
     1
 10
2.293775606094767
 20
2.257046188645278
 11
2.46158519603331
 21
2.282025478750623
 72
     1
 10
2.46158519603331
 20
2.282025478750623
 11
2.553968117131439
 21
2.250177726622357
 72
     1
 10
2.553968117131439
 20
2.250177726622357
 11
2.555822180499591
 21
2.223841599233954
 72
     1
 10
2.555822180499591
 20
2.223841599233954
 11
2.287994299410457
 21
2.073064109600068
 72
     1
 10
2.287994299410457
 20
2.073064109600068
 11
1.950171312393523
 21
2.204706822518637
 72
     1
 10
1.950171312393523
 20
2.204706822518637
 11
1.950028043860534
 21
1.823241840753073
 72
     1
 10
1.950028043860534
 20
1.823241840753073
 11
1.928466129645105
 21
1.80686696151881
 72
     1
 10
1.928466129645105
 20
1.80686696151881
 11
1.731088442765061
 21
1.888011730337793
 72
     1
 10
1.731088442765061
 20
1.888011730337793
 11
1.727940748819593
 21
2.039362294103676
 72
     1
 10
1.727940748819593
 20
2.039362294103676
 11
1.594203787051078
 21
2.219809011408251
 72
     1
 10
1.594203787051078
 20
2.219809011408251
 11
1.596795261986131
 21
2.344697176216553
 72
     1
 10
1.596795261986131
 20
2.344697176216553
 11
1.616958201114661
 21
2.358522447808064
 72
     1
 10
1.616958201114661
 20
2.358522447808064
 11
1.727405774241283
 21
2.315605094615939
 72
     1
 10
1.727405774241283
 20
2.315605094615939
 11
1.725264998276947
 21
2.540574615438244
 72
     1
 10
1.725264998276947
 20
2.540574615438244
 11
1.577681554172689
 21
2.741180058091042
 72
     1
 10
1.577681554172689
 20
2.741180058091042
 11
1.578730785487841
 21
2.858230604361463
 97
        0
 75
     2
 76
     1
 98
        0
  0
SPLINE
  5
ED
330
1F
100
AcDbEntity
  8
Layer 1
 62
     7
420
 16777215
370
    40
100
AcDbSpline
210
0.0
220
0.0
230
1.0
 70
    11
 71
     3
 72
    17
 73
    13
 74
     0
 42
0.0000000001
 43
0.0000000001
 12
1.0
 22
0.0
 32
0.0
 13
1.0
 23
0.0
 33
0.0
 40
0.0
 40
0.0
 40
0.0
 40
0.0
 40
1.0
 40
1.0
 40
1.0
 40
2.0
 40
2.0
 40
2.0
 40
3.0
 40
3.0
 40
3.0
 40
4.0
 40
4.0
 40
4.0
 40
4.0
 10
1.790342622498782
 20
2.921500361984158
 30
0.0
 10
1.800160730789179
 20
2.921192756016265
 30
0.0
 10
1.808470305702763
 20
2.932119088547109
 30
0.0
 10
1.808904325082141
 20
2.945881295275247
 30
0.0
 10
1.809334130681135
 20
2.959668784685631
 30
0.0
 10
1.801724043310944
 20
2.971088129521238
 30
0.0
 10
1.791910148800929
 20
2.971395735489118
 30
0.0
 10
1.782113109412446
 20
2.971703341457025
 30
0.0
 10
1.773803534498863
 20
2.960777008926129
 30
0.0
 10
1.77336951511951
 20
2.947014959256156
 30
0.0
 10
1.772939709520516
 20
2.933227312787658
 30
0.0
 10
1.780549796890682
 20
2.921807967952052
 30
0.0
 10
1.790342622498782
 20
2.921500361984158
 30
0.0
  0
HATCH
  5
EE
330
1F
100
AcDbEntity
  8
Layer 1
 62
     7
420
 16777215
100
AcDbHatch
 10
0.0
 20
0.0
 30
0.0
210
0.0
220
0.0
230
1.0
  2
SOLID
 70
     1
 71
     0
 91
        1
 92
        1
 93
        1
 72
     4
 94
        3
 73
     0
 74
     1
 95
       17
 96
       13
 40
0.0
 40
0.0
 40
0.0
 40
0.0
 40
1.0
 40
1.0
 40
1.0
 40
2.0
 40
2.0
 40
2.0
 40
3.0
 40
3.0
 40
3.0
 40
4.0
 40
4.0
 40
4.0
 40
4.0
 10
1.790342622498782
 20
2.921500361984158
 10
1.800160730789179
 20
2.921192756016265
 10
1.808470305702763
 20
2.932119088547109
 10
1.808904325082141
 20
2.945881295275247
 10
1.809334130681135
 20
2.959668784685631
 10
1.801724043310944
 20
2.971088129521238
 10
1.791910148800929
 20
2.971395735489118
 10
1.782113109412446
 20
2.971703341457025
 10
1.773803534498863
 20
2.960777008926129
 10
1.77336951511951
 20
2.947014959256156
 10
1.772939709520516
 20
2.933227312787658
 10
1.780549796890682
 20
2.921807967952052
 10
1.790342622498782
 20
2.921500361984158
 97
        0
 97
        0
 75
     2
 76
     1
 98
        0
  0
SPLINE
  5
EF
330
1F
100
AcDbEntity
  8
Layer 1
 62
     7
420
 16777215
370
    20
100
AcDbSpline
210
0.0
220
0.0
230
1.0
 70
    11
 71
     3
 72
    17
 73
    13
 74
     0
 42
0.0000000001
 43
0.0000000001
 12
1.0
 22
0.0
 32
0.0
 13
1.0
 23
0.0
 33
0.0
 40
0.0
 40
0.0
 40
0.0
 40
0.0
 40
1.0
 40
1.0
 40
1.0
 40
2.0
 40
2.0
 40
2.0
 40
3.0
 40
3.0
 40
3.0
 40
4.0
 40
4.0
 40
4.0
 40
4.0
 10
1.780263259824702
 20
2.921234893820067
 30
0.0
 10
1.790077154334717
 20
2.920923074071791
 30
0.0
 10
1.798369874126769
 20
2.931849406602712
 30
0.0
 10
1.798799679725739
 20
2.945615827111156
 30
0.0
 10
1.799233699105116
 20
2.959399102741157
 30
0.0
 10
1.791640466856481
 20
2.970818447576764
 30
0.0
 10
1.781826572346467
 20
2.971126053544683
 30
0.0
 10
1.772012677836452
 20
2.971437873292959
 30
0.0
 10
1.7637199580444
 20
2.960511540762039
 30
0.0
 10
1.763290152445405
 20
2.946745120253594
 30
0.0
 10
1.762856133066053
 20
2.932961844623593
 30
0.0
 10
1.770449365314688
 20
2.921542499787961
 30
0.0
 10
1.780263259824702
 20
2.921234893820067
 30
0.0
  0
HATCH
  5
F0
330
1F
100
AcDbEntity
  8
Layer 1
 62
   254
420
 13358815
100
AcDbHatch
 10
0.0
 20
0.0
 30
0.0
210
0.0
220
0.0
230
1.0
  2
SOLID
 70
     1
 71
     0
 91
        1
 92
        1
 93
        1
 72
     4
 94
        3
 73
     0
 74
     1
 95
       17
 96
       13
 40
0.0
 40
0.0
 40
0.0
 40
0.0
 40
1.0
 40
1.0
 40
1.0
 40
2.0
 40
2.0
 40
2.0
 40
3.0
 40
3.0
 40
3.0
 40
4.0
 40
4.0
 40
4.0
 40
4.0
 10
1.780263259824702
 20
2.921234893820067
 10
1.790077154334717
 20
2.920923074071791
 10
1.798369874126769
 20
2.931849406602712
 10
1.798799679725739
 20
2.945615827111156
 10
1.799233699105116
 20
2.959399102741157
 10
1.791640466856481
 20
2.970818447576764
 10
1.781826572346467
 20
2.971126053544683
 10
1.772012677836452
 20
2.971437873292959
 10
1.7637199580444
 20
2.960511540762039
 10
1.763290152445405
 20
2.946745120253594
 10
1.762856133066053
 20
2.932961844623593
 10
1.770449365314688
 20
2.921542499787961
 10
1.780263259824702
 20
2.921234893820067
 97
        0
 97
        0
 75
     2
 76
     1
 98
        0
  0
SPLINE
  5
F1
330
1F
100
AcDbEntity
  8
Layer 1
 62
     7
420
 16777215
370
    40
100
AcDbSpline
210
0.0
220
0.0
230
1.0
 70
    11
 71
     3
 72
    17
 73
    13
 74
     0
 42
0.0000000001
 43
0.0000000001
 12
1.0
 22
0.0
 32
0.0
 13
1.0
 23
0.0
 33
0.0
 40
0.0
 40
0.0
 40
0.0
 40
0.0
 40
1.0
 40
1.0
 40
1.0
 40
2.0
 40
2.0
 40
2.0
 40
3.0
 40
3.0
 40
3.0
 40
4.0
 40
4.0
 40
4.0
 40
4.0
 10
1.669752655522567
 20
2.783566474955036
 30
0.0
 10
1.679566550032582
 20
2.783275724108648
 30
0.0
 10
1.687859269824634
 20
2.794181140934837
 30
0.0
 10
1.688293289203986
 20
2.807968477148013
 30
0.0
 10
1.688723269356008
 20
2.821751752778014
 30
0.0
 10
1.681134076334716
 20
2.833171097613621
 30
0.0
 10
1.671315968044332
 20
2.83347870358154
 30
0.0
 10
1.661523142436231
 20
2.83379067752762
 30
0.0
 10
1.653213567522648
 20
2.822864190798908
 30
0.0
 10
1.652779721788294
 20
2.809076701388537
 30
0.0
 10
1.652345528763918
 20
2.795335563562364
 30
0.0
 10
1.659938761012553
 20
2.783895149824843
 30
0.0
 10
1.669752655522567
 20
2.783566474955036
 30
0.0
  0
HATCH
  5
F2
330
1F
100
AcDbEntity
  8
Layer 1
 62
     7
420
 16777215
100
AcDbHatch
 10
0.0
 20
0.0
 30
0.0
210
0.0
220
0.0
230
1.0
  2
SOLID
 70
     1
 71
     0
 91
        1
 92
        1
 93
        1
 72
     4
 94
        3
 73
     0
 74
     1
 95
       17
 96
       13
 40
0.0
 40
0.0
 40
0.0
 40
0.0
 40
1.0
 40
1.0
 40
1.0
 40
2.0
 40
2.0
 40
2.0
 40
3.0
 40
3.0
 40
3.0
 40
4.0
 40
4.0
 40
4.0
 40
4.0
 10
1.669752655522567
 20
2.783566474955036
 10
1.679566550032582
 20
2.783275724108648
 10
1.687859269824634
 20
2.794181140934837
 10
1.688293289203986
 20
2.807968477148013
 10
1.688723269356008
 20
2.821751752778014
 10
1.681134076334716
 20
2.833171097613621
 10
1.671315968044332
 20
2.83347870358154
 10
1.661523142436231
 20
2.83379067752762
 10
1.653213567522648
 20
2.822864190798908
 10
1.652779721788294
 20
2.809076701388537
 10
1.652345528763918
 20
2.795335563562364
 10
1.659938761012553
 20
2.783895149824843
 10
1.669752655522567
 20
2.783566474955036
 97
        0
 97
        0
 75
     2
 76
     1
 98
        0
  0
SPLINE
  5
F3
330
1F
100
AcDbEntity
  8
Layer 1
 62
     7
420
 16777215
370
    20
100
AcDbSpline
210
0.0
220
0.0
230
1.0
 70
    11
 71
     3
 72
    17
 73
    13
 74
     0
 42
0.0000000001
 43
0.0000000001
 12
1.0
 22
0.0
 32
0.0
 13
1.0
 23
0.0
 33
0.0
 40
0.0
 40
0.0
 40
0.0
 40
0.0
 40
1.0
 40
1.0
 40
1.0
 40
2.0
 40
2.0
 40
2.0
 40
3.0
 40
3.0
 40
3.0
 40
4.0
 40
4.0
 40
4.0
 40
4.0
 10
1.659673292848462
 20
2.783275724108648
 30
0.0
 10
1.669466292523111
 20
2.782989187042669
 30
0.0
 10
1.677779907150554
 20
2.793936588475478
 30
0.0
 10
1.678209712749524
 20
2.807698795203565
 30
0.0
 10
1.678643732128876
 20
2.821465215712048
 30
0.0
 10
1.671050499880266
 20
2.832905783625051
 30
0.0
 10
1.661236605370252
 20
2.833213235417449
 30
0.0
 10
1.651422710860238
 20
2.833520841385343
 30
0.0
 10
1.643130164469388
 20
2.822594508854448
 30
0.0
 10
1.642695971688807
 20
2.808811233224446
 30
0.0
 10
1.642266166089838
 20
2.795002674912186
 30
0.0
 10
1.649859398338448
 20
2.783604551908525
 30
0.0
 10
1.659673292848462
 20
2.783275724108648
 30
0.0
  0
HATCH
  5
F4
330
1F
100
AcDbEntity
  8
Layer 1
 62
   254
420
 13358815
100
AcDbHatch
 10
0.0
 20
0.0
 30
0.0
210
0.0
220
0.0
230
1.0
  2
SOLID
 70
     1
 71
     0
 91
        1
 92
        1
 93
        1
 72
     4
 94
        3
 73
     0
 74
     1
 95
       17
 96
       13
 40
0.0
 40
0.0
 40
0.0
 40
0.0
 40
1.0
 40
1.0
 40
1.0
 40
2.0
 40
2.0
 40
2.0
 40
3.0
 40
3.0
 40
3.0
 40
4.0
 40
4.0
 40
4.0
 40
4.0
 10
1.659673292848462
 20
2.783275724108648
 10
1.669466292523111
 20
2.782989187042669
 10
1.677779907150554
 20
2.793936588475478
 10
1.678209712749524
 20
2.807698795203565
 10
1.678643732128876
 20
2.821465215712048
 10
1.671050499880266
 20
2.832905783625051
 10
1.661236605370252
 20
2.833213235417449
 10
1.651422710860238
 20
2.833520841385343
 10
1.643130164469388
 20
2.822594508854448
 10
1.642695971688807
 20
2.808811233224446
 10
1.642266166089838
 20
2.795002674912186
 10
1.649859398338448
 20
2.783604551908525
 10
1.659673292848462
 20
2.783275724108648
 97
        0
 97
        0
 75
     2
 76
     1
 98
        0
  0
SPLINE
  5
F5
330
1F
100
AcDbEntity
  8
Layer 1
 62
     7
420
 16777215
370
    40
100
AcDbSpline
210
0.0
220
0.0
230
1.0
 70
    11
 71
     3
 72
    17
 73
    13
 74
     0
 42
0.0000000001
 43
0.0000000001
 12
1.0
 22
0.0
 32
0.0
 13
1.0
 23
0.0
 33
0.0
 40
0.0
 40
0.0
 40
0.0
 40
0.0
 40
1.0
 40
1.0
 40
1.0
 40
2.0
 40
2.0
 40
2.0
 40
3.0
 40
3.0
 40
3.0
 40
4.0
 40
4.0
 40
4.0
 40
4.0
 10
2.062245229217448
 20
2.779200998479117
 30
0.0
 10
2.052452403609323
 20
2.779491749325492
 30
0.0
 10
2.044838102458812
 20
2.790932163063025
 30
0.0
 10
2.045272121838151
 20
2.804694369791087
 30
0.0
 10
2.045701927437158
 20
2.818460790299557
 30
0.0
 10
2.054015899912214
 20
2.829387122830477
 30
0.0
 10
2.063808541739212
 20
2.82907530308215
 30
0.0
 10
2.073622436249227
 20
2.828767697114282
 30
0.0
 10
2.081236921868506
 20
2.817348352278676
 30
0.0
 10
2.080802718020398
 20
2.803565076648674
 30
0.0
 10
2.080372912421379
 20
2.789819725042131
 30
0.0
 10
2.072059123727462
 20
2.778872323609309
 30
0.0
 10
2.062245229217448
 20
2.779200998479117
 30
0.0
  0
HATCH
  5
F6
330
1F
100
AcDbEntity
  8
Layer 1
 62
     7
420
 16777215
100
AcDbHatch
 10
0.0
 20
0.0
 30
0.0
210
0.0
220
0.0
230
1.0
  2
SOLID
 70
     1
 71
     0
 91
        1
 92
        1
 93
        1
 72
     4
 94
        3
 73
     0
 74
     1
 95
       17
 96
       13
 40
0.0
 40
0.0
 40
0.0
 40
0.0
 40
1.0
 40
1.0
 40
1.0
 40
2.0
 40
2.0
 40
2.0
 40
3.0
 40
3.0
 40
3.0
 40
4.0
 40
4.0
 40
4.0
 40
4.0
 10
2.062245229217448
 20
2.779200998479117
 10
2.052452403609323
 20
2.779491749325492
 10
2.044838102458812
 20
2.790932163063025
 10
2.045272121838151
 20
2.804694369791087
 10
2.045701927437158
 20
2.818460790299557
 10
2.054015899912214
 20
2.829387122830477
 10
2.063808541739212
 20
2.82907530308215
 10
2.073622436249227
 20
2.828767697114282
 10
2.081236921868506
 20
2.817348352278676
 10
2.080802718020398
 20
2.803565076648674
 10
2.080372912421379
 20
2.789819725042131
 10
2.072059123727462
 20
2.778872323609309
 10
2.062245229217448
 20
2.779200998479117
 97
        0
 97
        0
 75
     2
 76
     1
 98
        0
  0
SPLINE
  5
F7
330
1F
100
AcDbEntity
  8
Layer 1
 62
     7
420
 16777215
370
    20
100
AcDbSpline
210
0.0
220
0.0
230
1.0
 70
    11
 71
     3
 72
    17
 73
    13
 74
     0
 42
0.0000000001
 43
0.0000000001
 12
1.0
 22
0.0
 32
0.0
 13
1.0
 23
0.0
 33
0.0
 40
0.0
 40
0.0
 40
0.0
 40
0.0
 40
1.0
 40
1.0
 40
1.0
 40
2.0
 40
2.0
 40
2.0
 40
3.0
 40
3.0
 40
3.0
 40
4.0
 40
4.0
 40
4.0
 40
4.0
 10
2.072307736769997
 20
2.77829924947735
 30
0.0
 10
2.0624896284796
 20
2.77858578654333
 30
0.0
 10
2.054900793814795
 20
2.789984062477022
 30
0.0
 10
2.055330415610342
 20
2.803771551887406
 30
0.0
 10
2.055764434989694
 20
2.817554827517407
 30
0.0
 10
2.064057154781772
 20
2.828481314111994
 30
0.0
 10
2.073871049291786
 20
2.828173554080397
 30
0.0
 10
2.083684943801801
 20
2.827861734332133
 30
0.0
 10
2.09127817605041
 20
2.816442389496526
 30
0.0
 10
2.09084434138251
 20
2.802659113866525
 30
0.0
 10
2.090410137291706
 20
2.788871777519274
 30
0.0
 10
2.082121815771138
 20
2.777970574607543
 30
0.0
 10
2.072307736769997
 20
2.77829924947735
 30
0.0
  0
HATCH
  5
F8
330
1F
100
AcDbEntity
  8
Layer 1
 62
   254
420
 13358815
100
AcDbHatch
 10
0.0
 20
0.0
 30
0.0
210
0.0
220
0.0
230
1.0
  2
SOLID
 70
     1
 71
     0
 91
        1
 92
        1
 93
        1
 72
     4
 94
        3
 73
     0
 74
     1
 95
       17
 96
       13
 40
0.0
 40
0.0
 40
0.0
 40
0.0
 40
1.0
 40
1.0
 40
1.0
 40
2.0
 40
2.0
 40
2.0
 40
3.0
 40
3.0
 40
3.0
 40
4.0
 40
4.0
 40
4.0
 40
4.0
 10
2.072307736769997
 20
2.77829924947735
 10
2.0624896284796
 20
2.77858578654333
 10
2.054900793814795
 20
2.789984062477022
 10
2.055330415610342
 20
2.803771551887406
 10
2.055764434989694
 20
2.817554827517407
 10
2.064057154781772
 20
2.828481314111994
 10
2.073871049291786
 20
2.828173554080397
 10
2.083684943801801
 20
2.827861734332133
 10
2.09127817605041
 20
2.816442389496526
 10
2.09084434138251
 20
2.802659113866525
 10
2.090410137291706
 20
2.788871777519274
 10
2.082121815771138
 20
2.777970574607543
 10
2.072307736769997
 20
2.77829924947735
 97
        0
 97
        0
 75
     2
 76
     1
 98
        0
  0
SPLINE
  5
F9
330
1F
100
AcDbEntity
  8
Layer 1
 62
     7
420
 16777215
370
    40
100
AcDbSpline
210
0.0
220
0.0
230
1.0
 70
    11
 71
     3
 72
    17
 73
    13
 74
     0
 42
0.0000000001
 43
0.0000000001
 12
1.0
 22
0.0
 32
0.0
 13
1.0
 23
0.0
 33
0.0
 40
0.0
 40
0.0
 40
0.0
 40
0.0
 40
1.0
 40
1.0
 40
1.0
 40
2.0
 40
2.0
 40
2.0
 40
3.0
 40
3.0
 40
3.0
 40
4.0
 40
4.0
 40
4.0
 40
4.0
 10
2.151375111860564
 20
2.977278172902591
 30
0.0
 10
2.141582286252464
 20
2.977568923748966
 30
0.0
 10
2.133967985101915
 20
2.989009337486487
 30
0.0
 10
2.134402004481292
 20
3.002771544214561
 30
0.0
 10
2.134831810080262
 20
3.016537964723044
 30
0.0
 10
2.143145598774279
 20
3.027460083473557
 30
0.0
 10
2.152938424382367
 20
3.027152477505663
 30
0.0
 10
2.162752318892381
 20
3.026844871537769
 30
0.0
 10
2.170366620042892
 20
3.015425526702163
 30
0.0
 10
2.16993260066354
 20
3.001642251072212
 30
0.0
 10
2.169502795064545
 20
2.987896899465606
 30
0.0
 10
2.161189006370579
 20
2.976949498032796
 30
0.0
 10
2.151375111860564
 20
2.977278172902591
 30
0.0
  0
HATCH
  5
FA
330
1F
100
AcDbEntity
  8
Layer 1
 62
     7
420
 16777215
100
AcDbHatch
 10
0.0
 20
0.0
 30
0.0
210
0.0
220
0.0
230
1.0
  2
SOLID
 70
     1
 71
     0
 91
        1
 92
        1
 93
        1
 72
     4
 94
        3
 73
     0
 74
     1
 95
       17
 96
       13
 40
0.0
 40
0.0
 40
0.0
 40
0.0
 40
1.0
 40
1.0
 40
1.0
 40
2.0
 40
2.0
 40
2.0
 40
3.0
 40
3.0
 40
3.0
 40
4.0
 40
4.0
 40
4.0
 40
4.0
 10
2.151375111860564
 20
2.977278172902591
 10
2.141582286252464
 20
2.977568923748966
 10
2.133967985101915
 20
2.989009337486487
 10
2.134402004481292
 20
3.002771544214561
 10
2.134831810080262
 20
3.016537964723044
 10
2.143145598774279
 20
3.027460083473557
 10
2.152938424382367
 20
3.027152477505663
 10
2.162752318892381
 20
3.026844871537769
 10
2.170366620042892
 20
3.015425526702163
 10
2.16993260066354
 20
3.001642251072212
 10
2.169502795064545
 20
2.987896899465606
 10
2.161189006370579
 20
2.976949498032796
 10
2.151375111860564
 20
2.977278172902591
 97
        0
 97
        0
 75
     2
 76
     1
 98
        0
  0
SPLINE
  5
FB
330
1F
100
AcDbEntity
  8
Layer 1
 62
     7
420
 16777215
370
    20
100
AcDbSpline
210
0.0
220
0.0
230
1.0
 70
    11
 71
     3
 72
    17
 73
    13
 74
     0
 42
0.0000000001
 43
0.0000000001
 12
1.0
 22
0.0
 32
0.0
 13
1.0
 23
0.0
 33
0.0
 40
0.0
 40
0.0
 40
0.0
 40
0.0
 40
1.0
 40
1.0
 40
1.0
 40
2.0
 40
2.0
 40
2.0
 40
3.0
 40
3.0
 40
3.0
 40
4.0
 40
4.0
 40
4.0
 40
4.0
 10
2.161437619413138
 20
2.976372210120454
 30
0.0
 10
2.151623724903124
 20
2.976662960966817
 30
0.0
 10
2.144030492654489
 20
2.988061236900484
 30
0.0
 10
2.144464512033841
 20
3.001844512530511
 30
0.0
 10
2.144894317632836
 20
3.015632001940844
 30
0.0
 10
2.153187037424939
 20
3.02655833447179
 30
0.0
 10
2.163000931934903
 20
3.026246514723514
 30
0.0
 10
2.172814826444917
 20
3.025939067807523
 30
0.0
 10
2.180408058693552
 20
3.014519722683455
 30
0.0
 10
2.179974039314175
 20
3.000736288290012
 30
0.0
 10
2.179544420667424
 20
2.986948798879628
 30
0.0
 10
2.171251513923153
 20
2.976043535250647
 30
0.0
 10
2.161437619413138
 20
2.976372210120454
 30
0.0
  0
HATCH
  5
FC
330
1F
100
AcDbEntity
  8
Layer 1
 62
   254
420
 13358815
100
AcDbHatch
 10
0.0
 20
0.0
 30
0.0
210
0.0
220
0.0
230
1.0
  2
SOLID
 70
     1
 71
     0
 91
        1
 92
        1
 93
        1
 72
     4
 94
        3
 73
     0
 74
     1
 95
       17
 96
       13
 40
0.0
 40
0.0
 40
0.0
 40
0.0
 40
1.0
 40
1.0
 40
1.0
 40
2.0
 40
2.0
 40
2.0
 40
3.0
 40
3.0
 40
3.0
 40
4.0
 40
4.0
 40
4.0
 40
4.0
 10
2.161437619413138
 20
2.976372210120454
 10
2.151623724903124
 20
2.976662960966817
 10
2.144030492654489
 20
2.988061236900484
 10
2.144464512033841
 20
3.001844512530511
 10
2.144894317632836
 20
3.015632001940844
 10
2.153187037424939
 20
3.02655833447179
 10
2.163000931934903
 20
3.026246514723514
 10
2.172814826444917
 20
3.025939067807523
 10
2.180408058693552
 20
3.014519722683455
 10
2.179974039314175
 20
3.000736288290012
 10
2.179544420667424
 20
2.986948798879628
 10
2.171251513923153
 20
2.976043535250647
 10
2.161437619413138
 20
2.976372210120454
 97
        0
 97
        0
 75
     2
 76
     1
 98
        0
  0
SPLINE
  5
FD
330
1F
100
AcDbEntity
  8
Layer 1
 62
     7
420
 16777215
370
    40
100
AcDbSpline
210
0.0
220
0.0
230
1.0
 70
    11
 71
     3
 72
    17
 73
    13
 74
     0
 42
0.0000000001
 43
0.0000000001
 12
1.0
 22
0.0
 32
0.0
 13
1.0
 23
0.0
 33
0.0
 40
0.0
 40
0.0
 40
0.0
 40
0.0
 40
1.0
 40
1.0
 40
1.0
 40
2.0
 40
2.0
 40
2.0
 40
3.0
 40
3.0
 40
3.0
 40
4.0
 40
4.0
 40
4.0
 40
4.0
 10
2.16744647023807
 20
2.526707064200625
 30
0.0
 10
2.157649430849586
 20
2.527035739070432
 30
0.0
 10
2.15003934347942
 20
2.538434015004125
 30
0.0
 10
2.150469335296091
 20
2.552217290634126
 30
0.0
 10
2.150903168457767
 20
2.566004927477517
 30
0.0
 10
2.159216957151771
 20
2.576910043673491
 30
0.0
 10
2.169030851661748
 20
2.57658151650388
 30
0.0
 10
2.178823677269848
 20
2.576290617957322
 30
0.0
 10
2.186437978420397
 20
2.564850204219801
 30
0.0
 10
2.18600395904102
 20
2.551109066393628
 30
0.0
 10
2.185570126766101
 20
2.537321576983244
 30
0.0
 10
2.177260364748084
 20
2.526374175550434
 30
0.0
 10
2.16744647023807
 20
2.526707064200625
 30
0.0
  0
HATCH
  5
FE
330
1F
100
AcDbEntity
  8
Layer 1
 62
     7
420
 16777215
100
AcDbHatch
 10
0.0
 20
0.0
 30
0.0
210
0.0
220
0.0
230
1.0
  2
SOLID
 70
     1
 71
     0
 91
        1
 92
        1
 93
        1
 72
     4
 94
        3
 73
     0
 74
     1
 95
       17
 96
       13
 40
0.0
 40
0.0
 40
0.0
 40
0.0
 40
1.0
 40
1.0
 40
1.0
 40
2.0
 40
2.0
 40
2.0
 40
3.0
 40
3.0
 40
3.0
 40
4.0
 40
4.0
 40
4.0
 40
4.0
 10
2.16744647023807
 20
2.526707064200625
 10
2.157649430849586
 20
2.527035739070432
 10
2.15003934347942
 20
2.538434015004125
 10
2.150469335296091
 20
2.552217290634126
 10
2.150903168457767
 20
2.566004927477517
 10
2.159216957151771
 20
2.576910043673491
 10
2.169030851661748
 20
2.57658151650388
 10
2.178823677269848
 20
2.576290617957322
 10
2.186437978420397
 20
2.564850204219801
 10
2.18600395904102
 20
2.551109066393628
 10
2.185570126766101
 20
2.537321576983244
 10
2.177260364748084
 20
2.526374175550434
 10
2.16744647023807
 20
2.526707064200625
 97
        0
 97
        0
 75
     2
 76
     1
 98
        0
  0
SPLINE
  5
FF
330
1F
100
AcDbEntity
  8
Layer 1
 62
     7
420
 16777215
370
    20
100
AcDbSpline
210
0.0
220
0.0
230
1.0
 70
    11
 71
     3
 72
    17
 73
    13
 74
     0
 42
0.0000000001
 43
0.0000000001
 12
1.0
 22
0.0
 32
0.0
 13
1.0
 23
0.0
 33
0.0
 40
0.0
 40
0.0
 40
0.0
 40
0.0
 40
1.0
 40
1.0
 40
1.0
 40
2.0
 40
2.0
 40
2.0
 40
3.0
 40
3.0
 40
3.0
 40
4.0
 40
4.0
 40
4.0
 40
4.0
 10
2.177504764010235
 20
2.52580110141845
 30
0.0
 10
2.167690869500221
 20
2.52612977628827
 30
0.0
 10
2.160101851031994
 20
2.537528052221976
 30
0.0
 10
2.160531656630964
 20
2.551311327851977
 30
0.0
 10
2.160965676010316
 20
2.565098817262335
 30
0.0
 10
2.169275250923925
 20
2.576004080891342
 30
0.0
 10
2.17906807653205
 20
2.575713330044954
 30
0.0
 10
2.188886184822422
 20
2.575384655175147
 30
0.0
 10
2.196475203290674
 20
2.563944241437626
 30
0.0
 10
2.19604539769168
 20
2.550203250645293
 30
0.0
 10
2.195611378312328
 20
2.536415614201094
 30
0.0
 10
2.18731865852025
 20
2.52551049698214
 30
0.0
 10
2.177504764010235
 20
2.52580110141845
 30
0.0
  0
HATCH
  5
100
330
1F
100
AcDbEntity
  8
Layer 1
 62
   254
420
 13358815
100
AcDbHatch
 10
0.0
 20
0.0
 30
0.0
210
0.0
220
0.0
230
1.0
  2
SOLID
 70
     1
 71
     0
 91
        1
 92
        1
 93
        1
 72
     4
 94
        3
 73
     0
 74
     1
 95
       17
 96
       13
 40
0.0
 40
0.0
 40
0.0
 40
0.0
 40
1.0
 40
1.0
 40
1.0
 40
2.0
 40
2.0
 40
2.0
 40
3.0
 40
3.0
 40
3.0
 40
4.0
 40
4.0
 40
4.0
 40
4.0
 10
2.177504764010235
 20
2.52580110141845
 10
2.167690869500221
 20
2.52612977628827
 10
2.160101851031994
 20
2.537528052221976
 10
2.160531656630964
 20
2.551311327851977
 10
2.160965676010316
 20
2.565098817262335
 10
2.169275250923925
 20
2.576004080891342
 10
2.17906807653205
 20
2.575713330044954
 10
2.188886184822422
 20
2.575384655175147
 10
2.196475203290674
 20
2.563944241437626
 10
2.19604539769168
 20
2.550203250645293
 10
2.195611378312328
 20
2.536415614201094
 10
2.18731865852025
 20
2.52551049698214
 10
2.177504764010235
 20
2.52580110141845
 97
        0
 97
        0
 75
     2
 76
     1
 98
        0
  0
SPLINE
  5
101
330
1F
100
AcDbEntity
  8
Layer 1
 62
     7
420
 16777215
370
    40
100
AcDbSpline
210
0.0
220
0.0
230
1.0
 70
    11
 71
     3
 72
    17
 73
    13
 74
     0
 42
0.0000000001
 43
0.0000000001
 12
1.0
 22
0.0
 32
0.0
 13
1.0
 23
0.0
 33
0.0
 40
0.0
 40
0.0
 40
0.0
 40
0.0
 40
1.0
 40
1.0
 40
1.0
 40
2.0
 40
2.0
 40
2.0
 40
3.0
 40
3.0
 40
3.0
 40
4.0
 40
4.0
 40
4.0
 40
4.0
 10
1.798184467789964
 20
2.399922840062661
 30
0.0
 10
1.807977293398052
 20
2.399594165192841
 30
0.0
 10
1.816291082092018
 20
2.41053735284528
 30
0.0
 10
1.816720887691013
 20
2.424324842255638
 30
0.0
 10
1.817154907070365
 20
2.438065980081837
 30
0.0
 10
1.809540605919842
 20
2.449506393819358
 30
0.0
 10
1.799747780311716
 20
2.449835068689165
 30
0.0
 10
1.789933885801714
 20
2.450125964041187
 30
0.0
 10
1.781620097107735
 20
2.439220555906533
 30
0.0
 10
1.781190291508766
 20
2.425433210378047
 30
0.0
 10
1.780756272129388
 20
2.411649790866161
 30
0.0
 10
1.788370573279925
 20
2.40020937712864
 30
0.0
 10
1.798184467789964
 20
2.399922840062661
 30
0.0
  0
HATCH
  5
102
330
1F
100
AcDbEntity
  8
Layer 1
 62
     7
420
 16777215
100
AcDbHatch
 10
0.0
 20
0.0
 30
0.0
210
0.0
220
0.0
230
1.0
  2
SOLID
 70
     1
 71
     0
 91
        1
 92
        1
 93
        1
 72
     4
 94
        3
 73
     0
 74
     1
 95
       17
 96
       13
 40
0.0
 40
0.0
 40
0.0
 40
0.0
 40
1.0
 40
1.0
 40
1.0
 40
2.0
 40
2.0
 40
2.0
 40
3.0
 40
3.0
 40
3.0
 40
4.0
 40
4.0
 40
4.0
 40
4.0
 10
1.798184467789964
 20
2.399922840062661
 10
1.807977293398052
 20
2.399594165192841
 10
1.816291082092018
 20
2.41053735284528
 10
1.816720887691013
 20
2.424324842255638
 10
1.817154907070365
 20
2.438065980081837
 10
1.809540605919842
 20
2.449506393819358
 10
1.799747780311716
 20
2.449835068689165
 10
1.789933885801714
 20
2.450125964041187
 10
1.781620097107735
 20
2.439220555906533
 10
1.781190291508766
 20
2.425433210378047
 10
1.780756272129388
 20
2.411649790866161
 10
1.788370573279925
 20
2.40020937712864
 10
1.798184467789964
 20
2.399922840062661
 97
        0
 97
        0
 75
     2
 76
     1
 98
        0
  0
SPLINE
  5
103
330
1F
100
AcDbEntity
  8
Layer 1
 62
     7
420
 16777215
370
    20
100
AcDbSpline
210
0.0
220
0.0
230
1.0
 70
    11
 71
     3
 72
    17
 73
    13
 74
     0
 42
0.0000000001
 43
0.0000000001
 12
1.0
 22
0.0
 32
0.0
 13
1.0
 23
0.0
 33
0.0
 40
0.0
 40
0.0
 40
0.0
 40
0.0
 40
1.0
 40
1.0
 40
1.0
 40
2.0
 40
2.0
 40
2.0
 40
3.0
 40
3.0
 40
3.0
 40
4.0
 40
4.0
 40
4.0
 40
4.0
 10
1.788079822433575
 20
2.399632089216273
 30
0.0
 10
1.797893716943589
 20
2.399345552150294
 30
0.0
 10
1.806186436735642
 20
2.410292953583103
 30
0.0
 10
1.806620456114994
 20
2.424034091409276
 30
0.0
 10
1.807071330615903
 20
2.437821725014512
 30
0.0
 10
1.799461420596256
 20
2.449261994557181
 30
0.0
 10
1.789643312057807
 20
2.449548531623173
 30
0.0
 10
1.779850309347239
 20
2.449835068689165
 30
0.0
 10
1.771540734433655
 20
2.438934018840541
 30
0.0
 10
1.771106715054278
 20
2.425146529430157
 30
0.0
 10
1.770676909455309
 20
2.411363253800181
 30
0.0
 10
1.778286996825475
 20
2.399960764086081
 30
0.0
 10
1.788079822433575
 20
2.399632089216273
 30
0.0
  0
HATCH
  5
104
330
1F
100
AcDbEntity
  8
Layer 1
 62
   254
420
 13358815
100
AcDbHatch
 10
0.0
 20
0.0
 30
0.0
210
0.0
220
0.0
230
1.0
  2
SOLID
 70
     1
 71
     0
 91
        1
 92
        1
 93
        1
 72
     4
 94
        3
 73
     0
 74
     1
 95
       17
 96
       13
 40
0.0
 40
0.0
 40
0.0
 40
0.0
 40
1.0
 40
1.0
 40
1.0
 40
2.0
 40
2.0
 40
2.0
 40
3.0
 40
3.0
 40
3.0
 40
4.0
 40
4.0
 40
4.0
 40
4.0
 10
1.788079822433575
 20
2.399632089216273
 10
1.797893716943589
 20
2.399345552150294
 10
1.806186436735642
 20
2.410292953583103
 10
1.806620456114994
 20
2.424034091409276
 10
1.807071330615903
 20
2.437821725014512
 10
1.799461420596256
 20
2.449261994557181
 10
1.789643312057807
 20
2.449548531623173
 10
1.779850309347239
 20
2.449835068689165
 10
1.771540734433655
 20
2.438934018840541
 10
1.771106715054278
 20
2.425146529430157
 10
1.770676909455309
 20
2.411363253800181
 10
1.778286996825475
 20
2.399960764086081
 10
1.788079822433575
 20
2.399632089216273
 97
        0
 97
        0
 75
     2
 76
     1
 98
        0
  0
SPLINE
  5
105
330
1F
100
AcDbEntity
  8
Layer 1
 62
     7
420
 16777215
370
    40
100
AcDbSpline
210
0.0
220
0.0
230
1.0
 70
    11
 71
     3
 72
    17
 73
    13
 74
     0
 42
0.0000000001
 43
0.0000000001
 12
1.0
 22
0.0
 32
0.0
 13
1.0
 23
0.0
 33
0.0
 40
0.0
 40
0.0
 40
0.0
 40
0.0
 40
1.0
 40
1.0
 40
1.0
 40
2.0
 40
2.0
 40
2.0
 40
3.0
 40
3.0
 40
3.0
 40
4.0
 40
4.0
 40
4.0
 40
4.0
 10
1.692633482997609
 20
2.180342744349079
 30
0.0
 10
1.702447377507623
 20
2.1800562072831
 30
0.0
 10
1.710740097299675
 20
2.191003608715897
 30
0.0
 10
1.71116990289867
 20
2.204744746542082
 30
0.0
 10
1.711604097409059
 20
2.218532235952466
 30
0.0
 10
1.704010690029387
 20
2.229972649689987
 30
0.0
 10
1.694196795519373
 20
2.230259186755966
 30
0.0
 10
1.684383075452741
 20
2.230545862780585
 30
0.0
 10
1.676090181217306
 20
2.219644673973347
 30
0.0
 10
1.675660549841344
 20
2.205899322366791
 30
0.0
 10
1.675226356238959
 20
2.192074046919704
 30
0.0
 10
1.68281958848762
 20
2.180671419218887
 30
0.0
 10
1.692633482997609
 20
2.180342744349079
 30
0.0
  0
HATCH
  5
106
330
1F
100
AcDbEntity
  8
Layer 1
 62
     7
420
 16777215
100
AcDbHatch
 10
0.0
 20
0.0
 30
0.0
210
0.0
220
0.0
230
1.0
  2
SOLID
 70
     1
 71
     0
 91
        1
 92
        1
 93
        1
 72
     4
 94
        3
 73
     0
 74
     1
 95
       17
 96
       13
 40
0.0
 40
0.0
 40
0.0
 40
0.0
 40
1.0
 40
1.0
 40
1.0
 40
2.0
 40
2.0
 40
2.0
 40
3.0
 40
3.0
 40
3.0
 40
4.0
 40
4.0
 40
4.0
 40
4.0
 10
1.692633482997609
 20
2.180342744349079
 10
1.702447377507623
 20
2.1800562072831
 10
1.710740097299675
 20
2.191003608715897
 10
1.71116990289867
 20
2.204744746542082
 10
1.711604097409059
 20
2.218532235952466
 10
1.704010690029387
 20
2.229972649689987
 10
1.694196795519373
 20
2.230259186755966
 10
1.684383075452741
 20
2.230545862780585
 10
1.676090181217306
 20
2.219644673973347
 10
1.675660549841344
 20
2.205899322366791
 10
1.675226356238959
 20
2.192074046919704
 10
1.68281958848762
 20
2.180671419218887
 10
1.692633482997609
 20
2.180342744349079
 97
        0
 97
        0
 75
     2
 76
     1
 98
        0
  0
SPLINE
  5
107
330
1F
100
AcDbEntity
  8
Layer 1
 62
     7
420
 16777215
370
    20
100
AcDbSpline
210
0.0
220
0.0
230
1.0
 70
    11
 71
     3
 72
    17
 73
    13
 74
     0
 42
0.0000000001
 43
0.0000000001
 12
1.0
 22
0.0
 32
0.0
 13
1.0
 23
0.0
 33
0.0
 40
0.0
 40
0.0
 40
0.0
 40
0.0
 40
1.0
 40
1.0
 40
1.0
 40
2.0
 40
2.0
 40
2.0
 40
3.0
 40
3.0
 40
3.0
 40
4.0
 40
4.0
 40
4.0
 40
4.0
 10
1.682549906543159
 20
2.180098345086928
 30
0.0
 10
1.692347120576212
 20
2.179769807892942
 30
0.0
 10
1.700656520845213
 20
2.190712857869547
 30
0.0
 10
1.701090540224565
 20
2.20450034727993
 30
0.0
 10
1.701520345823559
 20
2.218241623753847
 30
0.0
 10
1.693931327355307
 20
2.229681898843624
 30
0.0
 10
1.684117432845293
 20
2.230010573713432
 30
0.0
 10
1.674299324554921
 20
2.230301324559794
 30
0.0
 10
1.666010992522489
 20
2.219396060930825
 30
0.0
 10
1.665576799163849
 20
2.205608571520429
 30
0.0
 10
1.66512609861987
 20
2.191825295890428
 30
0.0
 10
1.672736012033119
 20
2.180384882152907
 30
0.0
 10
1.682549906543159
 20
2.180098345086928
 30
0.0
  0
HATCH
  5
108
330
1F
100
AcDbEntity
  8
Layer 1
 62
   254
420
 13358815
100
AcDbHatch
 10
0.0
 20
0.0
 30
0.0
210
0.0
220
0.0
230
1.0
  2
SOLID
 70
     1
 71
     0
 91
        1
 92
        1
 93
        1
 72
     4
 94
        3
 73
     0
 74
     1
 95
       17
 96
       13
 40
0.0
 40
0.0
 40
0.0
 40
0.0
 40
1.0
 40
1.0
 40
1.0
 40
2.0
 40
2.0
 40
2.0
 40
3.0
 40
3.0
 40
3.0
 40
4.0
 40
4.0
 40
4.0
 40
4.0
 10
1.682549906543159
 20
2.180098345086928
 10
1.692347120576212
 20
2.179769807892942
 10
1.700656520845213
 20
2.190712857869547
 10
1.701090540224565
 20
2.20450034727993
 10
1.701520345823559
 20
2.218241623753847
 10
1.693931327355307
 20
2.229681898843624
 10
1.684117432845293
 20
2.230010573713432
 10
1.674299324554921
 20
2.230301324559794
 10
1.666010992522489
 20
2.219396060930825
 10
1.665576799163849
 20
2.205608571520429
 10
1.66512609861987
 20
2.191825295890428
 10
1.672736012033119
 20
2.180384882152907
 10
1.682549906543159
 20
2.180098345086928
 97
        0
 97
        0
 75
     2
 76
     1
 98
        0
  0
SPLINE
  5
109
330
1F
100
AcDbEntity
  8
Layer 1
 62
     7
420
 16777215
370
    40
100
AcDbSpline
210
0.0
220
0.0
230
1.0
 70
    11
 71
     3
 72
    17
 73
    13
 74
     0
 42
0.0000000001
 43
0.0000000001
 12
1.0
 22
0.0
 32
0.0
 13
1.0
 23
0.0
 33
0.0
 40
0.0
 40
0.0
 40
0.0
 40
0.0
 40
1.0
 40
1.0
 40
1.0
 40
2.0
 40
2.0
 40
2.0
 40
3.0
 40
3.0
 40
3.0
 40
4.0
 40
4.0
 40
4.0
 40
4.0
 10
1.852647579229167
 20
2.040188195058577
 30
0.0
 10
1.862461473739182
 20
2.039855306408387
 30
0.0
 10
1.870754193531259
 20
2.050760570037381
 30
0.0
 10
1.871183999130216
 20
2.064548059447753
 30
0.0
 10
1.871618018509581
 20
2.078331335077716
 30
0.0
 10
1.864024786260971
 20
2.089729611011446
 30
0.0
 10
1.854210891750957
 20
2.090062499661637
 30
0.0
 10
1.844396997240943
 20
2.090391174531444
 30
0.0
 10
1.836104277448915
 20
2.079443773098635
 30
0.0
 10
1.835670258069513
 20
2.065660632261888
 30
0.0
 10
1.835240452470543
 20
2.051915145862078
 30
0.0
 10
1.842833684719153
 20
2.040474732124557
 30
0.0
 10
1.852647579229167
 20
2.040188195058577
 30
0.0
  0
HATCH
  5
10A
330
1F
100
AcDbEntity
  8
Layer 1
 62
     7
420
 16777215
100
AcDbHatch
 10
0.0
 20
0.0
 30
0.0
210
0.0
220
0.0
230
1.0
  2
SOLID
 70
     1
 71
     0
 91
        1
 92
        1
 93
        1
 72
     4
 94
        3
 73
     0
 74
     1
 95
       17
 96
       13
 40
0.0
 40
0.0
 40
0.0
 40
0.0
 40
1.0
 40
1.0
 40
1.0
 40
2.0
 40
2.0
 40
2.0
 40
3.0
 40
3.0
 40
3.0
 40
4.0
 40
4.0
 40
4.0
 40
4.0
 10
1.852647579229167
 20
2.040188195058577
 10
1.862461473739182
 20
2.039855306408387
 10
1.870754193531259
 20
2.050760570037381
 10
1.871183999130216
 20
2.064548059447753
 10
1.871618018509581
 20
2.078331335077716
 10
1.864024786260971
 20
2.089729611011446
 10
1.854210891750957
 20
2.090062499661637
 10
1.844396997240943
 20
2.090391174531444
 10
1.836104277448915
 20
2.079443773098635
 10
1.835670258069513
 20
2.065660632261888
 10
1.835240452470543
 20
2.051915145862078
 10
1.842833684719153
 20
2.040474732124557
 10
1.852647579229167
 20
2.040188195058577
 97
        0
 97
        0
 75
     2
 76
     1
 98
        0
  0
SPLINE
  5
10B
330
1F
100
AcDbEntity
  8
Layer 1
 62
     7
420
 16777215
370
    20
100
AcDbSpline
210
0.0
220
0.0
230
1.0
 70
    11
 71
     3
 72
    17
 73
    13
 74
     0
 42
0.0000000001
 43
0.0000000001
 12
1.0
 22
0.0
 32
0.0
 13
1.0
 23
0.0
 33
0.0
 40
0.0
 40
0.0
 40
0.0
 40
0.0
 40
1.0
 40
1.0
 40
1.0
 40
2.0
 40
2.0
 40
2.0
 40
3.0
 40
3.0
 40
3.0
 40
4.0
 40
4.0
 40
4.0
 40
4.0
 10
1.842564002774705
 20
2.03989744421219
 30
0.0
 10
1.852356828382805
 20
2.039568769342395
 30
0.0
 10
1.860670617076772
 20
2.050516170775192
 30
0.0
 10
1.861100422675766
 20
2.064261522381748
 30
0.0
 10
1.861534442055131
 20
2.078086935815589
 30
0.0
 10
1.853920140904569
 20
2.089485211749269
 30
0.0
 10
1.844127493775356
 20
2.089771748815274
 30
0.0
 10
1.834313420786455
 20
2.090100559095731
 30
0.0
 10
1.825999632092488
 20
2.079195160056075
 30
0.0
 10
1.825569826493519
 20
2.065369746622284
 30
0.0
 10
1.825135807114141
 20
2.051624395015728
 30
0.0
 10
1.832750286456126
 20
2.040188195058577
 30
0.0
 10
1.842564002774705
 20
2.03989744421219
 30
0.0
  0
HATCH
  5
10C
330
1F
100
AcDbEntity
  8
Layer 1
 62
   254
420
 13358815
100
AcDbHatch
 10
0.0
 20
0.0
 30
0.0
210
0.0
220
0.0
230
1.0
  2
SOLID
 70
     1
 71
     0
 91
        1
 92
        1
 93
        1
 72
     4
 94
        3
 73
     0
 74
     1
 95
       17
 96
       13
 40
0.0
 40
0.0
 40
0.0
 40
0.0
 40
1.0
 40
1.0
 40
1.0
 40
2.0
 40
2.0
 40
2.0
 40
3.0
 40
3.0
 40
3.0
 40
4.0
 40
4.0
 40
4.0
 40
4.0
 10
1.842564002774705
 20
2.03989744421219
 10
1.852356828382805
 20
2.039568769342395
 10
1.860670617076772
 20
2.050516170775192
 10
1.861100422675766
 20
2.064261522381748
 10
1.861534442055131
 20
2.078086935815589
 10
1.853920140904569
 20
2.089485211749269
 10
1.844127493775356
 20
2.089771748815274
 10
1.834313420786455
 20
2.090100559095731
 10
1.825999632092488
 20
2.079195160056075
 10
1.825569826493519
 20
2.065369746622284
 10
1.825135807114141
 20
2.051624395015728
 10
1.832750286456126
 20
2.040188195058577
 10
1.842564002774705
 20
2.03989744421219
 97
        0
 97
        0
 75
     2
 76
     1
 98
        0
  0
SPLINE
  5
10D
330
1F
100
AcDbEntity
  8
Layer 1
 62
     7
420
 16777215
370
    40
100
AcDbSpline
210
0.0
220
0.0
230
1.0
 70
    11
 71
     3
 72
    17
 73
    13
 74
     0
 42
0.0000000001
 43
0.0000000001
 12
1.0
 22
0.0
 32
0.0
 13
1.0
 23
0.0
 33
0.0
 40
0.0
 40
0.0
 40
0.0
 40
0.0
 40
1.0
 40
1.0
 40
1.0
 40
2.0
 40
2.0
 40
2.0
 40
3.0
 40
3.0
 40
3.0
 40
4.0
 40
4.0
 40
4.0
 40
4.0
 10
1.803472762169501
 20
1.928421884202534
 30
0.0
 10
1.813265587777652
 20
1.928135347136554
 30
0.0
 10
1.821579376471631
 20
1.939078666384477
 30
0.0
 10
1.822009182070587
 20
1.952823886395537
 30
0.0
 10
1.822443201449952
 20
1.96661137580592
 30
0.0
 10
1.81484996920133
 20
1.978051789543466
 30
0.0
 10
1.805036074691316
 20
1.978338326609446
 30
0.0
 10
1.795222180181301
 20
1.978624863675426
 30
0.0
 10
1.786929460389249
 20
1.967719600046419
 30
0.0
 10
1.786478585888365
 20
1.953978462220271
 30
0.0
 10
1.786044566508988
 20
1.940148835006059
 30
0.0
 10
1.793658867659537
 20
1.928750559072341
 30
0.0
 10
1.803472762169501
 20
1.928421884202534
 30
0.0
  0
HATCH
  5
10E
330
1F
100
AcDbEntity
  8
Layer 1
 62
     7
420
 16777215
100
AcDbHatch
 10
0.0
 20
0.0
 30
0.0
210
0.0
220
0.0
230
1.0
  2
SOLID
 70
     1
 71
     0
 91
        1
 92
        1
 93
        1
 72
     4
 94
        3
 73
     0
 74
     1
 95
       17
 96
       13
 40
0.0
 40
0.0
 40
0.0
 40
0.0
 40
1.0
 40
1.0
 40
1.0
 40
2.0
 40
2.0
 40
2.0
 40
3.0
 40
3.0
 40
3.0
 40
4.0
 40
4.0
 40
4.0
 40
4.0
 10
1.803472762169501
 20
1.928421884202534
 10
1.813265587777652
 20
1.928135347136554
 10
1.821579376471631
 20
1.939078666384477
 10
1.822009182070587
 20
1.952823886395537
 10
1.822443201449952
 20
1.96661137580592
 10
1.81484996920133
 20
1.978051789543466
 10
1.805036074691316
 20
1.978338326609446
 10
1.795222180181301
 20
1.978624863675426
 10
1.786929460389249
 20
1.967719600046419
 10
1.786478585888365
 20
1.953978462220271
 10
1.786044566508988
 20
1.940148835006059
 10
1.793658867659537
 20
1.928750559072341
 10
1.803472762169501
 20
1.928421884202534
 97
        0
 97
        0
 75
     2
 76
     1
 98
        0
  0
SPLINE
  5
10F
330
1F
100
AcDbEntity
  8
Layer 1
 62
     7
420
 16777215
370
    20
100
AcDbSpline
210
0.0
220
0.0
230
1.0
 70
    11
 71
     3
 72
    17
 73
    13
 74
     0
 42
0.0000000001
 43
0.0000000001
 12
1.0
 22
0.0
 32
0.0
 13
1.0
 23
0.0
 33
0.0
 40
0.0
 40
0.0
 40
0.0
 40
0.0
 40
1.0
 40
1.0
 40
1.0
 40
2.0
 40
2.0
 40
2.0
 40
3.0
 40
3.0
 40
3.0
 40
4.0
 40
4.0
 40
4.0
 40
4.0
 10
1.793368116813149
 20
1.928177484940382
 30
0.0
 10
1.803182011323189
 20
1.927844596290217
 30
0.0
 10
1.811495800017155
 20
1.938791997723001
 30
0.0
 10
1.811929819396507
 20
1.952579487133385
 30
0.0
 10
1.812359624995477
 20
1.966320624959583
 30
0.0
 10
1.804745323844953
 20
1.977761171269776
 30
0.0
 10
1.794952675473446
 20
1.978051789543466
 30
0.0
 10
1.785138603726839
 20
1.978380464413274
 30
0.0
 10
1.776824815032872
 20
1.967475200784267
 30
0.0
 10
1.776395009433877
 20
1.953687711373883
 30
0.0
 10
1.775960990054525
 20
1.939904435743907
 30
0.0
 10
1.783575468154266
 20
1.92850615981019
 30
0.0
 10
1.793368116813149
 20
1.928177484940382
 30
0.0
  0
HATCH
  5
110
330
1F
100
AcDbEntity
  8
Layer 1
 62
   254
420
 13358815
100
AcDbHatch
 10
0.0
 20
0.0
 30
0.0
210
0.0
220
0.0
230
1.0
  2
SOLID
 70
     1
 71
     0
 91
        1
 92
        1
 93
        1
 72
     4
 94
        3
 73
     0
 74
     1
 95
       17
 96
       13
 40
0.0
 40
0.0
 40
0.0
 40
0.0
 40
1.0
 40
1.0
 40
1.0
 40
2.0
 40
2.0
 40
2.0
 40
3.0
 40
3.0
 40
3.0
 40
4.0
 40
4.0
 40
4.0
 40
4.0
 10
1.793368116813149
 20
1.928177484940382
 10
1.803182011323189
 20
1.927844596290217
 10
1.811495800017155
 20
1.938791997723001
 10
1.811929819396507
 20
1.952579487133385
 10
1.812359624995477
 20
1.966320624959583
 10
1.804745323844953
 20
1.977761171269776
 10
1.794952675473446
 20
1.978051789543466
 10
1.785138603726839
 20
1.978380464413274
 10
1.776824815032872
 20
1.967475200784267
 10
1.776395009433877
 20
1.953687711373883
 10
1.775960990054525
 20
1.939904435743907
 10
1.783575468154266
 20
1.92850615981019
 10
1.793368116813149
 20
1.928177484940382
 97
        0
 97
        0
 75
     2
 76
     1
 98
        0
  0
SPLINE
  5
111
330
1F
100
AcDbEntity
  8
Layer 1
 62
     7
420
 16777215
370
    20
100
AcDbSpline
210
0.0
220
0.0
230
1.0
 70
    11
 71
     3
 72
    35
 73
    31
 74
     0
 42
0.0000000001
 43
0.0000000001
 12
1.0
 22
0.0
 32
0.0
 13
1.0
 23
0.0
 33
0.0
 40
0.0
 40
0.0
 40
0.0
 40
0.0
 40
1.0
 40
1.0
 40
1.0
 40
2.0
 40
2.0
 40
2.0
 40
3.0
 40
3.0
 40
3.0
 40
4.0
 40
4.0
 40
4.0
 40
5.0
 40
5.0
 40
5.0
 40
6.0
 40
6.0
 40
6.0
 40
7.0
 40
7.0
 40
7.0
 40
8.0
 40
8.0
 40
8.0
 40
9.0
 40
9.0
 40
9.0
 40
10.0
 40
10.0
 40
10.0
 40
10.0
 10
1.857050979728506
 20
2.265237777708143
 30
0.0
 10
1.857050979728506
 20
2.265237777708143
 30
0.0
 10
1.857050979728506
 20
2.265279915511971
 30
0.0
 10
1.857050979728506
 20
2.265279915511971
 30
0.0
 10
1.857050979728506
 20
2.265279915511971
 30
0.0
 10
1.811289324778436
 20
2.283959603946022
 30
0.0
 10
1.811289324778436
 20
2.283959603946022
 30
0.0
 10
1.809540605919842
 20
2.28511432010781
 30
0.0
 10
1.80762754962633
 20
2.285978004749078
 30
0.0
 10
1.805571402304723
 20
2.286348817422713
 30
0.0
 10
1.796393611127592
 20
2.28786999214065
 30
0.0
 10
1.788391642181851
 20
2.279884878316491
 30
0.0
 10
1.787692154638408
 20
2.268528740186601
 30
0.0
 10
1.786971598193089
 20
2.257214739860564
 30
0.0
 10
1.793823205094466
 20
2.246718212928638
 30
0.0
 10
1.802996604986371
 20
2.245197038210677
 30
0.0
 10
1.803038742790186
 20
2.245197038210677
 30
0.0
 10
1.803080880594002
 20
2.245197038210677
 30
0.0
 10
1.80312301839783
 20
2.245197038210677
 30
0.0
 10
1.80312301839783
 20
2.245197038210677
 30
0.0
 10
1.847110671807033
 20
2.227010362081336
 30
0.0
 10
1.847110671807033
 20
2.227010362081336
 30
0.0
 10
1.848922597371357
 20
2.22577572442938
 30
0.0
 10
1.850898860370585
 20
2.224911899451033
 30
0.0
 10
1.853035247024334
 20
2.224541086777397
 30
0.0
 10
1.862212860696647
 20
2.222977774255633
 30
0.0
 10
1.87021904342272
 20
2.230916536495581
 30
0.0
 10
1.870935386087694
 20
2.242276888405867
 30
0.0
 10
1.871618018509581
 20
2.253013600819561
 30
0.0
 10
1.865465899151673
 20
2.262848564231477
 30
0.0
 10
1.857050979728506
 20
2.265237777708143
 30
0.0
  0
SPLINE
  5
112
330
1F
100
AcDbEntity
  8
Layer 1
 62
     7
420
 16777215
370
    20
100
AcDbSpline
210
0.0
220
0.0
230
1.0
 70
    11
 71
     3
 72
    35
 73
    31
 74
     0
 42
0.0000000001
 43
0.0000000001
 12
1.0
 22
0.0
 32
0.0
 13
1.0
 23
0.0
 33
0.0
 40
0.0
 40
0.0
 40
0.0
 40
0.0
 40
1.0
 40
1.0
 40
1.0
 40
2.0
 40
2.0
 40
2.0
 40
3.0
 40
3.0
 40
3.0
 40
4.0
 40
4.0
 40
4.0
 40
5.0
 40
5.0
 40
5.0
 40
6.0
 40
6.0
 40
6.0
 40
7.0
 40
7.0
 40
7.0
 40
8.0
 40
8.0
 40
8.0
 40
9.0
 40
9.0
 40
9.0
 40
10.0
 40
10.0
 40
10.0
 40
10.0
 10
1.857050979728506
 20
2.265237777708143
 30
0.0
 10
1.857050979728506
 20
2.265237777708143
 30
0.0
 10
1.857050979728506
 20
2.265279915511971
 30
0.0
 10
1.857050979728506
 20
2.265279915511971
 30
0.0
 10
1.857050979728506
 20
2.265279915511971
 30
0.0
 10
1.811289324778436
 20
2.283959603946022
 30
0.0
 10
1.811289324778436
 20
2.283959603946022
 30
0.0
 10
1.810509775407733
 20
2.284494754054549
 30
0.0
 10
1.809683874452831
 20
2.284949842335827
 30
0.0
 10
1.808841118376399
 20
2.28531644122908
 30
0.0
 10
1.807155606223533
 20
2.282480567031889
 30
0.0
 10
1.806022099300738
 20
2.279021053338144
 30
0.0
 10
1.805777700038586
 20
2.275194940751172
 30
0.0
 10
1.805057143593229
 20
2.263838802621283
 30
0.0
 10
1.811929819396507
 20
2.253384553028746
 30
0.0
 10
1.821103219288438
 20
2.251863238775222
 30
0.0
 10
1.821145357092266
 20
2.251821100971395
 30
0.0
 10
1.82116642599418
 20
2.251863238775222
 30
0.0
 10
1.821208563797983
 20
2.251821100971395
 30
0.0
 10
1.821208563797983
 20
2.251821100971395
 30
0.0
 10
1.865196396218304
 20
2.23363442484208
 30
0.0
 10
1.865196396218304
 20
2.23363442484208
 30
0.0
 10
1.866060042185533
 20
2.233057136929713
 30
0.0
 10
1.866944936065794
 20
2.232606262428829
 30
0.0
 10
1.867871967749857
 20
2.232151174147563
 30
0.0
 10
1.869557479902722
 20
2.235033399928941
 30
0.0
 10
1.870690986825517
 20
2.238446562038474
 30
0.0
 10
1.870935386087694
 20
2.242276888405867
 30
0.0
 10
1.871618018509581
 20
2.253013600819561
 30
0.0
 10
1.865465899151673
 20
2.262848564231477
 30
0.0
 10
1.857050979728506
 20
2.265237777708143
 30
0.0
  0
HATCH
  5
113
330
1F
100
AcDbEntity
  8
Layer 1
 62
    43
420
 15510365
100
AcDbHatch
 10
0.0
 20
0.0
 30
0.0
210
0.0
220
0.0
230
1.0
  2
SOLID
 70
     1
 71
     0
 91
        1
 92
        1
 93
        1
 72
     4
 94
        3
 73
     0
 74
     1
 95
       35
 96
       31
 40
0.0
 40
0.0
 40
0.0
 40
0.0
 40
1.0
 40
1.0
 40
1.0
 40
2.0
 40
2.0
 40
2.0
 40
3.0
 40
3.0
 40
3.0
 40
4.0
 40
4.0
 40
4.0
 40
5.0
 40
5.0
 40
5.0
 40
6.0
 40
6.0
 40
6.0
 40
7.0
 40
7.0
 40
7.0
 40
8.0
 40
8.0
 40
8.0
 40
9.0
 40
9.0
 40
9.0
 40
10.0
 40
10.0
 40
10.0
 40
10.0
 10
1.857050979728506
 20
2.265237777708143
 10
1.857050979728506
 20
2.265237777708143
 10
1.857050979728506
 20
2.265279915511971
 10
1.857050979728506
 20
2.265279915511971
 10
1.857050979728506
 20
2.265279915511971
 10
1.811289324778436
 20
2.283959603946022
 10
1.811289324778436
 20
2.283959603946022
 10
1.810509775407733
 20
2.284494754054549
 10
1.809683874452831
 20
2.284949842335827
 10
1.808841118376399
 20
2.28531644122908
 10
1.807155606223533
 20
2.282480567031889
 10
1.806022099300738
 20
2.279021053338144
 10
1.805777700038586
 20
2.275194940751172
 10
1.805057143593229
 20
2.263838802621283
 10
1.811929819396507
 20
2.253384553028746
 10
1.821103219288438
 20
2.251863238775222
 10
1.821145357092266
 20
2.251821100971395
 10
1.82116642599418
 20
2.251863238775222
 10
1.821208563797983
 20
2.251821100971395
 10
1.821208563797983
 20
2.251821100971395
 10
1.865196396218304
 20
2.23363442484208
 10
1.865196396218304
 20
2.23363442484208
 10
1.866060042185533
 20
2.233057136929713
 10
1.866944936065794
 20
2.232606262428829
 10
1.867871967749857
 20
2.232151174147563
 10
1.869557479902722
 20
2.235033399928941
 10
1.870690986825517
 20
2.238446562038474
 10
1.870935386087694
 20
2.242276888405867
 10
1.871618018509581
 20
2.253013600819561
 10
1.865465899151673
 20
2.262848564231477
 10
1.857050979728506
 20
2.265237777708143
 97
        0
 97
        0
 75
     2
 76
     1
 98
        0
  0
SPLINE
  5
114
330
1F
100
AcDbEntity
  8
Layer 1
 62
     7
420
 16777215
370
    20
100
AcDbSpline
210
0.0
220
0.0
230
1.0
 70
    11
 71
     3
 72
    35
 73
    31
 74
     0
 42
0.0000000001
 43
0.0000000001
 12
1.0
 22
0.0
 32
0.0
 13
1.0
 23
0.0
 33
0.0
 40
0.0
 40
0.0
 40
0.0
 40
0.0
 40
1.0
 40
1.0
 40
1.0
 40
2.0
 40
2.0
 40
2.0
 40
3.0
 40
3.0
 40
3.0
 40
4.0
 40
4.0
 40
4.0
 40
5.0
 40
5.0
 40
5.0
 40
6.0
 40
6.0
 40
6.0
 40
7.0
 40
7.0
 40
7.0
 40
8.0
 40
8.0
 40
8.0
 40
9.0
 40
9.0
 40
9.0
 40
10.0
 40
10.0
 40
10.0
 40
10.0
 10
2.043561327003014
 20
2.275194940751172
 30
0.0
 10
2.043561327003014
 20
2.275194940751172
 30
0.0
 10
2.043561327003014
 20
2.275279216358803
 30
0.0
 10
2.043561327003014
 20
2.275279216358803
 30
0.0
 10
2.043561327003014
 20
2.275279216358803
 30
0.0
 10
2.078148036379642
 20
2.292437730074893
 30
0.0
 10
2.078148036379642
 20
2.292437730074893
 30
0.0
 10
2.079467134063306
 20
2.293423754684315
 30
0.0
 10
2.080908062529968
 20
2.294207517835389
 30
0.0
 10
2.082450306149819
 20
2.294578330509024
 30
0.0
 10
2.089424112682284
 20
2.29626384266189
 30
0.0
 10
2.095677362769366
 20
2.290339407913721
 30
0.0
 10
2.096418988116637
 20
2.281283853403352
 30
0.0
 10
2.097160613463883
 20
2.272274790946325
 30
0.0
 10
2.092120932126843
 20
2.26354805177492
 30
0.0
 10
2.085142911814008
 20
2.261862539622055
 30
0.0
 10
2.085126056692489
 20
2.261862539622055
 30
0.0
 10
2.085083918888661
 20
2.261862539622055
 30
0.0
 10
2.085083918888661
 20
2.261862539622055
 30
0.0
 10
2.085083918888661
 20
2.261862539622055
 30
0.0
 10
2.051832977893203
 20
2.245154900406849
 30
0.0
 10
2.051832977893203
 20
2.245154900406849
 30
0.0
 10
2.050455071708206
 20
2.244084600189795
 30
0.0
 10
2.048971821013689
 20
2.243305050819079
 30
0.0
 10
2.047349515566566
 20
2.24293437741705
 30
0.0
 10
2.040371495253718
 20
2.241244512212221
 30
0.0
 10
2.03411824516661
 20
2.247211225233349
 30
0.0
 10
2.033376619819364
 20
2.256224501470759
 30
0.0
 10
2.032677132275921
 20
2.264744765403432
 30
0.0
 10
2.03718587728483
 20
2.272890002882137
 30
0.0
 10
2.043561327003014
 20
2.275194940751172
 30
0.0
  0
SPLINE
  5
115
330
1F
100
AcDbEntity
  8
Layer 1
 62
     7
420
 16777215
370
    20
100
AcDbSpline
210
0.0
220
0.0
230
1.0
 70
    11
 71
     3
 72
    29
 73
    25
 74
     0
 42
0.0000000001
 43
0.0000000001
 12
1.0
 22
0.0
 32
0.0
 13
1.0
 23
0.0
 33
0.0
 40
0.0
 40
0.0
 40
0.0
 40
0.0
 40
1.0
 40
1.0
 40
1.0
 40
2.0
 40
2.0
 40
2.0
 40
3.0
 40
3.0
 40
3.0
 40
4.0
 40
4.0
 40
4.0
 40
5.0
 40
5.0
 40
5.0
 40
6.0
 40
6.0
 40
6.0
 40
7.0
 40
7.0
 40
7.0
 40
8.0
 40
8.0
 40
8.0
 40
8.0
 10
2.03346089542702
 20
2.253346489469739
 30
0.0
 10
2.034653395275149
 20
2.253839501774438
 30
0.0
 10
2.035866964025217
 20
2.258487301535966
 30
0.0
 10
2.036895126438468
 20
2.25931320249088
 30
0.0
 10
2.036895126438468
 20
2.25931320249088
 30
0.0
 10
2.070146067433964
 20
2.271819702665059
 30
0.0
 10
2.070146067433964
 20
2.271819702665059
 30
0.0
 10
2.070146067433964
 20
2.271819702665059
 30
0.0
 10
2.070209274139693
 20
2.276016627925691
 30
0.0
 10
2.070226129261224
 20
2.276016627925691
 30
0.0
 10
2.076854590160388
 20
2.277622078251284
 30
0.0
 10
2.081687611900659
 20
2.285565054271615
 30
0.0
 10
2.081523274465755
 20
2.294123242227758
 30
0.0
 10
2.080352027965899
 20
2.293714505530677
 30
0.0
 10
2.079176198792892
 20
2.293217279445609
 30
0.0
 10
2.078148036379642
 20
2.292437730074893
 30
0.0
 10
2.078148036379642
 20
2.292437730074893
 30
0.0
 10
2.043561327003014
 20
2.275279216358803
 30
0.0
 10
2.043561327003014
 20
2.275279216358803
 30
0.0
 10
2.043561327003014
 20
2.275279216358803
 30
0.0
 10
2.043561327003014
 20
2.275194940751172
 30
0.0
 10
2.043561327003014
 20
2.275194940751172
 30
0.0
 10
2.037535621056552
 20
2.273016416293596
 30
0.0
 10
2.033338695795919
 20
2.261411665121171
 30
0.0
 10
2.03346089542702
 20
2.253346489469739
 30
0.0
  0
HATCH
  5
116
330
1F
100
AcDbEntity
  8
Layer 1
 62
    43
420
 15510365
100
AcDbHatch
 10
0.0
 20
0.0
 30
0.0
210
0.0
220
0.0
230
1.0
  2
SOLID
 70
     1
 71
     0
 91
        1
 92
        1
 93
        1
 72
     4
 94
        3
 73
     0
 74
     1
 95
       29
 96
       25
 40
0.0
 40
0.0
 40
0.0
 40
0.0
 40
1.0
 40
1.0
 40
1.0
 40
2.0
 40
2.0
 40
2.0
 40
3.0
 40
3.0
 40
3.0
 40
4.0
 40
4.0
 40
4.0
 40
5.0
 40
5.0
 40
5.0
 40
6.0
 40
6.0
 40
6.0
 40
7.0
 40
7.0
 40
7.0
 40
8.0
 40
8.0
 40
8.0
 40
8.0
 10
2.03346089542702
 20
2.253346489469739
 10
2.034653395275149
 20
2.253839501774438
 10
2.035866964025217
 20
2.258487301535966
 10
2.036895126438468
 20
2.25931320249088
 10
2.036895126438468
 20
2.25931320249088
 10
2.070146067433964
 20
2.271819702665059
 10
2.070146067433964
 20
2.271819702665059
 10
2.070146067433964
 20
2.271819702665059
 10
2.070209274139693
 20
2.276016627925691
 10
2.070226129261224
 20
2.276016627925691
 10
2.076854590160388
 20
2.277622078251284
 10
2.081687611900659
 20
2.285565054271615
 10
2.081523274465755
 20
2.294123242227758
 10
2.080352027965899
 20
2.293714505530677
 10
2.079176198792892
 20
2.293217279445609
 10
2.078148036379642
 20
2.292437730074893
 10
2.078148036379642
 20
2.292437730074893
 10
2.043561327003014
 20
2.275279216358803
 10
2.043561327003014
 20
2.275279216358803
 10
2.043561327003014
 20
2.275279216358803
 10
2.043561327003014
 20
2.275194940751172
 10
2.043561327003014
 20
2.275194940751172
 10
2.037535621056552
 20
2.273016416293596
 10
2.033338695795919
 20
2.261411665121171
 10
2.03346089542702
 20
2.253346489469739
 97
        0
 97
        0
 75
     2
 76
     1
 98
        0
  0
POLYLINE
  5
117
330
1F
100
AcDbEntity
  8
Layer 1
 62
     7
420
 16777215
370
    15
100
AcDb2dPolyline
 66
     1
 10
0.0
 20
0.0
 30
0.0
  0
VERTEX
  5
118
330
117
100
AcDbEntity
  8
Layer 1
 62
     7
420
 16777215
370
    15
100
AcDbVertex
100
AcDb2dVertex
 10
1.946530606143369
 20
2.298197967857289
 30
0.0
  0
VERTEX
  5
119
330
117
100
AcDbEntity
  8
Layer 1
 62
     7
420
 16777215
370
    15
100
AcDbVertex
100
AcDb2dVertex
 10
1.939843336676909
 20
2.923185874136998
 30
0.0
  0
SEQEND
  5
11A
330
117
100
AcDbEntity
  8
Layer 1
 62
     7
420
 16777215
370
    15
  0
POLYLINE
  5
11B
330
1F
100
AcDbEntity
  8
Layer 1
 62
     7
420
 16777215
370
    15
100
AcDb2dPolyline
 66
     1
 10
0.0
 20
0.0
 30
0.0
  0
VERTEX
  5
11C
330
11B
100
AcDbEntity
  8
Layer 1
 62
     7
420
 16777215
370
    15
100
AcDbVertex
100
AcDb2dVertex
 10
1.920051210221964
 20
2.92117168711435
 30
0.0
  0
VERTEX
  5
11D
330
11B
100
AcDbEntity
  8
Layer 1
 62
     7
420
 16777215
370
    15
100
AcDbVertex
100
AcDb2dVertex
 10
1.923814116103207
 20
2.287086228989589
 30
0.0
  0
SEQEND
  5
11E
330
11B
100
AcDbEntity
  8
Layer 1
 62
     7
420
 16777215
370
    15
  0
POLYLINE
  5
11F
330
1F
100
AcDbEntity
  8
Layer 1
 62
     7
420
 16777215
370
    25
100
AcDb2dPolyline
 66
     1
 10
0.0
 20
0.0
 30
0.0
  0
VERTEX
  5
120
330
11F
100
AcDbEntity
  8
Layer 1
 62
     7
420
 16777215
370
    25
100
AcDbVertex
100
AcDb2dVertex
 10
2.074423054521895
 20
2.519134900853904
 30
0.0
  0
VERTEX
  5
121
330
11F
100
AcDbEntity
  8
Layer 1
 62
     7
420
 16777215
370
    25
100
AcDbVertex
100
AcDb2dVertex
 10
2.072674335663249
 20
2.671758026295215
 30
0.0
  0
VERTEX
  5
122
330
11F
100
AcDbEntity
  8
Layer 1
 62
     7
420
 16777215
370
    25
100
AcDbVertex
100
AcDb2dVertex
 10
2.046114877914584
 20
2.705459841791594
 30
0.0
  0
VERTEX
  5
123
330
11F
100
AcDbEntity
  8
Layer 1
 62
     7
420
 16777215
370
    25
100
AcDbVertex
100
AcDb2dVertex
 10
2.027886063981441
 20
2.669166551360175
 30
0.0
  0
VERTEX
  5
124
330
11F
100
AcDbEntity
  8
Layer 1
 62
     7
420
 16777215
370
    25
100
AcDbVertex
100
AcDb2dVertex
 10
2.030435401112628
 20
2.499464974030047
 30
0.0
  0
SEQEND
  5
125
330
11F
100
AcDbEntity
  8
Layer 1
 62
     7
420
 16777215
370
    25
  0
POLYLINE
  5
126
330
1F
100
AcDbEntity
  8
Layer 1
 62
     7
420
 16777215
370
    20
100
AcDb2dPolyline
 66
     1
 10
0.0
 20
0.0
 30
0.0
  0
VERTEX
  5
127
330
126
100
AcDbEntity
  8
Layer 1
 62
     7
420
 16777215
370
    20
100
AcDbVertex
100
AcDb2dVertex
 10
1.596795261986131
 20
2.344697176216553
 30
0.0
  0
VERTEX
  5
128
330
126
100
AcDbEntity
  8
Layer 1
 62
     7
420
 16777215
370
    20
100
AcDbVertex
100
AcDb2dVertex
 10
1.726419574101657
 20
2.294371855270292
 30
0.0
  0
VERTEX
  5
129
330
126
100
AcDbEntity
  8
Layer 1
 62
     7
420
 16777215
370
    20
100
AcDbVertex
100
AcDb2dVertex
 10
1.727405774241283
 20
2.315605094615939
 30
0.0
  0
SEQEND
  5
12A
330
126
100
AcDbEntity
  8
Layer 1
 62
     7
420
 16777215
370
    20
  0
POLYLINE
  5
12B
330
1F
100
AcDbEntity
  8
Layer 1
 62
     7
420
 16777215
370
    20
100
AcDb2dPolyline
 66
     1
 10
0.0
 20
0.0
 30
0.0
  0
VERTEX
  5
12C
330
12B
100
AcDbEntity
  8
Layer 1
 62
     7
420
 16777215
370
    20
100
AcDbVertex
100
AcDb2dVertex
 10
2.112283871255411
 20
2.299554805140347
 30
0.0
  0
VERTEX
  5
12D
330
12B
100
AcDbEntity
  8
Layer 1
 62
     7
420
 16777215
370
    20
100
AcDbVertex
100
AcDb2dVertex
 10
2.132324610752878
 20
2.309474044159906
 30
0.0
  0
SEQEND
  5
12E
330
12B
100
AcDbEntity
  8
Layer 1
 62
     7
420
 16777215
370
    20
  0
POLYLINE
  5
12F
330
1F
100
AcDbEntity
  8
Layer 1
 62
     7
420
 16777215
370
    20
100
AcDb2dPolyline
 66
     1
 10
0.0
 20
0.0
 30
0.0
  0
VERTEX
  5
130
330
12F
100
AcDbEntity
  8
Layer 1
 62
     7
420
 16777215
370
    20
100
AcDbVertex
100
AcDb2dVertex
 10
1.989266766779085
 20
2.235033399928941
 30
0.0
  0
VERTEX
  5
131
330
12F
100
AcDbEntity
  8
Layer 1
 62
     7
420
 16777215
370
    20
100
AcDbVertex
100
AcDb2dVertex
 10
2.003956187707697
 20
2.242479149864203
 30
0.0
  0
SEQEND
  5
132
330
12F
100
AcDbEntity
  8
Layer 1
 62
     7
420
 16777215
370
    20
  0
POLYLINE
  5
133
330
1F
100
AcDbEntity
  8
Layer 1
 62
     7
420
 16777215
370
    20
100
AcDb2dPolyline
 66
     1
 10
0.0
 20
0.0
 30
0.0
  0
VERTEX
  5
134
330
133
100
AcDbEntity
  8
Layer 1
 62
     7
420
 16777215
370
    20
100
AcDbVertex
100
AcDb2dVertex
 10
1.948607999871759
 20
2.204744746542082
 30
0.0
  0
VERTEX
  5
135
330
133
100
AcDbEntity
  8
Layer 1
 62
     7
420
 16777215
370
    20
100
AcDbVertex
100
AcDb2dVertex
 10
1.94869227547939
 20
2.226390936365167
 30
0.0
  0
VERTEX
  5
136
330
133
100
AcDbEntity
  8
Layer 1
 62
     7
420
 16777215
370
    20
100
AcDbVertex
100
AcDb2dVertex
 10
2.288756993659641
 20
2.097879062270509
 30
0.0
  0
VERTEX
  5
137
330
133
100
AcDbEntity
  8
Layer 1
 62
     7
420
 16777215
370
    20
100
AcDbVertex
100
AcDb2dVertex
 10
2.553968117131439
 20
2.250177726622357
 30
0.0
  0
SEQEND
  5
138
330
133
100
AcDbEntity
  8
Layer 1
 62
     7
420
 16777215
370
    20
  0
POLYLINE
  5
139
330
1F
100
AcDbEntity
  8
Layer 1
 62
     7
420
 16777215
370
    20
100
AcDb2dPolyline
 66
     1
 10
0.0
 20
0.0
 30
0.0
  0
VERTEX
  5
13A
330
139
100
AcDbEntity
  8
Layer 1
 62
     7
420
 16777215
370
    20
100
AcDbVertex
100
AcDb2dVertex
 10
2.287994299410457
 20
2.073064109600068
 30
0.0
  0
VERTEX
  5
13B
330
139
100
AcDbEntity
  8
Layer 1
 62
     7
420
 16777215
370
    20
100
AcDbVertex
100
AcDb2dVertex
 10
2.289165730356697
 20
2.098498487986679
 30
0.0
  0
SEQEND
  5
13C
330
139
100
AcDbEntity
  8
Layer 1
 62
     7
420
 16777215
370
    20
  0
SPLINE
  5
13D
330
1F
100
AcDbEntity
  8
Layer 1
 62
     7
420
 16777215
370
    40
100
AcDbSpline
210
0.0
220
0.0
230
1.0
 70
    11
 71
     3
 72
    17
 73
    13
 74
     0
 42
0.0000000001
 43
0.0000000001
 12
1.0
 22
0.0
 32
0.0
 13
1.0
 23
0.0
 33
0.0
 40
0.0
 40
0.0
 40
0.0
 40
0.0
 40
1.0
 40
1.0
 40
1.0
 40
2.0
 40
2.0
 40
2.0
 40
3.0
 40
3.0
 40
3.0
 40
4.0
 40
4.0
 40
4.0
 40
4.0
 10
2.230324501100439
 20
2.226390936365167
 30
0.0
 10
2.244229976361516
 20
2.225977985887703
 30
0.0
 10
2.25569145900095
 20
2.231451686604121
 30
0.0
 10
2.255919003141571
 20
2.238653037277206
 30
0.0
 10
2.256142333501834
 20
2.245896525754119
 30
0.0
 10
2.245055877316418
 20
2.252111851817782
 30
0.0
 10
2.231146188274958
 20
2.252520588514838
 30
0.0
 10
2.217257756040302
 20
2.252975676796091
 30
0.0
 10
2.205817154397866
 20
2.247459838275884
 30
0.0
 10
2.205589610257246
 20
2.240258487602786
 30
0.0
 10
2.205345210995069
 20
2.233014999125885
 30
0.0
 10
2.216435880960893
 20
2.22684181086605
 30
0.0
 10
2.230324501100439
 20
2.226390936365167
 30
0.0
  0
HATCH
  5
13E
330
1F
100
AcDbEntity
  8
Layer 1
 62
     7
420
 16777215
100
AcDbHatch
 10
0.0
 20
0.0
 30
0.0
210
0.0
220
0.0
230
1.0
  2
SOLID
 70
     1
 71
     0
 91
        1
 92
        1
 93
        1
 72
     4
 94
        3
 73
     0
 74
     1
 95
       17
 96
       13
 40
0.0
 40
0.0
 40
0.0
 40
0.0
 40
1.0
 40
1.0
 40
1.0
 40
2.0
 40
2.0
 40
2.0
 40
3.0
 40
3.0
 40
3.0
 40
4.0
 40
4.0
 40
4.0
 40
4.0
 10
2.230324501100439
 20
2.226390936365167
 10
2.244229976361516
 20
2.225977985887703
 10
2.25569145900095
 20
2.231451686604121
 10
2.255919003141571
 20
2.238653037277206
 10
2.256142333501834
 20
2.245896525754119
 10
2.245055877316418
 20
2.252111851817782
 10
2.231146188274958
 20
2.252520588514838
 10
2.217257756040302
 20
2.252975676796091
 10
2.205817154397866
 20
2.247459838275884
 10
2.205589610257246
 20
2.240258487602786
 10
2.205345210995069
 20
2.233014999125885
 10
2.216435880960893
 20
2.22684181086605
 10
2.230324501100439
 20
2.226390936365167
 97
        0
 97
        0
 75
     2
 76
     1
 98
        0
  0
SPLINE
  5
13F
330
1F
100
AcDbEntity
  8
Layer 1
 62
     7
420
 16777215
370
    20
100
AcDbSpline
210
0.0
220
0.0
230
1.0
 70
    11
 71
     3
 72
    17
 73
    13
 74
     0
 42
0.0000000001
 43
0.0000000001
 12
1.0
 22
0.0
 32
0.0
 13
1.0
 23
0.0
 33
0.0
 40
0.0
 40
0.0
 40
0.0
 40
0.0
 40
1.0
 40
1.0
 40
1.0
 40
2.0
 40
2.0
 40
2.0
 40
3.0
 40
3.0
 40
3.0
 40
4.0
 40
4.0
 40
4.0
 40
4.0
 10
2.230691099993666
 20
2.234249636777867
 30
0.0
 10
2.244579720133263
 20
2.233840900080786
 30
0.0
 10
2.256041202772672
 20
2.239310526196795
 30
0.0
 10
2.256268746913292
 20
2.246511737689906
 30
0.0
 10
2.256492077273555
 20
2.25375522616682
 30
0.0
 10
2.245405809704152
 20
2.259970552230483
 30
0.0
 10
2.231517000948568
 20
2.260379428639769
 30
0.0
 10
2.217607311907108
 20
2.260834377208804
 30
0.0
 10
2.206166898169588
 20
2.255318538688584
 30
0.0
 10
2.205939354028967
 20
2.248117327417996
 30
0.0
 10
2.205716023668704
 20
2.240915837342413
 30
0.0
 10
2.216785624732589
 20
2.234704725059133
 30
0.0
 10
2.230691099993666
 20
2.234249636777867
 30
0.0
  0
HATCH
  5
140
330
1F
100
AcDbEntity
  8
Layer 1
 62
   254
420
 13358815
100
AcDbHatch
 10
0.0
 20
0.0
 30
0.0
210
0.0
220
0.0
230
1.0
  2
SOLID
 70
     1
 71
     0
 91
        1
 92
        1
 93
        1
 72
     4
 94
        3
 73
     0
 74
     1
 95
       17
 96
       13
 40
0.0
 40
0.0
 40
0.0
 40
0.0
 40
1.0
 40
1.0
 40
1.0
 40
2.0
 40
2.0
 40
2.0
 40
3.0
 40
3.0
 40
3.0
 40
4.0
 40
4.0
 40
4.0
 40
4.0
 10
2.230691099993666
 20
2.234249636777867
 10
2.244579720133263
 20
2.233840900080786
 10
2.256041202772672
 20
2.239310526196795
 10
2.256268746913292
 20
2.246511737689906
 10
2.256492077273555
 20
2.25375522616682
 10
2.245405809704152
 20
2.259970552230483
 10
2.231517000948568
 20
2.260379428639769
 10
2.217607311907108
 20
2.260834377208804
 10
2.206166898169588
 20
2.255318538688584
 10
2.205939354028967
 20
2.248117327417996
 10
2.205716023668704
 20
2.240915837342413
 10
2.216785624732589
 20
2.234704725059133
 10
2.230691099993666
 20
2.234249636777867
 97
        0
 97
        0
 75
     2
 76
     1
 98
        0
  0
SPLINE
  5
141
330
1F
100
AcDbEntity
  8
Layer 1
 62
     7
420
 16777215
370
    40
100
AcDbSpline
210
0.0
220
0.0
230
1.0
 70
    11
 71
     3
 72
    17
 73
    13
 74
     0
 42
0.0000000001
 43
0.0000000001
 12
1.0
 22
0.0
 32
0.0
 13
1.0
 23
0.0
 33
0.0
 40
0.0
 40
0.0
 40
0.0
 40
0.0
 40
1.0
 40
1.0
 40
1.0
 40
2.0
 40
2.0
 40
2.0
 40
3.0
 40
3.0
 40
3.0
 40
4.0
 40
4.0
 40
4.0
 40
4.0
 10
2.265239885346849
 20
2.141373703375002
 30
0.0
 10
2.279128505486445
 20
2.140964966677946
 30
0.0
 10
2.290585774345471
 20
2.146434453613955
 30
0.0
 10
2.290813318486117
 20
2.153635804287041
 30
0.0
 10
2.291041052395611
 20
2.160879292763954
 30
0.0
 10
2.279950192660913
 20
2.167052481023789
 30
0.0
 10
2.266061572521393
 20
2.167503355524698
 30
0.0
 10
2.252151883479933
 20
2.167958443805964
 30
0.0
 10
2.240690400840498
 20
2.162442605285744
 30
0.0
 10
2.240467070480261
 20
2.155241254612659
 30
0.0
 10
2.240260595241529
 20
2.148001979916128
 30
0.0
 10
2.251330196305452
 20
2.141828791656293
 30
0.0
 10
2.265239885346849
 20
2.141373703375002
 30
0.0
  0
HATCH
  5
142
330
1F
100
AcDbEntity
  8
Layer 1
 62
     7
420
 16777215
100
AcDbHatch
 10
0.0
 20
0.0
 30
0.0
210
0.0
220
0.0
230
1.0
  2
SOLID
 70
     1
 71
     0
 91
        1
 92
        1
 93
        1
 72
     4
 94
        3
 73
     0
 74
     1
 95
       17
 96
       13
 40
0.0
 40
0.0
 40
0.0
 40
0.0
 40
1.0
 40
1.0
 40
1.0
 40
2.0
 40
2.0
 40
2.0
 40
3.0
 40
3.0
 40
3.0
 40
4.0
 40
4.0
 40
4.0
 40
4.0
 10
2.265239885346849
 20
2.141373703375002
 10
2.279128505486445
 20
2.140964966677946
 10
2.290585774345471
 20
2.146434453613955
 10
2.290813318486117
 20
2.153635804287041
 10
2.291041052395611
 20
2.160879292763954
 10
2.279950192660913
 20
2.167052481023789
 10
2.266061572521393
 20
2.167503355524698
 10
2.252151883479933
 20
2.167958443805964
 10
2.240690400840498
 20
2.162442605285744
 10
2.240467070480261
 20
2.155241254612659
 10
2.240260595241529
 20
2.148001979916128
 10
2.251330196305452
 20
2.141828791656293
 10
2.265239885346849
 20
2.141373703375002
 97
        0
 97
        0
 75
     2
 76
     1
 98
        0
  0
SPLINE
  5
143
330
1F
100
AcDbEntity
  8
Layer 1
 62
     7
420
 16777215
370
    20
100
AcDbSpline
210
0.0
220
0.0
230
1.0
 70
    11
 71
     3
 72
    17
 73
    13
 74
     0
 42
0.0000000001
 43
0.0000000001
 12
1.0
 22
0.0
 32
0.0
 13
1.0
 23
0.0
 33
0.0
 40
0.0
 40
0.0
 40
0.0
 40
0.0
 40
1.0
 40
1.0
 40
1.0
 40
2.0
 40
2.0
 40
2.0
 40
3.0
 40
3.0
 40
3.0
 40
4.0
 40
4.0
 40
4.0
 40
4.0
 10
2.265589818244482
 20
2.149236617568085
 30
0.0
 10
2.279495293856851
 20
2.148781529286819
 30
0.0
 10
2.290935518117193
 20
2.154335291830484
 30
0.0
 10
2.291163062257839
 20
2.161536642503569
 30
0.0
 10
2.291390606398484
 20
2.168737993176655
 30
0.0
 10
2.280299936432673
 20
2.174953319240318
 30
0.0
 10
2.266411316293114
 20
2.175404193741214
 30
0.0
 10
2.252501627251654
 20
2.175817144218664
 30
0.0
 10
2.241061213514134
 20
2.170305519478827
 30
0.0
 10
2.240837883153871
 20
2.163104168805717
 30
0.0
 10
2.240610339013251
 20
2.155902818132656
 30
0.0
 10
2.251679940077136
 20
2.149687492068968
 30
0.0
 10
2.265589818244482
 20
2.149236617568085
 30
0.0
  0
HATCH
  5
144
330
1F
100
AcDbEntity
  8
Layer 1
 62
   254
420
 13358815
100
AcDbHatch
 10
0.0
 20
0.0
 30
0.0
210
0.0
220
0.0
230
1.0
  2
SOLID
 70
     1
 71
     0
 91
        1
 92
        1
 93
        1
 72
     4
 94
        3
 73
     0
 74
     1
 95
       17
 96
       13
 40
0.0
 40
0.0
 40
0.0
 40
0.0
 40
1.0
 40
1.0
 40
1.0
 40
2.0
 40
2.0
 40
2.0
 40
3.0
 40
3.0
 40
3.0
 40
4.0
 40
4.0
 40
4.0
 40
4.0
 10
2.265589818244482
 20
2.149236617568085
 10
2.279495293856851
 20
2.148781529286819
 10
2.290935518117193
 20
2.154335291830484
 10
2.291163062257839
 20
2.161536642503569
 10
2.291390606398484
 20
2.168737993176655
 10
2.280299936432673
 20
2.174953319240318
 10
2.266411316293114
 20
2.175404193741214
 10
2.252501627251654
 20
2.175817144218664
 10
2.241061213514134
 20
2.170305519478827
 10
2.240837883153871
 20
2.163104168805717
 10
2.240610339013251
 20
2.155902818132656
 10
2.251679940077136
 20
2.149687492068968
 10
2.265589818244482
 20
2.149236617568085
 97
        0
 97
        0
 75
     2
 76
     1
 98
        0
  0
SPLINE
  5
145
330
1F
100
AcDbEntity
  8
Layer 1
 62
     7
420
 16777215
370
    40
100
AcDbSpline
210
0.0
220
0.0
230
1.0
 70
    11
 71
     3
 72
    17
 73
    13
 74
     0
 42
0.0000000001
 43
0.0000000001
 12
1.0
 22
0.0
 32
0.0
 13
1.0
 23
0.0
 33
0.0
 40
0.0
 40
0.0
 40
0.0
 40
0.0
 40
1.0
 40
1.0
 40
1.0
 40
2.0
 40
2.0
 40
2.0
 40
3.0
 40
3.0
 40
3.0
 40
4.0
 40
4.0
 40
4.0
 40
4.0
 10
2.437718343948846
 20
2.223677400584152
 30
0.0
 10
2.451586089011041
 20
2.223222173517797
 30
0.0
 10
2.463026308923999
 20
2.22873801203803
 30
0.0
 10
2.463274921966533
 20
2.235939501805925
 30
0.0
 10
2.46351932122871
 20
2.243140713384188
 30
0.0
 10
2.452449720164825
 20
2.249351825667481
 30
0.0
 10
2.438544244903722
 20
2.249806913948747
 30
0.0
 10
2.424634555862263
 20
2.250215650645802
 30
0.0
 10
2.413194142124742
 20
2.244746303027126
 30
0.0
 10
2.412945721930656
 20
2.237502675232879
 30
0.0
 10
2.412743267623859
 20
2.230301324559794
 30
0.0
 10
2.423812868687744
 20
2.224085998496119
 30
0.0
 10
2.437718343948846
 20
2.223677400584152
 30
0.0
  0
HATCH
  5
146
330
1F
100
AcDbEntity
  8
Layer 1
 62
     7
420
 16777215
100
AcDbHatch
 10
0.0
 20
0.0
 30
0.0
210
0.0
220
0.0
230
1.0
  2
SOLID
 70
     1
 71
     0
 91
        1
 92
        1
 93
        1
 72
     4
 94
        3
 73
     0
 74
     1
 95
       17
 96
       13
 40
0.0
 40
0.0
 40
0.0
 40
0.0
 40
1.0
 40
1.0
 40
1.0
 40
2.0
 40
2.0
 40
2.0
 40
3.0
 40
3.0
 40
3.0
 40
4.0
 40
4.0
 40
4.0
 40
4.0
 10
2.437718343948846
 20
2.223677400584152
 10
2.451586089011041
 20
2.223222173517797
 10
2.463026308923999
 20
2.22873801203803
 10
2.463274921966533
 20
2.235939501805925
 10
2.46351932122871
 20
2.243140713384188
 10
2.452449720164825
 20
2.249351825667481
 10
2.438544244903722
 20
2.249806913948747
 10
2.424634555862263
 20
2.250215650645802
 10
2.413194142124742
 20
2.244746303027126
 10
2.412945721930656
 20
2.237502675232879
 10
2.412743267623859
 20
2.230301324559794
 10
2.423812868687744
 20
2.224085998496119
 10
2.437718343948846
 20
2.223677400584152
 97
        0
 97
        0
 75
     2
 76
     1
 98
        0
  0
SPLINE
  5
147
330
1F
100
AcDbEntity
  8
Layer 1
 62
     7
420
 16777215
370
    20
100
AcDbSpline
210
0.0
220
0.0
230
1.0
 70
    11
 71
     3
 72
    17
 73
    13
 74
     0
 42
0.0000000001
 43
0.0000000001
 12
1.0
 22
0.0
 32
0.0
 13
1.0
 23
0.0
 33
0.0
 40
0.0
 40
0.0
 40
0.0
 40
0.0
 40
1.0
 40
1.0
 40
1.0
 40
2.0
 40
2.0
 40
2.0
 40
3.0
 40
3.0
 40
3.0
 40
4.0
 40
4.0
 40
4.0
 40
4.0
 10
2.438047018818654
 20
2.231535962211751
 30
0.0
 10
2.451956707860113
 20
2.231080873930485
 30
0.0
 10
2.463439259401437
 20
2.236554574646902
 30
0.0
 10
2.463645734640168
 20
2.243798063123791
 30
0.0
 10
2.463848190232814
 20
2.250999413796876
 30
0.0
 10
2.45278260881499
 20
2.257214739860564
 30
0.0
 10
2.438915057577358
 20
2.257623476557619
 30
0.0
 10
2.425005368535898
 20
2.258078564838886
 30
0.0
 10
2.413564954798378
 20
2.252604864122506
 30
0.0
 10
2.413316341755843
 20
2.245403513449408
 30
0.0
 10
2.413109866517111
 20
2.238160024972494
 30
0.0
 10
2.424179467580997
 20
2.231944698908832
 30
0.0
 10
2.438047018818654
 20
2.231535962211751
 30
0.0
  0
HATCH
  5
148
330
1F
100
AcDbEntity
  8
Layer 1
 62
   254
420
 13358815
100
AcDbHatch
 10
0.0
 20
0.0
 30
0.0
210
0.0
220
0.0
230
1.0
  2
SOLID
 70
     1
 71
     0
 91
        1
 92
        1
 93
        1
 72
     4
 94
        3
 73
     0
 74
     1
 95
       17
 96
       13
 40
0.0
 40
0.0
 40
0.0
 40
0.0
 40
1.0
 40
1.0
 40
1.0
 40
2.0
 40
2.0
 40
2.0
 40
3.0
 40
3.0
 40
3.0
 40
4.0
 40
4.0
 40
4.0
 40
4.0
 10
2.438047018818654
 20
2.231535962211751
 10
2.451956707860113
 20
2.231080873930485
 10
2.463439259401437
 20
2.236554574646902
 10
2.463645734640168
 20
2.243798063123791
 10
2.463848190232814
 20
2.250999413796876
 10
2.45278260881499
 20
2.257214739860564
 10
2.438915057577358
 20
2.257623476557619
 10
2.425005368535898
 20
2.258078564838886
 10
2.413564954798378
 20
2.252604864122506
 10
2.413316341755843
 20
2.245403513449408
 10
2.413109866517111
 20
2.238160024972494
 10
2.424179467580997
 20
2.231944698908832
 10
2.438047018818654
 20
2.231535962211751
 97
        0
 97
        0
 75
     2
 76
     1
 98
        0
  0
POLYLINE
  5
14A
330
1F
100
AcDbEntity
  8
callout
370
     0
100
AcDb2dPolyline
 66
     1
 10
0.0
 20
0.0
 30
0.0
  0
VERTEX
  5
14B
330
14A
100
AcDbEntity
  8
callout
370
     0
100
AcDbVertex
100
AcDb2dVertex
 10
3.475854775356715
 20
2.915719055299898
 30
0.0
  0
VERTEX
  5
14C
330
14A
100
AcDbEntity
  8
callout
370
     0
100
AcDbVertex
100
AcDb2dVertex
 10
3.946698381477189
 20
3.165313908675431
 30
0.0
  0
VERTEX
  5
14D
330
14A
100
AcDbEntity
  8
callout
370
     0
100
AcDbVertex
100
AcDb2dVertex
 10
3.948961181542396
 20
3.111305885517481
 30
0.0
  0
VERTEX
  5
14E
330
14A
100
AcDbEntity
  8
callout
370
     0
100
AcDbVertex
100
AcDb2dVertex
 10
3.478324050660654
 20
2.868292957098813
 30
0.0
  0
VERTEX
  5
14F
330
14A
100
AcDbEntity
  8
callout
370
     0
100
AcDbVertex
100
AcDb2dVertex
 10
3.475854775356715
 20
2.915719055299898
 30
0.0
  0
SEQEND
  5
151
330
14A
100
AcDbEntity
  8
callout
370
     0
  0
HATCH
  5
150
330
1F
100
AcDbEntity
  8
callout
 62
     7
420
 16777215
100
AcDbHatch
 10
0.0
 20
0.0
 30
0.0
210
0.0
220
0.0
230
1.0
  2
SOLID
 70
     1
 71
     0
 91
        1
 92
        1
 93
        4
 72
     1
 10
3.475854775356715
 20
2.915719055299898
 11
3.946698381477189
 21
3.165313908675431
 72
     1
 10
3.946698381477189
 20
3.165313908675431
 11
3.948961181542396
 21
3.111305885517481
 72
     1
 10
3.948961181542396
 20
3.111305885517481
 11
3.478324050660654
 21
2.868292957098813
 72
     1
 10
3.478324050660654
 20
2.868292957098813
 11
3.475854775356715
 21
2.915719055299898
 97
        0
 75
     2
 76
     1
 98
        0
  0
POLYLINE
  5
152
330
1F
100
AcDbEntity
  8
callout
370
     0
100
AcDb2dPolyline
 66
     1
 10
0.0
 20
0.0
 30
0.0
  0
VERTEX
  5
153
330
152
100
AcDbEntity
  8
callout
370
     0
100
AcDbVertex
100
AcDb2dVertex
 10
3.938262393152121
 20
3.214244326472883
 30
0.0
  0
VERTEX
  5
154
330
152
100
AcDbEntity
  8
callout
370
     0
100
AcDbVertex
100
AcDb2dVertex
 10
3.932047067088458
 20
3.037914472601654
 30
0.0
  0
VERTEX
  5
155
330
152
100
AcDbEntity
  8
callout
370
     0
100
AcDbVertex
100
AcDb2dVertex
 10
4.092490968919011
 20
3.201506068377676
 30
0.0
  0
VERTEX
  5
156
330
152
100
AcDbEntity
  8
callout
370
     0
100
AcDbVertex
100
AcDb2dVertex
 10
3.938262393152121
 20
3.214244326472883
 30
0.0
  0
SEQEND
  5
158
330
152
100
AcDbEntity
  8
callout
370
     0
  0
HATCH
  5
157
330
1F
100
AcDbEntity
  8
callout
 62
     7
420
 16777215
100
AcDbHatch
 10
0.0
 20
0.0
 30
0.0
210
0.0
220
0.0
230
1.0
  2
SOLID
 70
     1
 71
     0
 91
        1
 92
        1
 93
        3
 72
     1
 10
3.938262393152121
 20
3.214244326472883
 11
3.932047067088458
 21
3.037914472601654
 72
     1
 10
3.932047067088458
 20
3.037914472601654
 11
4.092490968919011
 21
3.201506068377676
 72
     1
 10
4.092490968919011
 20
3.201506068377676
 11
3.938262393152121
 21
3.214244326472883
 97
        0
 75
     2
 76
     1
 98
        0
  0
POLYLINE
  5
159
330
1F
100
AcDbEntity
  8
callout
370
     0
100
AcDb2dPolyline
 66
     1
 10
0.0
 20
0.0
 30
0.0
  0
VERTEX
  5
15A
330
159
100
AcDbEntity
  8
callout
370
     0
100
AcDbVertex
100
AcDb2dVertex
 10
3.370101529106023
 20
3.024274465504668
 30
0.0
  0
VERTEX
  5
15B
330
159
100
AcDbEntity
  8
callout
370
     0
100
AcDbVertex
100
AcDb2dVertex
 10
3.805760069035589
 20
3.242080559677346
 30
0.0
  0
VERTEX
  5
15C
330
159
100
AcDbEntity
  8
callout
370
     0
100
AcDbVertex
100
AcDb2dVertex
 10
3.806868293276087
 20
3.19469659928014
 30
0.0
  0
VERTEX
  5
15D
330
159
100
AcDbEntity
  8
callout
370
     0
100
AcDbVertex
100
AcDb2dVertex
 10
3.363106653671644
 20
2.967919366673855
 30
0.0
  0
VERTEX
  5
15E
330
159
100
AcDbEntity
  8
callout
370
     0
100
AcDbVertex
100
AcDb2dVertex
 10
3.370101529106023
 20
3.024274465504668
 30
0.0
  0
SEQEND
  5
160
330
159
100
AcDbEntity
  8
callout
370
     0
  0
HATCH
  5
15F
330
1F
100
AcDbEntity
  8
callout
 62
     7
420
 16777215
100
AcDbHatch
 10
0.0
 20
0.0
 30
0.0
210
0.0
220
0.0
230
1.0
  2
SOLID
 70
     1
 71
     0
 91
        1
 92
        1
 93
        4
 72
     1
 10
3.370101529106023
 20
3.024274465504668
 11
3.805760069035589
 21
3.242080559677346
 72
     1
 10
3.805760069035589
 20
3.242080559677346
 11
3.806868293276087
 21
3.19469659928014
 72
     1
 10
3.806868293276087
 20
3.19469659928014
 11
3.363106653671644
 21
2.967919366673855
 72
     1
 10
3.363106653671644
 20
2.967919366673855
 11
3.370101529106023
 21
3.024274465504668
 97
        0
 75
     2
 76
     1
 98
        0
  0
POLYLINE
  5
161
330
1F
100
AcDbEntity
  8
callout
370
     0
100
AcDb2dPolyline
 66
     1
 10
0.0
 20
0.0
 30
0.0
  0
VERTEX
  5
162
330
161
100
AcDbEntity
  8
callout
370
     0
100
AcDbVertex
100
AcDb2dVertex
 10
3.384997242756905
 20
3.106346266007689
 30
0.0
  0
VERTEX
  5
163
330
161
100
AcDbEntity
  8
callout
370
     0
100
AcDbVertex
100
AcDb2dVertex
 10
3.379523542040488
 20
2.905597554821939
 30
0.0
  0
VERTEX
  5
164
330
161
100
AcDbEntity
  8
callout
370
     0
100
AcDbVertex
100
AcDb2dVertex
 10
3.237228392315854
 20
2.938987550570055
 30
0.0
  0
VERTEX
  5
165
330
161
100
AcDbEntity
  8
callout
370
     0
100
AcDbVertex
100
AcDb2dVertex
 10
3.384997242756905
 20
3.106346266007689
 30
0.0
  0
SEQEND
  5
167
330
161
100
AcDbEntity
  8
callout
370
     0
  0
HATCH
  5
166
330
1F
100
AcDbEntity
  8
callout
 62
     7
420
 16777215
100
AcDbHatch
 10
0.0
 20
0.0
 30
0.0
210
0.0
220
0.0
230
1.0
  2
SOLID
 70
     1
 71
     0
 91
        1
 92
        1
 93
        3
 72
     1
 10
3.384997242756905
 20
3.106346266007689
 11
3.379523542040488
 21
2.905597554821939
 72
     1
 10
3.379523542040488
 20
2.905597554821939
 11
3.237228392315854
 21
2.938987550570055
 72
     1
 10
3.237228392315854
 20
2.938987550570055
 11
3.384997242756905
 21
3.106346266007689
 97
        0
 75
     2
 76
     1
 98
        0
  0
POLYLINE
  5
168
330
1F
100
AcDbEntity
  8
callout
370
     0
100
AcDb2dPolyline
 66
     1
 10
0.0
 20
0.0
 30
0.0
  0
VERTEX
  5
169
330
168
100
AcDbEntity
  8
callout
370
     0
100
AcDbVertex
100
AcDb2dVertex
 10
3.233360141925029
 20
3.599615611321964
 30
0.0
  0
VERTEX
  5
16A
330
168
100
AcDbEntity
  8
callout
370
     0
100
AcDbVertex
100
AcDb2dVertex
 10
3.240312879555581
 20
4.07290321006408
 30
0.0
  0
VERTEX
  5
16B
330
168
100
AcDbEntity
  8
callout
370
     0
100
AcDbVertex
100
AcDb2dVertex
 10
3.198175075734121
 20
4.071588696052079
 30
0.0
  0
VERTEX
  5
16C
330
168
100
AcDbEntity
  8
callout
370
     0
100
AcDbVertex
100
AcDb2dVertex
 10
3.192949988060263
 20
3.611405768831206
 30
0.0
  0
VERTEX
  5
16D
330
168
100
AcDbEntity
  8
callout
370
     0
100
AcDbVertex
100
AcDb2dVertex
 10
3.233360141925029
 20
3.599615611321964
 30
0.0
  0
SEQEND
  5
16F
330
168
100
AcDbEntity
  8
callout
370
     0
  0
HATCH
  5
16E
330
1F
100
AcDbEntity
  8
callout
 62
     7
420
 16777215
100
AcDbHatch
 10
0.0
 20
0.0
 30
0.0
210
0.0
220
0.0
230
1.0
  2
SOLID
 70
     1
 71
     0
 91
        1
 92
        1
 93
        4
 72
     1
 10
3.233360141925029
 20
3.599615611321964
 11
3.240312879555581
 21
4.07290321006408
 72
     1
 10
3.240312879555581
 20
4.07290321006408
 11
3.198175075734121
 21
4.071588696052079
 72
     1
 10
3.198175075734121
 20
4.071588696052079
 11
3.192949988060263
 21
3.611405768831206
 72
     1
 10
3.192949988060263
 20
3.611405768831206
 11
3.233360141925029
 21
3.599615611321964
 97
        0
 75
     2
 76
     1
 98
        0
  0
POLYLINE
  5
170
330
1F
100
AcDbEntity
  8
callout
370
     0
100
AcDb2dPolyline
 66
     1
 10
0.0
 20
0.0
 30
0.0
  0
VERTEX
  5
171
330
170
100
AcDbEntity
  8
callout
370
     0
100
AcDbVertex
100
AcDb2dVertex
 10
3.224839877992331
 20
4.250939644990063
 30
0.0
  0
VERTEX
  5
172
330
170
100
AcDbEntity
  8
callout
370
     0
100
AcDbVertex
100
AcDb2dVertex
 10
3.137850595783346
 20
4.077428810194495
 30
0.0
  0
VERTEX
  5
173
330
170
100
AcDbEntity
  8
callout
370
     0
100
AcDbVertex
100
AcDb2dVertex
 10
3.298210222006244
 20
4.032927075578666
 30
0.0
  0
VERTEX
  5
174
330
170
100
AcDbEntity
  8
callout
370
     0
100
AcDbVertex
100
AcDb2dVertex
 10
3.224839877992331
 20
4.250939644990063
 30
0.0
  0
SEQEND
  5
176
330
170
100
AcDbEntity
  8
callout
370
     0
  0
HATCH
  5
175
330
1F
100
AcDbEntity
  8
callout
 62
     7
420
 16777215
100
AcDbHatch
 10
0.0
 20
0.0
 30
0.0
210
0.0
220
0.0
230
1.0
  2
SOLID
 70
     1
 71
     0
 91
        1
 92
        1
 93
        3
 72
     1
 10
3.224839877992331
 20
4.250939644990063
 11
3.137850595783346
 21
4.077428810194495
 72
     1
 10
3.137850595783346
 20
4.077428810194495
 11
3.298210222006244
 21
4.032927075578666
 72
     1
 10
3.298210222006244
 20
4.032927075578666
 11
3.224839877992331
 21
4.250939644990063
 97
        0
 75
     2
 76
     1
 98
        0
  0
SPLINE
  5
177
330
1F
100
AcDbEntity
  8
callout
370
     0
100
AcDbSpline
210
0.0
220
0.0
230
1.0
 70
    11
 71
     3
 72
    35
 73
    31
 74
     0
 42
0.0000000001
 43
0.0000000001
 12
1.0
 22
0.0
 32
0.0
 13
1.0
 23
0.0
 33
0.0
 40
0.0
 40
0.0
 40
0.0
 40
0.0
 40
1.0
 40
1.0
 40
1.0
 40
2.0
 40
2.0
 40
2.0
 40
3.0
 40
3.0
 40
3.0
 40
4.0
 40
4.0
 40
4.0
 40
5.0
 40
5.0
 40
5.0
 40
6.0
 40
6.0
 40
6.0
 40
7.0
 40
7.0
 40
7.0
 40
8.0
 40
8.0
 40
8.0
 40
9.0
 40
9.0
 40
9.0
 40
10.0
 40
10.0
 40
10.0
 40
10.0
 10
3.562726071715006
 20
3.434313220710806
 30
0.0
 10
3.555566858845749
 20
3.468242580347818
 30
0.0
 10
3.530545430936551
 20
3.462482342565421
 30
0.0
 10
3.514166466591178
 20
3.454231760577196
 30
0.0
 10
3.483346876876162
 20
3.43869555230823
 30
0.0
 10
3.458987012486987
 20
3.397834523942556
 30
0.0
 10
3.460095236727486
 20
3.342115705949494
 30
0.0
 10
3.461085475117291
 20
3.292283539150263
 30
0.0
 10
3.476023326572001
 20
3.261135274565415
 30
0.0
 10
3.518283330024512
 20
3.282406437934482
 30
0.0
 10
3.5331792648233
 20
3.28994067725777
 30
0.0
 10
3.558857821324182
 20
3.311810197441079
 30
0.0
 10
3.565730497127459
 20
3.36499653342451
 30
0.0
 10
3.565730497127459
 20
3.36499653342451
 30
0.0
 10
3.588034036690159
 20
3.376230639824333
 30
0.0
 10
3.588034036690159
 20
3.376230639824333
 30
0.0
 10
3.580091060669828
 20
3.291562982704906
 30
0.0
 10
3.527996314822353
 20
3.261729417599288
 30
0.0
 10
3.515194629004402
 20
3.255269692273449
 30
0.0
 10
3.476558476680515
 20
3.235785336139492
 30
0.0
 10
3.437998172403518
 20
3.247904004165459
 30
0.0
 10
3.436392722077926
 20
3.329276317125075
 30
0.0
 10
3.435120160402498
 20
3.394438216954553
 30
0.0
 10
3.464127824553189
 20
3.454602573250832
 30
0.0
 10
3.513673454286466
 20
3.479577649575794
 30
0.0
 10
3.557538908064594
 20
3.501695782801676
 30
0.0
 10
3.580997023451977
 20
3.4792700436079
 30
0.0
 10
3.584987473473878
 20
3.445568228111533
 30
0.0
 10
3.584987473473878
 20
3.445568228111533
 30
0.0
 10
3.562726071715006
 20
3.434313220710806
 30
0.0
 10
3.562726071715006
 20
3.434313220710806
 30
0.0
  0
HATCH
  5
178
330
1F
100
AcDbEntity
  8
callout
 62
     7
420
 16777215
100
AcDbHatch
 10
0.0
 20
0.0
 30
0.0
210
0.0
220
0.0
230
1.0
  2
SOLID
 70
     1
 71
     0
 91
        1
 92
        1
 93
        1
 72
     4
 94
        3
 73
     0
 74
     1
 95
       35
 96
       31
 40
0.0
 40
0.0
 40
0.0
 40
0.0
 40
1.0
 40
1.0
 40
1.0
 40
2.0
 40
2.0
 40
2.0
 40
3.0
 40
3.0
 40
3.0
 40
4.0
 40
4.0
 40
4.0
 40
5.0
 40
5.0
 40
5.0
 40
6.0
 40
6.0
 40
6.0
 40
7.0
 40
7.0
 40
7.0
 40
8.0
 40
8.0
 40
8.0
 40
9.0
 40
9.0
 40
9.0
 40
10.0
 40
10.0
 40
10.0
 40
10.0
 10
3.562726071715006
 20
3.434313220710806
 10
3.555566858845749
 20
3.468242580347818
 10
3.530545430936551
 20
3.462482342565421
 10
3.514166466591178
 20
3.454231760577196
 10
3.483346876876162
 20
3.43869555230823
 10
3.458987012486987
 20
3.397834523942556
 10
3.460095236727486
 20
3.342115705949494
 10
3.461085475117291
 20
3.292283539150263
 10
3.476023326572001
 20
3.261135274565415
 10
3.518283330024512
 20
3.282406437934482
 10
3.5331792648233
 20
3.28994067725777
 10
3.558857821324182
 20
3.311810197441079
 10
3.565730497127459
 20
3.36499653342451
 10
3.565730497127459
 20
3.36499653342451
 10
3.588034036690159
 20
3.376230639824333
 10
3.588034036690159
 20
3.376230639824333
 10
3.580091060669828
 20
3.291562982704906
 10
3.527996314822353
 20
3.261729417599288
 10
3.515194629004402
 20
3.255269692273449
 10
3.476558476680515
 20
3.235785336139492
 10
3.437998172403518
 20
3.247904004165459
 10
3.436392722077926
 20
3.329276317125075
 10
3.435120160402498
 20
3.394438216954553
 10
3.464127824553189
 20
3.454602573250832
 10
3.513673454286466
 20
3.479577649575794
 10
3.557538908064594
 20
3.501695782801676
 10
3.580997023451977
 20
3.4792700436079
 10
3.584987473473878
 20
3.445568228111533
 10
3.584987473473878
 20
3.445568228111533
 10
3.562726071715006
 20
3.434313220710806
 10
3.562726071715006
 20
3.434313220710806
 97
        0
 97
        0
 75
     2
 76
     1
 98
        0
  0
SPLINE
  5
179
330
1F
100
AcDbEntity
  8
callout
370
     0
100
AcDbSpline
210
0.0
220
0.0
230
1.0
 70
    11
 71
     3
 72
    47
 73
    43
 74
     0
 42
0.0000000001
 43
0.0000000001
 12
1.0
 22
0.0
 32
0.0
 13
1.0
 23
0.0
 33
0.0
 40
0.0
 40
0.0
 40
0.0
 40
0.0
 40
1.0
 40
1.0
 40
1.0
 40
2.0
 40
2.0
 40
2.0
 40
3.0
 40
3.0
 40
3.0
 40
4.0
 40
4.0
 40
4.0
 40
5.0
 40
5.0
 40
5.0
 40
6.0
 40
6.0
 40
6.0
 40
7.0
 40
7.0
 40
7.0
 40
8.0
 40
8.0
 40
8.0
 40
9.0
 40
9.0
 40
9.0
 40
10.0
 40
10.0
 40
10.0
 40
11.0
 40
11.0
 40
11.0
 40
12.0
 40
12.0
 40
12.0
 40
13.0
 40
13.0
 40
13.0
 40
14.0
 40
14.0
 40
14.0
 40
14.0
 10
3.609102938600876
 20
3.332057412177278
 30
0.0
 10
3.607741887537461
 20
3.399583242801163
 30
0.0
 10
3.647208154596632
 20
3.426311251765103
 30
0.0
 10
3.665230493291069
 20
3.435404589829773
 30
0.0
 10
3.694158095614486
 20
3.449992697512761
 30
0.0
 10
3.717860610264046
 20
3.438409015242276
 30
0.0
 10
3.71864437341512
 20
3.39978971803987
 30
0.0
 10
3.719344086809365
 20
3.362632602630141
 30
0.0
 10
3.699960696561877
 20
3.337097093514343
 30
0.0
 10
3.675394356313341
 20
3.308043077779391
 30
0.0
 10
3.675394356313341
 20
3.308043077779391
 30
0.0
 10
3.658315679683962
 20
3.287530560539418
 30
0.0
 10
3.658315679683962
 20
3.287530560539418
 30
0.0
 10
3.63584780268636
 20
3.260414718120058
 30
0.0
 10
3.631200002924844
 20
3.241688678101796
 30
0.0
 10
3.630374101969967
 20
3.233252689776754
 30
0.0
 10
3.630374101969967
 20
3.233252689776754
 30
0.0
 10
3.720987461199936
 20
3.278909000217292
 30
0.0
 10
3.720987461199936
 20
3.278909000217292
 30
0.0
 10
3.720987461199936
 20
3.278909000217292
 30
0.0
 10
3.721484461392695
 20
3.25444800509893
 30
0.0
 10
3.721484461392695
 20
3.25444800509893
 30
0.0
 10
3.721484461392695
 20
3.25444800509893
 30
0.0
 10
3.607413212667653
 20
3.196959399345372
 30
0.0
 10
3.607413212667653
 20
3.196959399345372
 30
0.0
 10
3.607741887537461
 20
3.240601522763263
 30
0.0
 10
3.622970489838533
 20
3.271484319183944
 30
0.0
 10
3.644941140751042
 20
3.29892867081287
 30
0.0
 10
3.644941140751042
 20
3.29892867081287
 30
0.0
 10
3.666671830701944
 20
3.325964285744741
 30
0.0
 10
3.666671830701944
 20
3.325964285744741
 30
0.0
 10
3.684201157534542
 20
3.347610475567775
 30
0.0
 10
3.696833846157132
 20
3.362611533728227
 30
0.0
 10
3.696298696048618
 20
3.389727210487321
 30
0.0
 10
3.696012158982613
 20
3.406249443365709
 30
0.0
 10
3.687041020549032
 20
3.42287280697326
 30
0.0
 10
3.662639018356028
 20
3.410568568257418
 30
0.0
 10
3.631073589513385
 20
3.394665761095199
 30
0.0
 10
3.630374101969967
 20
3.357382232273987
 30
0.0
 10
3.629965365272887
 20
3.342591863132649
 30
0.0
 10
3.629965365272887
 20
3.342591863132649
 30
0.0
 10
3.609102938600876
 20
3.332057412177278
 30
0.0
 10
3.609102938600876
 20
3.332057412177278
 30
0.0
  0
HATCH
  5
17A
330
1F
100
AcDbEntity
  8
callout
 62
     7
420
 16777215
100
AcDbHatch
 10
0.0
 20
0.0
 30
0.0
210
0.0
220
0.0
230
1.0
  2
SOLID
 70
     1
 71
     0
 91
        1
 92
        1
 93
        1
 72
     4
 94
        3
 73
     0
 74
     1
 95
       47
 96
       43
 40
0.0
 40
0.0
 40
0.0
 40
0.0
 40
1.0
 40
1.0
 40
1.0
 40
2.0
 40
2.0
 40
2.0
 40
3.0
 40
3.0
 40
3.0
 40
4.0
 40
4.0
 40
4.0
 40
5.0
 40
5.0
 40
5.0
 40
6.0
 40
6.0
 40
6.0
 40
7.0
 40
7.0
 40
7.0
 40
8.0
 40
8.0
 40
8.0
 40
9.0
 40
9.0
 40
9.0
 40
10.0
 40
10.0
 40
10.0
 40
11.0
 40
11.0
 40
11.0
 40
12.0
 40
12.0
 40
12.0
 40
13.0
 40
13.0
 40
13.0
 40
14.0
 40
14.0
 40
14.0
 40
14.0
 10
3.609102938600876
 20
3.332057412177278
 10
3.607741887537461
 20
3.399583242801163
 10
3.647208154596632
 20
3.426311251765103
 10
3.665230493291069
 20
3.435404589829773
 10
3.694158095614486
 20
3.449992697512761
 10
3.717860610264046
 20
3.438409015242276
 10
3.71864437341512
 20
3.39978971803987
 10
3.719344086809365
 20
3.362632602630141
 10
3.699960696561877
 20
3.337097093514343
 10
3.675394356313341
 20
3.308043077779391
 10
3.675394356313341
 20
3.308043077779391
 10
3.658315679683962
 20
3.287530560539418
 10
3.658315679683962
 20
3.287530560539418
 10
3.63584780268636
 20
3.260414718120058
 10
3.631200002924844
 20
3.241688678101796
 10
3.630374101969967
 20
3.233252689776754
 10
3.630374101969967
 20
3.233252689776754
 10
3.720987461199936
 20
3.278909000217292
 10
3.720987461199936
 20
3.278909000217292
 10
3.720987461199936
 20
3.278909000217292
 10
3.721484461392695
 20
3.25444800509893
 10
3.721484461392695
 20
3.25444800509893
 10
3.721484461392695
 20
3.25444800509893
 10
3.607413212667653
 20
3.196959399345372
 10
3.607413212667653
 20
3.196959399345372
 10
3.607741887537461
 20
3.240601522763263
 10
3.622970489838533
 20
3.271484319183944
 10
3.644941140751042
 20
3.29892867081287
 10
3.644941140751042
 20
3.29892867081287
 10
3.666671830701944
 20
3.325964285744741
 10
3.666671830701944
 20
3.325964285744741
 10
3.684201157534542
 20
3.347610475567775
 10
3.696833846157132
 20
3.362611533728227
 10
3.696298696048618
 20
3.389727210487321
 10
3.696012158982613
 20
3.406249443365709
 10
3.687041020549032
 20
3.42287280697326
 10
3.662639018356028
 20
3.410568568257418
 10
3.631073589513385
 20
3.394665761095199
 10
3.630374101969967
 20
3.357382232273987
 10
3.629965365272887
 20
3.342591863132649
 10
3.629965365272887
 20
3.342591863132649
 10
3.609102938600876
 20
3.332057412177278
 10
3.609102938600876
 20
3.332057412177278
 97
        0
 97
        0
 75
     2
 76
     1
 98
        0
  0
POLYLINE
  5
17B
330
1F
100
AcDbEntity
  8
callout
370
     0
100
AcDb2dPolyline
 66
     1
 10
0.0
 20
0.0
 30
0.0
  0
VERTEX
  5
17C
330
17B
100
AcDbEntity
  8
callout
370
     0
100
AcDbVertex
100
AcDb2dVertex
 10
3.351008890194508
 20
3.855282522228208
 30
0.0
  0
VERTEX
  5
17D
330
17B
100
AcDbEntity
  8
callout
370
     0
100
AcDbVertex
100
AcDb2dVertex
 10
3.330020050111064
 20
3.799643766062369
 30
0.0
  0
VERTEX
  5
17E
330
17B
100
AcDbEntity
  8
callout
370
     0
100
AcDbVertex
100
AcDb2dVertex
 10
3.304712085135886
 20
3.807628879886528
 30
0.0
  0
VERTEX
  5
17F
330
17B
100
AcDbEntity
  8
callout
370
     0
100
AcDbVertex
100
AcDb2dVertex
 10
3.379978630321754
 20
3.997763261891931
 30
0.0
  0
VERTEX
  5
180
330
17B
100
AcDbEntity
  8
callout
370
     0
100
AcDbVertex
100
AcDb2dVertex
 10
3.407835932428118
 20
3.988977346192895
 30
0.0
  0
VERTEX
  5
181
330
17B
100
AcDbEntity
  8
callout
370
     0
100
AcDbVertex
100
AcDb2dVertex
 10
3.466723513268587
 20
3.756562075435327
 30
0.0
  0
VERTEX
  5
182
330
17B
100
AcDbEntity
  8
callout
370
     0
100
AcDbVertex
100
AcDb2dVertex
 10
3.43989015979509
 20
3.765019132662271
 30
0.0
  0
VERTEX
  5
183
330
17B
100
AcDbEntity
  8
callout
370
     0
100
AcDbVertex
100
AcDb2dVertex
 10
3.423924145927155
 20
3.83229635024361
 30
0.0
  0
VERTEX
  5
184
330
17B
100
AcDbEntity
  8
callout
370
     0
100
AcDbVertex
100
AcDb2dVertex
 10
3.351008890194508
 20
3.855282522228208
 30
0.0
  0
SEQEND
  5
185
330
17B
100
AcDbEntity
  8
callout
370
     0
  0
POLYLINE
  5
186
330
1F
100
AcDbEntity
  8
callout
370
     0
100
AcDb2dPolyline
 66
     1
 10
0.0
 20
0.0
 30
0.0
  0
VERTEX
  5
187
330
186
100
AcDbEntity
  8
callout
370
     0
100
AcDbVertex
100
AcDb2dVertex
 10
3.41590110807955
 20
3.860444403196336
 30
0.0
  0
VERTEX
  5
188
330
186
100
AcDbEntity
  8
callout
370
     0
100
AcDbVertex
100
AcDb2dVertex
 10
3.392114317822335
 20
3.962063930892138
 30
0.0
  0
VERTEX
  5
189
330
186
100
AcDbEntity
  8
callout
370
     0
100
AcDbVertex
100
AcDb2dVertex
 10
3.391579167713821
 20
3.962228268327079
 30
0.0
  0
VERTEX
  5
18A
330
186
100
AcDbEntity
  8
callout
370
     0
100
AcDbVertex
100
AcDb2dVertex
 10
3.359445095278589
 20
3.87824341153051
 30
0.0
  0
VERTEX
  5
18B
330
186
100
AcDbEntity
  8
callout
370
     0
100
AcDbVertex
100
AcDb2dVertex
 10
3.41590110807955
 20
3.860444403196336
 30
0.0
  0
SEQEND
  5
18C
330
186
100
AcDbEntity
  8
callout
370
     0
  0
HATCH
  5
18D
330
1F
100
AcDbEntity
  8
callout
 62
     7
420
 16777215
100
AcDbHatch
 10
0.0
 20
0.0
 30
0.0
210
0.0
220
0.0
230
1.0
  2
SOLID
 70
     1
 71
     0
 91
        2
 92
        1
 93
        8
 72
     1
 10
3.351008890194508
 20
3.855282522228208
 11
3.330020050111064
 21
3.799643766062369
 72
     1
 10
3.330020050111064
 20
3.799643766062369
 11
3.304712085135886
 21
3.807628879886528
 72
     1
 10
3.304712085135886
 20
3.807628879886528
 11
3.379978630321754
 21
3.997763261891931
 72
     1
 10
3.379978630321754
 20
3.997763261891931
 11
3.407835932428118
 21
3.988977346192895
 72
     1
 10
3.407835932428118
 20
3.988977346192895
 11
3.466723513268587
 21
3.756562075435327
 72
     1
 10
3.466723513268587
 20
3.756562075435327
 11
3.43989015979509
 21
3.765019132662271
 72
     1
 10
3.43989015979509
 20
3.765019132662271
 11
3.423924145927155
 21
3.83229635024361
 72
     1
 10
3.423924145927155
 20
3.83229635024361
 11
3.351008890194508
 21
3.855282522228208
 97
        0
 92
        1
 93
        4
 72
     1
 10
3.41590110807955
 20
3.860444403196336
 11
3.392114317822335
 21
3.962063930892138
 72
     1
 10
3.392114317822335
 20
3.962063930892138
 11
3.391579167713821
 21
3.962228268327079
 72
     1
 10
3.391579167713821
 20
3.962228268327079
 11
3.359445095278589
 21
3.87824341153051
 72
     1
 10
3.359445095278589
 20
3.87824341153051
 11
3.41590110807955
 21
3.860444403196336
 97
        0
 75
     2
 76
     1
 98
        0
  0
SPLINE
  5
18E
330
1F
100
AcDbEntity
  8
callout
370
     0
100
AcDbSpline
210
0.0
220
0.0
230
1.0
 70
    11
 71
     3
 72
    47
 73
    43
 74
     0
 42
0.0000000001
 43
0.0000000001
 12
1.0
 22
0.0
 32
0.0
 13
1.0
 23
0.0
 33
0.0
 40
0.0
 40
0.0
 40
0.0
 40
0.0
 40
1.0
 40
1.0
 40
1.0
 40
2.0
 40
2.0
 40
2.0
 40
3.0
 40
3.0
 40
3.0
 40
4.0
 40
4.0
 40
4.0
 40
5.0
 40
5.0
 40
5.0
 40
6.0
 40
6.0
 40
6.0
 40
7.0
 40
7.0
 40
7.0
 40
8.0
 40
8.0
 40
8.0
 40
9.0
 40
9.0
 40
9.0
 40
10.0
 40
10.0
 40
10.0
 40
11.0
 40
11.0
 40
11.0
 40
12.0
 40
12.0
 40
12.0
 40
13.0
 40
13.0
 40
13.0
 40
14.0
 40
14.0
 40
14.0
 40
14.0
 10
3.481990039593104
 20
3.775469308009999
 30
0.0
 10
3.484168564050681
 20
3.842978283512341
 30
0.0
 10
3.526677180545751
 20
3.83643428257887
 30
0.0
 10
3.545896232868724
 20
3.830362225048197
 30
0.0
 10
3.57680009819137
 20
3.820632606145813
 30
0.0
 10
3.600869211734183
 20
3.789522265584448
 30
0.0
 10
3.599596650058781
 20
3.750902968382093
 30
0.0
 10
3.598404150210627
 20
3.713766921874253
 30
0.0
 10
3.576838022214815
 20
3.704753645636843
 30
0.0
 10
3.549764483259524
 20
3.696625263279695
 30
0.0
 10
3.549764483259524
 20
3.696625263279695
 30
0.0
 10
3.530874105806358
 20
3.690658550258566
 30
0.0
 10
3.530874105806358
 20
3.690658550258566
 30
0.0
 10
3.506059153135917
 20
3.682698894759786
 30
0.0
 10
3.500218853526273
 20
3.668148535457173
 30
0.0
 10
3.498942078070488
 20
3.66051737918508
 30
0.0
 10
3.498942078070488
 20
3.66051737918508
 30
0.0
 10
3.595644124060325
 20
3.630026638652364
 30
0.0
 10
3.595644124060325
 20
3.630026638652364
 30
0.0
 10
3.595644124060325
 20
3.630026638652364
 30
0.0
 10
3.594864574689609
 20
3.605561255441153
 30
0.0
 10
3.594864574689609
 20
3.605561255441153
 30
0.0
 10
3.594864574689609
 20
3.605561255441153
 30
0.0
 10
3.473056825182968
 20
3.643953008502889
 30
0.0
 10
3.473056825182968
 20
3.643953008502889
 30
0.0
 10
3.475732575725614
 20
3.686583824629047
 30
0.0
 10
3.493223978091894
 20
3.704319626257491
 30
0.0
 10
3.517541704677266
 20
3.71302529652702
 30
0.0
 10
3.517541704677266
 20
3.71302529652702
 30
0.0
 10
3.541572894196634
 20
3.721541346679323
 30
0.0
 10
3.541572894196634
 20
3.721541346679323
 30
0.0
 10
3.560998421758313
 20
3.728228616145783
 30
0.0
 10
3.574946034823218
 20
3.732467679210218
 30
0.0
 10
3.575809859801565
 20
3.759587569749694
 30
0.0
 10
3.576387147713906
 20
3.776088733726182
 30
0.0
 10
3.567909021585036
 20
3.799892379104916
 30
0.0
 10
3.541863645042996
 20
3.808121892191239
 30
0.0
 10
3.508199753570049
 20
3.818740618754241
 30
0.0
 10
3.505486079003958
 20
3.782649767949199
 30
0.0
 10
3.504251441351976
 20
3.768453363673732
 30
0.0
 10
3.504251441351976
 20
3.768453363673732
 30
0.0
 10
3.481990039593104
 20
3.775469308009999
 30
0.0
 10
3.481990039593104
 20
3.775469308009999
 30
0.0
  0
HATCH
  5
18F
330
1F
100
AcDbEntity
  8
callout
 62
     7
420
 16777215
100
AcDbHatch
 10
0.0
 20
0.0
 30
0.0
210
0.0
220
0.0
230
1.0
  2
SOLID
 70
     1
 71
     0
 91
        1
 92
        1
 93
        1
 72
     4
 94
        3
 73
     0
 74
     1
 95
       47
 96
       43
 40
0.0
 40
0.0
 40
0.0
 40
0.0
 40
1.0
 40
1.0
 40
1.0
 40
2.0
 40
2.0
 40
2.0
 40
3.0
 40
3.0
 40
3.0
 40
4.0
 40
4.0
 40
4.0
 40
5.0
 40
5.0
 40
5.0
 40
6.0
 40
6.0
 40
6.0
 40
7.0
 40
7.0
 40
7.0
 40
8.0
 40
8.0
 40
8.0
 40
9.0
 40
9.0
 40
9.0
 40
10.0
 40
10.0
 40
10.0
 40
11.0
 40
11.0
 40
11.0
 40
12.0
 40
12.0
 40
12.0
 40
13.0
 40
13.0
 40
13.0
 40
14.0
 40
14.0
 40
14.0
 40
14.0
 10
3.481990039593104
 20
3.775469308009999
 10
3.484168564050681
 20
3.842978283512341
 10
3.526677180545751
 20
3.83643428257887
 10
3.545896232868724
 20
3.830362225048197
 10
3.57680009819137
 20
3.820632606145813
 10
3.600869211734183
 20
3.789522265584448
 10
3.599596650058781
 20
3.750902968382093
 10
3.598404150210627
 20
3.713766921874253
 10
3.576838022214815
 20
3.704753645636843
 10
3.549764483259524
 20
3.696625263279695
 10
3.549764483259524
 20
3.696625263279695
 10
3.530874105806358
 20
3.690658550258566
 10
3.530874105806358
 20
3.690658550258566
 10
3.506059153135917
 20
3.682698894759786
 10
3.500218853526273
 20
3.668148535457173
 10
3.498942078070488
 20
3.66051737918508
 10
3.498942078070488
 20
3.66051737918508
 10
3.595644124060325
 20
3.630026638652364
 10
3.595644124060325
 20
3.630026638652364
 10
3.595644124060325
 20
3.630026638652364
 10
3.594864574689609
 20
3.605561255441153
 10
3.594864574689609
 20
3.605561255441153
 10
3.594864574689609
 20
3.605561255441153
 10
3.473056825182968
 20
3.643953008502889
 10
3.473056825182968
 20
3.643953008502889
 10
3.475732575725614
 20
3.686583824629047
 10
3.493223978091894
 20
3.704319626257491
 10
3.517541704677266
 20
3.71302529652702
 10
3.517541704677266
 20
3.71302529652702
 10
3.541572894196634
 20
3.721541346679323
 10
3.541572894196634
 20
3.721541346679323
 10
3.560998421758313
 20
3.728228616145783
 10
3.574946034823218
 20
3.732467679210218
 10
3.575809859801565
 20
3.759587569749694
 10
3.576387147713906
 20
3.776088733726182
 10
3.567909021585036
 20
3.799892379104916
 10
3.541863645042996
 20
3.808121892191239
 10
3.508199753570049
 20
3.818740618754241
 10
3.505486079003958
 20
3.782649767949199
 10
3.504251441351976
 20
3.768453363673732
 10
3.504251441351976
 20
3.768453363673732
 10
3.481990039593104
 20
3.775469308009999
 10
3.481990039593104
 20
3.775469308009999
 97
        0
 97
        0
 75
     2
 76
     1
 98
        0
  0
SPLINE
  5
190
330
1F
100
AcDbEntity
  8
callout
370
     0
100
AcDbSpline
210
0.0
220
0.0
230
1.0
 70
    11
 71
     3
 72
    20
 73
    16
 74
     0
 42
0.0000000001
 43
0.0000000001
 12
1.0
 22
0.0
 32
0.0
 13
1.0
 23
0.0
 33
0.0
 40
0.0
 40
0.0
 40
0.0
 40
0.0
 40
1.0
 40
1.0
 40
1.0
 40
2.0
 40
2.0
 40
2.0
 40
3.0
 40
3.0
 40
3.0
 40
4.0
 40
4.0
 40
4.0
 40
5.0
 40
5.0
 40
5.0
 40
5.0
 10
3.761519588803442
 20
2.948948927393442
 30
0.0
 10
3.761519588803442
 20
2.948948927393442
 30
0.0
 10
3.829993520013305
 20
2.98464401901928
 30
0.0
 10
3.829993520013305
 20
2.98464401901928
 30
0.0
 10
3.873943249399063
 20
3.007609122682134
 30
0.0
 10
3.899744226678952
 20
2.979852792716088
 30
0.0
 10
3.897894377091183
 20
2.918824767787467
 30
0.0
 10
3.896411126396667
 20
2.871360589217008
 30
0.0
 10
3.878098036855868
 20
2.801445545116457
 30
0.0
 10
3.82258990788187
 20
2.772496873891126
 30
0.0
 10
3.82258990788187
 20
2.772496873891126
 30
0.0
 10
3.755059863477628
 20
2.737269669896389
 30
0.0
 10
3.755059863477628
 20
2.737269669896389
 30
0.0
 10
3.755059863477628
 20
2.737269669896389
 30
0.0
 10
3.761519588803442
 20
2.948948927393442
 30
0.0
 10
3.761519588803442
 20
2.948948927393442
 30
0.0
  0
SPLINE
  5
191
330
1F
100
AcDbEntity
  8
callout
370
     0
100
AcDbSpline
210
0.0
220
0.0
230
1.0
 70
    11
 71
     3
 72
    20
 73
    16
 74
     0
 42
0.0000000001
 43
0.0000000001
 12
1.0
 22
0.0
 32
0.0
 13
1.0
 23
0.0
 33
0.0
 40
0.0
 40
0.0
 40
0.0
 40
0.0
 40
1.0
 40
1.0
 40
1.0
 40
2.0
 40
2.0
 40
2.0
 40
3.0
 40
3.0
 40
3.0
 40
4.0
 40
4.0
 40
4.0
 40
5.0
 40
5.0
 40
5.0
 40
5.0
 10
3.778640178496112
 20
2.773647235935464
 30
0.0
 10
3.778640178496112
 20
2.773647235935464
 30
0.0
 10
3.822876673414132
 20
2.796734538649225
 30
0.0
 10
3.822876673414132
 20
2.796734538649225
 30
0.0
 10
3.852503534814711
 20
2.81218647131056
 30
0.0
 10
3.872666473943279
 20
2.851420980448703
 30
0.0
 10
3.874271924268871
 20
2.904792878760456
 30
0.0
 10
3.875919512398291
 20
2.958143396187286
 30
0.0
 10
3.857197686160437
 20
2.974787828696751
 30
0.0
 10
3.826167407426308
 20
2.958598484468553
 30
0.0
 10
3.826167407426308
 20
2.958598484468553
 30
0.0
 10
3.783620866907793
 20
2.936375006733126
 30
0.0
 10
3.783620866907793
 20
2.936375006733126
 30
0.0
 10
3.783620866907793
 20
2.936375006733126
 30
0.0
 10
3.778640178496112
 20
2.773647235935464
 30
0.0
 10
3.778640178496112
 20
2.773647235935464
 30
0.0
  0
HATCH
  5
192
330
1F
100
AcDbEntity
  8
callout
 62
     7
420
 16777215
100
AcDbHatch
 10
0.0
 20
0.0
 30
0.0
210
0.0
220
0.0
230
1.0
  2
SOLID
 70
     1
 71
     0
 91
        2
 92
        1
 93
        1
 72
     4
 94
        3
 73
     0
 74
     1
 95
       20
 96
       16
 40
0.0
 40
0.0
 40
0.0
 40
0.0
 40
1.0
 40
1.0
 40
1.0
 40
2.0
 40
2.0
 40
2.0
 40
3.0
 40
3.0
 40
3.0
 40
4.0
 40
4.0
 40
4.0
 40
5.0
 40
5.0
 40
5.0
 40
5.0
 10
3.761519588803442
 20
2.948948927393442
 10
3.761519588803442
 20
2.948948927393442
 10
3.829993520013305
 20
2.98464401901928
 10
3.829993520013305
 20
2.98464401901928
 10
3.873943249399063
 20
3.007609122682134
 10
3.899744226678952
 20
2.979852792716088
 10
3.897894377091183
 20
2.918824767787467
 10
3.896411126396667
 20
2.871360589217008
 10
3.878098036855868
 20
2.801445545116457
 10
3.82258990788187
 20
2.772496873891126
 10
3.82258990788187
 20
2.772496873891126
 10
3.755059863477628
 20
2.737269669896389
 10
3.755059863477628
 20
2.737269669896389
 10
3.755059863477628
 20
2.737269669896389
 10
3.761519588803442
 20
2.948948927393442
 10
3.761519588803442
 20
2.948948927393442
 97
        0
 97
        0
 92
        1
 93
        1
 72
     4
 94
        3
 73
     0
 74
     1
 95
       20
 96
       16
 40
0.0
 40
0.0
 40
0.0
 40
0.0
 40
1.0
 40
1.0
 40
1.0
 40
2.0
 40
2.0
 40
2.0
 40
3.0
 40
3.0
 40
3.0
 40
4.0
 40
4.0
 40
4.0
 40
5.0
 40
5.0
 40
5.0
 40
5.0
 10
3.778640178496112
 20
2.773647235935464
 10
3.778640178496112
 20
2.773647235935464
 10
3.822876673414132
 20
2.796734538649225
 10
3.822876673414132
 20
2.796734538649225
 10
3.852503534814711
 20
2.81218647131056
 10
3.872666473943279
 20
2.851420980448703
 10
3.874271924268871
 20
2.904792878760456
 10
3.875919512398291
 20
2.958143396187286
 10
3.857197686160437
 20
2.974787828696751
 10
3.826167407426308
 20
2.958598484468553
 10
3.826167407426308
 20
2.958598484468553
 10
3.783620866907793
 20
2.936375006733126
 10
3.783620866907793
 20
2.936375006733126
 10
3.783620866907793
 20
2.936375006733126
 10
3.778640178496112
 20
2.773647235935464
 10
3.778640178496112
 20
2.773647235935464
 97
        0
 97
        0
 75
     2
 76
     1
 98
        0
  0
MTEXT
  5
193
330
1F
100
AcDbEntity
  8
callout
 62
   250
420
  2236191
100
AcDbMText
 10
1.579627619849311
 20
0.7696936925252278
 30
0.0
 40
0.118
 41
0.0
 46
0.0
 71
     7
 72
     1
  1
\fHelvetica Neue LT Std 55 Roman|b0|i0|c0|p34;\W1;SIMPSON Strong-Tie\H0.068794;®\H0.118; ^C
 73
     1
 44
1.0
  0
MTEXT
  5
194
330
1F
100
AcDbEntity
  8
callout
 62
   250
420
  2236191
100
AcDbMText
 10
1.033505386776394
 20
0.5697018305460612
 30
0.0
 40
0.118
 41
0.0
 46
0.0
 71
     7
 72
     1
  1
\fHelvetica Neue LT Std 55 Roman|b0|i0|c0|p34;\W1;A35/A35SS Stud-to-Plate Installation 
 73
     1
 44
1.0
  0
MTEXT
  5
195
330
1F
100
AcDbEntity
  8
callout
 62
   250
420
  2236191
100
AcDbMText
 10
0.9126155111524793
 20
1.528028779559665
 30
0.0
 40
0.118
 41
0.0
 46
0.0
 71
     7
 72
     1
  1
\fHelvetica Neue LT Std 57 Condensed|b0|i0|c0|p34;\W1;A35 / A35SS
 73
     1
 44
1.0
  0
POLYLINE
  5
196
330
1F
100
AcDbEntity
  8
callout
 62
   250
420
  2236191
370
    18
100
AcDb2dPolyline
 66
     1
 10
0.0
 20
0.0
 30
0.0
  0
VERTEX
  5
197
330
196
100
AcDbEntity
  8
callout
 62
   250
420
  2236191
370
    18
100
AcDbVertex
100
AcDb2dVertex
 10
1.288754480286773
 20
1.733248004462388
 30
0.0
  0
VERTEX
  5
198
330
196
100
AcDbEntity
  8
callout
 62
   250
420
  2236191
370
    18
100
AcDbVertex
100
AcDb2dVertex
 10
1.640975109981329
 20
2.16361357388943
 30
0.0
  0
SEQEND
  5
199
330
196
100
AcDbEntity
  8
callout
 62
   250
420
  2236191
370
    18
  0
MTEXT
  5
19A
330
1F
100
AcDbEntity
  8
callout
 62
   250
420
  2236191
100
AcDbMText
 10
0.549577448103163
 20
3.248435550265842
 30
0.0
 40
0.118
 41
0.0
 46
0.0
 71
     7
 72
     1
  1
\fHelvetica Neue LT Std 57 Condensed|b0|i0|c0|p34;\W1;Plate
 73
     1
 44
1.0
  0
MTEXT
  5
19B
330
1F
100
AcDbEntity
  8
callout
 62
   250
420
  2236191
100
AcDbMText
 10
0.549577448103163
 20
3.728722254435221
 30
0.0
 40
0.118
 41
0.0
 46
0.0
 71
     7
 72
     1
  1
\fHelvetica Neue LT Std 57 Condensed|b0|i0|c0|p34;\W1;Stud
 73
     1
 44
1.0
  0
POLYLINE
  5
19C
330
1F
100
AcDbEntity
  8
callout
 62
   250
420
  2236191
370
    18
100
AcDb2dPolyline
 66
     1
 10
0.0
 20
0.0
 30
0.0
  0
VERTEX
  5
19D
330
19C
100
AcDbEntity
  8
callout
 62
   250
420
  2236191
370
    18
100
AcDbVertex
100
AcDb2dVertex
 10
0.7643871551783327
 20
3.175070422756132
 30
0.0
  0
VERTEX
  5
19E
330
19C
100
AcDbEntity
  8
callout
 62
   250
420
  2236191
370
    18
100
AcDbVertex
100
AcDb2dVertex
 10
1.010976702508957
 20
2.866603558460686
 30
0.0
  0
SEQEND
  5
19F
330
19C
100
AcDbEntity
  8
callout
 62
   250
420
  2236191
370
    18
  0
POLYLINE
  5
1A0
330
1F
100
AcDbEntity
  8
callout
 62
   250
420
  2236191
370
    18
100
AcDb2dPolyline
 66
     1
 10
0.0
 20
0.0
 30
0.0
  0
VERTEX
  5
1A1
330
1A0
100
AcDbEntity
  8
callout
 62
   250
420
  2236191
370
    18
100
AcDbVertex
100
AcDb2dVertex
 10
0.9392921146953388
 20
3.75957498867164
 30
0.0
  0
VERTEX
  5
1A2
330
1A0
100
AcDbEntity
  8
callout
 62
   250
420
  2236191
370
    18
100
AcDbVertex
100
AcDb2dVertex
 10
1.485992391524014
 20
3.451108124376169
 30
0.0
  0
SEQEND
  5
1A3
330
1A0
100
AcDbEntity
  8
callout
 62
   250
420
  2236191
370
    18
  0
ENDSEC
  0
SECTION
  2
OBJECTS
  0
DICTIONARY
  5
C
330
0
100
AcDbDictionary
281
     1
  3
ACAD_GROUP
350
D
  3
ACAD_LAYOUT
350
1A
  3
ACAD_MATERIAL
350
3B
  3
ACAD_MLEADERSTYLE
350
1A5
  3
ACAD_MLINESTYLE
350
17
  3
ACAD_PLOTSETTINGS
350
19
  3
ACAD_PLOTSTYLENAME
350
E
  3
ACAD_TABLESTYLE
350
1A4
  3
ACAD_VISUALSTYLE
350
2A
  0
SUN
  5
3F
330
29
100
AcDbSun
 90
        1
290
     0
 63
     7
421
 16777215
 40
1.0
291
     1
 91
  2455826
 92
 54000000
292
     0
 70
     2
 71
   256
280
     1
  0
DICTIONARY
  5
D
102
{ACAD_REACTORS
330
C
102
}
330
C
100
AcDbDictionary
281
     1
  0
DICTIONARY
  5
1A
102
{ACAD_REACTORS
330
C
102
}
330
C
100
AcDbDictionary
281
     1
  3
Layout1
350
1E
  3
Layout2
350
26
  3
Model
350
22
  0
DICTIONARY
  5
3B
102
{ACAD_REACTORS
330
C
102
}
330
C
100
AcDbDictionary
281
     1
  3
ByBlock
350
3D
  3
ByLayer
350
3C
  3
Global
350
3E
  0
DICTIONARY
  5
1A5
102
{ACAD_REACTORS
330
C
102
}
330
C
100
AcDbDictionary
281
     1
  0
DICTIONARY
  5
17
102
{ACAD_REACTORS
330
C
102
}
330
C
100
AcDbDictionary
281
     1
  3
Standard
350
18
  0
DICTIONARY
  5
19
102
{ACAD_REACTORS
330
C
102
}
330
C
100
AcDbDictionary
281
     1
  0
ACDBDICTIONARYWDFLT
  5
E
102
{ACAD_REACTORS
330
C
102
}
330
C
100
AcDbDictionary
281
     1
  3
Normal
350
F
100
AcDbDictionaryWithDefault
340
F
  0
DICTIONARY
  5
1A4
102
{ACAD_REACTORS
330
C
102
}
330
C
100
AcDbDictionary
281
     1
  0
DICTIONARY
  5
2A
102
{ACAD_REACTORS
330
C
102
}
330
C
100
AcDbDictionary
281
     1
  3
2dWireframe
350
2F
  3
3D Hidden
350
31
  3
3dWireframe
350
30
  3
Basic
350
32
  3
Brighten
350
36
  3
ColorChange
350
3A
  3
Conceptual
350
34
  3
Dim
350
35
  3
Facepattern
350
39
  3
Flat
350
2B
  3
FlatWithEdges
350
2C
  3
Gouraud
350
2D
  3
GouraudWithEdges
350
2E
  3
Linepattern
350
38
  3
Realistic
350
33
  3
Thicken
350
37
  0
LAYOUT
  5
1E
102
{ACAD_REACTORS
330
1A
102
}
330
1A
100
AcDbPlotSettings
  1

  2
none_device
  4

  6

 40
0.0
 41
0.0
 42
0.0
 43
0.0
 44
0.0
 45
0.0
 46
0.0
 47
0.0
 48
0.0
 49
0.0
140
0.0
141
0.0
142
1.0
143
1.0
 70
   688
 72
     0
 73
     0
 74
     5
  7

 75
    16
 76
     0
 77
     2
 78
   300
147
1.0
148
0.0
149
0.0
100
AcDbLayout
  1
Layout1
 70
     1
 71
     1
 10
0.0
 20
0.0
 11
12.0
 21
9.0
 12
0.0
 22
0.0
 32
0.0
 14
1.000000000000000E+20
 24
1.000000000000000E+20
 34
1.000000000000000E+20
 15
-1.000000000000000E+20
 25
-1.000000000000000E+20
 35
-1.000000000000000E+20
146
0.0
 13
0.0
 23
0.0
 33
0.0
 16
1.0
 26
0.0
 36
0.0
 17
0.0
 27
1.0
 37
0.0
 76
     0
330
1B
  0
LAYOUT
  5
26
102
{ACAD_REACTORS
330
1A
102
}
330
1A
100
AcDbPlotSettings
  1

  2
none_device
  4

  6

 40
0.0
 41
0.0
 42
0.0
 43
0.0
 44
0.0
 45
0.0
 46
0.0
 47
0.0
 48
0.0
 49
0.0
140
0.0
141
0.0
142
1.0
143
1.0
 70
   688
 72
     0
 73
     0
 74
     5
  7

 75
    16
 76
     0
 77
     2
 78
   300
147
1.0
148
0.0
149
0.0
100
AcDbLayout
  1
Layout2
 70
     1
 71
     2
 10
0.0
 20
0.0
 11
0.0
 21
0.0
 12
0.0
 22
0.0
 32
0.0
 14
0.0
 24
0.0
 34
0.0
 15
0.0
 25
0.0
 35
0.0
146
0.0
 13
0.0
 23
0.0
 33
0.0
 16
1.0
 26
0.0
 36
0.0
 17
0.0
 27
1.0
 37
0.0
 76
     0
330
23
  0
LAYOUT
  5
22
102
{ACAD_REACTORS
330
1A
102
}
330
1A
100
AcDbPlotSettings
  1

  2
none_device
  4

  6

 40
0.0
 41
0.0
 42
0.0
 43
0.0
 44
0.0
 45
0.0
 46
0.0
 47
0.0
 48
0.0
 49
0.0
140
0.0
141
0.0
142
1.0
143
1.0
 70
  1712
 72
     0
 73
     0
 74
     0
  7

 75
     0
 76
     0
 77
     2
 78
   300
147
1.0
148
0.0
149
0.0
100
AcDbLayout
  1
Model
 70
     1
 71
     0
 10
0.0
 20
0.0
 11
12.0
 21
9.0
 12
0.0
 22
0.0
 32
0.0
 14
1.000000000000000E+20
 24
1.000000000000000E+20
 34
1.000000000000000E+20
 15
-1.000000000000000E+20
 25
-1.000000000000000E+20
 35
-1.000000000000000E+20
146
0.0
 13
0.0
 23
0.0
 33
0.0
 16
1.0
 26
0.0
 36
0.0
 17
0.0
 27
1.0
 37
0.0
 76
     0
330
1F
331
29
  0
MATERIAL
  5
3D
102
{ACAD_REACTORS
330
3B
102
}
330
3B
100
AcDbMaterial
  1
ByBlock
 72
     1
 94
      127
  0
MATERIAL
  5
3C
102
{ACAD_REACTORS
330
3B
102
}
330
3B
100
AcDbMaterial
  1
ByLayer
 72
     1
 94
      127
  0
MATERIAL
  5
3E
102
{ACAD_REACTORS
330
3B
102
}
330
3B
100
AcDbMaterial
  1
Global
 72
     1
 94
      127
  0
MLINESTYLE
  5
18
102
{ACAD_REACTORS
330
17
102
}
330
17
100
AcDbMlineStyle
  2
Standard
 70
     0
  3

 62
   256
 51
90.0
 52
90.0
 71
     2
 49
0.5
 62
   256
  6
BYLAYER
 49
-0.5
 62
   256
  6
BYLAYER
  0
ACDBPLACEHOLDER
  5
F
102
{ACAD_REACTORS
330
E
102
}
330
E
  0
VISUALSTYLE
  5
2F
102
{ACAD_REACTORS
330
2A
102
}
330
2A
100
AcDbVisualStyle
  2
2dWireframe
 70
     4
177
     2
291
     0
 71
     0
176
     1
 72
     2
176
     1
 73
     0
176
     1
 90
        0
176
     1
 40
-0.6
176
     1
 41
-30.0
176
     1
 62
     5
 63
     7
421
 16777215
176
     1
 74
     1
176
     1
 91
        4
176
     1
 64
     7
176
     1
 65
   257
176
     1
 75
     1
176
     1
175
     1
176
     1
 42
1.0
176
     1
 92
        0
176
     1
 66
   257
176
     1
 43
1.0
176
     1
 76
     1
176
     1
 77
     6
176
     1
 78
     2
176
     1
 67
     7
176
     1
 79
     5
176
     1
170
     0
176
     1
171
     0
176
     1
290
     0
176
     1
 93
        1
176
     1
 44
0.0
176
     1
173
     0
176
     1
  0
VISUALSTYLE
  5
31
102
{ACAD_REACTORS
330
2A
102
}
330
2A
100
AcDbVisualStyle
  2
3D Hidden
 70
     6
177
     2
291
     0
 71
     1
176
     1
 72
     2
176
     1
 73
     2
176
     1
 90
        0
176
     1
 40
-0.6
176
     1
 41
-30.0
176
     1
 62
     5
 63
     7
421
 16777215
176
     1
 74
     2
176
     1
 91
        2
176
     1
 64
     7
176
     1
 65
   257
176
     1
 75
     2
176
     1
175
     1
176
     1
 42
40.0
176
     1
 92
        0
176
     1
 66
   257
176
     1
 43
1.0
176
     1
 76
     1
176
     1
 77
     6
176
     1
 78
     2
176
     1
 67
     7
176
     1
 79
     3
176
     1
170
     0
176
     1
171
     0
176
     1
290
     0
176
     1
 93
        1
176
     1
 44
0.0
176
     1
173
     0
176
     1
  0
VISUALSTYLE
  5
30
102
{ACAD_REACTORS
330
2A
102
}
330
2A
100
AcDbVisualStyle
  2
3dWireframe
 70
     5
177
     2
291
     0
 71
     0
176
     1
 72
     2
176
     1
 73
     0
176
     1
 90
        0
176
     1
 40
-0.6
176
     1
 41
-30.0
176
     1
 62
     5
 63
     7
421
 16777215
176
     1
 74
     1
176
     1
 91
        4
176
     1
 64
     7
176
     1
 65
   257
176
     1
 75
     1
176
     1
175
     1
176
     1
 42
1.0
176
     1
 92
        0
176
     1
 66
   257
176
     1
 43
1.0
176
     1
 76
     1
176
     1
 77
     6
176
     1
 78
     2
176
     1
 67
     7
176
     1
 79
     5
176
     1
170
     0
176
     1
171
     0
176
     1
290
     0
176
     1
 93
        1
176
     1
 44
0.0
176
     1
173
     0
176
     1
  0
VISUALSTYLE
  5
32
102
{ACAD_REACTORS
330
2A
102
}
330
2A
100
AcDbVisualStyle
  2
Basic
 70
     7
177
     2
291
     1
 71
     1
176
     1
 72
     0
176
     1
 73
     1
176
     1
 90
        0
176
     1
 40
-0.6
176
     1
 41
-30.0
176
     1
 62
     5
 63
     7
421
 16777215
176
     1
 74
     0
176
     1
 91
        4
176
     1
 64
     7
176
     1
 65
   257
176
     1
 75
     1
176
     1
175
     1
176
     1
 42
1.0
176
     1
 92
        8
176
     1
 66
     7
176
     1
 43
1.0
176
     1
 76
     1
176
     1
 77
     6
176
     1
 78
     2
176
     1
 67
     7
176
     1
 79
     5
176
     1
170
     0
176
     1
171
     0
176
     1
290
     0
176
     1
 93
        1
176
     1
 44
0.0
176
     1
173
     0
176
     1
  0
VISUALSTYLE
  5
36
102
{ACAD_REACTORS
330
2A
102
}
330
2A
100
AcDbVisualStyle
  2
Brighten
 70
    12
177
     2
291
     1
 71
     2
176
     1
 72
     2
176
     1
 73
     0
176
     1
 90
        0
176
     1
 40
-0.6
176
     1
 41
-30.0
176
     1
 62
     5
 63
     7
421
 16777215
176
     1
 74
     1
176
     1
 91
        4
176
     1
 64
     7
176
     1
 65
   257
176
     1
 75
     1
176
     1
175
     1
176
     1
 42
1.0
176
     1
 92
        8
176
     1
 66
     7
176
     1
 43
1.0
176
     1
 76
     1
176
     1
 77
     6
176
     1
 78
     2
176
     1
 67
     7
176
     1
 79
     5
176
     1
170
     0
176
     1
171
     0
176
     1
290
     0
176
     1
 93
        1
176
     1
 44
50.0
176
     1
173
     0
176
     1
  0
VISUALSTYLE
  5
3A
102
{ACAD_REACTORS
330
2A
102
}
330
2A
100
AcDbVisualStyle
  2
ColorChange
 70
    16
177
     2
291
     1
 71
     2
176
     1
 72
     2
176
     1
 73
     3
176
     1
 90
        0
176
     1
 40
-0.6
176
     1
 41
-30.0
176
     1
 62
     5
 63
     8
421
  8421504
176
     1
 74
     1
176
     1
 91
        4
176
     1
 64
     7
176
     1
 65
   257
176
     1
 75
     1
176
     1
175
     1
176
     1
 42
1.0
176
     1
 92
        8
176
     1
 66
     8
424
  8421504
176
     1
 43
1.0
176
     1
 76
     1
176
     1
 77
     6
176
     1
 78
     2
176
     1
 67
     7
176
     1
 79
     5
176
     1
170
     0
176
     1
171
     0
176
     1
290
     0
176
     1
 93
        1
176
     1
 44
0.0
176
     1
173
     0
176
     1
  0
VISUALSTYLE
  5
34
102
{ACAD_REACTORS
330
2A
102
}
330
2A
100
AcDbVisualStyle
  2
Conceptual
 70
     9
177
     2
291
     0
 71
     3
176
     1
 72
     2
176
     1
 73
     0
176
     1
 90
        0
176
     1
 40
-0.6
176
     1
 41
-30.0
176
     1
 62
     5
 63
     7
421
 16777215
176
     1
 74
     2
176
     1
 91
        2
176
     1
 64
     7
176
     1
 65
   257
176
     1
 75
     1
176
     1
175
     1
176
     1
 42
40.0
176
     1
 92
        8
176
     1
 66
     7
176
     1
 43
1.0
176
     1
 76
     1
176
     1
 77
     6
176
     1
 78
     2
176
     1
 67
     7
176
     1
 79
     3
176
     1
170
     0
176
     1
171
     0
176
     1
290
     0
176
     1
 93
        1
176
     1
 44
0.0
176
     1
173
     0
176
     1
  0
VISUALSTYLE
  5
35
102
{ACAD_REACTORS
330
2A
102
}
330
2A
100
AcDbVisualStyle
  2
Dim
 70
    11
177
     2
291
     1
 71
     2
176
     1
 72
     2
176
     1
 73
     0
176
     1
 90
        0
176
     1
 40
-0.6
176
     1
 41
-30.0
176
     1
 62
     5
 63
     7
421
 16777215
176
     1
 74
     1
176
     1
 91
        4
176
     1
 64
     7
176
     1
 65
   257
176
     1
 75
     1
176
     1
175
     1
176
     1
 42
1.0
176
     1
 92
        8
176
     1
 66
     7
176
     1
 43
1.0
176
     1
 76
     1
176
     1
 77
     6
176
     1
 78
     2
176
     1
 67
     7
176
     1
 79
     5
176
     1
170
     0
176
     1
171
     0
176
     1
290
     0
176
     1
 93
        1
176
     1
 44
-50.0
176
     1
173
     0
176
     1
  0
VISUALSTYLE
  5
39
102
{ACAD_REACTORS
330
2A
102
}
330
2A
100
AcDbVisualStyle
  2
Facepattern
 70
    15
177
     2
291
     1
 71
     2
176
     1
 72
     2
176
     1
 73
     0
176
     1
 90
        0
176
     1
 40
-0.6
176
     1
 41
-30.0
176
     1
 62
     5
 63
     7
421
 16777215
176
     1
 74
     1
176
     1
 91
        4
176
     1
 64
     7
176
     1
 65
   257
176
     1
 75
     1
176
     1
175
     1
176
     1
 42
1.0
176
     1
 92
        8
176
     1
 66
     7
176
     1
 43
1.0
176
     1
 76
     1
176
     1
 77
     6
176
     1
 78
     2
176
     1
 67
     7
176
     1
 79
     5
176
     1
170
     0
176
     1
171
     0
176
     1
290
     0
176
     1
 93
        1
176
     1
 44
0.0
176
     1
173
     0
176
     1
  0
VISUALSTYLE
  5
2B
102
{ACAD_REACTORS
330
2A
102
}
330
2A
100
AcDbVisualStyle
  2
Flat
 70
     0
177
     2
291
     1
 71
     2
176
     1
 72
     1
176
     1
 73
     1
176
     1
 90
        2
176
     1
 40
-0.6
176
     1
 41
30.0
176
     1
 62
     5
 63
     7
421
 16777215
176
     1
 74
     0
176
     1
 91
        4
176
     1
 64
     7
176
     1
 65
   257
176
     1
 75
     1
176
     1
175
     1
176
     1
 42
1.0
176
     1
 92
        8
176
     1
 66
     7
176
     1
 43
1.0
176
     1
 76
     1
176
     1
 77
     6
176
     1
 78
     2
176
     1
 67
     7
176
     1
 79
     5
176
     1
170
     0
176
     1
171
     0
176
     1
290
     0
176
     1
 93
       13
176
     1
 44
0.0
176
     1
173
     0
176
     1
  0
VISUALSTYLE
  5
2C
102
{ACAD_REACTORS
330
2A
102
}
330
2A
100
AcDbVisualStyle
  2
FlatWithEdges
 70
     1
177
     2
291
     1
 71
     2
176
     1
 72
     1
176
     1
 73
     1
176
     1
 90
        2
176
     1
 40
-0.6
176
     1
 41
30.0
176
     1
 62
     5
 63
     7
421
 16777215
176
     1
 74
     1
176
     1
 91
        4
176
     1
 64
     7
176
     1
 65
   257
176
     1
 75
     1
176
     1
175
     1
176
     1
 42
1.0
176
     1
 92
        0
176
     1
 66
   257
176
     1
 43
1.0
176
     1
 76
     1
176
     1
 77
     6
176
     1
 78
     2
176
     1
 67
     7
176
     1
 79
     5
176
     1
170
     0
176
     1
171
     0
176
     1
290
     0
176
     1
 93
       13
176
     1
 44
0.0
176
     1
173
     0
176
     1
  0
VISUALSTYLE
  5
2D
102
{ACAD_REACTORS
330
2A
102
}
330
2A
100
AcDbVisualStyle
  2
Gouraud
 70
     2
177
     2
291
     1
 71
     2
176
     1
 72
     2
176
     1
 73
     1
176
     1
 90
        2
176
     1
 40
-0.6
176
     1
 41
30.0
176
     1
 62
     5
 63
     7
421
 16777215
176
     1
 74
     0
176
     1
 91
        4
176
     1
 64
     7
176
     1
 65
   257
176
     1
 75
     1
176
     1
175
     1
176
     1
 42
1.0
176
     1
 92
        0
176
     1
 66
     7
176
     1
 43
1.0
176
     1
 76
     1
176
     1
 77
     6
176
     1
 78
     2
176
     1
 67
     7
176
     1
 79
     5
176
     1
170
     0
176
     1
171
     0
176
     1
290
     0
176
     1
 93
       13
176
     1
 44
0.0
176
     1
173
     0
176
     1
  0
VISUALSTYLE
  5
2E
102
{ACAD_REACTORS
330
2A
102
}
330
2A
100
AcDbVisualStyle
  2
GouraudWithEdges
 70
     3
177
     2
291
     1
 71
     2
176
     1
 72
     2
176
     1
 73
     1
176
     1
 90
        2
176
     1
 40
-0.6
176
     1
 41
30.0
176
     1
 62
     5
 63
     7
421
 16777215
176
     1
 74
     1
176
     1
 91
        4
176
     1
 64
     7
176
     1
 65
   257
176
     1
 75
     1
176
     1
175
     1
176
     1
 42
1.0
176
     1
 92
        0
176
     1
 66
   257
176
     1
 43
1.0
176
     1
 76
     1
176
     1
 77
     6
176
     1
 78
     2
176
     1
 67
     7
176
     1
 79
     5
176
     1
170
     0
176
     1
171
     0
176
     1
290
     0
176
     1
 93
       13
176
     1
 44
0.0
176
     1
173
     0
176
     1
  0
VISUALSTYLE
  5
38
102
{ACAD_REACTORS
330
2A
102
}
330
2A
100
AcDbVisualStyle
  2
Linepattern
 70
    14
177
     2
291
     1
 71
     2
176
     1
 72
     2
176
     1
 73
     0
176
     1
 90
        0
176
     1
 40
-0.6
176
     1
 41
-30.0
176
     1
 62
     5
 63
     7
421
 16777215
176
     1
 74
     1
176
     1
 91
        4
176
     1
 64
     7
176
     1
 65
   257
176
     1
 75
     7
176
     1
175
     7
176
     1
 42
1.0
176
     1
 92
        8
176
     1
 66
     7
176
     1
 43
1.0
176
     1
 76
     1
176
     1
 77
     6
176
     1
 78
     2
176
     1
 67
     7
176
     1
 79
     5
176
     1
170
     0
176
     1
171
     0
176
     1
290
     0
176
     1
 93
        1
176
     1
 44
0.0
176
     1
173
     0
176
     1
  0
VISUALSTYLE
  5
33
102
{ACAD_REACTORS
330
2A
102
}
330
2A
100
AcDbVisualStyle
  2
Realistic
 70
     8
177
     2
291
     0
 71
     2
176
     1
 72
     2
176
     1
 73
     0
176
     1
 90
        0
176
     1
 40
-0.6
176
     1
 41
-30.0
176
     1
 62
     5
 63
     7
421
 16777215
176
     1
 74
     1
176
     1
 91
        0
176
     1
 64
     7
176
     1
 65
   257
176
     1
 75
     1
176
     1
175
     1
176
     1
 42
1.0
176
     1
 92
        8
176
     1
 66
     8
424
  7895160
176
     1
 43
1.0
176
     1
 76
     1
176
     1
 77
     6
176
     1
 78
     2
176
     1
 67
     7
176
     1
 79
     5
176
     1
170
     0
176
     1
171
     0
176
     1
290
     0
176
     1
 93
       13
176
     1
 44
0.0
176
     1
173
     0
176
     1
  0
VISUALSTYLE
  5
37
102
{ACAD_REACTORS
330
2A
102
}
330
2A
100
AcDbVisualStyle
  2
Thicken
 70
    13
177
     2
291
     1
 71
     2
176
     1
 72
     2
176
     1
 73
     0
176
     1
 90
        0
176
     1
 40
-0.6
176
     1
 41
-30.0
176
     1
 62
     5
 63
     7
421
 16777215
176
     1
 74
     1
176
     1
 91
        4
176
     1
 64
     7
176
     1
 65
   257
176
     1
 75
     1
176
     1
175
     1
176
     1
 42
1.0
176
     1
 92
       12
176
     1
 66
     7
176
     1
 43
1.0
176
     1
 76
     1
176
     1
 77
     6
176
     1
 78
     2
176
     1
 67
     7
176
     1
 79
     5
176
     1
170
     0
176
     1
171
     0
176
     1
290
     0
176
     1
 93
        1
176
     1
 44
0.0
176
     1
173
     0
176
     1
  0
ENDSEC
  0
EOF
